  0
SECTION
  2
HEADER
  0
ENDSEC
  0
SECTION
  2
TABLES
  0
TABLE
  2
LTYPE
 70
     4
  0
LTYPE
  2
CONTINUOUS
 70
    64
  3
Solid line
 72
    65
 73
     0
 40
0.000000
  0
LTYPE
  2
DASHED
 70
    64
  3
__ __ __ __ __ __ __ __ __ __ __ __ __ __ __
 72
    65
 73
     2
 40
3.500000
 49
2.000000
 49
-1.500000
  0
LTYPE
  2
CENTER
 70
    64
  3
____ _ ____ _ ____ _ ____ _ ____ _ ____ _ ____
 72
    65
 73
     4
 40
17.500000
 49
13.000000
 49
-1.500000
 49
1.500000
 49
-1.500000
  0
LTYPE
  2
PHANTOM
 70
    64
  3
_____ _ _ _____ _ _ _____ _ _ _____ _ _ ____  
 72
    65
 73
     6
 40
15.500000
 49
8.000000
 49
-1.500000
 49
1.500000
 49
-1.500000
 49
1.500000
 49
-1.500000
  0
LTYPE
  2
DASHED1
 70
    64
  3
__ __ __ __ __ __ __ __ __ __ __ __ __ __ __
 72
    65
 73
     2
 40
1.500000
 49
1.000000
 49
-0.500000
  0
LTYPE
  2
DASHED2
 70
    64
  3
__ __ __ __ __ __ __ __ __ __ __ __ __ __ __
 72
    65
 73
     2
 40
3.500000
 49
2.500000
 49
-1.000000
  0
LTYPE
  2
DASHED3
 70
    64
  3
__ __ __ __ __ __ __ __ __ __ __ __ __ __ __
 72
    65
 73
     2
 40
6.000000
 49
4.000000
 49
-2.000000
  0
LTYPE
  2
DASHED4
 70
    64
  3
__ __ __ __ __ __ __ __ __ __ __ __ __ __ __
 72
    65
 73
     2
 40
12.000000
 49
10.000000
 49
-2.000000
  0
LTYPE
  2
DASHED5
 70
    64
  3
__ __ __ __ __ __ __ __ __ __ __ __ __ __ __
 72
    65
 73
     2
 40
17.000000
 49
15.000000
 49
-2.000000
  0
LTYPE
  2
DASHED6
 70
    64
  3
__ __ __ __ __ __ __ __ __ __ __ __ __ __ __
 72
    65
 73
     2
 40
29.000000
 49
27.000000
 49
-2.000000
  0
LTYPE
  2
PHANTOM1
 70
    64
  3
_____ _ _ _____ _ _ _____ _ _ _____ _ _ ____  
 72
    65
 73
     6
 40
31.000000
 49
25.000000
 49
-1.500000
 49
1.000000
 49
-1.000000
 49
1.000000
 49
-1.500000
  0
LTYPE
  2
PHANTOM2
 70
    64
  3
_____ _ _ _____ _ _ _____ _ _ _____ _ _ ____  
 72
    65
 73
     6
 40
36.000000
 49
27.000000
 49
-1.500000
 49
2.500000
 49
-1.000000
 49
2.500000
 49
-1.500000
  0
LTYPE
  2
PHANTOM3
 70
    64
  3
_____ _ _ _____ _ _ _____ _ _ _____ _ _ ____  
 72
    65
 73
     6
 40
78.000000
 49
64.000000
 49
-2.000000
 49
4.000000
 49
-2.000000
 49
4.000000
 49
-2.000000
  0
LTYPE
  2
CENTER1
 70
    64
  3
____ _ ____ _ ____ _ ____ _ ____ _ ____ _ ____
 72
    65
 73
     4
 40
19.000000
 49
14.000000
 49
-1.000000
 49
3.000000
 49
-1.000000
  0
LTYPE
  2
CENTER2
 70
    64
  3
____ _ ____ _ ____ _ ____ _ ____ _ ____ _ ____
 72
    65
 73
     4
 40
28.500000
 49
25.000000
 49
-1.000000
 49
1.500000
 49
-1.000000
  0
LTYPE
  2
CENTER3
 70
    64
  3
____ _ ____ _ ____ _ ____ _ ____ _ ____ _ ____
 72
    65
 73
     4
 40
31.500000
 49
27.000000
 49
-1.000000
 49
2.500000
 49
-1.000000
  0
LTYPE
  2
CENTER4
 70
    64
  3
____ _ ____ _ ____ _ ____ _ ____ _ ____ _ ____
 72
    65
 73
     4
 40
50.000000
 49
45.000000
 49
-1.000000
 49
3.000000
 49
-1.000000
  0
LTYPE
  2
CENTER5
 70
    64
  3
____ _ ____ _ ____ _ ____ _ ____ _ ____ _ ____
 72
    65
 73
     4
 40
100.000000
 49
92.000000
 49
-2.000000
 49
4.000000
 49
-2.000000
  0
LTYPE
  2
SBK1
 70
    64
  3
______ _ _ _ ______ _ _ _ ______ _ _ _ _____  
 72
    65
 73
     8
 40
60.500000
 49
45.000000
 49
-2.000000
 49
2.500000
 49
-2.000000
 49
2.500000
 49
-2.000000
 49
2.500000
 49
-2.000000
  0
LTYPE
  2
SBK2
 70
    64
  3
______ _ _ _ ______ _ _ _ ______ _ _ _ _____  
 72
    65
 73
     8
 40
84.000000
 49
64.000000
 49
-2.000000
 49
4.000000
 49
-2.000000
 49
4.000000
 49
-2.000000
 49
4.000000
 49
-2.000000
  0
LTYPE
  2
STCH
 70
    64
  3
__ __ __ __ __ __ __ __ __ __ __ __ __ __ __
 72
    65
 73
     2
 40
3.000000
 49
1.000000
 49
-2.000000
  0
LTYPE
  2
MTCH
 70
    64
  3
_____ _ _ _____ _ _ _____ _ _ _____ _ _ ____  
 72
    65
 73
     6
 40
80.000000
 49
66.000000
 49
-2.000000
 49
4.000000
 49
-2.000000
 49
4.000000
 49
-2.000000
  0
ENDTAB
  0
TABLE
  2
LAYER
 70
     1
  0
LAYER
  2
0
 70
     0
 62
     7
  6
CONTINUOUS
  0
ENDTAB
  0
TABLE
  2
STYLE
 70
     1
  0
STYLE
  2
STANDARD
 70
     0
 40
0.000000
 41
1.000000
 50
0.000000
 71
     0
 42
0.200000
  3
txt
  4
BIGFONT
  0
ENDTAB
  0
TABLE
  2
VIEW
 70
     0
  0
ENDTAB
  0
ENDSEC
  0
SECTION
  2
BLOCKS
  0
ENDSEC
  0
SECTION
  2
ENTITIES
  0
LINE
  8
0
 62
     4
 10
-5.083344
 20
57.833328
 11
-2.583344
 21
57.833328
  0
LINE
  8
0
 62
     4
 10
-5.083344
 20
54.833328
 11
-2.583344
 21
54.833328
  0
LINE
  8
0
 62
     4
 10
-8.103333
 20
42.545731
 11
0.436676
 21
42.545731
  0
LINE
  8
0
 62
     4
 10
-8.603348
 20
59.333328
 11
-8.603348
 21
43.045731
  0
LINE
  8
0
 62
     4
 10
0.936661
 20
59.333328
 11
0.936661
 21
43.045731
  0
LINE
  8
0
 62
     4
 10
-8.333328
 20
59.833328
 11
0.666672
 21
59.833328
  0
LINE
  8
0
 10
-8.833344
 20
41.333328
 11
1.166656
 21
41.333328
  0
LINE
  8
0
  6
CENTER
 62
     1
 10
-0.529373
 20
62.983994
 11
-0.529373
 21
60.463623
  0
LINE
  8
0
  6
CENTER
 62
     1
 10
-7.137299
 20
62.983994
 11
-7.137299
 21
60.349060
  0
LINE
  8
0
 62
     4
 10
-6.237305
 20
62.233337
 11
-8.037308
 21
62.233337
  0
LINE
  8
0
 62
     4
 10
-2.529373
 20
61.833328
 11
-2.529373
 21
61.633331
  0
LINE
  8
0
 62
     4
 10
-2.529373
 20
61.633331
 11
1.070618
 21
61.633331
  0
LINE
  8
0
 62
     4
 10
-1.429382
 20
62.233337
 11
0.370636
 21
62.233337
  0
LINE
  8
0
 62
     4
 10
-8.333344
 20
61.833328
 11
-1.995071
 21
61.833328
  0
LINE
  8
0
 62
     4
 10
-8.833344
 20
60.833328
 11
1.166656
 21
60.833328
  0
LINE
  8
0
 62
     4
 10
-8.833344
 20
61.333328
 11
-8.833344
 21
41.333328
  0
LINE
  8
0
 62
     4
 10
1.166656
 20
61.333328
 11
1.166656
 21
41.333328
  0
LINE
  8
0
 10
-8.333344
 20
41.333328
 11
0.666656
 21
41.333328
  0
LINE
  8
0
 10
-4.633347
 20
19.333328
 11
-4.633347
 21
18.333328
  0
LINE
  8
0
  6
CENTER
 62
     2
 10
-7.133347
 20
20.794006
 11
-7.133347
 21
17.730057
  0
LINE
  8
0
 10
-4.633347
 20
19.333328
 11
-8.833344
 21
19.333328
  0
LINE
  8
0
  6
CENTER
 62
     2
 10
-9.091835
 20
36.333328
 11
-4.833344
 21
36.333328
  0
LINE
  8
0
  6
CENTER
 62
     2
 10
-3.833344
 20
63.577942
 11
-3.833344
 21
16.275497
  0
LINE
  8
0
  6
CENTER
 62
     2
 10
-6.833344
 20
39.033325
 11
-0.833344
 21
39.033325
  0
LINE
  8
0
 10
-5.833273
 20
37.878761
 11
-3.833272
 21
36.724060
  0
LINE
  8
0
 10
-3.833327
 20
41.342876
 11
-1.833324
 21
40.188171
  0
LINE
  8
0
 10
-3.833280
 20
36.723850
 11
-1.833292
 21
37.878544
  0
LINE
  8
0
 10
-5.833275
 20
40.188004
 11
-3.833287
 21
41.342697
  0
LINE
  8
0
 10
-1.833344
 20
40.188034
 11
-1.833344
 21
37.878632
  0
LINE
  8
0
 10
-5.833344
 20
40.188034
 11
-5.833344
 21
37.878632
  0
LINE
  8
0
 10
-8.833344
 20
18.333328
 11
1.166656
 21
18.333328
  0
LINE
  8
0
 10
-8.833344
 20
21.333328
 11
1.166656
 21
21.333328
  0
LINE
  8
0
 10
-8.833344
 20
41.333328
 11
-8.833344
 21
18.333328
  0
LINE
  8
0
 10
1.166656
 20
41.333328
 11
1.166656
 21
18.333328
  0
LINE
  8
0
 10
-15.833344
 20
18.333328
 11
48.966644
 21
18.333328
  0
LINE
  8
0
 10
-15.833344
 20
47.333328
 11
-8.833344
 21
47.333328
  0
LINE
  8
0
 10
-15.833344
 20
47.333328
 11
-15.833344
 21
18.333328
  0
LINE
  8
0
 10
48.966644
 20
47.333328
 11
48.966644
 21
18.333328
  0
LINE
  8
0
  6
CENTER
 62
     2
 10
-9.833344
 20
33.833328
 11
-14.833344
 21
33.833328
  0
LINE
  8
0
  6
CENTER
 62
     2
 10
-12.333344
 20
36.333328
 11
-12.333344
 21
31.333328
  0
LINE
  8
0
  6
CENTER
 62
     2
 10
47.966644
 20
33.833328
 11
42.966644
 21
33.833328
  0
LINE
  8
0
  6
CENTER
 62
     2
 10
45.466644
 20
36.333328
 11
45.466644
 21
31.333328
  0
LINE
  8
0
 62
     4
 10
41.966644
 20
46.333328
 11
41.966644
 21
21.333328
  0
LINE
  8
0
 62
     4
 10
31.966644
 20
46.333328
 11
31.966644
 21
21.333328
  0
LINE
  8
0
 62
     4
 10
31.966644
 20
21.333328
 11
41.966644
 21
21.333328
  0
LINE
  8
0
 62
     4
 10
31.966644
 20
46.333328
 11
41.966644
 21
46.333328
  0
LINE
  8
0
 10
31.966644
 20
47.333328
 11
48.966644
 21
47.333328
  0
LINE
  8
0
 10
5.566650
 20
19.333328
 11
5.566650
 21
18.333328
  0
LINE
  8
0
  6
CENTER
 62
     2
 10
3.066653
 20
20.794006
 11
3.066653
 21
17.730057
  0
LINE
  8
0
  6
CENTER
 62
     2
 10
6.366653
 20
63.577942
 11
6.366653
 21
16.275497
  0
LINE
  8
0
 10
1.366656
 20
41.333328
 11
1.366656
 21
18.333328
  0
LINE
  8
0
 10
11.366653
 20
41.333328
 11
11.366653
 21
18.333328
  0
LINE
  8
0
 10
1.366656
 20
21.333328
 11
11.366653
 21
21.333328
  0
LINE
  8
0
 10
4.366653
 20
40.188034
 11
4.366653
 21
37.878632
  0
LINE
  8
0
 10
8.366653
 20
40.188034
 11
8.366653
 21
37.878632
  0
LINE
  8
0
 10
4.366719
 20
40.188000
 11
6.366707
 21
41.342693
  0
LINE
  8
0
 10
6.366713
 20
36.723846
 11
8.366701
 21
37.878540
  0
LINE
  8
0
 10
6.366675
 20
41.342876
 11
8.366677
 21
40.188175
  0
LINE
  8
0
 10
4.366727
 20
37.878765
 11
6.366729
 21
36.724064
  0
LINE
  8
0
  6
CENTER
 62
     2
 10
3.366656
 20
39.033325
 11
9.366653
 21
39.033325
  0
LINE
  8
0
 10
5.566650
 20
19.333328
 11
1.366656
 21
19.333328
  0
LINE
  8
0
 10
1.866656
 20
41.333328
 11
10.866653
 21
41.333328
  0
LINE
  8
0
 62
     4
 10
11.366653
 20
61.333328
 11
11.366653
 21
41.333328
  0
LINE
  8
0
 62
     4
 10
1.366656
 20
61.333328
 11
1.366656
 21
41.333328
  0
LINE
  8
0
 62
     4
 10
1.366656
 20
60.833328
 11
11.366653
 21
60.833328
  0
LINE
  8
0
 62
     4
 10
1.866656
 20
61.833328
 11
8.204926
 21
61.833328
  0
LINE
  8
0
 62
     4
 10
8.770615
 20
62.233337
 11
10.570633
 21
62.233337
  0
LINE
  8
0
 62
     4
 10
7.670624
 20
61.633331
 11
11.270615
 21
61.633331
  0
LINE
  8
0
 62
     4
 10
7.670624
 20
61.833328
 11
7.670624
 21
61.633331
  0
LINE
  8
0
 62
     4
 10
3.962692
 20
62.233337
 11
2.162692
 21
62.233337
  0
LINE
  8
0
  6
CENTER
 62
     1
 10
3.062701
 20
62.983994
 11
3.062701
 21
60.349060
  0
LINE
  8
0
  6
CENTER
 62
     1
 10
9.670624
 20
62.983994
 11
9.670624
 21
60.463623
  0
LINE
  8
0
 10
1.366656
 20
41.333328
 11
11.366653
 21
41.333328
  0
LINE
  8
0
 62
     4
 10
1.866672
 20
59.833328
 11
10.866669
 21
59.833328
  0
LINE
  8
0
 62
     4
 10
11.136658
 20
59.333328
 11
11.136658
 21
43.045731
  0
LINE
  8
0
 62
     4
 10
1.596652
 20
59.333328
 11
1.596652
 21
43.045731
  0
LINE
  8
0
 62
     4
 10
2.096667
 20
42.545731
 11
10.636673
 21
42.545731
  0
LINE
  8
0
 62
     4
 10
5.116653
 20
54.833328
 11
7.616653
 21
54.833328
  0
LINE
  8
0
 62
     4
 10
5.116653
 20
57.833328
 11
7.616653
 21
57.833328
  0
LINE
  8
0
 10
15.766647
 20
19.333328
 11
15.766647
 21
18.333328
  0
LINE
  8
0
  6
CENTER
 62
     2
 10
13.266647
 20
20.794006
 11
13.266647
 21
17.730057
  0
LINE
  8
0
  6
CENTER
 62
     2
 10
10.566650
 20
36.333328
 11
15.566650
 21
36.333328
  0
LINE
  8
0
  6
CENTER
 62
     2
 10
16.566650
 20
63.577942
 11
16.566650
 21
16.275497
  0
LINE
  8
0
 10
11.566650
 20
41.333328
 11
11.566650
 21
18.333328
  0
LINE
  8
0
 10
21.566650
 20
41.333328
 11
21.566650
 21
18.333328
  0
LINE
  8
0
 10
11.566650
 20
21.333328
 11
21.566650
 21
21.333328
  0
LINE
  8
0
 10
14.566650
 20
40.188034
 11
14.566650
 21
37.878632
  0
LINE
  8
0
 10
18.566650
 20
40.188034
 11
18.566650
 21
37.878632
  0
LINE
  8
0
 10
14.566724
 20
40.188004
 11
16.566711
 21
41.342697
  0
LINE
  8
0
 10
16.566721
 20
36.723846
 11
18.566710
 21
37.878540
  0
LINE
  8
0
 10
16.566671
 20
41.342873
 11
18.566671
 21
40.188171
  0
LINE
  8
0
 10
14.566719
 20
37.878765
 11
16.566721
 21
36.724060
  0
LINE
  8
0
  6
CENTER
 62
     2
 10
13.566650
 20
39.033325
 11
19.566650
 21
39.033325
  0
LINE
  8
0
  6
CENTER
 62
     2
 10
17.566650
 20
36.333328
 11
22.566650
 21
36.333328
  0
LINE
  8
0
  6
CENTER
 62
     2
 10
13.066650
 20
38.833328
 11
13.066650
 21
33.833328
  0
LINE
  8
0
  6
CENTER
 62
     2
 10
20.066650
 20
38.833328
 11
20.066650
 21
33.833328
  0
LINE
  8
0
 10
15.766647
 20
19.333328
 11
11.566650
 21
19.333328
  0
LINE
  8
0
 10
12.066650
 20
41.333328
 11
21.066650
 21
41.333328
  0
LINE
  8
0
 62
     4
 10
21.566650
 20
61.333328
 11
21.566650
 21
41.333328
  0
LINE
  8
0
 62
     4
 10
11.566650
 20
61.333328
 11
11.566650
 21
41.333328
  0
LINE
  8
0
 62
     4
 10
11.566650
 20
60.833328
 11
21.566650
 21
60.833328
  0
LINE
  8
0
 62
     4
 10
12.066650
 20
61.833328
 11
18.404922
 21
61.833328
  0
LINE
  8
0
 62
     4
 10
18.970612
 20
62.233337
 11
20.770630
 21
62.233337
  0
LINE
  8
0
 62
     4
 10
17.870621
 20
61.633331
 11
21.470612
 21
61.633331
  0
LINE
  8
0
 62
     4
 10
17.870621
 20
61.833328
 11
17.870621
 21
61.633331
  0
LINE
  8
0
 62
     4
 10
14.162689
 20
62.233337
 11
12.362686
 21
62.233337
  0
LINE
  8
0
  6
CENTER
 62
     1
 10
13.262695
 20
62.983994
 11
13.262695
 21
60.349060
  0
LINE
  8
0
  6
CENTER
 62
     1
 10
19.870621
 20
62.983994
 11
19.870621
 21
60.463623
  0
LINE
  8
0
 10
11.566650
 20
41.333328
 11
21.566650
 21
41.333328
  0
LINE
  8
0
 62
     4
 10
12.066666
 20
59.833328
 11
21.066666
 21
59.833328
  0
LINE
  8
0
 62
     4
 10
21.336655
 20
59.333328
 11
21.336655
 21
43.045731
  0
LINE
  8
0
 62
     4
 10
11.796646
 20
59.333328
 11
11.796646
 21
43.045731
  0
LINE
  8
0
 62
     4
 10
12.296661
 20
42.545731
 11
20.836670
 21
42.545731
  0
LINE
  8
0
 62
     4
 10
15.316650
 20
54.833328
 11
17.816650
 21
54.833328
  0
LINE
  8
0
 62
     4
 10
15.316650
 20
57.833328
 11
17.816650
 21
57.833328
  0
LINE
  8
0
 10
25.966644
 20
19.333328
 11
25.966644
 21
18.333328
  0
LINE
  8
0
  6
CENTER
 62
     2
 10
23.466644
 20
20.794006
 11
23.466644
 21
17.730057
  0
LINE
  8
0
  6
CENTER
 62
     2
 10
20.766647
 20
36.333328
 11
25.766647
 21
36.333328
  0
LINE
  8
0
  6
CENTER
 62
     2
 10
26.766647
 20
63.577942
 11
26.766647
 21
16.275497
  0
LINE
  8
0
 10
21.766647
 20
41.333328
 11
21.766647
 21
18.333328
  0
LINE
  8
0
 10
31.766647
 20
41.333328
 11
31.766647
 21
18.333328
  0
LINE
  8
0
 10
21.766647
 20
21.333328
 11
31.766647
 21
21.333328
  0
LINE
  8
0
 10
24.766647
 20
40.188034
 11
24.766647
 21
37.878632
  0
LINE
  8
0
 10
28.766647
 20
40.188034
 11
28.766647
 21
37.878632
  0
LINE
  8
0
 10
24.766716
 20
40.188000
 11
26.766703
 21
41.342693
  0
LINE
  8
0
 10
26.766706
 20
36.723854
 11
28.766695
 21
37.878548
  0
LINE
  8
0
 10
26.766661
 20
41.342869
 11
28.766659
 21
40.188168
  0
LINE
  8
0
 10
24.766720
 20
37.878750
 11
26.766720
 21
36.724049
  0
LINE
  8
0
  6
CENTER
 62
     2
 10
23.766647
 20
39.033325
 11
29.766647
 21
39.033325
  0
LINE
  8
0
  6
CENTER
 62
     2
 10
27.766647
 20
36.333328
 11
32.766647
 21
36.333328
  0
LINE
  8
0
  6
CENTER
 62
     2
 10
23.266647
 20
38.833328
 11
23.266647
 21
33.833328
  0
LINE
  8
0
  6
CENTER
 62
     2
 10
30.266647
 20
38.833328
 11
30.266647
 21
33.833328
  0
LINE
  8
0
 10
25.966644
 20
19.333328
 11
21.766647
 21
19.333328
  0
LINE
  8
0
 10
22.266647
 20
41.333328
 11
31.266647
 21
41.333328
  0
LINE
  8
0
 62
     4
 10
31.766647
 20
61.333328
 11
31.766647
 21
41.333328
  0
LINE
  8
0
 62
     4
 10
21.766647
 20
61.333328
 11
21.766647
 21
41.333328
  0
LINE
  8
0
 62
     4
 10
21.766647
 20
60.833328
 11
31.766647
 21
60.833328
  0
LINE
  8
0
 62
     4
 10
22.266647
 20
61.833328
 11
28.604919
 21
61.833328
  0
LINE
  8
0
 62
     4
 10
29.170609
 20
62.233337
 11
30.970627
 21
62.233337
  0
LINE
  8
0
 62
     4
 10
28.070618
 20
61.633331
 11
31.670609
 21
61.633331
  0
LINE
  8
0
 62
     4
 10
28.070618
 20
61.833328
 11
28.070618
 21
61.633331
  0
LINE
  8
0
 62
     4
 10
24.362686
 20
62.233337
 11
22.562683
 21
62.233337
  0
LINE
  8
0
  6
CENTER
 62
     1
 10
23.462692
 20
62.983994
 11
23.462692
 21
60.349060
  0
LINE
  8
0
  6
CENTER
 62
     1
 10
30.070618
 20
62.983994
 11
30.070618
 21
60.463623
  0
LINE
  8
0
 10
21.766647
 20
41.333328
 11
31.766647
 21
41.333328
  0
LINE
  8
0
 62
     4
 10
22.266663
 20
59.833328
 11
31.266663
 21
59.833328
  0
LINE
  8
0
 62
     4
 10
31.536652
 20
59.333328
 11
31.536652
 21
43.045731
  0
LINE
  8
0
 62
     4
 10
21.996643
 20
59.333328
 11
21.996643
 21
43.045731
  0
LINE
  8
0
 62
     4
 10
22.496658
 20
42.545731
 11
31.036667
 21
42.545731
  0
LINE
  8
0
 62
     4
 10
25.516647
 20
54.833328
 11
28.016647
 21
54.833328
  0
LINE
  8
0
 62
     4
 10
25.516647
 20
57.833328
 11
28.016647
 21
57.833328
  0
LINE
  8
0
  6
CENTER
 62
     1
 10
36.966644
 20
46.939461
 11
36.966644
 21
20.562992
  0
LINE
  8
0
  6
CENTER
 62
     1
 10
40.466644
 20
38.833328
 11
40.466644
 21
34.188065
  0
LINE
  8
0
  6
CENTER
 62
     1
 10
37.966644
 20
36.333328
 11
42.966644
 21
36.333328
  0
LINE
  8
0
  6
CENTER
 62
     1
 10
33.466644
 20
38.833328
 11
33.466644
 21
33.833328
  0
LINE
  8
0
  6
CENTER
 62
     1
 10
31.646332
 20
36.333328
 11
35.966644
 21
36.333328
  0
LINE
  8
0
  6
CENTER
 62
     2
 10
-7.333365
 20
38.665024
 11
-7.333365
 21
33.805923
  0
LINE
  8
0
 10
-8.040556
 20
37.040527
 11
-6.626096
 21
35.626091
  0
LINE
  8
0
 10
-6.626117
 20
37.040550
 11
-8.040562
 21
35.626137
  0
LINE
  8
0
  6
CENTER
 62
     2
 10
1.321078
 20
36.333328
 11
-2.833344
 21
36.333328
  0
LINE
  8
0
  6
CENTER
 62
     2
 10
-0.333323
 20
38.665024
 11
-0.333323
 21
33.805923
  0
LINE
  8
0
 10
-1.040573
 20
37.040550
 11
0.373872
 21
35.626137
  0
LINE
  8
0
 10
0.373868
 20
37.040531
 11
-1.040594
 21
35.626091
  0
LINE
  8
0
  6
CENTER
 62
     2
 10
1.108165
 20
36.333328
 11
5.366653
 21
36.333328
  0
LINE
  8
0
  6
CENTER
 62
     2
 10
2.866634
 20
38.665024
 11
2.866634
 21
33.805923
  0
LINE
  8
0
 10
2.159444
 20
37.040531
 11
3.573906
 21
35.626091
  0
LINE
  8
0
 10
3.573884
 20
37.040550
 11
2.159438
 21
35.626137
  0
LINE
  8
0
  6
CENTER
 62
     2
 10
11.308151
 20
36.333328
 11
15.566650
 21
36.333328
  0
LINE
  8
0
  6
CENTER
 62
     2
 10
13.066620
 20
38.665024
 11
13.066620
 21
33.805923
  0
LINE
  8
0
 10
12.359440
 20
37.040524
 11
13.773898
 21
35.626087
  0
LINE
  8
0
 10
13.773874
 20
37.040546
 11
12.359426
 21
35.626133
  0
LINE
  8
0
  6
CENTER
 62
     2
 10
21.508163
 20
36.333328
 11
25.766647
 21
36.333328
  0
LINE
  8
0
  6
CENTER
 62
     2
 10
23.266632
 20
38.665024
 11
23.266632
 21
33.805923
  0
LINE
  8
0
 10
22.559433
 20
37.040531
 11
23.973894
 21
35.626091
  0
LINE
  8
0
 10
23.973869
 20
37.040550
 11
22.559423
 21
35.626137
  0
LINE
  8
0
  6
CENTER
 62
     2
 10
11.521042
 20
36.333328
 11
7.366623
 21
36.333328
  0
LINE
  8
0
  6
CENTER
 62
     2
 10
9.866653
 20
38.665024
 11
9.866653
 21
33.805923
  0
LINE
  8
0
 10
10.573840
 20
37.040524
 11
9.159378
 21
35.626083
  0
LINE
  8
0
 10
9.159400
 20
37.040546
 11
10.573846
 21
35.626133
  0
LINE
  8
0
  6
CENTER
 62
     2
 10
21.721024
 20
36.333328
 11
17.566605
 21
36.333328
  0
LINE
  8
0
  6
CENTER
 62
     2
 10
20.066620
 20
38.665024
 11
20.066620
 21
33.805923
  0
LINE
  8
0
 10
20.773813
 20
37.040520
 11
19.359352
 21
35.626080
  0
LINE
  8
0
 10
19.359367
 20
37.040554
 11
20.773809
 21
35.626141
  0
LINE
  8
0
  6
CENTER
 62
     2
 10
31.921005
 20
36.333328
 11
27.766586
 21
36.333328
  0
LINE
  8
0
  6
CENTER
 62
     2
 10
30.266602
 20
38.665024
 11
30.266602
 21
33.805923
  0
LINE
  8
0
 10
30.973797
 20
37.040531
 11
29.559336
 21
35.626091
  0
LINE
  8
0
 10
29.559349
 20
37.040543
 11
30.973795
 21
35.626129
  0
LINE
  8
0
 10
41.173775
 20
37.040527
 11
39.759312
 21
35.626087
  0
LINE
  8
0
 10
39.759338
 20
37.040550
 11
41.173782
 21
35.626137
  0
LINE
  8
0
 10
34.173950
 20
37.040550
 11
32.759506
 21
35.626137
  0
LINE
  8
0
 10
32.759514
 20
37.040531
 11
34.173977
 21
35.626091
  0
LINE
  8
0
 10
-15.833344
 20
-69.666672
 11
-15.833344
 21
-51.666672
  0
LINE
  8
0
 10
48.966644
 20
-69.666672
 11
48.966644
 21
-51.666672
  0
LINE
  8
0
 10
-15.833344
 20
-51.666672
 11
48.966644
 21
-51.666672
  0
LINE
  8
0
 10
-15.833344
 20
-69.666672
 11
48.966644
 21
-69.666672
  0
LINE
  8
0
 62
     4
 10
-6.583359
 20
-30.066666
 11
-1.083359
 21
-30.066666
  0
LINE
  8
0
 62
     4
 10
-1.083359
 20
-30.066666
 11
-1.083359
 21
-31.066666
  0
LINE
  8
0
 62
     4
 10
-6.583359
 20
-30.066666
 11
-6.583359
 21
-31.066666
  0
LINE
  8
0
 10
1.166656
 20
-50.666672
 11
1.166656
 21
-51.666672
  0
LINE
  8
0
 10
-8.833344
 20
-50.666672
 11
-8.833344
 21
-51.666672
  0
LINE
  8
0
 10
-8.833344
 20
-51.666672
 11
1.166656
 21
-51.666672
  0
LINE
  8
0
  6
PHANTOM
 62
     1
 10
-1.086875
 20
-26.153992
 11
-6.570289
 21
-23.597033
  0
LINE
  8
0
 62
     4
 10
-5.733353
 20
-25.090668
 11
-5.733353
 21
-30.066666
  0
LINE
  8
0
 62
     4
 10
-4.433350
 20
-25.696869
 11
-4.433350
 21
-30.066666
  0
LINE
  8
0
 62
     4
 10
-3.233353
 20
-26.256439
 11
-3.233353
 21
-30.066666
  0
LINE
  8
0
 62
     4
 10
-1.933350
 20
-26.862640
 11
-1.933350
 21
-30.066666
  0
LINE
  8
0
 62
     4
 10
-3.233337
 20
-22.066666
 11
-1.933334
 21
-22.066666
  0
LINE
  8
0
 62
     4
 10
-2.833344
 20
-18.566666
 11
-2.333344
 21
-18.566666
  0
LINE
  8
0
 62
     4
 10
-5.333344
 20
-18.566666
 11
-4.833344
 21
-18.566666
  0
LINE
  8
0
 62
     4
 10
-5.733337
 20
-22.066666
 11
-4.433334
 21
-22.066666
  0
LINE
  8
0
 62
     4
 10
-2.833344
 20
-18.566681
 11
-2.833344
 21
-22.066681
  0
LINE
  8
0
 62
     4
 10
-2.333344
 20
-18.566681
 11
-2.333344
 21
-22.066681
  0
LINE
  8
0
 62
     4
 10
-5.333344
 20
-18.566681
 11
-5.333344
 21
-22.066681
  0
LINE
  8
0
 62
     4
 10
-4.833344
 20
-18.566681
 11
-4.833344
 21
-22.066681
  0
LINE
  8
0
 62
     4
 10
-5.733353
 20
-22.066681
 11
-5.733353
 21
-23.987289
  0
LINE
  8
0
 62
     4
 10
-4.433350
 20
-22.066681
 11
-4.433350
 21
-24.593491
  0
LINE
  8
0
 62
     4
 10
-1.933350
 20
-22.066681
 11
-1.933350
 21
-25.759262
  0
LINE
  8
0
 62
     4
 10
-3.233353
 20
-22.066681
 11
-3.233353
 21
-25.153061
  0
LINE
  8
0
  6
CENTER
 62
     1
 10
-5.083344
 20
-17.363251
 11
-5.083344
 21
-31.764069
  0
LINE
  8
0
  6
CENTER
 62
     1
 10
-2.583344
 20
-17.295441
 11
-2.583344
 21
-31.764069
  0
LINE
  8
0
  6
PHANTOM
 62
     1
 10
-1.080679
 20
-27.260260
 11
-6.619451
 21
-24.677488
  0
LINE
  8
0
 62
     4
 10
-8.147705
 20
-31.066666
 11
0.481033
 21
-31.066666
  0
LINE
  8
0
 10
-8.833344
 20
-50.666672
 11
1.166656
 21
-50.666672
  0
LINE
  8
0
 62
     4
 10
-8.833304
 20
-33.666668
 11
-8.645765
 21
-31.523094
  0
LINE
  8
0
 62
     4
 10
1.166662
 20
-33.666683
 11
0.979124
 21
-31.523104
  0
LINE
  8
0
 62
     4
 10
-8.833344
 20
-33.666672
 11
1.166656
 21
-33.666672
  0
LINE
  8
0
 62
     4
 10
1.166656
 20
-33.666672
 11
1.166656
 21
-36.666672
  0
LINE
  8
0
 62
     4
 10
-8.833344
 20
-33.666672
 11
-8.833344
 21
-36.666672
  0
LINE
  8
0
 10
-5.833344
 20
-35.566681
 11
-5.833344
 21
-36.666672
  0
LINE
  8
0
 10
-1.833344
 20
-35.566681
 11
-5.833344
 21
-35.566681
  0
LINE
  8
0
 10
-3.833344
 20
-35.745300
 11
-3.833344
 21
-36.666672
  0
LINE
  8
0
 10
-1.833344
 20
-35.566681
 11
-1.833344
 21
-36.666672
  0
LINE
  8
0
  6
CENTER
 62
     2
 10
-7.133347
 20
-35.866669
 11
-7.133347
 21
-40.866669
  0
LINE
  8
0
  6
CENTER
 62
     2
 10
-9.633347
 20
-38.366669
 11
-4.633347
 21
-38.366669
  0
LINE
  8
0
 10
-2.333344
 20
-48.966675
 11
-2.333344
 21
-50.666672
  0
LINE
  8
0
  6
CENTER
 62
     2
 10
-3.033340
 20
-48.966675
 11
1.966660
 21
-48.966675
  0
LINE
  8
0
  6
CENTER
 62
     2
 10
-0.533340
 20
-46.466675
 11
-0.533340
 21
-51.466675
  0
LINE
  8
0
 10
-0.533340
 20
-47.166672
 11
1.166656
 21
-47.166672
  0
LINE
  8
0
 10
-7.133347
 20
-40.166672
 11
-8.833344
 21
-40.166672
  0
LINE
  8
0
 10
-5.333344
 20
-38.366669
 11
-5.333344
 21
-36.666672
  0
LINE
  8
0
 10
1.166656
 20
-36.666672
 11
-8.833344
 21
-36.666672
  0
LINE
  8
0
  6
CENTER
 62
     2
 10
-3.833344
 20
-32.395279
 11
-3.833344
 21
-53.441650
  0
LINE
  8
0
 10
-7.840462
 20
-37.659569
 11
-6.426249
 21
-39.073784
  0
LINE
  8
0
 10
-6.426237
 20
-37.659580
 11
-7.840451
 21
-39.073795
  0
LINE
  8
0
 10
-1.240458
 20
-48.259575
 11
0.173757
 21
-49.673790
  0
LINE
  8
0
 10
0.173757
 20
-48.259579
 11
-1.240456
 21
-49.673794
  0
LINE
  8
0
 10
11.366653
 20
-50.666672
 11
11.366653
 21
-51.666672
  0
LINE
  8
0
 10
1.366656
 20
-50.666672
 11
1.366656
 21
-51.666672
  0
LINE
  8
0
  6
CENTER
 62
     2
 10
9.666656
 20
-46.466675
 11
9.666656
 21
-51.466675
  0
LINE
  8
0
  6
CENTER
 62
     2
 10
6.366653
 20
-32.395279
 11
6.366653
 21
-53.441650
  0
LINE
  8
0
 10
10.373762
 20
-48.259575
 11
8.959547
 21
-49.673786
  0
LINE
  8
0
 10
8.959546
 20
-48.259575
 11
10.373758
 21
-49.673786
  0
LINE
  8
0
 10
3.773755
 20
-37.659565
 11
2.359543
 21
-39.073780
  0
LINE
  8
0
 10
2.359542
 20
-37.659565
 11
3.773757
 21
-39.073780
  0
LINE
  8
0
 10
11.366653
 20
-36.666672
 11
1.366656
 21
-36.666672
  0
LINE
  8
0
 10
4.866653
 20
-38.366669
 11
4.866653
 21
-36.666672
  0
LINE
  8
0
 10
3.066653
 20
-40.166672
 11
1.366656
 21
-40.166672
  0
LINE
  8
0
 10
9.666656
 20
-47.166672
 11
11.366653
 21
-47.166672
  0
LINE
  8
0
  6
CENTER
 62
     2
 10
7.166656
 20
-48.966675
 11
12.166656
 21
-48.966675
  0
LINE
  8
0
 10
7.866653
 20
-48.966675
 11
7.866653
 21
-50.666672
  0
LINE
  8
0
  6
CENTER
 62
     2
 10
0.566653
 20
-38.366669
 11
5.566650
 21
-38.366669
  0
LINE
  8
0
  6
CENTER
 62
     2
 10
3.066653
 20
-35.866669
 11
3.066653
 21
-40.866669
  0
LINE
  8
0
 10
8.366653
 20
-35.566681
 11
8.366653
 21
-36.666672
  0
LINE
  8
0
 10
6.366653
 20
-35.745300
 11
6.366653
 21
-36.666672
  0
LINE
  8
0
 10
8.366653
 20
-35.566681
 11
4.366653
 21
-35.566681
  0
LINE
  8
0
 10
4.366653
 20
-35.566681
 11
4.366653
 21
-36.666672
  0
LINE
  8
0
 62
     4
 10
1.366656
 20
-33.666672
 11
1.366656
 21
-36.666672
  0
LINE
  8
0
 62
     4
 10
11.366653
 20
-33.666672
 11
11.366653
 21
-36.666672
  0
LINE
  8
0
 62
     4
 10
1.366656
 20
-33.666672
 11
11.366653
 21
-33.666672
  0
LINE
  8
0
 62
     4
 10
11.366654
 20
-33.666691
 11
11.179116
 21
-31.523115
  0
LINE
  8
0
 62
     4
 10
1.366695
 20
-33.666668
 11
1.554234
 21
-31.523092
  0
LINE
  8
0
 10
1.366656
 20
-50.666672
 11
11.366653
 21
-50.666672
  0
LINE
  8
0
 62
     4
 10
2.052295
 20
-31.066666
 11
10.681030
 21
-31.066666
  0
LINE
  8
0
  6
PHANTOM
 62
     1
 10
9.119319
 20
-27.260267
 11
3.580547
 21
-24.677496
  0
LINE
  8
0
  6
CENTER
 62
     1
 10
7.616653
 20
-17.295441
 11
7.616653
 21
-31.764069
  0
LINE
  8
0
  6
CENTER
 62
     1
 10
5.116653
 20
-17.363251
 11
5.116653
 21
-31.764069
  0
LINE
  8
0
 62
     4
 10
6.966644
 20
-22.066681
 11
6.966644
 21
-25.153061
  0
LINE
  8
0
 62
     4
 10
8.266647
 20
-22.066681
 11
8.266647
 21
-25.759262
  0
LINE
  8
0
 62
     4
 10
5.766647
 20
-22.066681
 11
5.766647
 21
-24.593491
  0
LINE
  8
0
 62
     4
 10
4.466644
 20
-22.066681
 11
4.466644
 21
-23.987289
  0
LINE
  8
0
 62
     4
 10
5.366653
 20
-18.566681
 11
5.366653
 21
-22.066681
  0
LINE
  8
0
 62
     4
 10
4.866653
 20
-18.566681
 11
4.866653
 21
-22.066681
  0
LINE
  8
0
 62
     4
 10
7.866653
 20
-18.566681
 11
7.866653
 21
-22.066681
  0
LINE
  8
0
 62
     4
 10
7.366653
 20
-18.566681
 11
7.366653
 21
-22.066681
  0
LINE
  8
0
 62
     4
 10
4.466660
 20
-22.066666
 11
5.766663
 21
-22.066666
  0
LINE
  8
0
 62
     4
 10
4.866653
 20
-18.566666
 11
5.366653
 21
-18.566666
  0
LINE
  8
0
 62
     4
 10
7.366653
 20
-18.566666
 11
7.866653
 21
-18.566666
  0
LINE
  8
0
 62
     4
 10
6.966660
 20
-22.066666
 11
8.266663
 21
-22.066666
  0
LINE
  8
0
 62
     4
 10
8.266647
 20
-26.862640
 11
8.266647
 21
-30.066666
  0
LINE
  8
0
 62
     4
 10
6.966644
 20
-26.256439
 11
6.966644
 21
-30.066666
  0
LINE
  8
0
 62
     4
 10
5.766647
 20
-25.696869
 11
5.766647
 21
-30.066666
  0
LINE
  8
0
 62
     4
 10
4.466644
 20
-25.090668
 11
4.466644
 21
-30.066666
  0
LINE
  8
0
  6
PHANTOM
 62
     1
 10
9.113129
 20
-26.153986
 11
3.629715
 21
-23.597027
  0
LINE
  8
0
 62
     4
 10
3.616641
 20
-30.066666
 11
3.616641
 21
-31.066666
  0
LINE
  8
0
 62
     4
 10
9.116638
 20
-30.066666
 11
9.116638
 21
-31.066666
  0
LINE
  8
0
 62
     4
 10
3.616641
 20
-30.066666
 11
9.116638
 21
-30.066666
  0
LINE
  8
0
 10
1.366656
 20
-51.666672
 11
11.366653
 21
-51.666672
  0
LINE
  8
0
 10
21.566650
 20
-50.666672
 11
21.566650
 21
-51.666672
  0
LINE
  8
0
 10
11.566650
 20
-50.666672
 11
11.566650
 21
-51.666672
  0
LINE
  8
0
  6
CENTER
 62
     2
 10
19.866653
 20
-46.466675
 11
19.866653
 21
-51.466675
  0
LINE
  8
0
  6
CENTER
 62
     2
 10
16.566650
 20
-32.395279
 11
16.566650
 21
-53.441650
  0
LINE
  8
0
 10
20.573763
 20
-48.259571
 11
19.159550
 21
-49.673782
  0
LINE
  8
0
 10
19.159550
 20
-48.259571
 11
20.573761
 21
-49.673782
  0
LINE
  8
0
 10
13.973759
 20
-37.659565
 11
12.559546
 21
-39.073776
  0
LINE
  8
0
 10
12.559546
 20
-37.659561
 11
13.973759
 21
-39.073776
  0
LINE
  8
0
 10
21.566650
 20
-36.666672
 11
11.566650
 21
-36.666672
  0
LINE
  8
0
 10
15.066650
 20
-38.366669
 11
15.066650
 21
-36.666672
  0
LINE
  8
0
 10
13.266647
 20
-40.166672
 11
11.566650
 21
-40.166672
  0
LINE
  8
0
 10
19.866653
 20
-47.166672
 11
21.566650
 21
-47.166672
  0
LINE
  8
0
  6
CENTER
 62
     2
 10
17.366653
 20
-48.966675
 11
22.366653
 21
-48.966675
  0
LINE
  8
0
 10
18.066650
 20
-48.966675
 11
18.066650
 21
-50.666672
  0
LINE
  8
0
  6
CENTER
 62
     2
 10
10.766647
 20
-38.366669
 11
15.766647
 21
-38.366669
  0
LINE
  8
0
  6
CENTER
 62
     2
 10
13.266647
 20
-35.866669
 11
13.266647
 21
-40.866669
  0
LINE
  8
0
 10
18.566650
 20
-35.566681
 11
18.566650
 21
-36.666672
  0
LINE
  8
0
 10
16.566650
 20
-35.745300
 11
16.566650
 21
-36.666672
  0
LINE
  8
0
 10
18.566650
 20
-35.566681
 11
14.566650
 21
-35.566681
  0
LINE
  8
0
 10
14.566650
 20
-35.566681
 11
14.566650
 21
-36.666672
  0
LINE
  8
0
 62
     4
 10
11.566650
 20
-33.666672
 11
11.566650
 21
-36.666672
  0
LINE
  8
0
 62
     4
 10
21.566650
 20
-33.666672
 11
21.566650
 21
-36.666672
  0
LINE
  8
0
 62
     4
 10
11.566650
 20
-33.666672
 11
21.566650
 21
-33.666672
  0
LINE
  8
0
 62
     4
 10
21.566662
 20
-33.666683
 11
21.379124
 21
-31.523108
  0
LINE
  8
0
 62
     4
 10
11.566693
 20
-33.666664
 11
11.754232
 21
-31.523088
  0
LINE
  8
0
 10
11.566650
 20
-50.666672
 11
21.566650
 21
-50.666672
  0
LINE
  8
0
 62
     4
 10
12.252289
 20
-31.066666
 11
20.881027
 21
-31.066666
  0
LINE
  8
0
  6
PHANTOM
 62
     1
 10
19.319321
 20
-27.260260
 11
13.780549
 21
-24.677486
  0
LINE
  8
0
  6
CENTER
 62
     1
 10
17.816650
 20
-17.295441
 11
17.816650
 21
-31.764069
  0
LINE
  8
0
  6
CENTER
 62
     1
 10
15.316650
 20
-17.363251
 11
15.316650
 21
-31.764069
  0
LINE
  8
0
 62
     4
 10
17.166641
 20
-22.066681
 11
17.166641
 21
-25.153061
  0
LINE
  8
0
 62
     4
 10
18.466644
 20
-22.066681
 11
18.466644
 21
-25.759262
  0
LINE
  8
0
 62
     4
 10
15.966644
 20
-22.066681
 11
15.966644
 21
-24.593491
  0
LINE
  8
0
 62
     4
 10
14.666641
 20
-22.066681
 11
14.666641
 21
-23.987289
  0
LINE
  8
0
 62
     4
 10
15.566650
 20
-18.566681
 11
15.566650
 21
-22.066681
  0
LINE
  8
0
 62
     4
 10
15.066650
 20
-18.566681
 11
15.066650
 21
-22.066681
  0
LINE
  8
0
 62
     4
 10
18.066650
 20
-18.566681
 11
18.066650
 21
-22.066681
  0
LINE
  8
0
 62
     4
 10
17.566650
 20
-18.566681
 11
17.566650
 21
-22.066681
  0
LINE
  8
0
 62
     4
 10
14.666656
 20
-22.066666
 11
15.966660
 21
-22.066666
  0
LINE
  8
0
 62
     4
 10
15.066650
 20
-18.566666
 11
15.566650
 21
-18.566666
  0
LINE
  8
0
 62
     4
 10
17.566650
 20
-18.566666
 11
18.066650
 21
-18.566666
  0
LINE
  8
0
 62
     4
 10
17.166656
 20
-22.066666
 11
18.466660
 21
-22.066666
  0
LINE
  8
0
 62
     4
 10
18.466644
 20
-26.862640
 11
18.466644
 21
-30.066666
  0
LINE
  8
0
 62
     4
 10
17.166641
 20
-26.256439
 11
17.166641
 21
-30.066666
  0
LINE
  8
0
 62
     4
 10
15.966644
 20
-25.696869
 11
15.966644
 21
-30.066666
  0
LINE
  8
0
 62
     4
 10
14.666641
 20
-25.090668
 11
14.666641
 21
-30.066666
  0
LINE
  8
0
  6
PHANTOM
 62
     1
 10
19.313126
 20
-26.153992
 11
13.829711
 21
-23.597034
  0
LINE
  8
0
 62
     4
 10
13.816635
 20
-30.066666
 11
13.816635
 21
-31.066666
  0
LINE
  8
0
 62
     4
 10
19.316635
 20
-30.066666
 11
19.316635
 21
-31.066666
  0
LINE
  8
0
 62
     4
 10
13.816635
 20
-30.066666
 11
19.316635
 21
-30.066666
  0
LINE
  8
0
 10
11.566650
 20
-51.666672
 11
21.566650
 21
-51.666672
  0
LINE
  8
0
 10
31.766647
 20
-50.666672
 11
31.766647
 21
-51.666672
  0
LINE
  8
0
 10
21.766647
 20
-50.666672
 11
21.766647
 21
-51.666672
  0
LINE
  8
0
  6
CENTER
 62
     2
 10
30.066650
 20
-46.466675
 11
30.066650
 21
-51.466675
  0
LINE
  8
0
  6
CENTER
 62
     2
 10
26.766647
 20
-32.395279
 11
26.766647
 21
-53.441650
  0
LINE
  8
0
 10
30.773754
 20
-48.259579
 11
29.359541
 21
-49.673790
  0
LINE
  8
0
 10
29.359543
 20
-48.259579
 11
30.773746
 21
-49.673779
  0
LINE
  8
0
 10
24.173752
 20
-37.659569
 11
22.759539
 21
-39.073784
  0
LINE
  8
0
 10
22.759537
 20
-37.659569
 11
24.173752
 21
-39.073784
  0
LINE
  8
0
 10
31.766647
 20
-36.666672
 11
21.766647
 21
-36.666672
  0
LINE
  8
0
 10
25.266647
 20
-38.366669
 11
25.266647
 21
-36.666672
  0
LINE
  8
0
 10
23.466644
 20
-40.166672
 11
21.766647
 21
-40.166672
  0
LINE
  8
0
 10
30.066650
 20
-47.166672
 11
31.766647
 21
-47.166672
  0
LINE
  8
0
  6
CENTER
 62
     2
 10
27.566650
 20
-48.966675
 11
32.566650
 21
-48.966675
  0
LINE
  8
0
 10
28.266647
 20
-48.966675
 11
28.266647
 21
-50.666672
  0
LINE
  8
0
  6
CENTER
 62
     2
 10
20.966644
 20
-38.366669
 11
25.966644
 21
-38.366669
  0
LINE
  8
0
  6
CENTER
 62
     2
 10
23.466644
 20
-35.866669
 11
23.466644
 21
-40.866669
  0
LINE
  8
0
 10
28.766647
 20
-35.566681
 11
28.766647
 21
-36.666672
  0
LINE
  8
0
 10
26.766647
 20
-35.745300
 11
26.766647
 21
-36.666672
  0
LINE
  8
0
 10
28.766647
 20
-35.566681
 11
24.766647
 21
-35.566681
  0
LINE
  8
0
 10
24.766647
 20
-35.566681
 11
24.766647
 21
-36.666672
  0
LINE
  8
0
 62
     4
 10
21.766647
 20
-33.666672
 11
21.766647
 21
-36.666672
  0
LINE
  8
0
 62
     4
 10
31.766647
 20
-33.666672
 11
31.766647
 21
-36.666672
  0
LINE
  8
0
 62
     4
 10
21.766647
 20
-33.666672
 11
31.766647
 21
-33.666672
  0
LINE
  8
0
 62
     4
 10
31.766655
 20
-33.666691
 11
31.579117
 21
-31.523113
  0
LINE
  8
0
 62
     4
 10
21.766685
 20
-33.666676
 11
21.954226
 21
-31.523100
  0
LINE
  8
0
 10
21.766647
 20
-50.666672
 11
31.766647
 21
-50.666672
  0
LINE
  8
0
 62
     4
 10
22.452286
 20
-31.066666
 11
31.081024
 21
-31.066666
  0
LINE
  8
0
  6
PHANTOM
 62
     1
 10
29.519310
 20
-27.260262
 11
23.980547
 21
-24.677496
  0
LINE
  8
0
  6
CENTER
 62
     1
 10
28.016647
 20
-17.295441
 11
28.016647
 21
-31.764069
  0
LINE
  8
0
  6
CENTER
 62
     1
 10
25.516647
 20
-17.363251
 11
25.516647
 21
-31.764069
  0
LINE
  8
0
 62
     4
 10
27.366638
 20
-22.066681
 11
27.366638
 21
-25.153061
  0
LINE
  8
0
 62
     4
 10
28.666641
 20
-22.066681
 11
28.666641
 21
-25.759262
  0
LINE
  8
0
 62
     4
 10
26.166641
 20
-22.066681
 11
26.166641
 21
-24.593491
  0
LINE
  8
0
 62
     4
 10
24.866638
 20
-22.066681
 11
24.866638
 21
-23.987289
  0
LINE
  8
0
 62
     4
 10
25.766647
 20
-18.566681
 11
25.766647
 21
-22.066681
  0
LINE
  8
0
 62
     4
 10
25.266647
 20
-18.566681
 11
25.266647
 21
-22.066681
  0
LINE
  8
0
 62
     4
 10
28.266647
 20
-18.566681
 11
28.266647
 21
-22.066681
  0
LINE
  8
0
 62
     4
 10
27.766647
 20
-18.566681
 11
27.766647
 21
-22.066681
  0
LINE
  8
0
 62
     4
 10
24.866653
 20
-22.066666
 11
26.166656
 21
-22.066666
  0
LINE
  8
0
 62
     4
 10
25.266647
 20
-18.566666
 11
25.766647
 21
-18.566666
  0
LINE
  8
0
 62
     4
 10
27.766647
 20
-18.566666
 11
28.266647
 21
-18.566666
  0
LINE
  8
0
 62
     4
 10
27.366653
 20
-22.066666
 11
28.666656
 21
-22.066666
  0
LINE
  8
0
 62
     4
 10
28.666641
 20
-26.862640
 11
28.666641
 21
-30.066666
  0
LINE
  8
0
 62
     4
 10
27.366638
 20
-26.256439
 11
27.366638
 21
-30.066666
  0
LINE
  8
0
 62
     4
 10
26.166641
 20
-25.696869
 11
26.166641
 21
-30.066666
  0
LINE
  8
0
 62
     4
 10
24.866638
 20
-25.090668
 11
24.866638
 21
-30.066666
  0
LINE
  8
0
  6
PHANTOM
 62
     1
 10
29.513124
 20
-26.153984
 11
24.029715
 21
-23.597027
  0
LINE
  8
0
 62
     4
 10
24.016632
 20
-30.066666
 11
24.016632
 21
-31.066666
  0
LINE
  8
0
 62
     4
 10
29.516632
 20
-30.066666
 11
29.516632
 21
-31.066666
  0
LINE
  8
0
 62
     4
 10
24.016632
 20
-30.066666
 11
29.516632
 21
-30.066666
  0
LINE
  8
0
 10
21.766647
 20
-51.666672
 11
31.766647
 21
-51.666672
  0
LINE
  8
0
  6
CENTER
 62
     1
 10
36.966644
 20
-48.172150
 11
36.966644
 21
-53.441650
  0
LINE
  8
0
 62
     4
 10
41.966644
 20
-49.666672
 11
41.966644
 21
-50.666672
  0
LINE
  8
0
 10
31.966644
 20
-49.666672
 11
31.966644
 21
-50.666672
  0
LINE
  8
0
 10
31.966644
 20
-51.666672
 11
41.966644
 21
-51.666672
  0
LINE
  8
0
 10
31.966644
 20
-50.666672
 11
41.966644
 21
-50.666672
  0
LINE
  8
0
 62
     4
 10
31.966644
 20
-49.666672
 11
41.966644
 21
-49.666672
  0
LINE
  8
0
 10
41.966644
 20
-50.666672
 11
41.966644
 21
-51.666672
  0
LINE
  8
0
 10
31.966644
 20
-50.673538
 11
31.966644
 21
-51.666672
  0
LINE
  8
0
 62
     4
 10
31.966644
 20
-49.666672
 11
41.966644
 21
-49.666672
  0
LINE
  8
0
  6
CENTER
 62
     1
 10
40.466644
 20
-47.754532
 11
40.466644
 21
-50.356018
  0
LINE
  8
0
  6
CENTER
 62
     1
 10
33.466644
 20
-47.754532
 11
33.466644
 21
-50.250427
  0
LINE
  8
0
  6
CENTER
 62
     2
 10
-3.133344
 20
-55.166672
 11
-8.133344
 21
-55.166672
  0
LINE
  8
0
  6
CENTER
 62
     2
 10
-5.633344
 20
-52.666672
 11
-5.633344
 21
-57.666672
  0
LINE
  8
0
  6
CENTER
 62
     2
 10
0.466656
 20
-64.666672
 11
-4.533344
 21
-64.666672
  0
LINE
  8
0
  6
CENTER
 62
     2
 10
-2.033344
 20
-62.166672
 11
-2.033344
 21
-67.166672
  0
LINE
  8
0
  6
CENTER
 62
     2
 10
8.166656
 20
-62.166672
 11
8.166656
 21
-67.166672
  0
LINE
  8
0
  6
CENTER
 62
     2
 10
10.666656
 20
-64.666672
 11
5.666656
 21
-64.666672
  0
LINE
  8
0
  6
CENTER
 62
     2
 10
4.566650
 20
-52.666672
 11
4.566650
 21
-57.666672
  0
LINE
  8
0
  6
CENTER
 62
     2
 10
7.066650
 20
-55.166672
 11
2.066656
 21
-55.166672
  0
LINE
  8
0
  6
CENTER
 62
     2
 10
18.366653
 20
-62.166672
 11
18.366653
 21
-67.166672
  0
LINE
  8
0
  6
CENTER
 62
     2
 10
20.866653
 20
-64.666672
 11
15.866653
 21
-64.666672
  0
LINE
  8
0
  6
CENTER
 62
     2
 10
14.766647
 20
-52.666672
 11
14.766647
 21
-57.666672
  0
LINE
  8
0
  6
CENTER
 62
     2
 10
17.266647
 20
-55.166672
 11
12.266647
 21
-55.166672
  0
LINE
  8
0
  6
CENTER
 62
     2
 10
28.566650
 20
-62.166672
 11
28.566650
 21
-67.166672
  0
LINE
  8
0
  6
CENTER
 62
     2
 10
31.066650
 20
-64.666672
 11
26.066650
 21
-64.666672
  0
LINE
  8
0
  6
CENTER
 62
     2
 10
24.966644
 20
-52.666672
 11
24.966644
 21
-57.666672
  0
LINE
  8
0
  6
CENTER
 62
     2
 10
27.466644
 20
-55.166672
 11
22.466644
 21
-55.166672
  0
LINE
  8
0
  6
CENTER
 62
     2
 10
38.766647
 20
-62.166672
 11
38.766647
 21
-67.166672
  0
LINE
  8
0
  6
CENTER
 62
     2
 10
41.266647
 20
-64.666672
 11
36.266647
 21
-64.666672
  0
LINE
  8
0
  6
CENTER
 62
     2
 10
35.166656
 20
-52.666672
 11
35.166656
 21
-57.666672
  0
LINE
  8
0
  6
CENTER
 62
     2
 10
37.666656
 20
-55.166672
 11
32.666656
 21
-55.166672
  0
LINE
  8
0
 10
31.766647
 20
-36.666672
 11
31.766647
 21
-50.666672
  0
LINE
  8
0
 10
21.766647
 20
-36.666672
 11
21.766647
 21
-50.666672
  0
LINE
  8
0
 10
21.566650
 20
-36.666672
 11
21.566650
 21
-50.666672
  0
LINE
  8
0
 10
11.566650
 20
-36.666672
 11
11.566650
 21
-50.666672
  0
LINE
  8
0
 10
11.366653
 20
-36.666672
 11
11.366653
 21
-50.666672
  0
LINE
  8
0
 10
1.366656
 20
-36.666672
 11
1.366656
 21
-50.666672
  0
LINE
  8
0
 10
1.166656
 20
-36.666672
 11
1.166656
 21
-50.666672
  0
LINE
  8
0
 10
-8.833344
 20
-36.666672
 11
-8.833344
 21
-50.666672
  0
LINE
  8
0
  6
CENTER
 62
     2
 10
-12.333344
 20
-67.166672
 11
-12.333344
 21
-72.166672
  0
LINE
  8
0
 62
     4
 10
103.033325
 20
57.833328
 11
103.033325
 21
54.833328
  0
LINE
  8
0
 62
     4
 10
103.033325
 20
57.833328
 11
104.033325
 21
57.833328
  0
LINE
  8
0
 62
     4
 10
103.033325
 20
54.833328
 11
104.033325
 21
54.833328
  0
LINE
  8
0
 10
124.633316
 20
21.333328
 11
123.633331
 21
21.333328
  0
LINE
  8
0
 10
124.633316
 20
46.333328
 11
123.633331
 21
46.333328
  0
LINE
  8
0
 62
     4
 10
123.633331
 20
46.333328
 11
123.633331
 21
41.333328
  0
LINE
  8
0
 10
123.633331
 20
21.333328
 11
123.633331
 21
18.333328
  0
LINE
  8
0
  6
CENTER
 62
     1
 10
121.933319
 20
62.897018
 11
121.933319
 21
60.485901
  0
LINE
  8
0
  6
CENTER
 62
     1
 10
111.333313
 20
62.926422
 11
111.333313
 21
60.485901
  0
LINE
  8
0
  6
PHANTOM
 62
     1
 10
99.096527
 20
58.483341
 11
97.944351
 21
54.183342
  0
LINE
  8
0
  6
PHANTOM
 62
     1
 10
100.131882
 20
58.483299
 11
98.979691
 21
54.183315
  0
LINE
  8
0
 62
     4
 10
106.633331
 20
41.345764
 11
106.633331
 21
59.833328
  0
LINE
  8
0
 62
     4
 10
104.533325
 20
59.833328
 11
109.633331
 21
59.833328
  0
LINE
  8
0
 62
     4
 10
91.955627
 20
56.583328
 11
91.955627
 21
56.083328
  0
LINE
  8
0
 62
     4
 10
95.366150
 20
56.583328
 11
91.955627
 21
56.583328
  0
LINE
  8
0
 62
     4
 10
95.366150
 20
56.083328
 11
91.955627
 21
56.083328
  0
LINE
  8
0
 62
     4
 10
98.346375
 20
55.683334
 11
95.366150
 21
55.683334
  0
LINE
  8
0
 62
     4
 10
98.694702
 20
56.983322
 11
95.366150
 21
56.983322
  0
LINE
  8
0
 62
     4
 10
95.366119
 20
56.983337
 11
95.366119
 21
55.683334
  0
LINE
  8
0
 62
     4
 10
112.233337
 20
62.233337
 11
110.433319
 21
62.233337
  0
LINE
  8
0
 62
     4
 10
121.033325
 20
62.233337
 11
122.833313
 21
62.233337
  0
LINE
  8
0
 62
     4
 10
113.333344
 20
61.833328
 11
113.333344
 21
61.633331
  0
LINE
  8
0
 62
     4
 10
113.333344
 20
61.633331
 11
109.733337
 21
61.633331
  0
LINE
  8
0
 62
     4
 10
104.033325
 20
59.333328
 11
104.033325
 21
42.864258
  0
LINE
  8
0
 62
     4
 10
103.033325
 20
56.983322
 11
99.729980
 21
56.983322
  0
LINE
  8
0
 62
     4
 10
103.033325
 20
55.683334
 11
99.381622
 21
55.683334
  0
LINE
  8
0
  6
CENTER
 62
     1
 10
104.707977
 20
56.333328
 11
90.278168
 21
56.333328
  0
LINE
  8
0
 62
     4
 10
106.532806
 20
41.380135
 11
104.321968
 21
42.411064
  0
LINE
  8
0
 62
     4
 10
123.633331
 20
60.833328
 11
109.633331
 21
60.833328
  0
LINE
  8
0
 62
     4
 10
123.133331
 20
61.833328
 11
112.799011
 21
61.833328
  0
LINE
  8
0
 62
     4
 10
123.633331
 20
61.333328
 11
123.633331
 21
46.333328
  0
LINE
  8
0
 62
     4
 10
109.633331
 20
44.333328
 11
109.633331
 21
43.333328
  0
LINE
  8
0
 62
     4
 10
109.633331
 20
61.333328
 11
109.633331
 21
41.333328
  0
LINE
  8
0
 10
123.633331
 20
41.333328
 11
109.633331
 21
41.333328
  0
LINE
  8
0
 10
110.633331
 20
36.890106
 11
110.633331
 21
35.776550
  0
LINE
  8
0
 10
110.633331
 20
35.776550
 11
109.633331
 21
35.776550
  0
LINE
  8
0
 10
110.633331
 20
36.890106
 11
109.633331
 21
36.890106
  0
LINE
  8
0
 10
108.533325
 20
38.133331
 11
108.133331
 21
38.133331
  0
LINE
  8
0
 10
108.133331
 20
38.133331
 11
108.133331
 21
39.933334
  0
LINE
  8
0
 10
108.533325
 20
39.933334
 11
108.133331
 21
39.933334
  0
LINE
  8
0
  6
CENTER
 62
     2
 10
110.033325
 20
39.033325
 11
107.033325
 21
39.033325
  0
LINE
  8
0
 10
108.533394
 20
41.033291
 11
108.706604
 21
41.333279
  0
LINE
  8
0
 10
108.711945
 20
40.188034
 11
109.633331
 21
40.188034
  0
LINE
  8
0
 10
108.711945
 20
37.878632
 11
109.633331
 21
37.878632
  0
LINE
  8
0
 10
108.533325
 20
37.033325
 11
108.533325
 21
41.033325
  0
LINE
  8
0
 10
108.533302
 20
37.033298
 11
108.711952
 21
36.723904
  0
LINE
  8
0
 10
108.711945
 20
36.723938
 11
109.633331
 21
36.723938
  0
LINE
  8
0
 10
119.433334
 20
19.333328
 11
119.433334
 21
18.333328
  0
LINE
  8
0
  6
CENTER
 62
     2
 10
121.933334
 20
20.794006
 11
121.933334
 21
17.730057
  0
LINE
  8
0
 10
119.433334
 20
19.333328
 11
123.633331
 21
19.333328
  0
LINE
  8
0
  6
CENTER
 62
     2
 10
116.633331
 20
64.799210
 11
116.633331
 21
16.022903
  0
LINE
  8
0
 10
123.633331
 20
18.333328
 11
109.633331
 21
18.333328
  0
LINE
  8
0
 10
123.633331
 20
21.333328
 11
109.633331
 21
21.333328
  0
LINE
  8
0
 10
109.633331
 20
41.333328
 11
109.633331
 21
18.333328
  0
LINE
  8
0
 10
142.633316
 20
47.333328
 11
142.633316
 21
18.333328
  0
LINE
  8
0
 10
124.633316
 20
18.333328
 11
142.633316
 21
18.333328
  0
LINE
  8
0
 10
124.633316
 20
47.333328
 11
142.633316
 21
47.333328
  0
LINE
  8
0
 10
124.633316
 20
47.333328
 11
124.633316
 21
18.333328
  0
LINE
  8
0
  6
CENTER
 62
     2
 10
140.633316
 20
39.333328
 11
134.633316
 21
39.333328
  0
LINE
  8
0
  6
CENTER
 62
     2
 10
137.633316
 20
42.333328
 11
137.633316
 21
36.333328
  0
LINE
  8
0
  6
CENTER
 62
     2
 10
135.633316
 20
28.333328
 11
129.633316
 21
28.333328
  0
LINE
  8
0
  6
CENTER
 62
     2
 10
132.633316
 20
31.333328
 11
132.633316
 21
25.333328
  0
LINE
  8
0
 10
123.633331
 20
41.333328
 11
123.633331
 21
21.333328
  0
LINE
  8
0
 62
     4
 10
109.633331
 20
41.333328
 11
106.744171
 21
41.333328
  0
LINE
  8
0
  6
CENTER
 62
     2
 10
145.133316
 20
33.833328
 11
140.133316
 21
33.833328
  0
LINE
  8
0
  6
CENTER
 62
     1
 10
-71.574661
 20
56.333328
 11
-57.144852
 21
56.333328
  0
LINE
  8
0
  6
CENTER
 62
     2
 10
-99.500000
 20
31.333328
 11
-99.500000
 21
25.333328
  0
LINE
  8
0
  6
CENTER
 62
     2
 10
-102.500000
 20
28.333328
 11
-96.500000
 21
28.333328
  0
LINE
  8
0
  6
CENTER
 62
     2
 10
-104.500000
 20
42.333328
 11
-104.500000
 21
36.333328
  0
LINE
  8
0
  6
CENTER
 62
     2
 10
-107.500000
 20
39.333328
 11
-101.500000
 21
39.333328
  0
LINE
  8
0
 10
-91.500000
 20
47.333328
 11
-91.500000
 21
18.333328
  0
LINE
  8
0
 10
-91.500000
 20
47.333328
 11
-109.500000
 21
47.333328
  0
LINE
  8
0
 10
-91.500000
 20
18.333328
 11
-109.500000
 21
18.333328
  0
LINE
  8
0
 10
-109.500000
 20
47.333328
 11
-109.500000
 21
18.333328
  0
LINE
  8
0
 10
-76.500015
 20
41.333328
 11
-76.500015
 21
18.333328
  0
LINE
  8
0
 10
-90.500015
 20
21.333328
 11
-76.500015
 21
21.333328
  0
LINE
  8
0
 10
-90.500015
 20
18.333328
 11
-76.500015
 21
18.333328
  0
LINE
  8
0
  6
CENTER
 62
     2
 10
-83.500015
 20
64.799210
 11
-83.500015
 21
16.022903
  0
LINE
  8
0
 10
-80.700012
 20
19.333328
 11
-76.500015
 21
19.333328
  0
LINE
  8
0
  6
CENTER
 62
     2
 10
-78.200012
 20
20.794006
 11
-78.200012
 21
17.730057
  0
LINE
  8
0
 10
-80.700012
 20
19.333328
 11
-80.700012
 21
18.333328
  0
LINE
  8
0
 10
-75.578629
 20
36.723938
 11
-76.500015
 21
36.723938
  0
LINE
  8
0
 10
-75.399986
 20
37.033302
 11
-75.578636
 21
36.723907
  0
LINE
  8
0
 10
-75.400009
 20
37.033325
 11
-75.400009
 21
41.033325
  0
LINE
  8
0
 10
-75.578629
 20
37.878632
 11
-76.500015
 21
37.878632
  0
LINE
  8
0
 10
-75.578629
 20
40.188034
 11
-76.500015
 21
40.188034
  0
LINE
  8
0
 10
-75.400078
 20
41.033291
 11
-75.573288
 21
41.333279
  0
LINE
  8
0
  6
CENTER
 62
     2
 10
-76.900009
 20
39.033325
 11
-73.900009
 21
39.033325
  0
LINE
  8
0
 10
-75.400009
 20
39.933334
 11
-75.000015
 21
39.933334
  0
LINE
  8
0
 10
-75.000015
 20
38.133331
 11
-75.000015
 21
39.933334
  0
LINE
  8
0
 10
-75.400009
 20
38.133331
 11
-75.000015
 21
38.133331
  0
LINE
  8
0
 10
-77.500015
 20
36.890106
 11
-76.500015
 21
36.890106
  0
LINE
  8
0
 10
-77.500015
 20
35.776550
 11
-76.500015
 21
35.776550
  0
LINE
  8
0
 10
-77.500015
 20
36.890106
 11
-77.500015
 21
35.776550
  0
LINE
  8
0
 10
-90.500015
 20
41.333328
 11
-76.500015
 21
41.333328
  0
LINE
  8
0
 62
     4
 10
-76.500015
 20
61.333328
 11
-76.500015
 21
41.333328
  0
LINE
  8
0
 62
     4
 10
-90.500015
 20
61.333328
 11
-90.500015
 21
41.333328
  0
LINE
  8
0
 62
     4
 10
-87.334320
 20
61.833328
 11
-77.000015
 21
61.833328
  0
LINE
  8
0
 62
     4
 10
-90.500015
 20
60.833328
 11
-76.500015
 21
60.833328
  0
LINE
  8
0
 62
     4
 10
-73.399490
 20
41.380135
 11
-71.188652
 21
42.411064
  0
LINE
  8
0
 62
     4
 10
-69.900009
 20
55.683334
 11
-66.248306
 21
55.683334
  0
LINE
  8
0
 62
     4
 10
-69.900009
 20
56.983322
 11
-66.596664
 21
56.983322
  0
LINE
  8
0
 62
     4
 10
-70.900009
 20
59.333328
 11
-70.900009
 21
42.864258
  0
LINE
  8
0
 62
     4
 10
-86.800003
 20
61.633331
 11
-90.400009
 21
61.633331
  0
LINE
  8
0
 62
     4
 10
-86.800003
 20
61.833328
 11
-86.800003
 21
61.633331
  0
LINE
  8
0
 62
     4
 10
-87.900009
 20
62.233337
 11
-89.699997
 21
62.233337
  0
LINE
  8
0
 62
     4
 10
-79.100021
 20
62.233337
 11
-77.300003
 21
62.233337
  0
LINE
  8
0
 62
     4
 10
-62.232803
 20
56.983337
 11
-62.232803
 21
55.683334
  0
LINE
  8
0
 62
     4
 10
-65.561386
 20
56.983322
 11
-62.232834
 21
56.983322
  0
LINE
  8
0
 62
     4
 10
-65.213058
 20
55.683334
 11
-62.232834
 21
55.683334
  0
LINE
  8
0
 62
     4
 10
-62.232834
 20
56.083328
 11
-58.822311
 21
56.083328
  0
LINE
  8
0
 62
     4
 10
-62.232834
 20
56.583328
 11
-58.822311
 21
56.583328
  0
LINE
  8
0
 62
     4
 10
-58.822311
 20
56.583328
 11
-58.822311
 21
56.083328
  0
LINE
  8
0
 62
     4
 10
-71.400009
 20
59.833328
 11
-76.500015
 21
59.833328
  0
LINE
  8
0
 62
     4
 10
-73.500015
 20
41.345764
 11
-73.500015
 21
59.833328
  0
LINE
  8
0
  6
PHANTOM
 62
     1
 10
-66.998566
 20
58.483299
 11
-65.846375
 21
54.183315
  0
LINE
  8
0
  6
PHANTOM
 62
     1
 10
-65.963219
 20
58.483334
 11
-64.811043
 21
54.183346
  0
LINE
  8
0
  6
CENTER
 62
     1
 10
-78.199997
 20
62.926422
 11
-78.199997
 21
60.485901
  0
LINE
  8
0
  6
CENTER
 62
     1
 10
-88.800003
 20
62.897018
 11
-88.800003
 21
60.485901
  0
LINE
  8
0
 10
-90.500015
 20
21.333328
 11
-90.500015
 21
18.333328
  0
LINE
  8
0
 10
-90.500015
 20
41.333328
 11
-90.500015
 21
21.333328
  0
LINE
  8
0
 10
-91.500000
 20
46.333328
 11
-90.500015
 21
46.333328
  0
LINE
  8
0
 10
-91.500000
 20
21.333328
 11
-90.500015
 21
21.333328
  0
LINE
  8
0
 62
     4
 10
-69.900009
 20
54.833328
 11
-70.900009
 21
54.833328
  0
LINE
  8
0
 62
     4
 10
-69.900009
 20
57.833328
 11
-70.900009
 21
57.833328
  0
LINE
  8
0
 62
     4
 10
-69.900009
 20
57.833328
 11
-69.900009
 21
54.833328
  0
LINE
  8
0
 62
     4
 10
-76.500015
 20
41.333328
 11
-73.610855
 21
41.333328
  0
LINE
  8
0
  6
CENTER
 62
     2
 10
-107.000000
 20
33.833328
 11
-112.000000
 21
33.833328
  0
LINE
  8
0
 10
-184.249985
 20
-124.198929
 11
-115.681442
 21
-124.198929
  0
LINE
  8
0
 10
-184.249985
 20
-117.128937
 11
-115.681442
 21
-117.128937
  0
LINE
  8
0
 10
-184.249985
 20
-110.058929
 11
-115.681442
 21
-110.058929
  0
LINE
  8
0
 10
-184.249985
 20
-102.988937
 11
-115.681442
 21
-102.988937
  0
LINE
  8
0
 10
-184.249985
 20
-95.918930
 11
-115.681442
 21
-95.918930
  0
LINE
  8
0
 10
-184.249985
 20
-88.848938
 11
-115.681442
 21
-88.848938
  0
LINE
  8
0
 10
-184.249985
 20
-88.848938
 11
-115.681442
 21
-88.848938
  0
LINE
  8
0
 10
-184.249985
 20
-88.848938
 11
-115.681442
 21
-88.848938
  0
LINE
  8
0
 10
-184.249985
 20
-81.778931
 11
-115.681442
 21
-81.778931
  0
LINE
  8
0
 10
-184.249985
 20
-74.708939
 11
-115.681442
 21
-74.708939
  0
LINE
  8
0
 10
-184.249985
 20
-67.638931
 11
-115.681442
 21
-67.638931
  0
LINE
  8
0
 10
-184.249985
 20
-60.568939
 11
-115.681442
 21
-60.568939
  0
LINE
  8
0
 10
-184.249985
 20
-46.428940
 11
-115.681442
 21
-46.428940
  0
LINE
  8
0
 10
-184.249985
 20
-53.498932
 11
-115.681442
 21
-53.498932
  0
LINE
  8
0
 10
-184.249985
 20
17.210693
 11
-115.681442
 21
17.210693
  0
LINE
  8
0
 10
-184.249985
 20
10.139621
 11
-115.681442
 21
10.139621
  0
LINE
  8
0
 10
-184.249985
 20
3.068542
 11
-115.681442
 21
3.068542
  0
LINE
  8
0
 10
-184.249985
 20
-4.002525
 11
-115.681442
 21
-4.002525
  0
LINE
  8
0
 10
-184.249985
 20
-11.073594
 11
-115.681442
 21
-11.073594
  0
LINE
  8
0
 10
-184.249985
 20
-18.144653
 11
-115.681442
 21
-18.144653
  0
LINE
  8
0
 10
-184.249985
 20
-25.215729
 11
-115.681442
 21
-25.215729
  0
LINE
  8
0
 10
-184.249985
 20
-32.286804
 11
-115.681442
 21
-32.286804
  0
LINE
  8
0
 10
-184.249985
 20
-39.357864
 11
-115.681442
 21
-39.357864
  0
LINE
  8
0
 10
-184.249985
 20
-46.428940
 11
-115.681442
 21
-46.428940
  0
LINE
  8
0
 10
-184.249985
 20
17.210693
 11
-184.249985
 21
-124.198929
  0
LINE
  8
0
 10
-158.107681
 20
17.210678
 11
-158.107681
 21
-124.198929
  0
LINE
  8
0
 10
-136.894638
 20
17.210678
 11
-136.894638
 21
-124.198929
  0
LINE
  8
0
 10
-115.681442
 20
17.210678
 11
-115.681442
 21
-124.198929
  0
LINE
  8
0
 10
-109.250000
 20
132.600006
 11
-109.250000
 21
117.600006
  0
LINE
  8
0
 10
-194.250000
 20
117.600006
 11
-109.250000
 21
117.600006
  0
LINE
  8
0
 10
109.800003
 20
117.600006
 11
194.800003
 21
117.600006
  0
LINE
  8
0
 10
109.800003
 20
132.600006
 11
109.800003
 21
117.600006
  0
LINE
  8
0
 10
109.800003
 20
-118.500000
 11
194.800003
 21
-118.500000
  0
LINE
  8
0
 10
109.800003
 20
-118.500000
 11
109.800003
 21
-133.500000
  0
LINE
  8
0
 10
-194.250000
 20
-133.500000
 11
194.800003
 21
-133.500000
  0
LINE
  8
0
 10
-194.250000
 20
132.600006
 11
-194.250000
 21
-133.500000
  0
LINE
  8
0
 10
194.800003
 20
132.600006
 11
194.800003
 21
-133.500000
  0
LINE
  8
0
 10
-194.250000
 20
132.600006
 11
194.800003
 21
132.600006
  0
CIRCLE
  8
0
 62
     4
 10
-5.083344
 20
56.333328
 40
0.650000
  0
CIRCLE
  8
0
 62
     4
 10
-2.583344
 20
56.333328
 40
0.650000
  0
ARC
  8
0
 62
     4
 10
-2.583344
 20
56.333328
 40
1.500000
 50
270.000031
 51
89.999985
  0
ARC
  8
0
 62
     4
 10
-5.083344
 20
56.333328
 40
1.500000
 50
89.999985
 51
270.000000
  0
ARC
  8
0
 62
     4
 10
0.666656
 20
59.333328
 40
0.500000
 50
0.000000
 51
89.999977
  0
ARC
  8
0
 62
     4
 10
-8.333344
 20
59.333328
 40
0.500000
 50
90.000000
 51
180.000000
  0
ARC
  8
0
 62
     4
 10
-8.103348
 20
59.333328
 40
0.500000
 50
90.000000
 51
180.000000
  0
ARC
  8
0
 62
     4
 10
0.436661
 20
59.333328
 40
0.500000
 50
0.000000
 51
89.999985
  0
ARC
  8
0
 62
     4
 10
0.436661
 20
43.045731
 40
0.500000
 50
270.000031
 51
0.000000
  0
ARC
  8
0
 62
     4
 10
-8.103348
 20
43.045731
 40
0.500000
 50
180.000000
 51
270.000000
  0
ARC
  8
0
 62
     4
 10
-8.037308
 20
61.633331
 40
0.599998
 50
90.000000
 51
170.041977
  0
ARC
  8
0
 62
     4
 10
-6.237305
 20
61.633331
 40
0.600000
 50
19.471294
 51
90.000000
  0
ARC
  8
0
 62
     4
 10
-1.429382
 20
61.633331
 40
0.599998
 50
89.999977
 51
180.000000
  0
ARC
  8
0
 62
     4
 10
0.370636
 20
61.633331
 40
0.600000
 50
0.000000
 51
89.999985
  0
ARC
  8
0
 62
     4
 10
0.666656
 20
61.333328
 40
0.500000
 50
0.000000
 51
53.853500
  0
ARC
  8
0
 62
     4
 10
-8.333344
 20
61.333328
 40
0.500000
 50
90.000000
 51
180.000000
  0
ARC
  8
0
 10
-8.100006
 20
19.404160
 40
0.533334
 50
187.632538
 51
253.808640
  0
ARC
  8
0
 10
-7.133347
 20
22.733322
 40
4.000000
 50
253.808701
 51
286.191345
  0
ARC
  8
0
 10
-6.166672
 20
19.404160
 40
0.533333
 50
286.191376
 51
352.367462
  0
CIRCLE
  8
0
 10
-3.833344
 20
39.033325
 40
0.900000
  0
CIRCLE
  8
0
 10
-3.833344
 20
39.033325
 40
2.000000
  0
CIRCLE
  8
0
 10
-12.333344
 20
33.833328
 40
1.599999
  0
CIRCLE
  8
0
 10
45.466644
 20
33.833328
 40
1.599999
  0
ARC
  8
0
 10
3.066653
 20
22.733322
 40
4.000000
 50
253.808701
 51
286.191345
  0
CIRCLE
  8
0
 10
6.366653
 20
39.033325
 40
2.000000
  0
CIRCLE
  8
0
 10
6.366653
 20
39.033325
 40
0.900000
  0
ARC
  8
0
 10
4.033325
 20
19.404160
 40
0.533333
 50
286.191376
 51
352.367462
  0
ARC
  8
0
 10
2.099994
 20
19.404160
 40
0.533333
 50
187.632538
 51
253.808670
  0
ARC
  8
0
 62
     4
 10
1.866656
 20
61.333328
 40
0.500000
 50
89.999985
 51
180.000000
  0
ARC
  8
0
 62
     4
 10
10.866653
 20
61.333328
 40
0.500000
 50
0.000000
 51
53.853489
  0
ARC
  8
0
 62
     4
 10
10.570633
 20
61.633331
 40
0.600000
 50
0.000000
 51
90.000000
  0
ARC
  8
0
 62
     4
 10
8.770615
 20
61.633331
 40
0.599998
 50
90.000000
 51
180.000000
  0
ARC
  8
0
 62
     4
 10
3.962692
 20
61.633331
 40
0.600000
 50
19.471294
 51
89.999977
  0
ARC
  8
0
 62
     4
 10
2.162692
 20
61.633331
 40
0.599998
 50
89.999977
 51
170.041977
  0
ARC
  8
0
 62
     4
 10
2.096652
 20
43.045731
 40
0.500000
 50
180.000000
 51
270.000000
  0
ARC
  8
0
 62
     4
 10
10.636658
 20
43.045731
 40
0.500000
 50
270.000000
 51
0.000000
  0
ARC
  8
0
 62
     4
 10
10.636658
 20
59.333328
 40
0.500000
 50
0.000000
 51
90.000000
  0
ARC
  8
0
 62
     4
 10
2.096652
 20
59.333328
 40
0.500000
 50
89.999969
 51
180.000000
  0
ARC
  8
0
 62
     4
 10
1.866656
 20
59.333328
 40
0.500000
 50
89.999985
 51
180.000000
  0
ARC
  8
0
 62
     4
 10
10.866653
 20
59.333328
 40
0.500000
 50
0.000000
 51
90.000000
  0
ARC
  8
0
 62
     4
 10
5.116653
 20
56.333328
 40
1.500000
 50
89.999985
 51
270.000000
  0
ARC
  8
0
 62
     4
 10
7.616653
 20
56.333328
 40
1.500000
 50
270.000031
 51
89.999985
  0
CIRCLE
  8
0
 62
     4
 10
7.616653
 20
56.333328
 40
0.650000
  0
CIRCLE
  8
0
 62
     4
 10
5.116653
 20
56.333328
 40
0.650000
  0
ARC
  8
0
 10
13.266647
 20
22.733322
 40
4.000000
 50
253.808701
 51
286.191345
  0
CIRCLE
  8
0
 10
16.566650
 20
39.033325
 40
2.000000
  0
CIRCLE
  8
0
 10
16.566650
 20
39.033325
 40
0.900000
  0
ARC
  8
0
 10
14.233322
 20
19.404160
 40
0.533333
 50
286.191376
 51
352.367462
  0
ARC
  8
0
 10
12.299988
 20
19.404160
 40
0.533334
 50
187.632538
 51
253.808640
  0
ARC
  8
0
 62
     4
 10
12.066650
 20
61.333328
 40
0.500000
 50
90.000000
 51
180.000000
  0
ARC
  8
0
 62
     4
 10
21.066650
 20
61.333328
 40
0.500000
 50
0.000000
 51
53.853489
  0
ARC
  8
0
 62
     4
 10
20.770630
 20
61.633331
 40
0.600000
 50
0.000000
 51
90.000000
  0
ARC
  8
0
 62
     4
 10
18.970612
 20
61.633331
 40
0.599998
 50
90.000000
 51
180.000000
  0
ARC
  8
0
 62
     4
 10
14.162689
 20
61.633331
 40
0.600000
 50
19.471294
 51
90.000000
  0
ARC
  8
0
 62
     4
 10
12.362686
 20
61.633331
 40
0.599998
 50
90.000000
 51
170.041977
  0
ARC
  8
0
 62
     4
 10
12.296646
 20
43.045731
 40
0.500000
 50
180.000000
 51
270.000000
  0
ARC
  8
0
 62
     4
 10
20.836655
 20
43.045731
 40
0.500000
 50
270.000000
 51
0.000000
  0
ARC
  8
0
 62
     4
 10
20.836655
 20
59.333328
 40
0.500000
 50
0.000000
 51
90.000000
  0
ARC
  8
0
 62
     4
 10
12.296646
 20
59.333328
 40
0.500000
 50
90.000000
 51
180.000000
  0
ARC
  8
0
 62
     4
 10
12.066650
 20
59.333328
 40
0.500000
 50
90.000000
 51
180.000000
  0
ARC
  8
0
 62
     4
 10
21.066650
 20
59.333328
 40
0.500000
 50
0.000000
 51
90.000000
  0
ARC
  8
0
 62
     4
 10
15.316650
 20
56.333328
 40
1.500000
 50
90.000000
 51
270.000000
  0
ARC
  8
0
 62
     4
 10
17.816650
 20
56.333328
 40
1.500000
 50
270.000000
 51
90.000000
  0
CIRCLE
  8
0
 62
     4
 10
17.816650
 20
56.333328
 40
0.650000
  0
CIRCLE
  8
0
 62
     4
 10
15.316650
 20
56.333328
 40
0.650000
  0
ARC
  8
0
 10
23.466644
 20
22.733322
 40
4.000000
 50
253.808701
 51
286.191345
  0
CIRCLE
  8
0
 10
26.766647
 20
39.033325
 40
2.000000
  0
CIRCLE
  8
0
 10
26.766647
 20
39.033325
 40
0.900000
  0
ARC
  8
0
 10
24.433319
 20
19.404160
 40
0.533333
 50
286.191376
 51
352.367462
  0
ARC
  8
0
 10
22.499985
 20
19.404160
 40
0.533334
 50
187.632538
 51
253.808640
  0
ARC
  8
0
 62
     4
 10
22.266647
 20
61.333328
 40
0.500000
 50
90.000000
 51
180.000000
  0
ARC
  8
0
 62
     4
 10
31.266647
 20
61.333328
 40
0.500000
 50
0.000000
 51
53.853489
  0
ARC
  8
0
 62
     4
 10
30.970627
 20
61.633331
 40
0.600000
 50
0.000000
 51
90.000000
  0
ARC
  8
0
 62
     4
 10
29.170609
 20
61.633331
 40
0.599998
 50
90.000000
 51
180.000000
  0
ARC
  8
0
 62
     4
 10
24.362686
 20
61.633331
 40
0.600000
 50
19.471294
 51
90.000000
  0
ARC
  8
0
 62
     4
 10
22.562683
 20
61.633331
 40
0.599998
 50
90.000000
 51
170.041992
  0
ARC
  8
0
 62
     4
 10
22.496643
 20
43.045731
 40
0.500000
 50
180.000000
 51
270.000000
  0
ARC
  8
0
 62
     4
 10
31.036652
 20
43.045731
 40
0.500000
 50
270.000000
 51
0.000000
  0
ARC
  8
0
 62
     4
 10
31.036652
 20
59.333328
 40
0.500000
 50
0.000000
 51
90.000000
  0
ARC
  8
0
 62
     4
 10
22.496643
 20
59.333328
 40
0.500000
 50
90.000000
 51
180.000000
  0
ARC
  8
0
 62
     4
 10
22.266647
 20
59.333328
 40
0.500000
 50
90.000000
 51
180.000000
  0
ARC
  8
0
 62
     4
 10
31.266647
 20
59.333328
 40
0.500000
 50
0.000000
 51
90.000000
  0
ARC
  8
0
 62
     4
 10
25.516647
 20
56.333328
 40
1.500000
 50
90.000000
 51
270.000000
  0
ARC
  8
0
 62
     4
 10
28.016647
 20
56.333328
 40
1.500000
 50
270.000000
 51
90.000000
  0
CIRCLE
  8
0
 62
     4
 10
28.016647
 20
56.333328
 40
0.650000
  0
CIRCLE
  8
0
 62
     4
 10
25.516647
 20
56.333328
 40
0.650000
  0
ARC
  8
0
 10
-7.333365
 20
36.333328
 40
1.600242
 50
200.389679
 51
159.610321
  0
CIRCLE
  8
0
 10
-7.333365
 20
36.333328
 40
1.500227
  0
ARC
  8
0
 10
-0.333323
 20
36.333328
 40
1.600242
 50
20.389683
 51
339.610321
  0
CIRCLE
  8
0
 10
-0.333323
 20
36.333328
 40
1.500227
  0
ARC
  8
0
 10
2.866634
 20
36.333328
 40
1.600242
 50
200.389679
 51
159.610321
  0
CIRCLE
  8
0
 10
2.866634
 20
36.333328
 40
1.500227
  0
ARC
  8
0
 10
13.066620
 20
36.333328
 40
1.600242
 50
200.389679
 51
159.610321
  0
CIRCLE
  8
0
 10
13.066620
 20
36.333328
 40
1.500227
  0
ARC
  8
0
 10
23.266632
 20
36.333328
 40
1.600242
 50
200.389679
 51
159.610321
  0
CIRCLE
  8
0
 10
23.266632
 20
36.333328
 40
1.500227
  0
ARC
  8
0
 10
9.866653
 20
36.333328
 40
1.600242
 50
20.389685
 51
339.610321
  0
CIRCLE
  8
0
 10
9.866653
 20
36.333328
 40
1.500227
  0
ARC
  8
0
 10
20.066620
 20
36.333328
 40
1.600242
 50
20.389673
 51
339.610291
  0
CIRCLE
  8
0
 10
20.066620
 20
36.333328
 40
1.500227
  0
ARC
  8
0
 10
30.266602
 20
36.333328
 40
1.600242
 50
20.389673
 51
339.610291
  0
CIRCLE
  8
0
 10
30.266602
 20
36.333328
 40
1.500227
  0
ARC
  8
0
 10
40.466583
 20
36.333328
 40
1.600241
 50
20.389696
 51
339.610291
  0
CIRCLE
  8
0
 10
40.466583
 20
36.333328
 40
1.500227
  0
ARC
  8
0
 10
33.466721
 20
36.333328
 40
1.600242
 50
200.389679
 51
159.610321
  0
CIRCLE
  8
0
 10
33.466721
 20
36.333328
 40
1.500227
  0
CIRCLE
  8
0
 10
-0.533340
 20
-48.966675
 40
1.750000
  0
CIRCLE
  8
0
 10
-7.133347
 20
-38.366669
 40
1.750000
  0
ARC
  8
0
 62
     4
 10
0.481018
 20
-31.566681
 40
0.500000
 50
4.999922
 51
89.999931
  0
ARC
  8
0
 62
     4
 10
-8.147705
 20
-31.566681
 40
0.500000
 50
89.999893
 51
175.000076
  0
ARC
  8
0
 10
-4.833344
 20
-38.455032
 40
2.888355
 50
69.743774
 51
110.256027
  0
ARC
  8
0
 10
-2.833344
 20
-38.455032
 40
2.888354
 50
69.743820
 51
110.256073
  0
ARC
  8
0
 10
7.366653
 20
-38.455032
 40
2.888354
 50
69.743820
 51
110.256065
  0
ARC
  8
0
 10
5.366653
 20
-38.455032
 40
2.888355
 50
69.743774
 51
110.256027
  0
ARC
  8
0
 62
     4
 10
2.052295
 20
-31.566681
 40
0.500000
 50
89.999916
 51
175.000076
  0
ARC
  8
0
 62
     4
 10
10.681015
 20
-31.566681
 40
0.500000
 50
4.999922
 51
89.999893
  0
CIRCLE
  8
0
 10
3.066653
 20
-38.366669
 40
1.750000
  0
CIRCLE
  8
0
 10
9.666656
 20
-48.966675
 40
1.750000
  0
ARC
  8
0
 10
17.566650
 20
-38.455032
 40
2.888354
 50
69.743835
 51
110.256065
  0
ARC
  8
0
 10
15.566650
 20
-38.455032
 40
2.888355
 50
69.743767
 51
110.256012
  0
ARC
  8
0
 62
     4
 10
12.252289
 20
-31.566681
 40
0.500000
 50
89.999893
 51
175.000076
  0
ARC
  8
0
 62
     4
 10
20.881012
 20
-31.566681
 40
0.499999
 50
4.999931
 51
90.000000
  0
CIRCLE
  8
0
 10
13.266647
 20
-38.366669
 40
1.750000
  0
CIRCLE
  8
0
 10
19.866653
 20
-48.966675
 40
1.750000
  0
ARC
  8
0
 10
27.766647
 20
-38.455032
 40
2.888354
 50
69.743835
 51
110.256065
  0
ARC
  8
0
 10
25.766647
 20
-38.455032
 40
2.888355
 50
69.743767
 51
110.256035
  0
ARC
  8
0
 62
     4
 10
22.452286
 20
-31.566681
 40
0.500000
 50
90.000000
 51
175.000061
  0
ARC
  8
0
 62
     4
 10
31.081009
 20
-31.566681
 40
0.499999
 50
4.999931
 51
90.000000
  0
CIRCLE
  8
0
 10
23.466644
 20
-38.366669
 40
1.750000
  0
CIRCLE
  8
0
 10
30.066650
 20
-48.966675
 40
1.750000
  0
ARC
  8
0
 62
     4
 10
39.393143
 20
-49.709473
 40
0.426733
 50
112.769112
 51
174.244614
  0
ARC
  8
0
 62
     4
 10
40.466644
 20
-52.267059
 40
3.200481
 50
67.230850
 51
112.769058
  0
ARC
  8
0
 62
     4
 10
41.540131
 20
-49.709473
 40
0.426731
 50
0.000000
 51
67.230888
  0
ARC
  8
0
 62
     4
 10
34.540146
 20
-49.709473
 40
0.426731
 50
5.755391
 51
67.230888
  0
ARC
  8
0
 62
     4
 10
33.466644
 20
-52.267059
 40
3.200481
 50
67.230850
 51
112.769058
  0
ARC
  8
0
 62
     4
 10
32.393158
 20
-49.709473
 40
0.426733
 50
112.769112
 51
180.000000
  0
CIRCLE
  8
0
 62
     2
 10
-5.633344
 20
-55.166672
 40
1.500000
  0
CIRCLE
  8
0
 62
     2
 10
-2.033344
 20
-64.666672
 40
1.500000
  0
CIRCLE
  8
0
 10
-5.633344
 20
-55.166672
 40
1.250000
  0
CIRCLE
  8
0
 10
-2.033344
 20
-64.666672
 40
1.250000
  0
CIRCLE
  8
0
 10
8.166656
 20
-64.666672
 40
1.250000
  0
CIRCLE
  8
0
 10
4.566650
 20
-55.166672
 40
1.250000
  0
CIRCLE
  8
0
 62
     2
 10
8.166656
 20
-64.666672
 40
1.500000
  0
CIRCLE
  8
0
 62
     2
 10
4.566650
 20
-55.166672
 40
1.500000
  0
CIRCLE
  8
0
 10
18.366653
 20
-64.666672
 40
1.250000
  0
CIRCLE
  8
0
 10
14.766647
 20
-55.166672
 40
1.250000
  0
CIRCLE
  8
0
 62
     2
 10
18.366653
 20
-64.666672
 40
1.500000
  0
CIRCLE
  8
0
 62
     2
 10
14.766647
 20
-55.166672
 40
1.500000
  0
CIRCLE
  8
0
 10
28.566650
 20
-64.666672
 40
1.250000
  0
CIRCLE
  8
0
 10
24.966644
 20
-55.166672
 40
1.250000
  0
CIRCLE
  8
0
 62
     2
 10
28.566650
 20
-64.666672
 40
1.500000
  0
CIRCLE
  8
0
 62
     2
 10
24.966644
 20
-55.166672
 40
1.500000
  0
CIRCLE
  8
0
 10
38.766647
 20
-64.666672
 40
1.250000
  0
CIRCLE
  8
0
 10
35.166656
 20
-55.166672
 40
1.250000
  0
CIRCLE
  8
0
 62
     2
 10
38.766647
 20
-64.666672
 40
1.500000
  0
CIRCLE
  8
0
 62
     2
 10
35.166656
 20
-55.166672
 40
1.500000
  0
ARC
  8
0
 62
     4
 10
122.833344
 20
61.633331
 40
0.600003
 50
10.276566
 51
90.000000
  0
ARC
  8
0
 62
     4
 10
112.233337
 20
61.633331
 40
0.599998
 50
0.000000
 51
90.000000
  0
ARC
  8
0
 62
     4
 10
110.433350
 20
61.633331
 40
0.599998
 50
90.000000
 51
180.000000
  0
ARC
  8
0
 62
     4
 10
104.533325
 20
59.333328
 40
0.500000
 50
90.000000
 51
180.000000
  0
ARC
  8
0
 62
     4
 10
104.533325
 20
42.864258
 40
0.500000
 50
180.000000
 51
244.999847
  0
ARC
  8
0
 62
     4
 10
110.133331
 20
61.333328
 40
0.499999
 50
125.503380
 51
180.000000
  0
ARC
  8
0
 62
     4
 10
123.133331
 20
61.333328
 40
0.500000
 50
0.000000
 51
90.000000
  0
ARC
  8
0
 10
106.744171
 20
41.833328
 40
0.500002
 50
244.999847
 51
270.000000
  0
ARC
  8
0
 62
     4
 10
121.033325
 20
61.633331
 40
0.599998
 50
90.000000
 51
160.528824
  0
ARC
  8
0
 10
122.899994
 20
19.404160
 40
0.533333
 50
286.191559
 51
352.367493
  0
ARC
  8
0
 10
120.966675
 20
19.404160
 40
0.533335
 50
187.632523
 51
253.808441
  0
ARC
  8
0
 10
121.933334
 20
22.733322
 40
4.000000
 50
253.808731
 51
286.191376
  0
ARC
  8
0
 10
109.555664
 20
40.765381
 40
1.022325
 50
154.384216
 51
214.384247
  0
ARC
  8
0
 10
112.354706
 20
39.033325
 40
3.821371
 50
162.412048
 51
197.587891
  0
ARC
  8
0
 10
109.555664
 20
37.301285
 40
1.022330
 50
145.615753
 51
205.615784
  0
CIRCLE
  8
0
 62
     2
 10
137.633316
 20
39.333328
 40
2.500000
  0
CIRCLE
  8
0
 62
     2
 10
132.633316
 20
28.333328
 40
2.500000
  0
CIRCLE
  8
0
 10
137.633316
 20
39.333328
 40
2.099999
  0
CIRCLE
  8
0
 10
132.633316
 20
28.333328
 40
2.099999
  0
CIRCLE
  8
0
 62
     2
 10
-99.500000
 20
28.333328
 40
2.500000
  0
CIRCLE
  8
0
 62
     2
 10
-104.500000
 20
39.333328
 40
2.500000
  0
ARC
  8
0
 10
-76.422348
 20
37.301285
 40
1.022325
 50
334.384216
 51
34.384254
  0
ARC
  8
0
 10
-79.221390
 20
39.033325
 40
3.821369
 50
342.412170
 51
17.587946
  0
ARC
  8
0
 10
-76.422348
 20
40.765381
 40
1.022330
 50
325.615753
 51
25.615780
  0
ARC
  8
0
 10
-78.200012
 20
22.733322
 40
4.000000
 50
253.808731
 51
286.191376
  0
ARC
  8
0
 10
-79.166672
 20
19.404160
 40
0.533335
 50
187.632523
 51
253.808441
  0
ARC
  8
0
 10
-77.233353
 20
19.404160
 40
0.533333
 50
286.191559
 51
352.367493
  0
ARC
  8
0
 62
     4
 10
-87.900009
 20
61.633331
 40
0.599998
 50
0.000000
 51
90.000000
  0
ARC
  8
0
 62
     4
 10
-73.610855
 20
41.833328
 40
0.500000
 50
270.000000
 51
295.000336
  0
ARC
  8
0
 62
     4
 10
-90.000015
 20
61.333328
 40
0.500001
 50
125.505310
 51
180.000000
  0
ARC
  8
0
 62
     4
 10
-77.000015
 20
61.333328
 40
0.500000
 50
0.000000
 51
90.000000
  0
ARC
  8
0
 62
     4
 10
-71.400009
 20
42.864258
 40
0.500002
 50
295.000153
 51
0.000000
  0
ARC
  8
0
 62
     4
 10
-71.400009
 20
59.333328
 40
0.500000
 50
0.000000
 51
90.000000
  0
ARC
  8
0
 62
     4
 10
-77.300034
 20
61.633331
 40
0.599998
 50
10.277771
 51
90.000000
  0
ARC
  8
0
 62
     4
 10
-79.100021
 20
61.633331
 40
0.599998
 50
90.000000
 51
160.529175
  0
ARC
  8
0
 62
     4
 10
-89.700027
 20
61.633331
 40
0.599998
 50
90.000000
 51
180.000000
  0
CIRCLE
  8
0
 10
-104.500000
 20
39.333328
 40
2.099999
  0
CIRCLE
  8
0
 10
-99.500000
 20
28.333328
 40
2.099999
  0
TEXT
  8
0
 10
-136.338028
 20
-122.543938
 40
3.199995
  1
217.8
 50
0.000000
 41
1.052632
 51
0.000000
  7
STANDARD
  0
TEXT
  8
0
 10
-136.338028
 20
-115.473930
 40
3.199995
  1
207.6
 50
0.000000
 41
1.052632
 51
0.000000
  7
STANDARD
  0
TEXT
  8
0
 10
-136.338028
 20
-108.403938
 40
3.199995
  1
197.4
 50
0.000000
 41
1.052632
 51
0.000000
  7
STANDARD
  0
TEXT
  8
0
 10
-136.338028
 20
-101.333931
 40
3.199995
  1
187.2
 50
0.000000
 41
1.052632
 51
0.000000
  7
STANDARD
  0
TEXT
  8
0
 10
-136.338028
 20
-94.263939
 40
3.199995
  1
177.0
 50
0.000000
 41
1.052632
 51
0.000000
  7
STANDARD
  0
TEXT
  8
0
 10
-136.338028
 20
-87.193932
 40
3.199995
  1
166.8
 50
0.000000
 41
1.052632
 51
0.000000
  7
STANDARD
  0
TEXT
  8
0
 10
-136.338028
 20
-80.123940
 40
3.199995
  1
156.6
 50
0.000000
 41
1.052632
 51
0.000000
  7
STANDARD
  0
TEXT
  8
0
 10
-136.338028
 20
-73.053932
 40
3.199995
  1
146.4
 50
0.000000
 41
1.052632
 51
0.000000
  7
STANDARD
  0
TEXT
  8
0
 10
-136.338028
 20
-65.983940
 40
3.199995
  1
136.2
 50
0.000000
 41
1.052632
 51
0.000000
  7
STANDARD
  0
TEXT
  8
0
 10
-157.551147
 20
-122.543938
 40
3.199995
  1
210.8
 50
0.000000
 41
1.052632
 51
0.000000
  7
STANDARD
  0
TEXT
  8
0
 10
-157.551147
 20
-115.473930
 40
3.199995
  1
200.6
 50
0.000000
 41
1.052632
 51
0.000000
  7
STANDARD
  0
TEXT
  8
0
 10
-157.551147
 20
-108.403938
 40
3.199995
  1
190.4
 50
0.000000
 41
1.052632
 51
0.000000
  7
STANDARD
  0
TEXT
  8
0
 10
-157.551147
 20
-101.333931
 40
3.199995
  1
180.2
 50
0.000000
 41
1.052632
 51
0.000000
  7
STANDARD
  0
TEXT
  8
0
 10
-157.551147
 20
-94.263939
 40
3.199995
  1
170.0
 50
0.000000
 41
1.052632
 51
0.000000
  7
STANDARD
  0
TEXT
  8
0
 10
-157.551147
 20
-87.193932
 40
3.199995
  1
159.8
 50
0.000000
 41
1.052632
 51
0.000000
  7
STANDARD
  0
TEXT
  8
0
 10
-157.551147
 20
-80.123940
 40
3.199995
  1
149.6
 50
0.000000
 41
1.052632
 51
0.000000
  7
STANDARD
  0
TEXT
  8
0
 10
-157.686722
 20
-73.521431
 40
3.199995
  1
139.4
 50
0.000000
 41
1.052632
 51
0.000000
  7
STANDARD
  0
TEXT
  8
0
 10
-157.551147
 20
-65.983940
 40
3.199995
  1
129.2
 50
0.000000
 41
1.052632
 51
0.000000
  7
STANDARD
  0
TEXT
  8
0
 10
-136.338028
 20
-58.913933
 40
3.199995
  1
126.0
 50
0.000000
 41
1.052632
 51
0.000000
  7
STANDARD
  0
TEXT
  8
0
 10
-157.551147
 20
-58.913933
 40
3.199995
  1
119.0
 50
0.000000
 41
1.052632
 51
0.000000
  7
STANDARD
  0
TEXT
  8
0
 10
-184.078827
 20
-122.543938
 40
3.199995
  1
010MB20A
 50
0.000000
 41
1.052632
 51
0.000000
  7
STANDARD
  0
TEXT
  8
0
 10
-184.078827
 20
-115.473930
 40
3.199995
  1
010MB19A
 50
0.000000
 41
1.052632
 51
0.000000
  7
STANDARD
  0
TEXT
  8
0
 10
-184.078827
 20
-108.403938
 40
3.199995
  1
010MB18A
 50
0.000000
 41
1.052632
 51
0.000000
  7
STANDARD
  0
TEXT
  8
0
 10
-184.078827
 20
-101.333931
 40
3.199995
  1
010MB17A
 50
0.000000
 41
1.052632
 51
0.000000
  7
STANDARD
  0
TEXT
  8
0
 10
-184.078827
 20
-94.263939
 40
3.199995
  1
010MB16A
 50
0.000000
 41
1.052632
 51
0.000000
  7
STANDARD
  0
TEXT
  8
0
 10
-184.078827
 20
-87.193932
 40
3.199995
  1
010MB15A
 50
0.000000
 41
1.052632
 51
0.000000
  7
STANDARD
  0
TEXT
  8
0
 10
-184.078827
 20
-80.123940
 40
3.199995
  1
010MB14A
 50
0.000000
 41
1.052632
 51
0.000000
  7
STANDARD
  0
TEXT
  8
0
 10
-184.078827
 20
-73.053932
 40
3.199995
  1
010MB13A
 50
0.000000
 41
1.052632
 51
0.000000
  7
STANDARD
  0
TEXT
  8
0
 10
-184.078827
 20
-65.983940
 40
3.199995
  1
010MB12A
 50
0.000000
 41
1.052632
 51
0.000000
  7
STANDARD
  0
TEXT
  8
0
 10
-184.078827
 20
-58.913933
 40
3.199995
  1
010MB11A
 50
0.000000
 41
1.052632
 51
0.000000
  7
STANDARD
  0
TEXT
  8
0
 62
     2
 10
48.811951
 20
-27.946661
 40
3.199995
  1
010MBA-BP
 50
0.000000
 41
1.052632
 51
0.000000
  7
STANDARD
  0
TEXT
  8
0
 62
     2
 10
41.459152
 20
-8.346665
 40
3.199995
  1
A010-4E1
 50
0.000000
 41
1.052632
 51
0.000000
  7
STANDARD
  0
TEXT
  8
0
 10
-136.338028
 20
-51.844460
 40
3.199995
  1
115.8
 50
0.000000
 41
1.052632
 51
0.000000
  7
STANDARD
  0
TEXT
  8
0
 10
-136.338028
 20
-44.773399
 40
3.199995
  1
105.6
 50
0.000000
 41
1.052632
 51
0.000000
  7
STANDARD
  0
TEXT
  8
0
 10
-133.138031
 20
-37.702324
 40
3.199995
  1
95.4
 50
0.000000
 41
1.052632
 51
0.000000
  7
STANDARD
  0
TEXT
  8
0
 10
-133.138031
 20
-30.631262
 40
3.199995
  1
85.2
 50
0.000000
 41
1.052632
 51
0.000000
  7
STANDARD
  0
TEXT
  8
0
 10
-133.138031
 20
-23.560186
 40
3.199995
  1
75.0
 50
0.000000
 41
1.052632
 51
0.000000
  7
STANDARD
  0
TEXT
  8
0
 10
-133.138031
 20
-16.489124
 40
3.199995
  1
64.8
 50
0.000000
 41
1.052632
 51
0.000000
  7
STANDARD
  0
TEXT
  8
0
 10
-133.138031
 20
-9.418056
 40
3.199995
  1
54.6
 50
0.000000
 41
1.052632
 51
0.000000
  7
STANDARD
  0
TEXT
  8
0
 10
-133.138031
 20
-2.346988
 40
3.199995
  1
44.4
 50
0.000000
 41
1.052632
 51
0.000000
  7
STANDARD
  0
TEXT
  8
0
 10
-133.138031
 20
4.724086
 40
3.199995
  1
34.2
 50
0.000000
 41
1.052632
 51
0.000000
  7
STANDARD
  0
TEXT
  8
0
 10
-157.551147
 20
-51.844490
 40
3.199995
  1
108.8
 50
0.000000
 41
1.052632
 51
0.000000
  7
STANDARD
  0
TEXT
  8
0
 10
-154.351151
 20
-44.773430
 40
3.199995
  1
98.6
 50
0.000000
 41
1.052632
 51
0.000000
  7
STANDARD
  0
TEXT
  8
0
 10
-154.351151
 20
-37.702354
 40
3.199995
  1
88.4
 50
0.000000
 41
1.052632
 51
0.000000
  7
STANDARD
  0
TEXT
  8
0
 10
-154.351151
 20
-30.631277
 40
3.199995
  1
78.2
 50
0.000000
 41
1.052632
 51
0.000000
  7
STANDARD
  0
TEXT
  8
0
 10
-154.351151
 20
-23.560202
 40
3.199995
  1
68.0
 50
0.000000
 41
1.052632
 51
0.000000
  7
STANDARD
  0
TEXT
  8
0
 10
-154.351151
 20
-16.489134
 40
3.199995
  1
57.8
 50
0.000000
 41
1.052632
 51
0.000000
  7
STANDARD
  0
TEXT
  8
0
 10
-154.351151
 20
-9.418060
 40
3.199995
  1
47.6
 50
0.000000
 41
1.052632
 51
0.000000
  7
STANDARD
  0
TEXT
  8
0
 10
-154.351151
 20
-2.346988
 40
3.199995
  1
37.4
 50
0.000000
 41
1.052632
 51
0.000000
  7
STANDARD
  0
TEXT
  8
0
 10
-154.351151
 20
4.724086
 40
3.199995
  1
27.2
 50
0.000000
 41
1.052632
 51
0.000000
  7
STANDARD
  0
TEXT
  8
0
 10
-184.078827
 20
-51.844490
 40
3.199995
  1
010MB10A
 50
0.000000
 41
1.052632
 51
0.000000
  7
STANDARD
  0
TEXT
  8
0
 10
-184.078827
 20
-44.773430
 40
3.199995
  1
010MB 9A
 50
0.000000
 41
1.052632
 51
0.000000
  7
STANDARD
  0
TEXT
  8
0
 10
-184.078827
 20
-37.702354
 40
3.199995
  1
010MB 8A
 50
0.000000
 41
1.052632
 51
0.000000
  7
STANDARD
  0
TEXT
  8
0
 10
-184.078827
 20
-30.631277
 40
3.199995
  1
010MB 7A
 50
0.000000
 41
1.052632
 51
0.000000
  7
STANDARD
  0
TEXT
  8
0
 10
-184.078827
 20
-23.560202
 40
3.199995
  1
010MB 6A
 50
0.000000
 41
1.052632
 51
0.000000
  7
STANDARD
  0
TEXT
  8
0
 10
-184.078827
 20
-16.489134
 40
3.199995
  1
010MB 5A
 50
0.000000
 41
1.052632
 51
0.000000
  7
STANDARD
  0
TEXT
  8
0
 10
-184.078827
 20
-9.418060
 40
3.199995
  1
010MB 4A
 50
0.000000
 41
1.052632
 51
0.000000
  7
STANDARD
  0
TEXT
  8
0
 10
-184.078827
 20
-2.346988
 40
3.199995
  1
010MB 3A
 50
0.000000
 41
1.052632
 51
0.000000
  7
STANDARD
  0
TEXT
  8
0
 10
-184.078827
 20
4.724085
 40
3.199995
  1
010MB 2A
 50
0.000000
 41
1.052632
 51
0.000000
  7
STANDARD
  0
TEXT
  8
0
 10
-176.678833
 20
11.795161
 40
3.199995
  1
TYPE
 50
0.000000
 41
1.052632
 51
0.000000
  7
STANDARD
  0
TEXT
  8
0
 10
-180.707916
 20
19.160692
 40
4.500000
  1
DIMENSION LIST
 50
0.000000
 41
1.052632
 51
0.000000
  7
STANDARD
  0
TEXT
  8
0
 10
113.700287
 20
-130.669998
 40
6.300000
  1
KOGANEI CORP.
 50
0.000000
 41
1.052632
 51
0.000000
  7
STANDARD
  0
TEXT
  8
0
 10
136.157150
 20
122.050003
 40
4.500000
  1
Vƒ¶ .2.0
 50
0.000000
 41
1.052632
 51
0.000000
  7
STANDARD
  0
TEXT
  8
0
 10
-186.892654
 20
104.550003
 40
4.500000
  1
MODEL:010MB5A
 50
0.000000
 41
1.052632
 51
0.000000
  7
STANDARD
  0
TEXT
  8
0
 10
-174.642654
 20
122.050003
 40
4.500000
  1
010 SERIES
 50
0.000000
 41
1.052632
 51
0.000000
  7
STANDARD
  0
TEXT
  8
0
 10
-149.304977
 20
11.792020
 40
3.200000
  1
P
 50
0.100000
 41
1.052632
 51
0.000000
  7
STANDARD
  0
TEXT
  8
0
 10
-127.649834
 20
11.792005
 40
3.200000
  1
L
 50
0.100000
 41
1.052632
 51
0.000000
  7
STANDARD
  0
TEXT
  8
0
 62
     2
 10
14.759650
 20
93.558563
 40
3.200000
  1
L
 50
0.000000
 41
1.052632
 51
0.000000
  7
STANDARD
  0
LINE
  8
0
 62
     2
 10
-15.833344
 20
92.558563
 11
48.966644
 21
92.558563
  0
LINE
  8
0
 62
     2
 10
-15.833344
 20
92.558563
 11
-12.935566
 21
93.335022
  0
LINE
  8
0
 62
     2
 10
-15.833344
 20
92.558563
 11
-12.935566
 21
91.782104
  0
LINE
  8
0
 62
     2
 10
48.966644
 20
92.558563
 11
46.068867
 21
91.782104
  0
LINE
  8
0
 62
     2
 10
48.966644
 20
92.558563
 11
46.068867
 21
93.335022
  0
LINE
  8
0
 62
     2
 10
-15.833344
 20
47.333328
 11
-15.833344
 21
94.058563
  0
LINE
  8
0
 62
     2
 10
48.966644
 20
47.333328
 11
48.966644
 21
94.058563
  0
TEXT
  8
0
 62
     2
 10
52.978413
 20
86.917557
 40
3.200000
  1
3.5
 50
0.000000
 41
1.052632
 51
0.000000
  7
STANDARD
  0
LINE
  8
0
 62
     2
 10
48.966644
 20
85.917557
 11
62.328411
 21
85.917557
  0
LINE
  8
0
 62
     2
 10
45.466644
 20
85.917557
 11
48.966644
 21
85.917557
  0
LINE
  8
0
 62
     2
 10
45.466644
 20
85.917557
 11
42.568867
 21
85.141098
  0
LINE
  8
0
 62
     2
 10
45.466644
 20
85.917557
 11
42.568867
 21
86.694016
  0
LINE
  8
0
 62
     2
 10
45.466644
 20
85.917557
 11
39.466644
 21
85.917557
  0
LINE
  8
0
 62
     2
 10
48.966644
 20
85.917557
 11
51.864422
 21
86.694016
  0
LINE
  8
0
 62
     2
 10
48.966644
 20
85.917557
 11
51.864422
 21
85.141098
  0
LINE
  8
0
 62
     2
 10
48.966644
 20
85.917557
 11
54.966644
 21
85.917557
  0
LINE
  8
0
 62
     2
 10
45.466644
 20
36.333313
 11
45.466644
 21
87.417557
  0
LINE
  8
0
 62
     2
 10
48.966644
 20
47.333313
 11
48.966644
 21
87.417557
  0
TEXT
  8
0
 62
     2
 10
14.759650
 20
86.917557
 40
3.200000
  1
P
 50
0.000000
 41
1.052632
 51
0.000000
  7
STANDARD
  0
LINE
  8
0
 62
     2
 10
-12.333344
 20
85.917557
 11
45.466644
 21
85.917557
  0
LINE
  8
0
 62
     2
 10
-12.333344
 20
85.917557
 11
-9.435566
 21
86.694016
  0
LINE
  8
0
 62
     2
 10
-12.333344
 20
85.917557
 11
-9.435566
 21
85.141098
  0
LINE
  8
0
 62
     2
 10
45.466644
 20
85.917557
 11
42.568867
 21
85.141098
  0
LINE
  8
0
 62
     2
 10
45.466644
 20
85.917557
 11
42.568867
 21
86.694016
  0
LINE
  8
0
 62
     2
 10
-12.333344
 20
36.333328
 11
-12.333344
 21
87.417557
  0
LINE
  8
0
 62
     2
 10
45.466644
 20
36.333328
 11
45.466644
 21
87.417557
  0
TEXT
  8
0
 62
     2
 10
-29.072033
 20
86.917557
 40
3.200000
  1
3.5
 50
0.000000
 41
1.052632
 51
0.000000
  7
STANDARD
  0
LINE
  8
0
 62
     2
 10
-15.833344
 20
85.917557
 11
-28.408033
 21
85.917557
  0
LINE
  8
0
 62
     2
 10
-15.833344
 20
85.917557
 11
-12.333344
 21
85.917557
  0
LINE
  8
0
 62
     2
 10
-15.833344
 20
85.917557
 11
-18.731121
 21
85.141098
  0
LINE
  8
0
 62
     2
 10
-15.833344
 20
85.917557
 11
-18.731121
 21
86.694016
  0
LINE
  8
0
 62
     2
 10
-15.833344
 20
85.917557
 11
-21.833344
 21
85.917557
  0
LINE
  8
0
 62
     2
 10
-12.333344
 20
85.917557
 11
-9.435566
 21
86.694016
  0
LINE
  8
0
 62
     2
 10
-12.333344
 20
85.917557
 11
-9.435566
 21
85.141098
  0
LINE
  8
0
 62
     2
 10
-12.333344
 20
85.917557
 11
-6.333344
 21
85.917557
  0
LINE
  8
0
 62
     2
 10
-15.833344
 20
47.333328
 11
-15.833344
 21
87.417557
  0
LINE
  8
0
 62
     2
 10
-12.333344
 20
36.333328
 11
-12.333344
 21
87.417557
  0
ENDSEC
  0
EOF
