  0
SECTION
  2
HEADER
  0
ENDSEC
  0
SECTION
  2
TABLES
  0
TABLE
  2
LTYPE
 70
     4
  0
LTYPE
  2
CONTINUOUS
 70
    64
  3
Solid line
 72
    65
 73
     0
 40
0.000000
  0
LTYPE
  2
DASHED
 70
    64
  3
__ __ __ __ __ __ __ __ __ __ __ __ __ __ __
 72
    65
 73
     2
 40
3.500000
 49
2.000000
 49
-1.500000
  0
LTYPE
  2
CENTER
 70
    64
  3
____ _ ____ _ ____ _ ____ _ ____ _ ____ _ ____
 72
    65
 73
     4
 40
17.500000
 49
13.000000
 49
-1.500000
 49
1.500000
 49
-1.500000
  0
LTYPE
  2
PHANTOM
 70
    64
  3
_____ _ _ _____ _ _ _____ _ _ _____ _ _ ____  
 72
    65
 73
     6
 40
15.500000
 49
8.000000
 49
-1.500000
 49
1.500000
 49
-1.500000
 49
1.500000
 49
-1.500000
  0
LTYPE
  2
DASHED1
 70
    64
  3
__ __ __ __ __ __ __ __ __ __ __ __ __ __ __
 72
    65
 73
     2
 40
1.500000
 49
1.000000
 49
-0.500000
  0
LTYPE
  2
DASHED2
 70
    64
  3
__ __ __ __ __ __ __ __ __ __ __ __ __ __ __
 72
    65
 73
     2
 40
3.500000
 49
2.500000
 49
-1.000000
  0
LTYPE
  2
DASHED3
 70
    64
  3
__ __ __ __ __ __ __ __ __ __ __ __ __ __ __
 72
    65
 73
     2
 40
6.000000
 49
4.000000
 49
-2.000000
  0
LTYPE
  2
DASHED4
 70
    64
  3
__ __ __ __ __ __ __ __ __ __ __ __ __ __ __
 72
    65
 73
     2
 40
12.000000
 49
10.000000
 49
-2.000000
  0
LTYPE
  2
DASHED5
 70
    64
  3
__ __ __ __ __ __ __ __ __ __ __ __ __ __ __
 72
    65
 73
     2
 40
17.000000
 49
15.000000
 49
-2.000000
  0
LTYPE
  2
DASHED6
 70
    64
  3
__ __ __ __ __ __ __ __ __ __ __ __ __ __ __
 72
    65
 73
     2
 40
29.000000
 49
27.000000
 49
-2.000000
  0
LTYPE
  2
PHANTOM1
 70
    64
  3
_____ _ _ _____ _ _ _____ _ _ _____ _ _ ____  
 72
    65
 73
     6
 40
31.000000
 49
25.000000
 49
-1.500000
 49
1.000000
 49
-1.000000
 49
1.000000
 49
-1.500000
  0
LTYPE
  2
PHANTOM2
 70
    64
  3
_____ _ _ _____ _ _ _____ _ _ _____ _ _ ____  
 72
    65
 73
     6
 40
36.000000
 49
27.000000
 49
-1.500000
 49
2.500000
 49
-1.000000
 49
2.500000
 49
-1.500000
  0
LTYPE
  2
PHANTOM3
 70
    64
  3
_____ _ _ _____ _ _ _____ _ _ _____ _ _ ____  
 72
    65
 73
     6
 40
78.000000
 49
64.000000
 49
-2.000000
 49
4.000000
 49
-2.000000
 49
4.000000
 49
-2.000000
  0
LTYPE
  2
CENTER1
 70
    64
  3
____ _ ____ _ ____ _ ____ _ ____ _ ____ _ ____
 72
    65
 73
     4
 40
19.000000
 49
14.000000
 49
-1.000000
 49
3.000000
 49
-1.000000
  0
LTYPE
  2
CENTER2
 70
    64
  3
____ _ ____ _ ____ _ ____ _ ____ _ ____ _ ____
 72
    65
 73
     4
 40
28.500000
 49
25.000000
 49
-1.000000
 49
1.500000
 49
-1.000000
  0
LTYPE
  2
CENTER3
 70
    64
  3
____ _ ____ _ ____ _ ____ _ ____ _ ____ _ ____
 72
    65
 73
     4
 40
31.500000
 49
27.000000
 49
-1.000000
 49
2.500000
 49
-1.000000
  0
LTYPE
  2
CENTER4
 70
    64
  3
____ _ ____ _ ____ _ ____ _ ____ _ ____ _ ____
 72
    65
 73
     4
 40
50.000000
 49
45.000000
 49
-1.000000
 49
3.000000
 49
-1.000000
  0
LTYPE
  2
CENTER5
 70
    64
  3
____ _ ____ _ ____ _ ____ _ ____ _ ____ _ ____
 72
    65
 73
     4
 40
100.000000
 49
92.000000
 49
-2.000000
 49
4.000000
 49
-2.000000
  0
LTYPE
  2
SBK1
 70
    64
  3
______ _ _ _ ______ _ _ _ ______ _ _ _ _____  
 72
    65
 73
     8
 40
60.500000
 49
45.000000
 49
-2.000000
 49
2.500000
 49
-2.000000
 49
2.500000
 49
-2.000000
 49
2.500000
 49
-2.000000
  0
LTYPE
  2
SBK2
 70
    64
  3
______ _ _ _ ______ _ _ _ ______ _ _ _ _____  
 72
    65
 73
     8
 40
84.000000
 49
64.000000
 49
-2.000000
 49
4.000000
 49
-2.000000
 49
4.000000
 49
-2.000000
 49
4.000000
 49
-2.000000
  0
LTYPE
  2
STCH
 70
    64
  3
__ __ __ __ __ __ __ __ __ __ __ __ __ __ __
 72
    65
 73
     2
 40
3.000000
 49
1.000000
 49
-2.000000
  0
LTYPE
  2
MTCH
 70
    64
  3
_____ _ _ _____ _ _ _____ _ _ _____ _ _ ____  
 72
    65
 73
     6
 40
80.000000
 49
66.000000
 49
-2.000000
 49
4.000000
 49
-2.000000
 49
4.000000
 49
-2.000000
  0
ENDTAB
  0
TABLE
  2
LAYER
 70
     1
  0
LAYER
  2
0
 70
     0
 62
     7
  6
CONTINUOUS
  0
ENDTAB
  0
TABLE
  2
STYLE
 70
     1
  0
STYLE
  2
STANDARD
 70
     0
 40
0.000000
 41
1.000000
 50
0.000000
 71
     0
 42
0.200000
  3
txt
  4
BIGFONT
  0
ENDTAB
  0
TABLE
  2
VIEW
 70
     0
  0
ENDTAB
  0
ENDSEC
  0
SECTION
  2
BLOCKS
  0
ENDSEC
  0
SECTION
  2
ENTITIES
  0
LINE
  8
0
 62
     4
 10
79.670174
 20
34.097950
 11
79.697212
 21
34.152039
  0
LINE
  8
0
 62
     4
 10
79.827202
 20
34.152046
 11
79.697205
 21
34.152046
  0
LINE
  8
0
  6
CENTER
 62
     2
 10
80.697205
 20
-0.547953
 11
80.697205
 21
-5.547953
  0
LINE
  8
0
  6
CENTER
 62
     2
 10
78.197205
 20
-3.047953
 11
83.197205
 21
-3.047953
  0
LINE
  8
0
  6
CENTER
 62
     2
 10
91.697205
 20
-0.547953
 11
91.697205
 21
-5.547953
  0
LINE
  8
0
  6
CENTER
 62
     2
 10
89.197205
 20
-3.047953
 11
94.197205
 21
-3.047953
  0
LINE
  8
0
  6
CENTER
 62
     2
 10
81.839798
 20
-0.047953
 11
90.411880
 21
-0.047953
  0
LINE
  8
0
  6
CENTER
 62
     2
 10
83.825371
 20
-5.547953
 11
88.724655
 21
-5.547953
  0
LINE
  8
0
  6
CENTER
 62
     2
 10
84.122299
 20
-13.547953
 11
88.724655
 21
-13.547953
  0
LINE
  8
0
 10
78.697205
 20
5.952047
 11
78.697205
 21
-26.547953
  0
LINE
  8
0
 10
93.697205
 20
5.952047
 11
93.697205
 21
-26.547953
  0
LINE
  8
0
  6
CENTER
 62
     2
 10
86.197205
 20
36.652046
 11
86.197205
 21
-28.027948
  0
LINE
  8
0
 10
78.697205
 20
-24.047953
 11
93.697205
 21
-24.047953
  0
LINE
  8
0
 10
78.697205
 20
-26.547953
 11
93.697205
 21
-26.547953
  0
LINE
  8
0
 10
93.697205
 20
5.952047
 11
78.697205
 21
5.952047
  0
LINE
  8
0
 62
     4
 10
93.697205
 20
32.152046
 11
93.697205
 21
5.952047
  0
LINE
  8
0
 62
     4
 10
93.697205
 20
31.152044
 11
78.697205
 21
31.152044
  0
LINE
  8
0
 62
     4
 10
78.697205
 20
32.152046
 11
78.697205
 21
5.952047
  0
LINE
  8
0
 62
     4
 10
93.697205
 20
32.152046
 11
78.697205
 21
32.152046
  0
LINE
  8
0
 62
     4
 10
78.697220
 20
32.152042
 11
79.447212
 21
33.652039
  0
LINE
  8
0
 62
     4
 10
93.697197
 20
32.152035
 11
92.697197
 21
34.152035
  0
LINE
  8
0
 62
     4
 10
84.247208
 20
32.752037
 11
79.147202
 21
32.752037
  0
LINE
  8
0
 62
     4
 10
79.147202
 20
32.752037
 11
79.147202
 21
32.152046
  0
LINE
  8
0
 62
     4
 10
79.447205
 20
34.012047
 11
79.447205
 21
32.752037
  0
LINE
  8
0
 62
     4
 10
92.697205
 20
34.152046
 11
83.577202
 21
34.152046
  0
LINE
  8
0
 62
     4
 10
84.247208
 20
32.752037
 11
84.247208
 21
32.152046
  0
LINE
  8
0
 62
     4
 10
83.947205
 20
34.012047
 11
83.947205
 21
32.752037
  0
LINE
  8
0
 62
     4
 10
84.697205
 20
34.152046
 11
84.697205
 21
32.152046
  0
LINE
  8
0
 62
     4
 10
87.497208
 20
25.652044
 11
84.897202
 21
25.652044
  0
LINE
  8
0
 62
     4
 10
87.497208
 20
22.252035
 11
84.897202
 21
22.252035
  0
LINE
  8
0
  6
CENTER
 62
     2
 10
-35.529957
 20
-46.201599
 11
-40.049957
 21
-46.201599
  0
LINE
  8
0
  6
CENTER
 62
     2
 10
-28.849957
 20
-61.791595
 11
-28.849957
 21
-66.351593
  0
LINE
  8
0
  6
CENTER
 62
     2
 10
-26.709957
 20
-64.201599
 11
-31.099957
 21
-64.201599
  0
LINE
  8
0
 10
-40.849957
 20
-43.201599
 11
-25.849957
 21
-43.201599
  0
LINE
  8
0
 10
-40.849957
 20
-67.201599
 11
-40.849957
 21
-43.201599
  0
LINE
  8
0
 10
-25.849957
 20
-67.201599
 11
-25.849957
 21
-43.201599
  0
LINE
  8
0
  6
CENTER
 62
     2
 10
-37.849957
 20
-43.721600
 11
-37.849957
 21
-48.511597
  0
LINE
  8
0
  6
CENTER
 62
     2
 10
-33.349957
 20
-41.241600
 11
-33.349957
 21
-68.861588
  0
LINE
  8
0
 10
-40.849957
 20
-67.201599
 11
-25.849957
 21
-67.201599
  0
LINE
  8
0
 62
     4
 10
-30.319958
 20
-67.201599
 11
-30.319958
 21
-69.201599
  0
LINE
  8
0
 62
     4
 10
-36.319958
 20
-67.201599
 11
-36.319958
 21
-69.201599
  0
LINE
  8
0
 62
     4
 10
-32.899956
 20
-79.201599
 11
-32.899956
 21
-74.851593
  0
LINE
  8
0
 62
     4
 10
-31.199957
 20
-79.201599
 11
-31.199957
 21
-74.401596
  0
LINE
  8
0
 62
     4
 10
-32.369957
 20
-89.201599
 11
-32.369957
 21
-79.201599
  0
LINE
  8
0
 62
     4
 10
-31.729958
 20
-89.201599
 11
-31.729958
 21
-79.201599
  0
LINE
  8
0
 62
     4
 10
-31.199957
 20
-79.201599
 11
-32.899956
 21
-79.201599
  0
LINE
  8
0
 62
     4
 10
-31.729958
 20
-89.201599
 11
-32.369957
 21
-89.201599
  0
LINE
  8
0
 62
     4
 10
-35.499954
 20
-79.201599
 11
-35.499954
 21
-75.551590
  0
LINE
  8
0
 62
     4
 10
-33.799957
 20
-79.201599
 11
-33.799957
 21
-75.091599
  0
LINE
  8
0
 62
     4
 10
-34.969955
 20
-89.201599
 11
-34.969955
 21
-79.201599
  0
LINE
  8
0
 62
     4
 10
-34.329956
 20
-89.201599
 11
-34.329956
 21
-79.201599
  0
LINE
  8
0
 62
     4
 10
-33.799957
 20
-79.201599
 11
-35.499954
 21
-79.201599
  0
LINE
  8
0
 62
     4
 10
-34.329956
 20
-89.201599
 11
-34.969955
 21
-89.201599
  0
LINE
  8
0
  6
CENTER
 62
     1
 10
-37.499958
 20
-74.531593
 11
-29.199959
 21
-72.311592
  0
LINE
  8
0
  6
CENTER
 62
     1
 10
-37.499958
 20
-76.081589
 11
-29.199963
 21
-73.861588
  0
LINE
  8
0
 62
     4
 10
-35.499954
 20
-74.001587
 11
-35.499954
 21
-69.201599
  0
LINE
  8
0
 62
     4
 10
-33.799957
 20
-73.541595
 11
-33.799957
 21
-69.201599
  0
LINE
  8
0
 62
     4
 10
-32.899956
 20
-73.301590
 11
-32.899956
 21
-69.201599
  0
LINE
  8
0
 62
     4
 10
-31.199957
 20
-72.841599
 11
-31.199957
 21
-69.201599
  0
LINE
  8
0
 62
     4
 10
-36.319958
 20
-69.201599
 11
-30.319958
 21
-69.201599
  0
LINE
  8
0
 62
     4
 10
-33.799957
 20
-76.201599
 11
-32.899956
 21
-76.201599
  0
LINE
  8
0
  6
CENTER
 62
     2
 10
-38.844894
 20
-40.701599
 11
-38.844894
 21
-45.701599
  0
LINE
  8
0
 10
-29.774954
 20
-45.286598
 11
-27.934956
 21
-47.126598
  0
LINE
  8
0
 10
-27.934958
 20
-45.286598
 11
-29.774958
 21
-47.126598
  0
LINE
  8
0
 10
-38.764954
 20
-63.286598
 11
-36.924953
 21
-65.126595
  0
LINE
  8
0
 10
-36.924961
 20
-63.286598
 11
-38.764961
 21
-65.126595
  0
LINE
  8
0
  6
CENTER
 62
     2
 10
-27.349957
 20
-40.701599
 11
-27.349957
 21
-45.701599
  0
LINE
  8
0
  6
CENTER
 62
     2
 10
-33.349957
 20
39.500015
 11
-33.349957
 21
81.570007
  0
LINE
  8
0
 62
     4
 10
-33.799957
 20
75.500015
 11
-32.899956
 21
75.500015
  0
LINE
  8
0
 62
     4
 10
-29.759960
 20
62.590012
 11
-27.939960
 21
64.410011
  0
LINE
  8
0
 62
     4
 10
-27.939964
 20
62.590004
 11
-29.759964
 21
64.410004
  0
LINE
  8
0
 62
     4
 10
-36.929958
 20
44.590015
 11
-38.759956
 21
46.420013
  0
LINE
  8
0
 62
     4
 10
-36.929955
 20
46.420017
 11
-38.759956
 21
44.590019
  0
LINE
  8
0
 62
     4
 10
-40.849957
 20
66.500015
 11
-25.849957
 21
66.500015
  0
LINE
  8
0
 62
     4
 10
-25.849957
 20
42.500015
 11
-25.849957
 21
66.500015
  0
LINE
  8
0
 62
     4
 10
-40.849957
 20
42.500015
 11
-40.849957
 21
66.500015
  0
LINE
  8
0
 62
     4
 10
-40.849957
 20
42.500015
 11
-25.849957
 21
42.500015
  0
LINE
  8
0
 62
     4
 10
-26.849957
 20
43.500015
 11
-26.849957
 21
60.500015
  0
LINE
  8
0
 62
     4
 10
-39.849957
 20
48.500015
 11
-39.849957
 21
65.500015
  0
LINE
  8
0
 62
     4
 10
-39.849957
 20
65.500015
 11
-31.849957
 21
65.500015
  0
LINE
  8
0
 62
     4
 10
-34.849957
 20
43.500015
 11
-26.849957
 21
43.500015
  0
LINE
  8
0
 62
     4
 10
-28.849957
 20
60.500015
 11
-25.849957
 21
60.500015
  0
LINE
  8
0
 62
     4
 10
-37.849957
 20
48.500015
 11
-40.849957
 21
48.500015
  0
LINE
  8
0
 62
     4
 10
-34.849957
 20
45.500015
 11
-34.849957
 21
42.500015
  0
LINE
  8
0
 62
     4
 10
-31.849957
 20
63.500015
 11
-31.849957
 21
66.500015
  0
LINE
  8
0
 62
     4
 10
-30.319958
 20
66.500015
 11
-30.319958
 21
68.500015
  0
LINE
  8
0
 62
     4
 10
-36.319958
 20
68.500015
 11
-30.319958
 21
68.500015
  0
LINE
  8
0
 62
     4
 10
-36.319958
 20
66.500015
 11
-36.319958
 21
68.500015
  0
LINE
  8
0
 62
     4
 10
-31.199957
 20
72.140015
 11
-31.199957
 21
68.500015
  0
LINE
  8
0
 62
     4
 10
-32.899956
 20
72.600006
 11
-32.899956
 21
68.500015
  0
LINE
  8
0
 62
     4
 10
-33.799957
 20
72.840012
 11
-33.799957
 21
68.500015
  0
LINE
  8
0
 62
     4
 10
-35.499954
 20
73.300003
 11
-35.499954
 21
68.500015
  0
LINE
  8
0
  6
CENTER
 62
     1
 10
-37.499958
 20
75.380005
 11
-29.199961
 21
73.160004
  0
LINE
  8
0
  6
CENTER
 62
     1
 10
-37.499958
 20
73.830009
 11
-29.199957
 21
71.610008
  0
LINE
  8
0
 62
     4
 10
-34.329956
 20
88.500015
 11
-34.969955
 21
88.500015
  0
LINE
  8
0
 62
     4
 10
-33.799957
 20
78.500015
 11
-35.499954
 21
78.500015
  0
LINE
  8
0
 62
     4
 10
-34.329956
 20
88.500015
 11
-34.329956
 21
78.500015
  0
LINE
  8
0
 62
     4
 10
-34.969955
 20
88.500015
 11
-34.969955
 21
78.500015
  0
LINE
  8
0
 62
     4
 10
-33.799957
 20
78.500015
 11
-33.799957
 21
74.390015
  0
LINE
  8
0
 62
     4
 10
-35.499954
 20
78.500015
 11
-35.499954
 21
74.850006
  0
LINE
  8
0
 62
     4
 10
-31.729958
 20
88.500015
 11
-32.369957
 21
88.500015
  0
LINE
  8
0
 62
     4
 10
-31.199957
 20
78.500015
 11
-32.899956
 21
78.500015
  0
LINE
  8
0
 62
     4
 10
-31.729958
 20
88.500015
 11
-31.729958
 21
78.500015
  0
LINE
  8
0
 62
     4
 10
-32.369957
 20
88.500015
 11
-32.369957
 21
78.500015
  0
LINE
  8
0
 62
     4
 10
-31.199957
 20
78.500015
 11
-31.199957
 21
73.700012
  0
LINE
  8
0
 62
     4
 10
-32.899956
 20
78.500015
 11
-32.899956
 21
74.150009
  0
LINE
  8
0
  6
CENTER
 62
     2
 10
-38.844894
 20
45.000015
 11
-38.844894
 21
40.000015
  0
LINE
  8
0
  6
CENTER
 62
     2
 10
-27.854958
 20
45.000015
 11
-27.854958
 21
40.000015
  0
LINE
  8
0
  6
CENTER
 62
     2
 10
19.800049
 20
35.825676
 11
19.800049
 21
-28.739435
  0
LINE
  8
0
 62
     4
 10
30.827583
 20
34.101868
 11
30.800051
 21
34.156937
  0
LINE
  8
0
 62
     4
 10
26.932938
 20
34.156929
 11
8.800049
 21
34.156929
  0
LINE
  8
0
 62
     4
 10
25.800049
 20
34.156929
 11
25.800049
 21
32.156929
  0
LINE
  8
0
 62
     4
 10
31.350048
 20
32.756935
 11
31.350048
 21
32.156929
  0
LINE
  8
0
 62
     4
 10
26.250050
 20
32.756935
 11
26.250050
 21
32.156929
  0
LINE
  8
0
 62
     4
 10
31.350048
 20
32.756935
 11
26.250050
 21
32.756935
  0
LINE
  8
0
 62
     4
 10
26.550049
 20
34.016930
 11
26.550049
 21
32.756935
  0
LINE
  8
0
 62
     4
 10
31.050049
 20
34.016930
 11
31.050049
 21
32.756935
  0
LINE
  8
0
 10
31.800049
 20
5.956940
 11
7.800049
 21
5.956940
  0
LINE
  8
0
 10
7.800049
 20
5.956940
 11
7.800049
 21
-26.543055
  0
LINE
  8
0
 10
31.800049
 20
5.956940
 11
31.800049
 21
-26.543055
  0
LINE
  8
0
 10
31.800049
 20
-26.543055
 11
7.800049
 21
-26.543055
  0
LINE
  8
0
 10
31.800049
 20
-24.043055
 11
7.800049
 21
-24.043055
  0
LINE
  8
0
 10
31.800049
 20
5.956940
 11
7.800049
 21
5.956940
  0
LINE
  8
0
 10
10.800049
 20
-4.863059
 11
7.800049
 21
-4.863059
  0
LINE
  8
0
 10
10.800049
 20
-1.233060
 11
7.800049
 21
-1.233060
  0
LINE
  8
0
 10
10.800049
 20
-1.233060
 11
10.800049
 21
-4.863059
  0
LINE
  8
0
 10
10.200058
 20
-1.233060
 11
10.200058
 21
-4.863059
  0
LINE
  8
0
 10
7.800049
 20
5.956940
 11
31.800049
 21
5.956940
  0
LINE
  8
0
 10
31.800049
 20
-20.043055
 11
31.800049
 21
-20.053049
  0
LINE
  8
0
 62
     4
 10
7.800049
 20
31.156927
 11
31.800049
 21
31.156927
  0
LINE
  8
0
 62
     4
 10
7.800049
 20
32.156929
 11
7.800049
 21
5.956940
  0
LINE
  8
0
 62
     4
 10
31.800049
 20
32.156929
 11
31.800049
 21
5.956940
  0
LINE
  8
0
 62
     4
 10
30.800049
 20
34.156929
 11
30.667162
 21
34.156929
  0
LINE
  8
0
 62
     4
 10
7.800049
 20
32.156929
 11
31.800049
 21
32.156929
  0
LINE
  8
0
 62
     4
 10
31.800049
 20
32.156937
 11
31.050051
 21
33.656933
  0
LINE
  8
0
 62
     4
 10
7.800050
 20
32.156937
 11
8.800051
 21
34.156937
  0
LINE
  8
0
 62
     4
 10
43.800049
 20
23.106939
 11
39.800049
 21
23.106939
  0
LINE
  8
0
 62
     4
 10
43.800049
 20
24.806936
 11
39.340050
 21
24.806936
  0
LINE
  8
0
 62
     4
 10
53.800049
 20
23.636938
 11
43.800049
 21
23.636938
  0
LINE
  8
0
 62
     4
 10
53.800049
 20
24.276937
 11
43.800049
 21
24.276937
  0
LINE
  8
0
 62
     4
 10
43.800049
 20
24.806936
 11
43.800049
 21
23.106939
  0
LINE
  8
0
 62
     4
 10
53.800049
 20
24.276937
 11
53.800049
 21
23.636938
  0
LINE
  8
0
  6
CENTER
 62
     1
 10
40.340050
 20
21.106934
 11
38.810051
 21
26.806927
  0
LINE
  8
0
  6
CENTER
 62
     1
 10
38.780052
 20
21.106928
 11
37.260056
 21
26.806927
  0
LINE
  8
0
 62
     4
 10
37.790047
 20
24.806936
 11
33.800049
 21
24.806936
  0
LINE
  8
0
 62
     4
 10
38.250050
 20
23.106939
 11
33.800049
 21
23.106939
  0
LINE
  8
0
 62
     4
 10
33.800049
 20
22.256933
 11
31.800049
 21
22.256933
  0
LINE
  8
0
 62
     4
 10
33.800049
 20
25.656927
 11
33.800049
 21
22.256933
  0
LINE
  8
0
 62
     4
 10
33.800049
 20
25.656927
 11
31.800049
 21
25.656927
  0
LINE
  8
0
  6
CENTER
 62
     2
 10
34.300064
 20
-3.047983
 11
29.300064
 21
-3.047983
  0
LINE
  8
0
  6
CENTER
 62
     2
 10
-96.499954
 20
35.604500
 11
-96.499954
 21
-27.985895
  0
LINE
  8
0
 62
     4
 10
-110.499954
 20
25.657034
 11
-108.499954
 21
25.657034
  0
LINE
  8
0
 62
     4
 10
-110.499954
 20
25.657034
 11
-110.499954
 21
22.257040
  0
LINE
  8
0
 62
     4
 10
-110.499954
 20
22.257040
 11
-108.499954
 21
22.257040
  0
LINE
  8
0
 62
     4
 10
-85.479958
 20
34.097042
 11
-85.499962
 21
34.157043
  0
LINE
  8
0
 62
     4
 10
-114.949951
 20
23.107046
 11
-110.499954
 21
23.107046
  0
LINE
  8
0
 62
     4
 10
-114.489952
 20
24.807043
 11
-110.499954
 21
24.807043
  0
LINE
  8
0
  6
CENTER
 62
     1
 10
-115.479958
 20
21.107038
 11
-113.959961
 21
26.807037
  0
LINE
  8
0
  6
CENTER
 62
     1
 10
-117.039955
 20
21.107042
 11
-115.509956
 21
26.807035
  0
LINE
  8
0
 62
     4
 10
-130.499954
 20
24.277044
 11
-130.499954
 21
23.637045
  0
LINE
  8
0
 62
     4
 10
-120.499954
 20
24.807043
 11
-120.499954
 21
23.107046
  0
LINE
  8
0
 62
     4
 10
-130.499954
 20
24.277044
 11
-120.499954
 21
24.277044
  0
LINE
  8
0
 62
     4
 10
-130.499954
 20
23.637045
 11
-120.499954
 21
23.637045
  0
LINE
  8
0
 62
     4
 10
-120.499954
 20
24.807043
 11
-116.039955
 21
24.807043
  0
LINE
  8
0
 62
     4
 10
-120.499954
 20
23.107046
 11
-116.499954
 21
23.107046
  0
LINE
  8
0
 62
     4
 10
-85.629959
 20
34.157036
 11
-85.499954
 21
34.157036
  0
LINE
  8
0
 62
     4
 10
-89.749954
 20
34.017036
 11
-89.749954
 21
32.757042
  0
LINE
  8
0
 62
     4
 10
-85.249954
 20
34.017036
 11
-85.249954
 21
32.757042
  0
LINE
  8
0
 62
     4
 10
-90.049957
 20
32.757042
 11
-90.049957
 21
32.157036
  0
LINE
  8
0
 62
     4
 10
-84.949966
 20
32.757042
 11
-84.949966
 21
32.157036
  0
LINE
  8
0
 62
     4
 10
-84.949966
 20
32.757042
 11
-90.049957
 21
32.757042
  0
LINE
  8
0
 62
     4
 10
-90.499954
 20
34.157036
 11
-90.499954
 21
32.157036
  0
LINE
  8
0
 62
     4
 10
-84.499954
 20
32.157040
 11
-85.249954
 21
33.657036
  0
LINE
  8
0
 62
     4
 10
-108.499954
 20
32.157036
 11
-107.499954
 21
34.157032
  0
LINE
  8
0
 62
     4
 10
-84.499954
 20
32.157036
 11
-108.499954
 21
32.157036
  0
LINE
  8
0
 62
     4
 10
-107.499954
 20
34.157036
 11
-89.329956
 21
34.157036
  0
LINE
  8
0
 62
     4
 10
-108.499954
 20
32.157036
 11
-108.499954
 21
5.957047
  0
LINE
  8
0
 62
     4
 10
-84.499954
 20
32.157036
 11
-84.499954
 21
5.957047
  0
LINE
  8
0
 62
     4
 10
-84.499954
 20
31.157034
 11
-108.499954
 21
31.157034
  0
LINE
  8
0
 10
-108.499954
 20
-20.042948
 11
-108.499954
 21
-20.052942
  0
LINE
  8
0
 10
-84.499954
 20
5.957047
 11
-108.499954
 21
5.957047
  0
LINE
  8
0
 10
-86.899963
 20
-1.232953
 11
-86.899963
 21
-4.862952
  0
LINE
  8
0
 10
-87.499954
 20
-1.232953
 11
-87.499954
 21
-4.862952
  0
LINE
  8
0
 10
-87.499954
 20
-1.232953
 11
-84.499954
 21
-1.232953
  0
LINE
  8
0
 10
-87.499954
 20
-4.862952
 11
-84.499954
 21
-4.862952
  0
LINE
  8
0
 10
-108.499954
 20
5.957047
 11
-84.499954
 21
5.957047
  0
LINE
  8
0
 10
-108.499954
 20
-24.042948
 11
-84.499954
 21
-24.042948
  0
LINE
  8
0
 10
-108.499954
 20
-26.542948
 11
-84.499954
 21
-26.542948
  0
LINE
  8
0
 10
-108.499954
 20
5.957047
 11
-108.499954
 21
-26.542948
  0
LINE
  8
0
 10
-84.499954
 20
5.957047
 11
-84.499954
 21
-26.542948
  0
LINE
  8
0
 10
-108.499954
 20
5.957047
 11
-84.499954
 21
5.957047
  0
LINE
  8
0
  6
CENTER
 62
     2
 10
-105.999954
 20
-3.047953
 11
-110.999954
 21
-3.047953
  0
LINE
  8
0
 10
-25.844894
 20
-4.087953
 11
-25.844894
 21
-26.547947
  0
LINE
  8
0
 10
-40.844894
 20
-4.087953
 11
-40.844894
 21
-26.547947
  0
LINE
  8
0
 10
-28.764894
 20
-3.967952
 11
-26.934895
 21
-2.137953
  0
LINE
  8
0
 10
-28.764898
 20
-2.137954
 11
-26.934895
 21
-3.967954
  0
LINE
  8
0
 10
-39.754894
 20
-3.967953
 11
-37.924896
 21
-2.137953
  0
LINE
  8
0
 10
-39.754894
 20
-2.137954
 11
-37.924896
 21
-3.967953
  0
LINE
  8
0
 10
-40.844894
 20
5.952046
 11
-25.844894
 21
5.952046
  0
LINE
  8
0
  6
CENTER
 62
     2
 10
-36.844894
 20
-18.047953
 11
-29.844894
 21
-18.047953
  0
LINE
  8
0
  6
CENTER
 62
     2
 10
-36.844894
 20
-6.047953
 11
-29.844894
 21
-6.047953
  0
LINE
  8
0
  6
CENTER
 62
     2
 10
-35.844894
 20
2.452046
 11
-30.844894
 21
2.452046
  0
LINE
  8
0
 10
-40.844894
 20
-26.547947
 11
-25.844894
 21
-26.547947
  0
LINE
  8
0
 10
-40.844894
 20
-24.047947
 11
-25.844894
 21
-24.047947
  0
LINE
  8
0
 10
-25.844894
 20
5.952046
 11
-25.844894
 21
-2.017953
  0
LINE
  8
0
 10
-40.844894
 20
5.952046
 11
-40.844894
 21
-2.017953
  0
LINE
  8
0
 62
     4
 10
-39.864895
 20
34.092045
 11
-39.844894
 21
34.152046
  0
LINE
  8
0
 62
     4
 10
-40.394894
 20
32.752037
 11
-40.394894
 21
32.152031
  0
LINE
  8
0
 62
     4
 10
-35.294895
 20
32.752037
 11
-35.294895
 21
32.152031
  0
LINE
  8
0
 62
     4
 10
-35.294895
 20
32.752037
 11
-40.394894
 21
32.752037
  0
LINE
  8
0
 62
     4
 10
-40.844894
 20
31.152033
 11
-25.844894
 21
31.152033
  0
LINE
  8
0
 62
     4
 10
-40.844894
 20
32.152031
 11
-25.844894
 21
32.152031
  0
LINE
  8
0
 62
     4
 10
-25.844894
 20
32.152035
 11
-26.844894
 21
34.152035
  0
LINE
  8
0
 62
     4
 10
-36.024895
 20
34.152031
 11
-26.844894
 21
34.152031
  0
LINE
  8
0
 62
     4
 10
-35.594894
 20
34.012032
 11
-35.594894
 21
32.752037
  0
LINE
  8
0
 62
     4
 10
-39.844894
 20
34.152031
 11
-39.714893
 21
34.152031
  0
LINE
  8
0
 62
     4
 10
-40.094894
 20
34.012032
 11
-40.094894
 21
32.752037
  0
LINE
  8
0
 62
     4
 10
-40.844887
 20
32.152042
 11
-40.094887
 21
33.652042
  0
LINE
  8
0
 62
     4
 10
-34.844894
 20
34.152031
 11
-34.844894
 21
32.152031
  0
LINE
  8
0
 62
     4
 10
-25.844894
 20
32.152031
 11
-25.844894
 21
5.952046
  0
LINE
  8
0
 62
     4
 10
-40.844894
 20
32.152031
 11
-40.844894
 21
5.952046
  0
LINE
  8
0
  6
CENTER
 62
     2
 10
-33.344894
 20
36.652031
 11
-33.344894
 21
-28.027943
  0
LINE
  8
0
 10
-138.399994
 20
94.500000
 11
138.350006
 21
94.500000
  0
LINE
  8
0
 10
138.350006
 20
94.500000
 11
138.350006
 21
-94.800003
  0
LINE
  8
0
 10
-138.399994
 20
-94.800003
 11
138.350006
 21
-94.800003
  0
LINE
  8
0
 10
-138.399994
 20
94.500000
 11
-138.399994
 21
-94.800003
  0
LINE
  8
0
 10
73.350006
 20
-84.800003
 11
138.350006
 21
-84.800003
  0
LINE
  8
0
 10
-138.399994
 20
84.500000
 11
-73.399994
 21
84.500000
  0
LINE
  8
0
 10
73.350006
 20
84.500000
 11
138.350006
 21
84.500000
  0
LINE
  8
0
 10
73.350006
 20
-84.800003
 11
73.350006
 21
-94.800003
  0
LINE
  8
0
 10
73.350006
 20
94.500000
 11
73.350006
 21
84.500000
  0
LINE
  8
0
 10
-73.399994
 20
94.500000
 11
-73.399994
 21
84.500000
  0
CIRCLE
  8
0
 10
86.197205
 20
-0.047953
 40
2.099999
  0
CIRCLE
  8
0
 62
     2
 10
86.197205
 20
-0.047953
 40
2.500000
  0
CIRCLE
  8
0
 10
91.697205
 20
-3.047953
 40
1.400000
  0
CIRCLE
  8
0
 10
80.697205
 20
-3.047953
 40
1.400000
  0
CIRCLE
  8
0
 10
86.197205
 20
-5.547953
 40
0.900000
  0
CIRCLE
  8
0
 10
86.197205
 20
-13.547953
 40
0.900000
  0
ARC
  8
0
 62
     4
 10
84.897202
 20
23.952047
 40
1.699999
 50
90.000000
 51
270.000000
  0
CIRCLE
  8
0
 62
     4
 10
87.497208
 20
23.952047
 40
0.850000
  0
CIRCLE
  8
0
 62
     4
 10
84.897202
 20
23.952047
 40
0.850000
  0
ARC
  8
0
 62
     4
 10
90.697205
 20
28.452017
 40
5.998022
 50
71.863144
 51
108.136780
  0
ARC
  8
0
 62
     4
 10
81.702202
 20
28.452017
 40
6.000486
 50
68.029022
 51
112.073921
  0
ARC
  8
0
 62
     4
 10
87.497208
 20
23.952047
 40
1.699999
 50
270.000000
 51
90.000000
  0
CIRCLE
  8
0
 10
-28.849957
 20
-64.201599
 40
1.250000
  0
CIRCLE
  8
0
 10
-37.849957
 20
-46.201599
 40
1.250000
  0
CIRCLE
  8
0
 10
-37.849957
 20
-64.201599
 40
2.599999
  0
CIRCLE
  8
0
 10
-28.849957
 20
-46.201599
 40
2.599999
  0
CIRCLE
  8
0
 62
     2
 10
-37.849957
 20
-46.201599
 40
1.500000
  0
CIRCLE
  8
0
 62
     2
 10
-28.849957
 20
-64.201599
 40
1.500000
  0
CIRCLE
  8
0
 62
     4
 10
-37.849941
 20
45.500015
 40
2.250000
  0
CIRCLE
  8
0
 62
     4
 10
-28.849957
 20
63.500015
 40
2.250000
  0
CIRCLE
  8
0
 62
     4
 10
-37.849941
 20
45.500015
 40
2.550000
  0
CIRCLE
  8
0
 62
     4
 10
-28.849957
 20
63.500015
 40
2.550000
  0
ARC
  8
0
 62
     4
 10
-37.849949
 20
45.500023
 40
2.999992
 50
359.999847
 51
90.000076
  0
ARC
  8
0
 62
     4
 10
-28.849957
 20
63.500015
 40
3.000000
 50
180.000000
 51
270.000000
  0
ARC
  8
0
 62
     4
 10
28.800049
 20
28.456961
 40
5.997980
 50
67.967865
 51
112.032104
  0
ARC
  8
0
 10
14.500061
 20
-3.048059
 40
5.991527
 50
162.366440
 51
197.633484
  0
ARC
  8
0
 62
     4
 10
10.800049
 20
28.456961
 40
5.997979
 50
71.862991
 51
108.136978
  0
ARC
  8
0
 62
     4
 10
-105.499954
 20
28.457006
 40
5.998937
 50
71.836945
 51
108.162979
  0
ARC
  8
0
 62
     4
 10
-87.499954
 20
28.457067
 40
5.997979
 50
67.967880
 51
112.032120
  0
ARC
  8
0
 10
-91.199966
 20
-3.047953
 40
5.991528
 50
342.366455
 51
17.633530
  0
CIRCLE
  8
0
 10
-33.344894
 20
-18.047953
 40
2.099999
  0
CIRCLE
  8
0
 10
-33.344894
 20
-6.047953
 40
2.099999
  0
CIRCLE
  8
0
 10
-27.844894
 20
-3.047953
 40
2.250000
  0
CIRCLE
  8
0
 10
-38.844894
 20
-3.047953
 40
2.250000
  0
CIRCLE
  8
0
 10
-33.344894
 20
2.452046
 40
1.500000
  0
ARC
  8
0
 10
-38.844891
 20
-3.052953
 40
2.700786
 50
222.223709
 51
137.776291
  0
ARC
  8
0
 10
-27.844898
 20
-3.052953
 40
2.700785
 50
42.223686
 51
317.776306
  0
CIRCLE
  8
0
 62
     2
 10
-33.344894
 20
-6.047953
 40
2.500000
  0
CIRCLE
  8
0
 62
     2
 10
-33.344894
 20
-18.047953
 40
2.500000
  0
ARC
  8
0
 62
     4
 10
-28.849895
 20
28.452023
 40
6.000485
 50
71.791527
 51
108.208389
  0
ARC
  8
0
 62
     4
 10
-37.844894
 20
28.452023
 40
5.998024
 50
67.968048
 51
112.031914
  0
TEXT
  8
0
 10
-122.107132
 20
87.620003
 40
3.200000
  1
030 SERIES
 50
0.000000
 41
1.052632
 51
0.000000
  7
STANDARD
  0
TEXT
  8
0
 10
-130.207001
 20
72.620003
 40
3.200000
  1
MODEL:030-4E1
 50
0.000000
 41
1.052632
 51
0.000000
  7
STANDARD
  0
TEXT
  8
0
 10
76.207352
 20
-92.850006
 40
4.500000
  1
KOGANEI CORP.
 50
0.000000
 41
1.052632
 51
0.000000
  7
STANDARD
  0
TEXT
  8
0
 10
92.842865
 20
87.620003
 40
3.200000
  1
VER. 1.0
 50
0.000000
 41
1.052632
 51
0.000000
  7
STANDARD
  0
ENDSEC
  0
EOF
