  0
SECTION
  2
HEADER
  0
ENDSEC
  0
SECTION
  2
TABLES
  0
TABLE
  2
LTYPE
 70
     4
  0
LTYPE
  2
CONTINUOUS
 70
    64
  3
Solid line
 72
    65
 73
     0
 40
0.000000
  0
LTYPE
  2
DASHED
 70
    64
  3
__ __ __ __ __ __ __ __ __ __ __ __ __ __ __
 72
    65
 73
     2
 40
3.500000
 49
2.000000
 49
-1.500000
  0
LTYPE
  2
CENTER
 70
    64
  3
____ _ ____ _ ____ _ ____ _ ____ _ ____ _ ____
 72
    65
 73
     4
 40
17.500000
 49
13.000000
 49
-1.500000
 49
1.500000
 49
-1.500000
  0
LTYPE
  2
PHANTOM
 70
    64
  3
_____ _ _ _____ _ _ _____ _ _ _____ _ _ ____  
 72
    65
 73
     6
 40
15.500000
 49
8.000000
 49
-1.500000
 49
1.500000
 49
-1.500000
 49
1.500000
 49
-1.500000
  0
LTYPE
  2
DASHED1
 70
    64
  3
__ __ __ __ __ __ __ __ __ __ __ __ __ __ __
 72
    65
 73
     2
 40
1.500000
 49
1.000000
 49
-0.500000
  0
LTYPE
  2
DASHED2
 70
    64
  3
__ __ __ __ __ __ __ __ __ __ __ __ __ __ __
 72
    65
 73
     2
 40
3.500000
 49
2.500000
 49
-1.000000
  0
LTYPE
  2
DASHED3
 70
    64
  3
__ __ __ __ __ __ __ __ __ __ __ __ __ __ __
 72
    65
 73
     2
 40
6.000000
 49
4.000000
 49
-2.000000
  0
LTYPE
  2
DASHED4
 70
    64
  3
__ __ __ __ __ __ __ __ __ __ __ __ __ __ __
 72
    65
 73
     2
 40
12.000000
 49
10.000000
 49
-2.000000
  0
LTYPE
  2
DASHED5
 70
    64
  3
__ __ __ __ __ __ __ __ __ __ __ __ __ __ __
 72
    65
 73
     2
 40
17.000000
 49
15.000000
 49
-2.000000
  0
LTYPE
  2
DASHED6
 70
    64
  3
__ __ __ __ __ __ __ __ __ __ __ __ __ __ __
 72
    65
 73
     2
 40
29.000000
 49
27.000000
 49
-2.000000
  0
LTYPE
  2
PHANTOM1
 70
    64
  3
_____ _ _ _____ _ _ _____ _ _ _____ _ _ ____  
 72
    65
 73
     6
 40
31.000000
 49
25.000000
 49
-1.500000
 49
1.000000
 49
-1.000000
 49
1.000000
 49
-1.500000
  0
LTYPE
  2
PHANTOM2
 70
    64
  3
_____ _ _ _____ _ _ _____ _ _ _____ _ _ ____  
 72
    65
 73
     6
 40
36.000000
 49
27.000000
 49
-1.500000
 49
2.500000
 49
-1.000000
 49
2.500000
 49
-1.500000
  0
LTYPE
  2
PHANTOM3
 70
    64
  3
_____ _ _ _____ _ _ _____ _ _ _____ _ _ ____  
 72
    65
 73
     6
 40
78.000000
 49
64.000000
 49
-2.000000
 49
4.000000
 49
-2.000000
 49
4.000000
 49
-2.000000
  0
LTYPE
  2
CENTER1
 70
    64
  3
____ _ ____ _ ____ _ ____ _ ____ _ ____ _ ____
 72
    65
 73
     4
 40
19.000000
 49
14.000000
 49
-1.000000
 49
3.000000
 49
-1.000000
  0
LTYPE
  2
CENTER2
 70
    64
  3
____ _ ____ _ ____ _ ____ _ ____ _ ____ _ ____
 72
    65
 73
     4
 40
28.500000
 49
25.000000
 49
-1.000000
 49
1.500000
 49
-1.000000
  0
LTYPE
  2
CENTER3
 70
    64
  3
____ _ ____ _ ____ _ ____ _ ____ _ ____ _ ____
 72
    65
 73
     4
 40
31.500000
 49
27.000000
 49
-1.000000
 49
2.500000
 49
-1.000000
  0
LTYPE
  2
CENTER4
 70
    64
  3
____ _ ____ _ ____ _ ____ _ ____ _ ____ _ ____
 72
    65
 73
     4
 40
50.000000
 49
45.000000
 49
-1.000000
 49
3.000000
 49
-1.000000
  0
LTYPE
  2
CENTER5
 70
    64
  3
____ _ ____ _ ____ _ ____ _ ____ _ ____ _ ____
 72
    65
 73
     4
 40
100.000000
 49
92.000000
 49
-2.000000
 49
4.000000
 49
-2.000000
  0
LTYPE
  2
SBK1
 70
    64
  3
______ _ _ _ ______ _ _ _ ______ _ _ _ _____  
 72
    65
 73
     8
 40
60.500000
 49
45.000000
 49
-2.000000
 49
2.500000
 49
-2.000000
 49
2.500000
 49
-2.000000
 49
2.500000
 49
-2.000000
  0
LTYPE
  2
SBK2
 70
    64
  3
______ _ _ _ ______ _ _ _ ______ _ _ _ _____  
 72
    65
 73
     8
 40
84.000000
 49
64.000000
 49
-2.000000
 49
4.000000
 49
-2.000000
 49
4.000000
 49
-2.000000
 49
4.000000
 49
-2.000000
  0
LTYPE
  2
STCH
 70
    64
  3
__ __ __ __ __ __ __ __ __ __ __ __ __ __ __
 72
    65
 73
     2
 40
3.000000
 49
1.000000
 49
-2.000000
  0
LTYPE
  2
MTCH
 70
    64
  3
_____ _ _ _____ _ _ _____ _ _ _____ _ _ ____  
 72
    65
 73
     6
 40
80.000000
 49
66.000000
 49
-2.000000
 49
4.000000
 49
-2.000000
 49
4.000000
 49
-2.000000
  0
ENDTAB
  0
TABLE
  2
LAYER
 70
     1
  0
LAYER
  2
0
 70
     0
 62
     7
  6
CONTINUOUS
  0
ENDTAB
  0
TABLE
  2
STYLE
 70
     1
  0
STYLE
  2
STANDARD
 70
     0
 40
0.000000
 41
1.000000
 50
0.000000
 71
     0
 42
0.200000
  3
txt
  4
BIGFONT
  0
ENDTAB
  0
TABLE
  2
VIEW
 70
     0
  0
ENDTAB
  0
ENDSEC
  0
SECTION
  2
BLOCKS
  0
ENDSEC
  0
SECTION
  2
ENTITIES
  0
LINE
  8
0
 10
85.575058
 20
-14.501983
 11
100.575058
 21
-14.501983
  0
LINE
  8
0
 62
     4
 10
99.825058
 20
33.558006
 11
99.825058
 21
33.198006
  0
LINE
  8
0
 62
     4
 10
86.547516
 20
33.642933
 11
86.575058
 21
33.698009
  0
LINE
  8
0
 62
     4
 10
86.707947
 20
33.698006
 11
86.575058
 21
33.698006
  0
LINE
  8
0
 62
     4
 10
86.325058
 20
33.558006
 11
86.325058
 21
32.298012
  0
LINE
  8
0
 62
     4
 10
86.025055
 20
32.298012
 11
86.025055
 21
31.698004
  0
LINE
  8
0
 62
     4
 10
91.125061
 20
32.298012
 11
91.125061
 21
31.698004
  0
LINE
  8
0
 62
     4
 10
91.125061
 20
32.298012
 11
86.025055
 21
32.298012
  0
LINE
  8
0
 62
     4
 10
91.575058
 20
33.698006
 11
91.575058
 21
31.698004
  0
LINE
  8
0
 62
     4
 10
90.825058
 20
33.558006
 11
90.825058
 21
32.298012
  0
LINE
  8
0
 10
100.575058
 20
9.998016
 11
100.575058
 21
-14.501983
  0
LINE
  8
0
 10
85.575058
 20
9.998016
 11
85.575058
 21
-14.501983
  0
LINE
  8
0
 10
100.575058
 20
-12.001983
 11
85.575058
 21
-12.001983
  0
LINE
  8
0
 10
100.575058
 20
9.998016
 11
85.575058
 21
9.998016
  0
LINE
  8
0
  6
CENTER
 62
     2
 10
93.075058
 20
35.818016
 11
93.075058
 21
-18.501984
  0
LINE
  8
0
 62
     4
 10
100.575058
 20
31.698004
 11
100.575058
 21
9.998016
  0
LINE
  8
0
 62
     4
 10
100.575058
 20
30.698004
 11
85.575058
 21
30.698004
  0
LINE
  8
0
 62
     4
 10
85.575058
 20
31.698004
 11
85.575058
 21
9.998016
  0
LINE
  8
0
 62
     4
 10
100.575058
 20
31.698004
 11
85.575058
 21
31.698004
  0
LINE
  8
0
 62
     4
 10
85.575058
 20
31.698013
 11
86.325058
 21
33.198009
  0
LINE
  8
0
 62
     4
 10
100.575058
 20
31.698004
 11
99.575058
 21
33.698006
  0
LINE
  8
0
 62
     4
 10
99.575058
 20
33.698006
 11
90.442169
 21
33.698006
  0
LINE
  8
0
 62
     4
 10
94.375061
 20
25.198004
 11
91.775055
 21
25.198004
  0
LINE
  8
0
 62
     4
 10
94.375061
 20
21.798010
 11
91.775055
 21
21.798010
  0
LINE
  8
0
  6
CENTER
 62
     2
 10
97.575058
 20
-10.501983
 11
97.575058
 21
-18.501984
  0
LINE
  8
0
  6
CENTER
 62
     2
 10
88.575058
 20
-10.501983
 11
88.575058
 21
-18.501984
  0
LINE
  8
0
  6
DASHED
 62
     4
 10
113.075058
 20
-19.501984
 11
100.975060
 21
-19.501984
  0
LINE
  8
0
  6
DASHED
 62
     4
 10
113.075058
 20
-17.901981
 11
113.075058
 21
-19.501984
  0
LINE
  8
0
  6
DASHED
 62
     4
 10
108.075058
 20
-17.901981
 11
108.075058
 21
-19.501984
  0
LINE
  8
0
  6
DASHED
 62
     4
 10
78.075058
 20
-17.901981
 11
78.075058
 21
-19.501984
  0
LINE
  8
0
  6
DASHED
 62
     4
 10
85.175056
 20
-16.101982
 11
85.175056
 21
-19.501984
  0
LINE
  8
0
  6
DASHED
 62
     4
 10
100.975060
 20
-16.101982
 11
100.975060
 21
-19.501984
  0
LINE
  8
0
  6
DASHED
 62
     4
 10
73.075058
 20
-17.901981
 11
73.075058
 21
-19.501984
  0
LINE
  8
0
  6
DASHED
 62
     4
 10
113.075058
 20
-17.901981
 11
102.575058
 21
-17.901981
  0
LINE
  8
0
  6
DASHED
 62
     4
 10
102.575058
 20
-14.501983
 11
83.575058
 21
-14.501983
  0
LINE
  8
0
  6
DASHED
 62
     4
 10
85.175056
 20
-19.501984
 11
73.075058
 21
-19.501984
  0
LINE
  8
0
  6
DASHED
 62
     4
 10
83.575058
 20
-14.501983
 11
83.575058
 21
-17.901981
  0
LINE
  8
0
  6
DASHED
 62
     4
 10
102.575058
 20
-14.501983
 11
102.575058
 21
-17.901981
  0
LINE
  8
0
  6
DASHED
 62
     4
 10
83.575058
 20
-17.901981
 11
73.075058
 21
-17.901981
  0
LINE
  8
0
  6
DASHED
 62
     4
 10
100.975060
 20
-16.101982
 11
85.175056
 21
-16.101982
  0
LINE
  8
0
  6
CENTER
 62
     1
 10
107.075058
 20
-14.501983
 11
107.075058
 21
-23.971979
  0
LINE
  8
0
  6
CENTER
 62
     1
 10
79.075058
 20
-14.501983
 11
79.075058
 21
-23.971979
  0
LINE
  8
0
  6
DASHED
 62
     4
 10
100.125061
 20
-16.701982
 11
95.025055
 21
-16.701982
  0
LINE
  8
0
  6
DASHED
 62
     4
 10
100.125061
 20
-16.701982
 11
100.125061
 21
-16.101982
  0
LINE
  8
0
  6
DASHED
 62
     4
 10
95.025055
 20
-16.701982
 11
95.025055
 21
-16.101982
  0
LINE
  8
0
  6
DASHED
 62
     4
 10
99.825058
 20
-17.971981
 11
99.825058
 21
-16.701982
  0
LINE
  8
0
  6
DASHED
 62
     4
 10
95.325058
 20
-17.971981
 11
95.325058
 21
-16.701982
  0
LINE
  8
0
  6
DASHED
 62
     4
 10
91.125061
 20
-16.701982
 11
86.025055
 21
-16.701982
  0
LINE
  8
0
  6
DASHED
 62
     4
 10
91.125061
 20
-16.701982
 11
91.125061
 21
-16.101982
  0
LINE
  8
0
  6
DASHED
 62
     4
 10
86.025055
 20
-16.701982
 11
86.025055
 21
-16.101982
  0
LINE
  8
0
  6
DASHED
 62
     4
 10
90.825058
 20
-17.971981
 11
90.825058
 21
-16.701982
  0
LINE
  8
0
  6
DASHED
 62
     4
 10
86.325058
 20
-17.971981
 11
86.325058
 21
-16.701982
  0
LINE
  8
0
  6
CENTER
 62
     2
 10
85.064835
 20
-3.506983
 11
89.869881
 21
-3.506983
  0
LINE
  8
0
  6
CENTER
 62
     2
 10
98.575058
 20
-1.115352
 11
98.575058
 21
-5.720185
  0
LINE
  8
0
  6
CENTER
 62
     2
 10
87.575058
 20
-0.965194
 11
87.575058
 21
-5.720185
  0
LINE
  8
0
  6
CENTER
 62
     2
 10
97.027397
 20
-0.501984
 11
89.219200
 21
-0.501984
  0
LINE
  8
0
  6
CENTER
 62
     2
 10
94.925194
 20
-6.001983
 11
91.071144
 21
-6.001983
  0
LINE
  8
0
  6
CENTER
 62
     2
 10
95.525818
 20
-3.506983
 11
101.231812
 21
-3.506983
  0
LINE
  8
0
 10
-38.171631
 20
-63.045090
 11
-44.171631
 21
-63.045090
  0
LINE
  8
0
 62
     4
 10
-44.171631
 20
-63.045090
 11
-44.171631
 21
-65.045090
  0
LINE
  8
0
 62
     4
 10
-38.171631
 20
-63.045090
 11
-38.171631
 21
-65.045090
  0
LINE
  8
0
 62
     4
 10
-38.171631
 20
-65.045090
 11
-44.171631
 21
-65.045090
  0
LINE
  8
0
  6
CENTER
 62
     2
 10
-45.674965
 20
-44.334583
 11
-45.674965
 21
-39.669277
  0
LINE
  8
0
  6
CENTER
 62
     2
 10
-48.104942
 20
-42.045105
 11
-42.894962
 21
-42.045105
  0
LINE
  8
0
 10
-44.174965
 20
-63.045105
 11
-48.674961
 21
-63.045105
  0
LINE
  8
0
 62
     4
 10
-43.324963
 20
-68.695099
 11
-43.324963
 21
-65.045105
  0
LINE
  8
0
 62
     4
 10
-41.624962
 20
-69.155090
 11
-41.624962
 21
-65.045105
  0
LINE
  8
0
 62
     4
 10
-40.724960
 20
-69.395096
 11
-40.724960
 21
-65.045105
  0
LINE
  8
0
 62
     4
 10
-39.024963
 20
-69.845093
 11
-39.024963
 21
-65.045105
  0
LINE
  8
0
  6
PHANTOM
 62
     1
 10
-37.024967
 20
-71.935089
 11
-45.324959
 21
-69.715096
  0
LINE
  8
0
  6
PHANTOM
 62
     1
 10
-37.024967
 20
-70.385094
 11
-45.324959
 21
-68.165100
  0
LINE
  8
0
 62
     4
 10
-40.194962
 20
-85.045105
 11
-39.554962
 21
-85.045105
  0
LINE
  8
0
 62
     4
 10
-40.724960
 20
-75.045105
 11
-39.024963
 21
-75.045105
  0
LINE
  8
0
 62
     4
 10
-40.194962
 20
-85.045105
 11
-40.194962
 21
-75.045105
  0
LINE
  8
0
 62
     4
 10
-39.554962
 20
-85.045105
 11
-39.554962
 21
-75.045105
  0
LINE
  8
0
 62
     4
 10
-40.724960
 20
-75.045105
 11
-40.724960
 21
-70.945099
  0
LINE
  8
0
 62
     4
 10
-39.024963
 20
-75.045105
 11
-39.024963
 21
-71.405090
  0
LINE
  8
0
 62
     4
 10
-42.794964
 20
-85.045105
 11
-42.154961
 21
-85.045105
  0
LINE
  8
0
 62
     4
 10
-43.324963
 20
-75.045105
 11
-41.624962
 21
-75.045105
  0
LINE
  8
0
 62
     4
 10
-42.794964
 20
-85.045105
 11
-42.794964
 21
-75.045105
  0
LINE
  8
0
 62
     4
 10
-42.154961
 20
-85.045105
 11
-42.154961
 21
-75.045105
  0
LINE
  8
0
 62
     4
 10
-43.324963
 20
-75.045105
 11
-43.324963
 21
-70.245102
  0
LINE
  8
0
 62
     4
 10
-41.624962
 20
-75.045105
 11
-41.624962
 21
-70.705093
  0
LINE
  8
0
 10
-33.674965
 20
-63.045105
 11
-38.174965
 21
-63.045105
  0
LINE
  8
0
 10
-33.674965
 20
-39.045105
 11
-48.674961
 21
-39.045105
  0
LINE
  8
0
 10
-33.674965
 20
-39.045105
 11
-33.674965
 21
-63.045105
  0
LINE
  8
0
 10
-48.674961
 20
-39.045105
 11
-48.674961
 21
-63.045105
  0
LINE
  8
0
  6
CENTER
 62
     2
 10
-39.265415
 20
-60.045105
 11
-33.844963
 21
-60.045105
  0
LINE
  8
0
  6
CENTER
 62
     2
 10
-36.674965
 20
-62.504715
 11
-36.674965
 21
-57.348328
  0
LINE
  8
0
  6
CENTER
 62
     2
 10
-41.174965
 20
-64.715103
 11
-41.174965
 21
-37.385105
  0
LINE
  8
0
 10
-35.759964
 20
-41.130104
 11
-37.594963
 21
-42.970104
  0
LINE
  8
0
 10
-37.594963
 20
-41.130104
 11
-35.759964
 21
-42.970104
  0
LINE
  8
0
 10
-44.759960
 20
-59.130104
 11
-46.594955
 21
-60.970100
  0
LINE
  8
0
 10
-46.594963
 20
-59.130104
 11
-44.759964
 21
-60.970104
  0
LINE
  8
0
  6
CENTER
 62
     2
 10
-35.679962
 20
-36.545105
 11
-35.679962
 21
-41.545105
  0
LINE
  8
0
  6
CENTER
 62
     2
 10
-46.679962
 20
-36.545105
 11
-46.679962
 21
-41.545105
  0
LINE
  8
0
  6
DASHED
 62
     4
 10
-33.674965
 20
45.041122
 11
-26.174973
 21
45.041122
  0
LINE
  8
0
  6
DASHED
 62
     4
 10
-33.674965
 20
69.041122
 11
-26.174973
 21
69.041122
  0
LINE
  8
0
  6
DASHED
 62
     4
 10
-50.674961
 20
45.041122
 11
-50.674961
 21
69.041122
  0
LINE
  8
0
  6
DASHED
 62
     4
 10
-31.674963
 20
45.041122
 11
-31.674963
 21
69.041122
  0
LINE
  8
0
  6
CENTER
 62
     1
 10
-27.174973
 20
52.041122
 11
-27.174973
 21
62.041122
  0
LINE
  8
0
  6
CENTER
 62
     1
 10
-55.174961
 20
52.041122
 11
-55.174961
 21
62.041122
  0
LINE
  8
0
  6
CENTER
 62
     1
 10
-32.174965
 20
57.041122
 11
-22.174973
 21
57.041122
  0
LINE
  8
0
  6
CENTER
 62
     1
 10
-60.174961
 20
57.041122
 11
-50.174961
 21
57.041122
  0
LINE
  8
0
  6
DASHED
 62
     4
 10
-56.174961
 20
69.041122
 11
-61.174961
 21
64.041122
  0
LINE
  8
0
  6
DASHED
 62
     4
 10
-26.174974
 20
69.041107
 11
-21.174976
 21
64.041107
  0
LINE
  8
0
  6
DASHED
 62
     4
 10
-26.174961
 20
45.041122
 11
-21.174971
 21
50.041111
  0
LINE
  8
0
  6
DASHED
 62
     4
 10
-61.174961
 20
50.041122
 11
-56.174961
 21
45.041122
  0
LINE
  8
0
  6
DASHED
 62
     4
 10
-56.174961
 20
69.041122
 11
-48.674961
 21
69.041122
  0
LINE
  8
0
  6
DASHED
 62
     4
 10
-56.174961
 20
45.041122
 11
-48.674961
 21
45.041122
  0
LINE
  8
0
  6
DASHED
 62
     4
 10
-21.174973
 20
50.041122
 11
-21.174973
 21
64.041122
  0
LINE
  8
0
  6
DASHED
 62
     4
 10
-61.174961
 20
50.041122
 11
-61.174961
 21
64.041122
  0
LINE
  8
0
 62
     4
 10
-37.594967
 20
65.121117
 11
-35.764965
 21
66.951111
  0
LINE
  8
0
 62
     4
 10
-35.764969
 20
65.121109
 11
-37.594975
 21
66.951111
  0
LINE
  8
0
 62
     4
 10
-44.764961
 20
47.131123
 11
-46.594963
 21
48.961121
  0
LINE
  8
0
 62
     4
 10
-44.764961
 20
48.961124
 11
-46.594967
 21
47.131126
  0
LINE
  8
0
 62
     4
 10
-48.674961
 20
69.041122
 11
-33.674965
 21
69.041122
  0
LINE
  8
0
 62
     4
 10
-33.674965
 20
45.041122
 11
-33.674965
 21
69.041122
  0
LINE
  8
0
 62
     4
 10
-48.674961
 20
45.041122
 11
-48.674961
 21
69.041122
  0
LINE
  8
0
 62
     4
 10
-48.674961
 20
45.041122
 11
-33.674965
 21
45.041122
  0
LINE
  8
0
 62
     4
 10
-34.674965
 20
46.041122
 11
-34.674965
 21
63.041122
  0
LINE
  8
0
 62
     4
 10
-47.674961
 20
51.041122
 11
-47.674961
 21
68.041122
  0
LINE
  8
0
 62
     4
 10
-47.674961
 20
68.041122
 11
-39.674965
 21
68.041122
  0
LINE
  8
0
 62
     4
 10
-42.674965
 20
46.041122
 11
-34.674965
 21
46.041122
  0
LINE
  8
0
 62
     4
 10
-36.674965
 20
63.041122
 11
-33.674965
 21
63.041122
  0
LINE
  8
0
 62
     4
 10
-45.674965
 20
51.041122
 11
-48.674961
 21
51.041122
  0
LINE
  8
0
 62
     4
 10
-42.674965
 20
48.041122
 11
-42.674965
 21
45.041122
  0
LINE
  8
0
 62
     4
 10
-39.674965
 20
66.041122
 11
-39.674965
 21
69.041122
  0
LINE
  8
0
 62
     4
 10
-38.154961
 20
69.051117
 11
-38.154961
 21
71.051117
  0
LINE
  8
0
 62
     4
 10
-44.154961
 20
71.051117
 11
-38.154961
 21
71.051117
  0
LINE
  8
0
 62
     4
 10
-44.154961
 20
69.051117
 11
-44.154961
 21
71.051117
  0
LINE
  8
0
 62
     4
 10
-39.024963
 20
74.681122
 11
-39.024963
 21
71.041122
  0
LINE
  8
0
 62
     4
 10
-40.724960
 20
75.141113
 11
-40.724960
 21
71.041122
  0
LINE
  8
0
 62
     4
 10
-41.624962
 20
75.381119
 11
-41.624962
 21
71.041122
  0
LINE
  8
0
 62
     4
 10
-43.324963
 20
75.841110
 11
-43.324963
 21
71.041122
  0
LINE
  8
0
  6
PHANTOM
 62
     1
 10
-45.324963
 20
77.921120
 11
-37.024963
 21
75.701118
  0
LINE
  8
0
  6
PHANTOM
 62
     1
 10
-45.324966
 20
76.371109
 11
-37.024967
 21
74.151108
  0
LINE
  8
0
 62
     4
 10
-42.154961
 20
91.041122
 11
-42.794964
 21
91.041122
  0
LINE
  8
0
 62
     4
 10
-41.624962
 20
81.041122
 11
-43.324963
 21
81.041122
  0
LINE
  8
0
 62
     4
 10
-42.154961
 20
91.041122
 11
-42.154961
 21
81.041122
  0
LINE
  8
0
 62
     4
 10
-42.794964
 20
91.041122
 11
-42.794964
 21
81.041122
  0
LINE
  8
0
 62
     4
 10
-41.624962
 20
81.041122
 11
-41.624962
 21
76.931122
  0
LINE
  8
0
 62
     4
 10
-43.324963
 20
81.041122
 11
-43.324963
 21
77.391113
  0
LINE
  8
0
 62
     4
 10
-39.554962
 20
91.041122
 11
-40.194962
 21
91.041122
  0
LINE
  8
0
 62
     4
 10
-39.024963
 20
81.041122
 11
-40.724960
 21
81.041122
  0
LINE
  8
0
 62
     4
 10
-39.554962
 20
91.041122
 11
-39.554962
 21
81.041122
  0
LINE
  8
0
 62
     4
 10
-40.194962
 20
91.041122
 11
-40.194962
 21
81.041122
  0
LINE
  8
0
 62
     4
 10
-39.024963
 20
81.041122
 11
-39.024963
 21
76.241119
  0
LINE
  8
0
 62
     4
 10
-40.724960
 20
81.041122
 11
-40.724960
 21
76.691116
  0
LINE
  8
0
  6
CENTER
 62
     2
 10
-41.174965
 20
42.391113
 11
-41.174965
 21
72.524445
  0
LINE
  8
0
  6
CENTER
 62
     2
 10
-46.679962
 20
47.541107
 11
-46.679962
 21
42.541107
  0
LINE
  8
0
  6
CENTER
 62
     2
 10
-35.679962
 20
47.541122
 11
-35.679962
 21
42.541122
  0
LINE
  8
0
 10
10.675049
 20
-14.501983
 11
34.675049
 21
-14.501983
  0
LINE
  8
0
 62
     4
 10
56.675049
 20
23.818014
 11
56.675049
 21
23.178015
  0
LINE
  8
0
 62
     4
 10
29.807938
 20
33.698006
 11
11.675049
 21
33.698006
  0
LINE
  8
0
 62
     4
 10
33.702587
 20
33.642937
 11
33.675053
 21
33.698006
  0
LINE
  8
0
 62
     4
 10
33.545052
 20
33.698006
 11
33.675049
 21
33.698006
  0
LINE
  8
0
 62
     4
 10
33.695053
 20
33.638008
 11
33.675056
 21
33.698013
  0
LINE
  8
0
 62
     4
 10
29.425049
 20
33.558006
 11
29.425049
 21
32.298012
  0
LINE
  8
0
 62
     4
 10
33.925049
 20
33.558006
 11
33.925049
 21
32.298012
  0
LINE
  8
0
 62
     4
 10
29.125050
 20
32.298012
 11
29.125050
 21
31.698004
  0
LINE
  8
0
 62
     4
 10
34.225048
 20
32.298012
 11
34.225048
 21
31.698004
  0
LINE
  8
0
 62
     4
 10
34.225048
 20
32.298012
 11
29.125050
 21
32.298012
  0
LINE
  8
0
 62
     4
 10
28.675049
 20
33.698006
 11
28.675049
 21
31.698004
  0
LINE
  8
0
 10
10.675049
 20
5.498016
 11
10.675049
 21
-14.501983
  0
LINE
  8
0
 10
34.675049
 20
5.498016
 11
34.675049
 21
-14.501983
  0
LINE
  8
0
 10
13.675049
 20
-5.321982
 11
10.675049
 21
-5.321982
  0
LINE
  8
0
 10
13.675049
 20
-1.691983
 11
10.675049
 21
-1.691983
  0
LINE
  8
0
 10
13.675049
 20
-1.691983
 11
13.675049
 21
-5.321982
  0
LINE
  8
0
 10
34.675049
 20
-12.001983
 11
10.675049
 21
-12.001983
  0
LINE
  8
0
 10
34.675049
 20
5.498016
 11
10.675049
 21
5.498016
  0
LINE
  8
0
 10
13.075058
 20
-1.691983
 11
13.075058
 21
-5.321982
  0
LINE
  8
0
 62
     4
 10
10.675049
 20
30.698004
 11
34.675049
 21
30.698004
  0
LINE
  8
0
 62
     4
 10
10.675049
 20
31.698004
 11
10.675049
 21
5.498016
  0
LINE
  8
0
 62
     4
 10
34.675049
 20
31.698004
 11
34.675049
 21
5.498016
  0
LINE
  8
0
 62
     4
 10
10.675049
 20
31.698004
 11
34.675049
 21
31.698004
  0
LINE
  8
0
 62
     4
 10
34.675053
 20
31.698006
 11
33.925049
 21
33.198017
  0
LINE
  8
0
 62
     4
 10
10.675047
 20
31.698004
 11
11.675048
 21
33.698006
  0
LINE
  8
0
 62
     4
 10
46.675049
 20
22.648016
 11
42.675049
 21
22.648016
  0
LINE
  8
0
 62
     4
 10
46.675049
 20
24.348013
 11
42.215050
 21
24.348013
  0
LINE
  8
0
 62
     4
 10
56.675049
 20
23.178015
 11
46.675049
 21
23.178015
  0
LINE
  8
0
 62
     4
 10
56.675049
 20
23.818014
 11
46.675049
 21
23.818014
  0
LINE
  8
0
 62
     4
 10
46.675049
 20
24.348013
 11
46.675049
 21
22.648016
  0
LINE
  8
0
 62
     4
 10
36.675049
 20
23.818014
 11
36.675049
 21
23.178015
  0
LINE
  8
0
  6
PHANTOM
 62
     1
 10
43.215050
 20
20.648012
 11
41.685051
 21
26.348005
  0
LINE
  8
0
  6
PHANTOM
 62
     1
 10
41.655052
 20
20.648006
 11
40.135056
 21
26.348005
  0
LINE
  8
0
 62
     4
 10
40.665047
 20
24.348013
 11
36.675049
 21
24.348013
  0
LINE
  8
0
 62
     4
 10
41.125050
 20
22.648016
 11
36.675049
 21
22.648016
  0
LINE
  8
0
 62
     4
 10
36.675049
 20
21.798010
 11
34.675049
 21
21.798010
  0
LINE
  8
0
 62
     4
 10
36.675049
 20
25.198004
 11
36.675049
 21
21.798010
  0
LINE
  8
0
 62
     4
 10
36.675049
 20
25.198004
 11
34.675049
 21
25.198004
  0
LINE
  8
0
 62
     4
 10
33.675049
 20
33.698006
 11
33.542160
 21
33.698006
  0
LINE
  8
0
  6
DASHED
 62
     4
 10
10.675049
 20
-14.501983
 11
10.675049
 21
-19.501984
  0
LINE
  8
0
  6
DASHED
 62
     4
 10
15.675049
 20
-17.901981
 11
15.675049
 21
-19.501984
  0
LINE
  8
0
  6
DASHED
 62
     4
 10
29.675049
 20
-17.901981
 11
29.675049
 21
-19.501984
  0
LINE
  8
0
  6
DASHED
 62
     4
 10
34.675049
 20
-14.501983
 11
34.675049
 21
-19.501984
  0
LINE
  8
0
  6
DASHED
 62
     4
 10
10.675049
 20
-19.501984
 11
34.675049
 21
-19.501984
  0
LINE
  8
0
  6
DASHED
 62
     4
 10
10.675049
 20
-17.901981
 11
34.675049
 21
-17.901981
  0
LINE
  8
0
  6
DASHED
 62
     4
 10
10.675049
 20
-14.501983
 11
34.675049
 21
-14.501983
  0
LINE
  8
0
  6
CENTER
 62
     2
 10
22.675049
 20
36.594475
 11
22.675049
 21
-20.925425
  0
LINE
  8
0
  6
CENTER
 62
     2
 10
37.175049
 20
-3.506983
 11
32.175049
 21
-3.506983
  0
LINE
  8
0
 10
-112.024994
 20
-14.501983
 11
-88.024994
 21
-14.501983
  0
LINE
  8
0
  6
CENTER
 62
     2
 10
-100.024994
 20
36.281670
 11
-100.024994
 21
-21.977777
  0
LINE
  8
0
  6
DASHED
 62
     4
 10
-88.024994
 20
-14.501983
 11
-112.024994
 21
-14.501983
  0
LINE
  8
0
  6
DASHED
 62
     4
 10
-88.024994
 20
-17.901981
 11
-112.024994
 21
-17.901981
  0
LINE
  8
0
  6
DASHED
 62
     4
 10
-88.024994
 20
-19.501984
 11
-112.024994
 21
-19.501984
  0
LINE
  8
0
  6
DASHED
 62
     4
 10
-112.024994
 20
-14.501983
 11
-112.024994
 21
-19.501984
  0
LINE
  8
0
  6
DASHED
 62
     4
 10
-107.024994
 20
-17.901981
 11
-107.024994
 21
-19.501984
  0
LINE
  8
0
  6
DASHED
 62
     4
 10
-93.024994
 20
-17.901981
 11
-93.024994
 21
-19.501984
  0
LINE
  8
0
  6
DASHED
 62
     4
 10
-88.024994
 20
-14.501983
 11
-88.024994
 21
-19.501984
  0
LINE
  8
0
 62
     4
 10
-89.154999
 20
33.698006
 11
-89.024994
 21
33.698006
  0
LINE
  8
0
 62
     4
 10
-111.024994
 20
33.698006
 11
-92.904999
 21
33.698006
  0
LINE
  8
0
 62
     4
 10
-114.024994
 20
25.198004
 11
-112.024994
 21
25.198004
  0
LINE
  8
0
 62
     4
 10
-114.024994
 20
25.198004
 11
-114.024994
 21
21.798010
  0
LINE
  8
0
 62
     4
 10
-114.024994
 20
21.798010
 11
-112.024994
 21
21.798010
  0
LINE
  8
0
 62
     4
 10
-89.004997
 20
33.638012
 11
-89.025002
 21
33.698013
  0
LINE
  8
0
 62
     4
 10
-118.474991
 20
22.648016
 11
-114.024994
 21
22.648016
  0
LINE
  8
0
 62
     4
 10
-118.014992
 20
24.348013
 11
-114.024994
 21
24.348013
  0
LINE
  8
0
  6
PHANTOM
 62
     1
 10
-119.004997
 20
20.648008
 11
-117.485001
 21
26.348007
  0
LINE
  8
0
  6
PHANTOM
 62
     1
 10
-120.565002
 20
20.648014
 11
-119.035004
 21
26.348007
  0
LINE
  8
0
 62
     4
 10
-134.024994
 20
23.818014
 11
-134.024994
 21
23.178015
  0
LINE
  8
0
 62
     4
 10
-124.024994
 20
24.348013
 11
-124.024994
 21
22.648016
  0
LINE
  8
0
 62
     4
 10
-134.024994
 20
23.818014
 11
-124.024994
 21
23.818014
  0
LINE
  8
0
 62
     4
 10
-134.024994
 20
23.178015
 11
-124.024994
 21
23.178015
  0
LINE
  8
0
 62
     4
 10
-124.024994
 20
24.348013
 11
-119.564995
 21
24.348013
  0
LINE
  8
0
 62
     4
 10
-124.024994
 20
22.648016
 11
-120.024994
 21
22.648016
  0
LINE
  8
0
 62
     4
 10
-93.274994
 20
33.558006
 11
-93.274994
 21
32.298012
  0
LINE
  8
0
 62
     4
 10
-88.774994
 20
33.558006
 11
-88.774994
 21
32.298012
  0
LINE
  8
0
 62
     4
 10
-93.574997
 20
32.298012
 11
-93.574997
 21
31.698004
  0
LINE
  8
0
 62
     4
 10
-88.475006
 20
32.298012
 11
-88.475006
 21
31.698004
  0
LINE
  8
0
 62
     4
 10
-88.475006
 20
32.298012
 11
-93.574997
 21
32.298012
  0
LINE
  8
0
 62
     4
 10
-94.024994
 20
33.698006
 11
-94.024994
 21
31.698004
  0
LINE
  8
0
 62
     4
 10
-88.024994
 20
31.698008
 11
-88.774994
 21
33.198006
  0
LINE
  8
0
 62
     4
 10
-112.025002
 20
31.698006
 11
-111.025002
 21
33.698006
  0
LINE
  8
0
 62
     4
 10
-88.024994
 20
31.698004
 11
-112.024994
 21
31.698004
  0
LINE
  8
0
 62
     4
 10
-112.024994
 20
31.698004
 11
-112.024994
 21
5.498016
  0
LINE
  8
0
 62
     4
 10
-88.024994
 20
31.698004
 11
-88.024994
 21
5.498016
  0
LINE
  8
0
 62
     4
 10
-88.024994
 20
30.698004
 11
-112.024994
 21
30.698004
  0
LINE
  8
0
 10
-90.425003
 20
-1.691983
 11
-90.425003
 21
-5.321982
  0
LINE
  8
0
 10
-112.024994
 20
5.498016
 11
-88.024994
 21
5.498016
  0
LINE
  8
0
 10
-112.024994
 20
-12.001983
 11
-88.024994
 21
-12.001983
  0
LINE
  8
0
 10
-91.024994
 20
-1.691983
 11
-91.024994
 21
-5.321982
  0
LINE
  8
0
 10
-91.024994
 20
-1.691983
 11
-88.024994
 21
-1.691983
  0
LINE
  8
0
 10
-91.024994
 20
-5.321982
 11
-88.024994
 21
-5.321982
  0
LINE
  8
0
 10
-112.024994
 20
5.498016
 11
-112.024994
 21
-14.501983
  0
LINE
  8
0
 10
-88.024994
 20
5.498016
 11
-88.024994
 21
-14.501983
  0
LINE
  8
0
  6
CENTER
 62
     2
 10
-109.524994
 20
-3.506983
 11
-114.524994
 21
-3.506983
  0
LINE
  8
0
 10
-48.674961
 20
-14.501983
 11
-33.674965
 21
-14.501983
  0
LINE
  8
0
  6
DASHED
 62
     4
 10
-34.424965
 20
-17.971981
 11
-34.424965
 21
-16.701982
  0
LINE
  8
0
  6
DASHED
 62
     4
 10
-38.924965
 20
-17.971981
 11
-38.924965
 21
-16.701982
  0
LINE
  8
0
  6
DASHED
 62
     4
 10
-34.124962
 20
-16.701982
 11
-34.124962
 21
-16.101982
  0
LINE
  8
0
  6
DASHED
 62
     4
 10
-39.224960
 20
-16.701982
 11
-39.224960
 21
-16.101982
  0
LINE
  8
0
  6
DASHED
 62
     4
 10
-39.224960
 20
-16.701982
 11
-34.124962
 21
-16.701982
  0
LINE
  8
0
  6
DASHED
 62
     4
 10
-43.424965
 20
-17.971981
 11
-43.424965
 21
-16.701982
  0
LINE
  8
0
  6
DASHED
 62
     4
 10
-47.924961
 20
-17.971981
 11
-47.924961
 21
-16.701982
  0
LINE
  8
0
  6
DASHED
 62
     4
 10
-43.124962
 20
-16.701982
 11
-43.124962
 21
-16.101982
  0
LINE
  8
0
  6
DASHED
 62
     4
 10
-48.224960
 20
-16.701982
 11
-48.224960
 21
-16.101982
  0
LINE
  8
0
  6
DASHED
 62
     4
 10
-48.224960
 20
-16.701982
 11
-43.124962
 21
-16.701982
  0
LINE
  8
0
  6
CENTER
 62
     1
 10
-27.174973
 20
-14.501983
 11
-27.174973
 21
-23.971979
  0
LINE
  8
0
  6
CENTER
 62
     1
 10
-55.174961
 20
-14.501983
 11
-55.174961
 21
-23.971979
  0
LINE
  8
0
  6
DASHED
 62
     4
 10
-49.074963
 20
-16.101982
 11
-33.274963
 21
-16.101982
  0
LINE
  8
0
  6
DASHED
 62
     4
 10
-31.674963
 20
-17.901981
 11
-21.174973
 21
-17.901981
  0
LINE
  8
0
  6
DASHED
 62
     4
 10
-50.674961
 20
-14.501983
 11
-50.674961
 21
-17.901981
  0
LINE
  8
0
  6
DASHED
 62
     4
 10
-31.674963
 20
-14.501983
 11
-31.674963
 21
-17.901981
  0
LINE
  8
0
  6
DASHED
 62
     4
 10
-33.274963
 20
-19.501984
 11
-21.174973
 21
-19.501984
  0
LINE
  8
0
  6
DASHED
 62
     4
 10
-50.674961
 20
-14.501983
 11
-31.674963
 21
-14.501983
  0
LINE
  8
0
  6
DASHED
 62
     4
 10
-61.174961
 20
-17.901981
 11
-50.674961
 21
-17.901981
  0
LINE
  8
0
  6
DASHED
 62
     4
 10
-21.174973
 20
-17.901981
 11
-21.174973
 21
-19.501984
  0
LINE
  8
0
  6
DASHED
 62
     4
 10
-49.074963
 20
-16.101982
 11
-49.074963
 21
-19.501984
  0
LINE
  8
0
  6
DASHED
 62
     4
 10
-33.274963
 20
-16.101982
 11
-33.274963
 21
-19.501984
  0
LINE
  8
0
  6
DASHED
 62
     4
 10
-26.174973
 20
-17.901981
 11
-26.174973
 21
-19.501984
  0
LINE
  8
0
  6
DASHED
 62
     4
 10
-56.174961
 20
-17.901981
 11
-56.174961
 21
-19.501984
  0
LINE
  8
0
  6
DASHED
 62
     4
 10
-61.174961
 20
-17.901981
 11
-61.174961
 21
-19.501984
  0
LINE
  8
0
  6
DASHED
 62
     4
 10
-61.174961
 20
-19.501984
 11
-49.074963
 21
-19.501984
  0
LINE
  8
0
  6
CENTER
 62
     2
 10
-36.674965
 20
-10.501983
 11
-36.674965
 21
-18.501984
  0
LINE
  8
0
  6
CENTER
 62
     2
 10
-45.674965
 20
-10.501983
 11
-45.674965
 21
-18.501984
  0
LINE
  8
0
 62
     4
 10
-47.704964
 20
33.638004
 11
-47.674961
 21
33.698017
  0
LINE
  8
0
 62
     4
 10
-48.224960
 20
32.298012
 11
-48.224960
 21
31.698004
  0
LINE
  8
0
 62
     4
 10
-43.124962
 20
32.298012
 11
-43.124962
 21
31.698004
  0
LINE
  8
0
 62
     4
 10
-43.124962
 20
32.298012
 11
-48.224960
 21
32.298012
  0
LINE
  8
0
 62
     4
 10
-48.674961
 20
30.698004
 11
-33.674965
 21
30.698004
  0
LINE
  8
0
 62
     4
 10
-48.674961
 20
31.698004
 11
-33.674965
 21
31.698004
  0
LINE
  8
0
 62
     4
 10
-33.674961
 20
31.698004
 11
-34.674961
 21
33.698006
  0
LINE
  8
0
 62
     4
 10
-43.854961
 20
33.698006
 11
-34.674965
 21
33.698006
  0
LINE
  8
0
 62
     4
 10
-43.424965
 20
33.558006
 11
-43.424965
 21
32.298012
  0
LINE
  8
0
 62
     4
 10
-47.674961
 20
33.698006
 11
-47.554962
 21
33.698006
  0
LINE
  8
0
 62
     4
 10
-47.924961
 20
33.558006
 11
-47.924961
 21
32.298012
  0
LINE
  8
0
 62
     4
 10
-48.674961
 20
31.698013
 11
-47.924961
 21
33.198013
  0
LINE
  8
0
 62
     4
 10
-42.674965
 20
33.698006
 11
-42.674965
 21
31.698004
  0
LINE
  8
0
 62
     4
 10
-33.674965
 20
31.698004
 11
-33.674965
 21
5.498016
  0
LINE
  8
0
 62
     4
 10
-48.674961
 20
31.698004
 11
-48.674961
 21
5.498016
  0
LINE
  8
0
 10
-33.674965
 20
-4.541983
 11
-33.674965
 21
-14.501983
  0
LINE
  8
0
 10
-48.674961
 20
-4.541983
 11
-48.674961
 21
-14.501983
  0
LINE
  8
0
 10
-36.594963
 20
-4.421983
 11
-34.764961
 21
-2.591983
  0
LINE
  8
0
 10
-36.594963
 20
-2.591984
 11
-34.764961
 21
-4.421984
  0
LINE
  8
0
 10
-47.594963
 20
-4.421984
 11
-45.764961
 21
-2.591984
  0
LINE
  8
0
 10
-47.594963
 20
-2.591982
 11
-45.764961
 21
-4.421983
  0
LINE
  8
0
 10
-48.674961
 20
5.498016
 11
-33.674965
 21
5.498016
  0
LINE
  8
0
  6
CENTER
 62
     2
 10
-44.674965
 20
-6.501983
 11
-37.674965
 21
-6.501983
  0
LINE
  8
0
  6
CENTER
 62
     2
 10
-43.674965
 20
1.998016
 11
-38.674965
 21
1.998016
  0
LINE
  8
0
 10
-48.674961
 20
5.498016
 11
-48.674961
 21
-2.471983
  0
LINE
  8
0
 10
-33.674965
 20
5.498016
 11
-33.674965
 21
-2.471983
  0
LINE
  8
0
 10
-48.674961
 20
-12.001983
 11
-33.674965
 21
-12.001983
  0
LINE
  8
0
  6
CENTER
 62
     2
 10
-41.174965
 20
36.128014
 11
-41.174965
 21
-18.501984
  0
LINE
  8
0
 10
-138.399994
 20
94.500000
 11
138.350006
 21
94.500000
  0
LINE
  8
0
 10
138.350006
 20
94.500000
 11
138.350006
 21
-94.800003
  0
LINE
  8
0
 10
-138.399994
 20
-94.800003
 11
138.350006
 21
-94.800003
  0
LINE
  8
0
 10
-138.399994
 20
94.500000
 11
-138.399994
 21
-94.800003
  0
LINE
  8
0
 10
73.350006
 20
-84.800003
 11
138.350006
 21
-84.800003
  0
LINE
  8
0
 10
-138.399994
 20
84.500000
 11
-73.399994
 21
84.500000
  0
LINE
  8
0
 10
73.350006
 20
84.500000
 11
138.350006
 21
84.500000
  0
LINE
  8
0
 10
73.350006
 20
-84.800003
 11
73.350006
 21
-94.800003
  0
LINE
  8
0
 10
73.350006
 20
94.500000
 11
73.350006
 21
84.500000
  0
LINE
  8
0
 10
-73.399994
 20
94.500000
 11
-73.399994
 21
84.500000
  0
ARC
  8
0
 62
     4
 10
97.575058
 20
27.997992
 40
5.998022
 50
67.968040
 51
70.242798
  0
ARC
  8
0
 62
     4
 10
88.575058
 20
27.997992
 40
5.998022
 50
67.968040
 51
112.031960
  0
ARC
  8
0
 62
     4
 10
91.775055
 20
23.498007
 40
1.699999
 50
90.000000
 51
270.000000
  0
CIRCLE
  8
0
 62
     4
 10
94.375061
 20
23.498007
 40
0.850000
  0
CIRCLE
  8
0
 62
     4
 10
91.775055
 20
23.498007
 40
0.850000
  0
ARC
  8
0
 62
     4
 10
97.575058
 20
27.997992
 40
5.998022
 50
71.863144
 51
108.136780
  0
ARC
  8
0
 62
     4
 10
94.375061
 20
23.498007
 40
1.699999
 50
270.000000
 51
90.000000
  0
ARC
  8
0
  6
DASHED
 62
     4
 10
88.575058
 20
-12.401984
 40
6.007277
 50
248.003845
 51
291.996307
  0
ARC
  8
0
  6
DASHED
 62
     4
 10
97.575058
 20
-12.401984
 40
6.007277
 50
248.003845
 51
291.996307
  0
CIRCLE
  8
0
 10
87.575058
 20
-3.501983
 40
1.400000
  0
CIRCLE
  8
0
 10
98.575058
 20
-3.501983
 40
1.400000
  0
CIRCLE
  8
0
 62
     2
 10
93.075058
 20
-0.501984
 40
2.500000
  0
CIRCLE
  8
0
 10
93.075058
 20
-6.001983
 40
0.900000
  0
CIRCLE
  8
0
 10
93.075058
 20
-0.501984
 40
2.099999
  0
CIRCLE
  8
0
 10
-36.671631
 20
-60.045090
 40
1.250000
  0
CIRCLE
  8
0
 10
-45.671627
 20
-42.045101
 40
1.250000
  0
CIRCLE
  8
0
 10
-36.671631
 20
-42.045101
 40
2.599999
  0
CIRCLE
  8
0
 10
-45.671627
 20
-60.045090
 40
2.599999
  0
CIRCLE
  8
0
 62
     2
 10
-36.671631
 20
-60.045090
 40
1.500000
  0
CIRCLE
  8
0
 62
     2
 10
-45.671627
 20
-42.045101
 40
1.500000
  0
CIRCLE
  8
0
  6
DASHED
 62
     4
 10
-55.174961
 20
57.041122
 40
2.250000
  0
CIRCLE
  8
0
  6
DASHED
 62
     4
 10
-27.174973
 20
57.041122
 40
2.250000
  0
CIRCLE
  8
0
 62
     4
 10
-45.675003
 20
48.041138
 40
2.250000
  0
CIRCLE
  8
0
 62
     4
 10
-36.674995
 20
66.041122
 40
2.250000
  0
CIRCLE
  8
0
 62
     4
 10
-45.675003
 20
48.041138
 40
2.550000
  0
CIRCLE
  8
0
 62
     4
 10
-36.674995
 20
66.041122
 40
2.550000
  0
ARC
  8
0
 62
     4
 10
-45.674973
 20
48.041111
 40
3.000011
 50
0.000219
 51
89.999779
  0
ARC
  8
0
 62
     4
 10
-36.674973
 20
66.041107
 40
2.999989
 50
179.999710
 51
270.000153
  0
ARC
  8
0
 62
     4
 10
31.675049
 20
27.998037
 40
5.997979
 50
67.967880
 51
112.032104
  0
ARC
  8
0
 10
17.375061
 20
-3.506983
 40
5.991519
 50
162.366440
 51
197.633545
  0
ARC
  8
0
 62
     4
 10
13.675049
 20
27.998037
 40
5.997979
 50
71.862991
 51
108.136978
  0
ARC
  8
0
 62
     4
 10
-109.019997
 20
27.997992
 40
6.000484
 50
71.791489
 51
108.208359
  0
ARC
  8
0
 62
     4
 10
-91.024994
 20
27.998037
 40
5.997979
 50
67.967880
 51
112.032120
  0
ARC
  8
0
 10
-94.725006
 20
-3.506983
 40
5.991520
 50
342.366455
 51
17.633556
  0
CIRCLE
  8
0
 10
-41.174965
 20
-6.501983
 40
2.099999
  0
ARC
  8
0
  6
DASHED
 62
     4
 10
-45.674965
 20
-12.401984
 40
6.007278
 50
248.003799
 51
291.996277
  0
ARC
  8
0
  6
DASHED
 62
     4
 10
-36.674965
 20
-12.401984
 40
6.007278
 50
248.003799
 51
291.996277
  0
ARC
  8
0
 62
     4
 10
-45.674965
 20
27.997992
 40
5.998022
 50
67.968040
 51
112.031921
  0
ARC
  8
0
 62
     4
 10
-36.679962
 20
27.997992
 40
6.000484
 50
71.791527
 51
108.208397
  0
CIRCLE
  8
0
 10
-35.674965
 20
-3.501983
 40
2.250000
  0
CIRCLE
  8
0
 10
-46.674961
 20
-3.501983
 40
2.250000
  0
CIRCLE
  8
0
 62
     2
 10
-41.174965
 20
-6.501983
 40
2.500000
  0
ARC
  8
0
 10
-46.674957
 20
-3.506983
 40
2.700786
 50
222.223709
 51
137.776291
  0
ARC
  8
0
 10
-35.674965
 20
-3.506983
 40
2.700785
 50
42.223686
 51
317.776306
  0
CIRCLE
  8
0
 10
-41.174965
 20
1.998016
 40
1.500000
  0
TEXT
  8
0
 10
-122.107132
 20
87.620003
 40
3.200000
  1
030 SERIES
 50
0.000000
 41
1.052632
 51
0.000000
  7
STANDARD
  0
TEXT
  8
0
 10
-128.149994
 20
73.580002
 40
3.200000
  1
MODEL:030E1-21
 50
0.000000
 41
1.052632
 51
0.000000
  7
STANDARD
  0
TEXT
  8
0
 10
76.207352
 20
-92.850006
 40
4.500000
  1
KOGANEI CORP.
 50
0.000000
 41
1.052632
 51
0.000000
  7
STANDARD
  0
TEXT
  8
0
 10
92.842865
 20
87.620003
 40
3.200000
  1
VER. 1.0
 50
0.000000
 41
1.052632
 51
0.000000
  7
STANDARD
  0
ENDSEC
  0
EOF
