  0
SECTION
  2
HEADER
  0
ENDSEC
  0
SECTION
  2
TABLES
  0
TABLE
  2
LTYPE
 70
     4
  0
LTYPE
  2
CONTINUOUS
 70
    64
  3
Solid line
 72
    65
 73
     0
 40
0.000000
  0
LTYPE
  2
DASHED
 70
    64
  3
__ __ __ __ __ __ __ __ __ __ __ __ __ __ __
 72
    65
 73
     2
 40
3.500000
 49
2.000000
 49
-1.500000
  0
LTYPE
  2
CENTER
 70
    64
  3
____ _ ____ _ ____ _ ____ _ ____ _ ____ _ ____
 72
    65
 73
     4
 40
17.500000
 49
13.000000
 49
-1.500000
 49
1.500000
 49
-1.500000
  0
LTYPE
  2
PHANTOM
 70
    64
  3
_____ _ _ _____ _ _ _____ _ _ _____ _ _ ____  
 72
    65
 73
     6
 40
15.500000
 49
8.000000
 49
-1.500000
 49
1.500000
 49
-1.500000
 49
1.500000
 49
-1.500000
  0
LTYPE
  2
DASHED1
 70
    64
  3
__ __ __ __ __ __ __ __ __ __ __ __ __ __ __
 72
    65
 73
     2
 40
1.500000
 49
1.000000
 49
-0.500000
  0
LTYPE
  2
DASHED2
 70
    64
  3
__ __ __ __ __ __ __ __ __ __ __ __ __ __ __
 72
    65
 73
     2
 40
3.500000
 49
2.500000
 49
-1.000000
  0
LTYPE
  2
DASHED3
 70
    64
  3
__ __ __ __ __ __ __ __ __ __ __ __ __ __ __
 72
    65
 73
     2
 40
6.000000
 49
4.000000
 49
-2.000000
  0
LTYPE
  2
DASHED4
 70
    64
  3
__ __ __ __ __ __ __ __ __ __ __ __ __ __ __
 72
    65
 73
     2
 40
12.000000
 49
10.000000
 49
-2.000000
  0
LTYPE
  2
DASHED5
 70
    64
  3
__ __ __ __ __ __ __ __ __ __ __ __ __ __ __
 72
    65
 73
     2
 40
17.000000
 49
15.000000
 49
-2.000000
  0
LTYPE
  2
DASHED6
 70
    64
  3
__ __ __ __ __ __ __ __ __ __ __ __ __ __ __
 72
    65
 73
     2
 40
29.000000
 49
27.000000
 49
-2.000000
  0
LTYPE
  2
PHANTOM1
 70
    64
  3
_____ _ _ _____ _ _ _____ _ _ _____ _ _ ____  
 72
    65
 73
     6
 40
31.000000
 49
25.000000
 49
-1.500000
 49
1.000000
 49
-1.000000
 49
1.000000
 49
-1.500000
  0
LTYPE
  2
PHANTOM2
 70
    64
  3
_____ _ _ _____ _ _ _____ _ _ _____ _ _ ____  
 72
    65
 73
     6
 40
36.000000
 49
27.000000
 49
-1.500000
 49
2.500000
 49
-1.000000
 49
2.500000
 49
-1.500000
  0
LTYPE
  2
PHANTOM3
 70
    64
  3
_____ _ _ _____ _ _ _____ _ _ _____ _ _ ____  
 72
    65
 73
     6
 40
78.000000
 49
64.000000
 49
-2.000000
 49
4.000000
 49
-2.000000
 49
4.000000
 49
-2.000000
  0
LTYPE
  2
CENTER1
 70
    64
  3
____ _ ____ _ ____ _ ____ _ ____ _ ____ _ ____
 72
    65
 73
     4
 40
19.000000
 49
14.000000
 49
-1.000000
 49
3.000000
 49
-1.000000
  0
LTYPE
  2
CENTER2
 70
    64
  3
____ _ ____ _ ____ _ ____ _ ____ _ ____ _ ____
 72
    65
 73
     4
 40
28.500000
 49
25.000000
 49
-1.000000
 49
1.500000
 49
-1.000000
  0
LTYPE
  2
CENTER3
 70
    64
  3
____ _ ____ _ ____ _ ____ _ ____ _ ____ _ ____
 72
    65
 73
     4
 40
31.500000
 49
27.000000
 49
-1.000000
 49
2.500000
 49
-1.000000
  0
LTYPE
  2
CENTER4
 70
    64
  3
____ _ ____ _ ____ _ ____ _ ____ _ ____ _ ____
 72
    65
 73
     4
 40
50.000000
 49
45.000000
 49
-1.000000
 49
3.000000
 49
-1.000000
  0
LTYPE
  2
CENTER5
 70
    64
  3
____ _ ____ _ ____ _ ____ _ ____ _ ____ _ ____
 72
    65
 73
     4
 40
100.000000
 49
92.000000
 49
-2.000000
 49
4.000000
 49
-2.000000
  0
LTYPE
  2
SBK1
 70
    64
  3
______ _ _ _ ______ _ _ _ ______ _ _ _ _____  
 72
    65
 73
     8
 40
60.500000
 49
45.000000
 49
-2.000000
 49
2.500000
 49
-2.000000
 49
2.500000
 49
-2.000000
 49
2.500000
 49
-2.000000
  0
LTYPE
  2
SBK2
 70
    64
  3
______ _ _ _ ______ _ _ _ ______ _ _ _ _____  
 72
    65
 73
     8
 40
84.000000
 49
64.000000
 49
-2.000000
 49
4.000000
 49
-2.000000
 49
4.000000
 49
-2.000000
 49
4.000000
 49
-2.000000
  0
LTYPE
  2
STCH
 70
    64
  3
__ __ __ __ __ __ __ __ __ __ __ __ __ __ __
 72
    65
 73
     2
 40
3.000000
 49
1.000000
 49
-2.000000
  0
LTYPE
  2
MTCH
 70
    64
  3
_____ _ _ _____ _ _ _____ _ _ _____ _ _ ____  
 72
    65
 73
     6
 40
80.000000
 49
66.000000
 49
-2.000000
 49
4.000000
 49
-2.000000
 49
4.000000
 49
-2.000000
  0
ENDTAB
  0
TABLE
  2
LAYER
 70
     1
  0
LAYER
  2
0
 70
     0
 62
     7
  6
CONTINUOUS
  0
ENDTAB
  0
TABLE
  2
STYLE
 70
     1
  0
STYLE
  2
STANDARD
 70
     0
 40
0.000000
 41
1.000000
 50
0.000000
 71
     0
 42
0.200000
  3
txt
  4
BIGFONT
  0
ENDTAB
  0
TABLE
  2
VIEW
 70
     0
  0
ENDTAB
  0
ENDSEC
  0
SECTION
  2
BLOCKS
  0
ENDSEC
  0
SECTION
  2
ENTITIES
  0
LINE
  8
0
 62
     4
 10
-29.121912
 20
-1.490311
 11
-29.583792
 21
-2.290309
  0
LINE
  8
0
 62
     4
 10
-35.121914
 20
-1.490309
 11
-34.660034
 21
-2.290309
  0
LINE
  8
0
 62
     4
 10
-35.121910
 20
8.509692
 11
-35.121910
 21
-1.490310
  0
LINE
  8
0
 62
     4
 10
-29.121914
 20
8.509692
 11
-29.121914
 21
-1.490310
  0
LINE
  8
0
  6
CENTER
 62
     1
 10
-27.523605
 20
3.509690
 11
-46.168701
 21
3.509690
  0
LINE
  8
0
 62
     4
 10
-42.621910
 20
0.509690
 11
-44.821911
 21
0.509690
  0
LINE
  8
0
 62
     4
 10
-42.621910
 20
6.509690
 11
-44.821911
 21
6.509690
  0
LINE
  8
0
 62
     4
 10
-45.121910
 20
6.209690
 11
-45.121910
 21
0.809690
  0
LINE
  8
0
 62
     4
 10
-29.121912
 20
8.509690
 11
-29.583792
 21
9.309690
  0
LINE
  8
0
 62
     4
 10
-29.568497
 20
6.396441
 11
-34.675331
 21
6.396441
  0
LINE
  8
0
 62
     4
 10
-29.568493
 20
0.622939
 11
-34.675331
 21
0.622939
  0
LINE
  8
0
 62
     4
 10
-35.121914
 20
8.509692
 11
-34.660034
 21
9.309690
  0
LINE
  8
0
 62
     4
 10
-35.121910
 20
-1.340309
 11
-41.121910
 21
-1.340309
  0
LINE
  8
0
 62
     4
 10
-35.121910
 20
8.359690
 11
-41.121910
 21
8.359690
  0
LINE
  8
0
 62
     4
 10
-41.121910
 20
8.359690
 11
-41.121910
 21
-1.340309
  0
LINE
  8
0
 62
     4
 10
-41.771912
 20
1.009690
 11
-42.621910
 21
1.009690
  0
LINE
  8
0
 62
     4
 10
-41.771912
 20
6.009690
 11
-42.621910
 21
6.009690
  0
LINE
  8
0
 62
     4
 10
-42.621910
 20
6.509690
 11
-42.621910
 21
0.509690
  0
LINE
  8
0
 62
     4
 10
-45.121910
 20
6.209689
 11
-44.821911
 21
6.509689
  0
LINE
  8
0
 62
     4
 10
-44.821911
 20
0.509690
 11
-45.121914
 21
0.809693
  0
LINE
  8
0
 62
     1
 10
-44.821911
 20
6.509690
 11
-44.821911
 21
0.509690
  0
LINE
  8
0
 62
     1
 10
-45.121910
 20
6.209690
 11
-42.621910
 21
6.209690
  0
LINE
  8
0
 62
     1
 10
-45.121910
 20
0.809690
 11
-42.621910
 21
0.809690
  0
LINE
  8
0
 62
     4
 10
-41.771912
 20
8.009690
 11
-41.771912
 21
-0.990310
  0
LINE
  8
0
 62
     4
 10
-41.121910
 20
8.009690
 11
-41.771912
 21
8.009690
  0
LINE
  8
0
 62
     4
 10
-41.121910
 20
-0.990310
 11
-41.771912
 21
-0.990310
  0
LINE
  8
0
 62
     4
 10
-29.583792
 20
-2.290309
 11
-34.660034
 21
-2.290309
  0
LINE
  8
0
 62
     4
 10
-29.583794
 20
9.309690
 11
-34.660030
 21
9.309690
  0
LINE
  8
0
  6
CENTER
 62
     1
 10
32.432007
 20
3.509690
 11
17.432007
 21
3.509690
  0
LINE
  8
0
  6
CENTER
 62
     1
 10
24.932007
 20
11.009690
 11
24.932007
 21
-3.990310
  0
LINE
  8
0
 62
     4
 10
24.932007
 20
9.309690
 11
19.909060
 21
6.409690
  0
LINE
  8
0
 62
     4
 10
19.909060
 20
6.409690
 11
19.909060
 21
0.609691
  0
LINE
  8
0
 62
     4
 10
19.909060
 20
0.609690
 11
24.932007
 21
-2.290309
  0
LINE
  8
0
 62
     4
 10
24.932007
 20
-2.290309
 11
29.954954
 21
0.609690
  0
LINE
  8
0
 62
     4
 10
29.954954
 20
0.609691
 11
29.954954
 21
6.409690
  0
LINE
  8
0
 62
     4
 10
29.954954
 20
6.409691
 11
24.932007
 21
9.309691
  0
LINE
  8
0
 10
-138.399994
 20
94.500000
 11
138.350006
 21
94.500000
  0
LINE
  8
0
 10
138.350006
 20
94.500000
 11
138.350006
 21
-94.800003
  0
LINE
  8
0
 10
-138.399994
 20
-94.800003
 11
138.350006
 21
-94.800003
  0
LINE
  8
0
 10
-138.399994
 20
94.500000
 11
-138.399994
 21
-94.800003
  0
LINE
  8
0
 10
73.350006
 20
-84.800003
 11
138.350006
 21
-84.800003
  0
LINE
  8
0
 10
-138.399994
 20
84.500000
 11
-73.399994
 21
84.500000
  0
LINE
  8
0
 10
73.350006
 20
84.500000
 11
138.350006
 21
84.500000
  0
LINE
  8
0
 10
73.350006
 20
-84.800003
 11
73.350006
 21
-94.800003
  0
LINE
  8
0
 10
73.350006
 20
94.500000
 11
73.350006
 21
84.500000
  0
LINE
  8
0
 10
-73.399994
 20
94.500000
 11
-73.399994
 21
84.500000
  0
ARC
  8
0
 62
     4
 10
-31.677738
 20
7.839818
 40
2.555825
 50
325.615723
 51
25.615517
  0
ARC
  8
0
 62
     4
 10
-31.677738
 20
-0.820437
 40
2.555825
 50
334.384369
 51
34.536518
  0
ARC
  8
0
 62
     4
 10
-38.675323
 20
3.509690
 40
9.553412
 50
342.412048
 51
17.587919
  0
ARC
  8
0
 62
     4
 10
-32.566086
 20
7.839818
 40
2.555825
 50
154.384460
 51
214.384277
  0
ARC
  8
0
 62
     4
 10
-25.568512
 20
3.509690
 40
9.553411
 50
162.412064
 51
197.587921
  0
ARC
  8
0
 62
     4
 10
-32.566086
 20
-0.820437
 40
2.555826
 50
145.615829
 51
205.615646
  0
CIRCLE
  8
0
 62
     4
 10
24.932007
 20
3.509690
 40
5.022947
  0
CIRCLE
  8
0
 62
     4
 10
24.932007
 20
3.509690
 40
3.000000
  0
CIRCLE
  8
0
 62
     4
 10
24.932007
 20
3.509690
 40
4.500000
  0
TEXT
  8
0
 10
-117.306992
 20
85.620003
 40
3.200000
  1
MUFFLER
 50
0.000000
 41
1.052632
 51
0.000000
  7
STANDARD
  0
TEXT
  8
0
 10
-122.107132
 20
89.620003
 40
3.200000
  1
030 SERIES
 50
0.000000
 41
1.052632
 51
0.000000
  7
STANDARD
  0
TEXT
  8
0
 10
76.207352
 20
-92.850006
 40
4.500000
  1
KOGANEI CORP.
 50
0.000000
 41
1.052632
 51
0.000000
  7
STANDARD
  0
TEXT
  8
0
 10
92.842865
 20
87.620003
 40
3.200000
  1
VER. 1.0
 50
0.000000
 41
1.052632
 51
0.000000
  7
STANDARD
  0
TEXT
  8
0
 10
-130.207001
 20
72.620003
 40
3.200000
  1
MODEL:KM-06
 50
0.000000
 41
1.052632
 51
0.000000
  7
STANDARD
  0
ENDSEC
  0
EOF
