  0
SECTION
  2
HEADER
  0
ENDSEC
  0
SECTION
  2
TABLES
  0
TABLE
  2
LTYPE
 70
     4
  0
LTYPE
  2
CONTINUOUS
 70
    64
  3
Solid line
 72
    65
 73
     0
 40
0.000000
  0
LTYPE
  2
DASHED
 70
    64
  3
__ __ __ __ __ __ __ __ __ __ __ __ __ __ __
 72
    65
 73
     2
 40
3.500000
 49
2.000000
 49
-1.500000
  0
LTYPE
  2
CENTER
 70
    64
  3
____ _ ____ _ ____ _ ____ _ ____ _ ____ _ ____
 72
    65
 73
     4
 40
17.500000
 49
13.000000
 49
-1.500000
 49
1.500000
 49
-1.500000
  0
LTYPE
  2
PHANTOM
 70
    64
  3
_____ _ _ _____ _ _ _____ _ _ _____ _ _ ____  
 72
    65
 73
     6
 40
15.500000
 49
8.000000
 49
-1.500000
 49
1.500000
 49
-1.500000
 49
1.500000
 49
-1.500000
  0
LTYPE
  2
DASHED1
 70
    64
  3
__ __ __ __ __ __ __ __ __ __ __ __ __ __ __
 72
    65
 73
     2
 40
1.500000
 49
1.000000
 49
-0.500000
  0
LTYPE
  2
DASHED2
 70
    64
  3
__ __ __ __ __ __ __ __ __ __ __ __ __ __ __
 72
    65
 73
     2
 40
3.500000
 49
2.500000
 49
-1.000000
  0
LTYPE
  2
DASHED3
 70
    64
  3
__ __ __ __ __ __ __ __ __ __ __ __ __ __ __
 72
    65
 73
     2
 40
6.000000
 49
4.000000
 49
-2.000000
  0
LTYPE
  2
DASHED4
 70
    64
  3
__ __ __ __ __ __ __ __ __ __ __ __ __ __ __
 72
    65
 73
     2
 40
12.000000
 49
10.000000
 49
-2.000000
  0
LTYPE
  2
DASHED5
 70
    64
  3
__ __ __ __ __ __ __ __ __ __ __ __ __ __ __
 72
    65
 73
     2
 40
17.000000
 49
15.000000
 49
-2.000000
  0
LTYPE
  2
DASHED6
 70
    64
  3
__ __ __ __ __ __ __ __ __ __ __ __ __ __ __
 72
    65
 73
     2
 40
29.000000
 49
27.000000
 49
-2.000000
  0
LTYPE
  2
PHANTOM1
 70
    64
  3
_____ _ _ _____ _ _ _____ _ _ _____ _ _ ____  
 72
    65
 73
     6
 40
31.000000
 49
25.000000
 49
-1.500000
 49
1.000000
 49
-1.000000
 49
1.000000
 49
-1.500000
  0
LTYPE
  2
PHANTOM2
 70
    64
  3
_____ _ _ _____ _ _ _____ _ _ _____ _ _ ____  
 72
    65
 73
     6
 40
36.000000
 49
27.000000
 49
-1.500000
 49
2.500000
 49
-1.000000
 49
2.500000
 49
-1.500000
  0
LTYPE
  2
PHANTOM3
 70
    64
  3
_____ _ _ _____ _ _ _____ _ _ _____ _ _ ____  
 72
    65
 73
     6
 40
78.000000
 49
64.000000
 49
-2.000000
 49
4.000000
 49
-2.000000
 49
4.000000
 49
-2.000000
  0
LTYPE
  2
CENTER1
 70
    64
  3
____ _ ____ _ ____ _ ____ _ ____ _ ____ _ ____
 72
    65
 73
     4
 40
19.000000
 49
14.000000
 49
-1.000000
 49
3.000000
 49
-1.000000
  0
LTYPE
  2
CENTER2
 70
    64
  3
____ _ ____ _ ____ _ ____ _ ____ _ ____ _ ____
 72
    65
 73
     4
 40
28.500000
 49
25.000000
 49
-1.000000
 49
1.500000
 49
-1.000000
  0
LTYPE
  2
CENTER3
 70
    64
  3
____ _ ____ _ ____ _ ____ _ ____ _ ____ _ ____
 72
    65
 73
     4
 40
31.500000
 49
27.000000
 49
-1.000000
 49
2.500000
 49
-1.000000
  0
LTYPE
  2
CENTER4
 70
    64
  3
____ _ ____ _ ____ _ ____ _ ____ _ ____ _ ____
 72
    65
 73
     4
 40
50.000000
 49
45.000000
 49
-1.000000
 49
3.000000
 49
-1.000000
  0
LTYPE
  2
CENTER5
 70
    64
  3
____ _ ____ _ ____ _ ____ _ ____ _ ____ _ ____
 72
    65
 73
     4
 40
100.000000
 49
92.000000
 49
-2.000000
 49
4.000000
 49
-2.000000
  0
LTYPE
  2
SBK1
 70
    64
  3
______ _ _ _ ______ _ _ _ ______ _ _ _ _____  
 72
    65
 73
     8
 40
60.500000
 49
45.000000
 49
-2.000000
 49
2.500000
 49
-2.000000
 49
2.500000
 49
-2.000000
 49
2.500000
 49
-2.000000
  0
LTYPE
  2
SBK2
 70
    64
  3
______ _ _ _ ______ _ _ _ ______ _ _ _ _____  
 72
    65
 73
     8
 40
84.000000
 49
64.000000
 49
-2.000000
 49
4.000000
 49
-2.000000
 49
4.000000
 49
-2.000000
 49
4.000000
 49
-2.000000
  0
LTYPE
  2
STCH
 70
    64
  3
__ __ __ __ __ __ __ __ __ __ __ __ __ __ __
 72
    65
 73
     2
 40
3.000000
 49
1.000000
 49
-2.000000
  0
LTYPE
  2
MTCH
 70
    64
  3
_____ _ _ _____ _ _ _____ _ _ _____ _ _ ____  
 72
    65
 73
     6
 40
80.000000
 49
66.000000
 49
-2.000000
 49
4.000000
 49
-2.000000
 49
4.000000
 49
-2.000000
  0
ENDTAB
  0
TABLE
  2
LAYER
 70
     1
  0
LAYER
  2
0
 70
     0
 62
     7
  6
CONTINUOUS
  0
ENDTAB
  0
TABLE
  2
STYLE
 70
     1
  0
STYLE
  2
STANDARD
 70
     0
 40
0.000000
 41
1.000000
 50
0.000000
 71
     0
 42
0.200000
  3
txt
  4
BIGFONT
  0
ENDTAB
  0
TABLE
  2
VIEW
 70
     0
  0
ENDTAB
  0
ENDSEC
  0
SECTION
  2
BLOCKS
  0
ENDSEC
  0
SECTION
  2
ENTITIES
  0
LINE
  8
0
 62
     4
 10
258.974884
 20
51.500000
 11
273.774872
 21
51.500000
  0
LINE
  8
0
 62
     4
 10
263.124878
 20
74.500000
 11
263.124878
 21
74.000000
  0
LINE
  8
0
 62
     4
 10
269.624878
 20
74.500000
 11
269.624878
 21
74.000000
  0
LINE
  8
0
 62
     4
 10
269.624878
 20
74.500000
 11
263.124878
 21
74.500000
  0
LINE
  8
0
 62
     4
 10
263.574860
 20
75.539993
 11
263.574860
 21
74.500000
  0
LINE
  8
0
 62
     4
 10
269.174866
 20
75.539993
 11
269.174866
 21
74.500000
  0
LINE
  8
0
 62
     4
 10
258.974884
 20
74.000000
 11
273.774872
 21
74.000000
  0
LINE
  8
0
 62
     4
 10
258.974884
 20
51.000000
 11
258.974884
 21
74.000000
  0
LINE
  8
0
 62
     4
 10
273.774872
 20
51.000000
 11
273.774872
 21
74.000000
  0
LINE
  8
0
 62
     4
 10
258.874878
 20
51.000000
 11
273.874878
 21
51.000000
  0
LINE
  8
0
 62
     4
 10
258.874878
 20
47.000000
 11
273.874878
 21
47.000000
  0
LINE
  8
0
 62
     4
 10
258.874878
 20
43.000000
 11
258.874878
 21
51.000000
  0
LINE
  8
0
 62
     4
 10
273.874878
 20
43.000000
 11
273.874878
 21
51.000000
  0
LINE
  8
0
  6
CENTER
 62
     2
 10
266.369873
 20
12.500000
 11
266.369873
 21
79.541611
  0
LINE
  8
0
 62
     4
 10
247.044434
 20
-125.499863
 11
242.044434
 21
-125.499863
  0
LINE
  8
0
 62
     4
 10
242.044434
 20
-127.499863
 11
242.044434
 21
-125.499863
  0
LINE
  8
0
 62
     4
 10
247.044434
 20
-127.499863
 11
247.044434
 21
-125.499863
  0
LINE
  8
0
 62
     4
 10
245.894440
 20
-121.509872
 11
245.894440
 21
-125.499863
  0
LINE
  8
0
 62
     4
 10
244.194427
 20
-121.049866
 11
244.194427
 21
-125.499863
  0
LINE
  8
0
  6
PHANTOM
 62
     1
 10
242.194458
 20
-120.519875
 11
247.894440
 21
-122.039864
  0
LINE
  8
0
  6
PHANTOM
 62
     1
 10
242.194412
 20
-118.959862
 11
247.894440
 21
-120.489876
  0
LINE
  8
0
 62
     4
 10
247.044434
 20
-132.999863
 11
248.044434
 21
-132.999863
  0
LINE
  8
0
 62
     4
 10
266.344421
 20
-131.799866
 11
272.044434
 21
-131.799866
  0
LINE
  8
0
 62
     4
 10
245.364441
 20
-107.499863
 11
244.724426
 21
-107.499863
  0
LINE
  8
0
 62
     4
 10
245.894440
 20
-115.499863
 11
244.194427
 21
-115.499863
  0
LINE
  8
0
 62
     4
 10
244.724426
 20
-107.499863
 11
244.724426
 21
-115.499863
  0
LINE
  8
0
 62
     4
 10
245.364441
 20
-107.499863
 11
245.364441
 21
-115.499863
  0
LINE
  8
0
 62
     4
 10
245.894440
 20
-115.499863
 11
245.894440
 21
-119.959869
  0
LINE
  8
0
 62
     4
 10
244.194427
 20
-115.499863
 11
244.194427
 21
-119.499863
  0
LINE
  8
0
 62
     4
 10
266.344421
 20
-127.299866
 11
266.344421
 21
-131.799866
  0
LINE
  8
0
 62
     4
 10
272.044434
 20
-127.299866
 11
247.044434
 21
-127.299866
  0
LINE
  8
0
 62
     4
 10
247.044434
 20
-132.999863
 11
247.044434
 21
-127.499863
  0
LINE
  8
0
 62
     4
 10
247.044434
 20
-127.499863
 11
228.044434
 21
-127.499863
  0
LINE
  8
0
 62
     4
 10
228.044434
 20
-127.499863
 11
228.044434
 21
-157.999863
  0
LINE
  8
0
 62
     4
 10
266.794434
 20
-129.939865
 11
266.794434
 21
-131.199875
  0
LINE
  8
0
 62
     4
 10
271.294434
 20
-129.939865
 11
271.294434
 21
-131.199875
  0
LINE
  8
0
 62
     4
 10
266.494446
 20
-131.199875
 11
266.494446
 21
-131.799866
  0
LINE
  8
0
 62
     4
 10
271.594421
 20
-131.199875
 11
271.594421
 21
-131.799866
  0
LINE
  8
0
 62
     4
 10
271.594421
 20
-131.199875
 11
266.494446
 21
-131.199875
  0
LINE
  8
0
 62
     4
 10
248.044434
 20
-132.799866
 11
248.044434
 21
-157.999863
  0
LINE
  8
0
 62
     4
 10
272.044434
 20
-127.299866
 11
272.044434
 21
-157.999863
  0
LINE
  8
0
 62
     4
 10
248.044434
 20
-157.999863
 11
228.044434
 21
-157.999863
  0
LINE
  8
0
 62
     4
 10
272.044434
 20
-132.799866
 11
247.044434
 21
-132.799866
  0
LINE
  8
0
  6
CENTER
 62
     2
 10
260.037079
 20
-122.299866
 11
260.037079
 21
-162.999863
  0
LINE
  8
0
 62
     4
 10
112.037476
 20
-158.000000
 11
92.037491
 21
-158.000000
  0
LINE
  8
0
 62
     4
 10
93.037491
 20
-125.500000
 11
98.037476
 21
-125.500000
  0
LINE
  8
0
 62
     4
 10
98.037476
 20
-127.500000
 11
98.037476
 21
-125.500000
  0
LINE
  8
0
 62
     4
 10
93.037491
 20
-127.500000
 11
93.037491
 21
-125.500000
  0
LINE
  8
0
 62
     4
 10
93.037491
 20
-127.500000
 11
112.037476
 21
-127.500000
  0
LINE
  8
0
 62
     4
 10
95.887489
 20
-121.510010
 11
95.887489
 21
-125.500000
  0
LINE
  8
0
 62
     4
 10
94.187492
 20
-121.050003
 11
94.187492
 21
-125.500000
  0
LINE
  8
0
  6
PHANTOM
 62
     1
 10
92.187492
 20
-118.960014
 11
97.887489
 21
-120.490013
  0
LINE
  8
0
  6
PHANTOM
 62
     1
 10
92.187485
 20
-120.519997
 11
97.887489
 21
-122.040001
  0
LINE
  8
0
 62
     4
 10
94.717491
 20
-107.500000
 11
95.357491
 21
-107.500000
  0
LINE
  8
0
 62
     4
 10
94.187492
 20
-115.500000
 11
95.887489
 21
-115.500000
  0
LINE
  8
0
 62
     4
 10
95.357491
 20
-107.500000
 11
95.357491
 21
-115.500000
  0
LINE
  8
0
 62
     4
 10
94.717491
 20
-107.500000
 11
94.717491
 21
-115.500000
  0
LINE
  8
0
 62
     4
 10
94.187492
 20
-115.500000
 11
94.187492
 21
-119.500000
  0
LINE
  8
0
 62
     4
 10
95.887489
 20
-115.500000
 11
95.887489
 21
-119.960007
  0
LINE
  8
0
 62
     4
 10
91.737488
 20
-127.300003
 11
91.737488
 21
-131.800003
  0
LINE
  8
0
 62
     4
 10
86.337494
 20
-127.300003
 11
86.337494
 21
-131.800003
  0
LINE
  8
0
 62
     4
 10
68.037491
 20
-127.300003
 11
93.037491
 21
-127.300003
  0
LINE
  8
0
 62
     4
 10
93.037491
 20
-133.000000
 11
93.037491
 21
-127.500000
  0
LINE
  8
0
 62
     4
 10
92.037491
 20
-133.000000
 11
93.037491
 21
-133.000000
  0
LINE
  8
0
 62
     4
 10
112.037476
 20
-127.500000
 11
112.037476
 21
-158.000000
  0
LINE
  8
0
 62
     4
 10
86.787491
 20
-129.940002
 11
86.787491
 21
-131.200012
  0
LINE
  8
0
 62
     4
 10
91.287491
 20
-129.940002
 11
91.287491
 21
-131.200012
  0
LINE
  8
0
 62
     4
 10
86.487488
 20
-131.200012
 11
86.487488
 21
-131.800003
  0
LINE
  8
0
 62
     4
 10
91.587494
 20
-131.200012
 11
91.587494
 21
-131.800003
  0
LINE
  8
0
 62
     4
 10
91.587494
 20
-131.200012
 11
86.487488
 21
-131.200012
  0
LINE
  8
0
 62
     4
 10
86.337494
 20
-131.800003
 11
91.737488
 21
-131.800003
  0
LINE
  8
0
 62
     4
 10
92.037491
 20
-132.800003
 11
92.037491
 21
-158.000000
  0
LINE
  8
0
 62
     4
 10
68.037491
 20
-127.300003
 11
68.037491
 21
-158.000000
  0
LINE
  8
0
 62
     4
 10
68.037491
 20
-132.800003
 11
93.037491
 21
-132.800003
  0
LINE
  8
0
  6
CENTER
 62
     2
 10
80.029999
 20
-122.300003
 11
80.029999
 21
-163.000000
  0
LINE
  8
0
 62
     4
 10
168.767487
 20
-144.779999
 11
171.307495
 21
-142.229996
  0
LINE
  8
0
 62
     4
 10
168.767487
 20
-142.229980
 11
171.307495
 21
-144.779999
  0
LINE
  8
0
 62
     4
 10
176.037491
 20
-125.500000
 11
176.037491
 21
-127.500000
  0
LINE
  8
0
 62
     4
 10
164.037491
 20
-125.500000
 11
164.037491
 21
-127.500000
  0
LINE
  8
0
 62
     4
 10
164.037491
 20
-125.500000
 11
176.037491
 21
-125.500000
  0
LINE
  8
0
 62
     4
 10
162.537491
 20
-127.500000
 11
177.537491
 21
-127.500000
  0
LINE
  8
0
 62
     4
 10
174.287491
 20
-122.420013
 11
174.287491
 21
-125.500000
  0
LINE
  8
0
 62
     4
 10
172.587494
 20
-121.960007
 11
172.587494
 21
-125.500000
  0
LINE
  8
0
 62
     4
 10
172.137497
 20
-121.840012
 11
172.137497
 21
-125.500000
  0
LINE
  8
0
 62
     4
 10
170.437485
 20
-121.390015
 11
170.437485
 21
-125.500000
  0
LINE
  8
0
 62
     4
 10
169.637497
 20
-121.170013
 11
169.637497
 21
-125.500000
  0
LINE
  8
0
 62
     4
 10
167.937485
 20
-120.720001
 11
167.937485
 21
-125.500000
  0
LINE
  8
0
 62
     4
 10
167.487488
 20
-120.600006
 11
167.487488
 21
-125.500000
  0
LINE
  8
0
 62
     4
 10
165.787491
 20
-120.140015
 11
165.787491
 21
-125.500000
  0
LINE
  8
0
  6
PHANTOM
 62
     1
 10
163.787491
 20
-119.610008
 11
176.287491
 21
-122.960007
  0
LINE
  8
0
  6
PHANTOM
 62
     1
 10
163.787491
 20
-118.050003
 11
176.287491
 21
-121.400002
  0
LINE
  8
0
 62
     4
 10
162.537491
 20
-127.300003
 11
164.037491
 21
-127.300003
  0
LINE
  8
0
 62
     4
 10
176.037491
 20
-127.300003
 11
177.537491
 21
-127.300003
  0
LINE
  8
0
 62
     4
 10
170.967484
 20
-107.500000
 11
171.607483
 21
-107.500000
  0
LINE
  8
0
 62
     4
 10
170.437485
 20
-115.500000
 11
172.137497
 21
-115.500000
  0
LINE
  8
0
 62
     4
 10
171.607483
 20
-107.500000
 11
171.607483
 21
-115.500000
  0
LINE
  8
0
 62
     4
 10
170.967484
 20
-107.500000
 11
170.967484
 21
-115.500000
  0
LINE
  8
0
 62
     4
 10
170.437485
 20
-115.500000
 11
170.437485
 21
-119.840012
  0
LINE
  8
0
 62
     4
 10
172.137497
 20
-115.500000
 11
172.137497
 21
-120.290009
  0
LINE
  8
0
 62
     4
 10
168.467499
 20
-107.500000
 11
169.107498
 21
-107.500000
  0
LINE
  8
0
 62
     4
 10
167.937485
 20
-115.500000
 11
169.637497
 21
-115.500000
  0
LINE
  8
0
 62
     4
 10
169.107498
 20
-107.500000
 11
169.107498
 21
-115.500000
  0
LINE
  8
0
 62
     4
 10
168.467499
 20
-107.500000
 11
168.467499
 21
-115.500000
  0
LINE
  8
0
 62
     4
 10
167.937485
 20
-115.500000
 11
167.937485
 21
-119.170013
  0
LINE
  8
0
 62
     4
 10
169.637497
 20
-115.500000
 11
169.637497
 21
-119.620010
  0
LINE
  8
0
 62
     4
 10
166.317490
 20
-107.500000
 11
166.957489
 21
-107.500000
  0
LINE
  8
0
 62
     4
 10
165.787491
 20
-115.500000
 11
167.487488
 21
-115.500000
  0
LINE
  8
0
 62
     4
 10
166.957489
 20
-107.500000
 11
166.957489
 21
-115.500000
  0
LINE
  8
0
 62
     4
 10
166.317490
 20
-107.500000
 11
166.317490
 21
-115.500000
  0
LINE
  8
0
 62
     4
 10
165.787491
 20
-115.500000
 11
165.787491
 21
-118.590012
  0
LINE
  8
0
 62
     4
 10
167.487488
 20
-115.500000
 11
167.487488
 21
-119.040009
  0
LINE
  8
0
 62
     4
 10
173.117493
 20
-107.500000
 11
173.757492
 21
-107.500000
  0
LINE
  8
0
 62
     4
 10
172.587494
 20
-115.500000
 11
174.287491
 21
-115.500000
  0
LINE
  8
0
 62
     4
 10
173.757492
 20
-107.500000
 11
173.757492
 21
-115.500000
  0
LINE
  8
0
 62
     4
 10
173.117493
 20
-107.500000
 11
173.117493
 21
-115.500000
  0
LINE
  8
0
 62
     4
 10
172.587494
 20
-115.500000
 11
172.587494
 21
-120.410004
  0
LINE
  8
0
 62
     4
 10
174.287491
 20
-115.500000
 11
174.287491
 21
-120.870010
  0
LINE
  8
0
 62
     4
 10
172.537491
 20
-146.699997
 11
172.537491
 21
-149.699997
  0
LINE
  8
0
 62
     4
 10
167.537491
 20
-149.699997
 11
172.537491
 21
-149.699997
  0
LINE
  8
0
 62
     4
 10
167.537491
 20
-146.699997
 11
167.537491
 21
-149.699997
  0
LINE
  8
0
 62
     4
 10
167.537491
 20
-146.699997
 11
172.537491
 21
-146.699997
  0
LINE
  8
0
 62
     4
 10
168.037491
 20
-147.199997
 11
168.037491
 21
-149.199997
  0
LINE
  8
0
 62
     4
 10
172.037491
 20
-147.199997
 11
172.037491
 21
-149.199997
  0
LINE
  8
0
 62
     4
 10
168.037491
 20
-149.199997
 11
172.037491
 21
-149.199997
  0
LINE
  8
0
 62
     4
 10
168.037491
 20
-147.199997
 11
172.037491
 21
-147.199997
  0
LINE
  8
0
 62
     4
 10
177.537491
 20
-127.300003
 11
177.537491
 21
-158.000000
  0
LINE
  8
0
 62
     4
 10
162.537491
 20
-127.300003
 11
162.537491
 21
-158.000000
  0
LINE
  8
0
  6
CENTER
 62
     2
 10
170.029999
 20
-103.230011
 11
170.029999
 21
-163.000000
  0
LINE
  8
0
  6
CENTER
 62
     2
 10
-199.484955
 20
-252.999969
 11
-199.484955
 21
-204.089981
  0
LINE
  8
0
 62
     4
 10
-192.492447
 20
-222.499969
 11
-192.492447
 21
-212.499969
  0
LINE
  8
0
 62
     4
 10
-206.492447
 20
-212.499969
 11
-192.492447
 21
-212.499969
  0
LINE
  8
0
 62
     4
 10
-206.492447
 20
-222.499969
 11
-206.492447
 21
-212.499969
  0
LINE
  8
0
 62
     4
 10
-204.897491
 20
-63.579998
 11
-203.067490
 21
-65.409996
  0
LINE
  8
0
 62
     4
 10
-204.897491
 20
-65.409996
 11
-203.067490
 21
-63.579998
  0
LINE
  8
0
 62
     4
 10
-195.907501
 20
-45.580002
 11
-194.077499
 21
-47.410004
  0
LINE
  8
0
 62
     4
 10
-195.907501
 20
-47.409996
 11
-194.077499
 21
-45.579998
  0
LINE
  8
0
 62
     4
 10
-198.487503
 20
-75.500000
 11
-200.487503
 21
-75.500000
  0
LINE
  8
0
 62
     4
 10
-198.487503
 20
-68.500000
 11
-200.487503
 21
-68.500000
  0
LINE
  8
0
 62
     4
 10
-206.487503
 20
-67.500000
 11
-206.487503
 21
-77.500000
  0
LINE
  8
0
 62
     4
 10
-192.487503
 20
-77.500000
 11
-206.487503
 21
-77.500000
  0
LINE
  8
0
 62
     4
 10
-192.487503
 20
-67.500000
 11
-192.487503
 21
-77.500000
  0
LINE
  8
0
 62
     4
 10
-191.987503
 20
-67.500000
 11
-206.987503
 21
-67.500000
  0
LINE
  8
0
 62
     4
 10
-206.987503
 20
-43.500000
 11
-206.987503
 21
-67.500000
  0
LINE
  8
0
 62
     4
 10
-191.987503
 20
-43.500000
 11
-191.987503
 21
-67.500000
  0
LINE
  8
0
 62
     4
 10
-191.987503
 20
-43.500000
 11
-206.987503
 21
-43.500000
  0
LINE
  8
0
 62
     4
 10
-205.987503
 20
-44.500000
 11
-205.987503
 21
-61.500000
  0
LINE
  8
0
 62
     4
 10
-192.987503
 20
-49.500000
 11
-192.987503
 21
-66.500000
  0
LINE
  8
0
 62
     4
 10
-192.987503
 20
-66.500000
 11
-200.987503
 21
-66.500000
  0
LINE
  8
0
 62
     4
 10
-197.987503
 20
-44.500000
 11
-205.987503
 21
-44.500000
  0
LINE
  8
0
 62
     4
 10
-203.987503
 20
-61.500000
 11
-206.987503
 21
-61.500000
  0
LINE
  8
0
 62
     4
 10
-194.987503
 20
-49.500000
 11
-191.987503
 21
-49.500000
  0
LINE
  8
0
 62
     4
 10
-197.987503
 20
-46.500000
 11
-197.987503
 21
-43.500000
  0
LINE
  8
0
 62
     4
 10
-200.987503
 20
-64.500000
 11
-200.987503
 21
-67.500000
  0
LINE
  8
0
  6
CENTER
 62
     2
 10
-199.479996
 20
-85.569992
 11
-199.479996
 21
-37.000000
  0
LINE
  8
0
 62
     4
 10
-131.495010
 20
-158.000046
 11
-121.495026
 21
-158.000046
  0
LINE
  8
0
 62
     4
 10
-98.475037
 20
-129.860062
 11
-98.495033
 21
-129.800049
  0
LINE
  8
0
 62
     4
 10
-122.495026
 20
-132.000046
 11
-122.495026
 21
-133.500046
  0
LINE
  8
0
 62
     4
 10
-122.495026
 20
-132.000046
 11
-129.495010
 21
-132.000046
  0
LINE
  8
0
 62
     4
 10
-129.495010
 20
-132.000046
 11
-129.495010
 21
-133.500046
  0
LINE
  8
0
 62
     4
 10
-126.845016
 20
-127.550049
 11
-126.845016
 21
-132.000046
  0
LINE
  8
0
 62
     4
 10
-125.145027
 20
-128.010056
 11
-125.145027
 21
-132.000046
  0
LINE
  8
0
  6
PHANTOM
 62
     1
 10
-128.845016
 20
-125.460052
 11
-123.145020
 21
-126.990051
  0
LINE
  8
0
  6
PHANTOM
 62
     1
 10
-128.845032
 20
-127.020065
 11
-123.145027
 21
-128.540054
  0
LINE
  8
0
 62
     4
 10
-125.675018
 20
-112.000046
 11
-126.315018
 21
-112.000046
  0
LINE
  8
0
 62
     4
 10
-125.145027
 20
-122.000046
 11
-126.845016
 21
-122.000046
  0
LINE
  8
0
 62
     4
 10
-125.675018
 20
-112.000046
 11
-125.675018
 21
-122.000046
  0
LINE
  8
0
 62
     4
 10
-126.315018
 20
-112.000046
 11
-126.315018
 21
-122.000046
  0
LINE
  8
0
 62
     4
 10
-125.145027
 20
-122.000046
 11
-125.145027
 21
-126.460052
  0
LINE
  8
0
 62
     4
 10
-126.845016
 20
-122.000046
 11
-126.845016
 21
-126.000046
  0
LINE
  8
0
 62
     4
 10
-121.495026
 20
-133.500046
 11
-131.495010
 21
-133.500046
  0
LINE
  8
0
 62
     4
 10
-98.625023
 20
-129.800049
 11
-98.495026
 21
-129.800049
  0
LINE
  8
0
 62
     4
 10
-102.745026
 20
-129.940048
 11
-102.745026
 21
-131.200058
  0
LINE
  8
0
 62
     4
 10
-98.245026
 20
-129.940048
 11
-98.245026
 21
-131.200058
  0
LINE
  8
0
 62
     4
 10
-103.045029
 20
-131.200058
 11
-103.045029
 21
-131.800049
  0
LINE
  8
0
 62
     4
 10
-97.945023
 20
-131.200058
 11
-97.945023
 21
-131.800049
  0
LINE
  8
0
 62
     4
 10
-97.945023
 20
-131.200058
 11
-103.045029
 21
-131.200058
  0
LINE
  8
0
 62
     4
 10
-103.495026
 20
-129.800049
 11
-103.495026
 21
-131.800049
  0
LINE
  8
0
 62
     4
 10
-97.495033
 20
-131.800064
 11
-98.245041
 21
-130.300049
  0
LINE
  8
0
 62
     4
 10
-121.495026
 20
-131.800049
 11
-120.495026
 21
-129.800049
  0
LINE
  8
0
 62
     4
 10
-97.495026
 20
-131.800049
 11
-121.495026
 21
-131.800049
  0
LINE
  8
0
 62
     4
 10
-120.495026
 20
-129.800049
 11
-102.375023
 21
-129.800049
  0
LINE
  8
0
 62
     4
 10
-131.495010
 20
-133.500046
 11
-131.495010
 21
-158.000046
  0
LINE
  8
0
 62
     4
 10
-97.495026
 20
-132.800049
 11
-121.495026
 21
-132.800049
  0
LINE
  8
0
 62
     4
 10
-121.495026
 20
-131.800049
 11
-121.495026
 21
-158.000046
  0
LINE
  8
0
 62
     4
 10
-97.495026
 20
-131.800049
 11
-97.495026
 21
-158.000046
  0
LINE
  8
0
  6
CENTER
 62
     2
 10
-109.487526
 20
-124.800049
 11
-109.487526
 21
-163.000046
  0
LINE
  8
0
 62
     4
 10
-278.467316
 20
-129.860016
 11
-278.487305
 21
-129.800018
  0
LINE
  8
0
 62
     4
 10
-277.487305
 20
-133.500000
 11
-267.487305
 21
-133.500000
  0
LINE
  8
0
 62
     4
 10
-269.487305
 20
-132.000000
 11
-269.487305
 21
-133.500000
  0
LINE
  8
0
 62
     4
 10
-269.487305
 20
-132.000000
 11
-276.487305
 21
-132.000000
  0
LINE
  8
0
 62
     4
 10
-276.487305
 20
-132.000000
 11
-276.487305
 21
-133.500000
  0
LINE
  8
0
 62
     4
 10
-273.837311
 20
-127.550003
 11
-273.837311
 21
-132.000000
  0
LINE
  8
0
 62
     4
 10
-272.137329
 20
-128.010010
 11
-272.137329
 21
-132.000000
  0
LINE
  8
0
  6
PHANTOM
 62
     1
 10
-275.837311
 20
-125.459999
 11
-270.137299
 21
-126.989998
  0
LINE
  8
0
  6
PHANTOM
 62
     1
 10
-275.837311
 20
-127.019997
 11
-270.137299
 21
-128.539993
  0
LINE
  8
0
 62
     4
 10
-272.667297
 20
-112.000000
 11
-273.307312
 21
-112.000000
  0
LINE
  8
0
 62
     4
 10
-272.137329
 20
-122.000000
 11
-273.837311
 21
-122.000000
  0
LINE
  8
0
 62
     4
 10
-272.667297
 20
-112.000000
 11
-272.667297
 21
-122.000000
  0
LINE
  8
0
 62
     4
 10
-273.307312
 20
-112.000000
 11
-273.307312
 21
-122.000000
  0
LINE
  8
0
 62
     4
 10
-272.137329
 20
-122.000000
 11
-272.137329
 21
-126.460007
  0
LINE
  8
0
 62
     4
 10
-273.837311
 20
-122.000000
 11
-273.837311
 21
-126.000000
  0
LINE
  8
0
 62
     4
 10
-278.617310
 20
-129.800003
 11
-278.487305
 21
-129.800003
  0
LINE
  8
0
 62
     4
 10
-282.737305
 20
-129.940002
 11
-282.737305
 21
-131.200012
  0
LINE
  8
0
 62
     4
 10
-278.237305
 20
-129.940002
 11
-278.237305
 21
-131.200012
  0
LINE
  8
0
 62
     4
 10
-283.037292
 20
-131.200012
 11
-283.037292
 21
-131.800003
  0
LINE
  8
0
 62
     4
 10
-277.937317
 20
-131.200012
 11
-277.937317
 21
-131.800003
  0
LINE
  8
0
 62
     4
 10
-277.937317
 20
-131.200012
 11
-283.037292
 21
-131.200012
  0
LINE
  8
0
 62
     4
 10
-283.487305
 20
-129.800003
 11
-283.487305
 21
-131.800003
  0
LINE
  8
0
 62
     4
 10
-277.487305
 20
-131.800018
 11
-278.237305
 21
-130.300003
  0
LINE
  8
0
 62
     4
 10
-301.487305
 20
-131.800018
 11
-300.487305
 21
-129.800018
  0
LINE
  8
0
 62
     4
 10
-301.487305
 20
-131.800003
 11
-277.487305
 21
-131.800003
  0
LINE
  8
0
 62
     4
 10
-300.487305
 20
-129.800003
 11
-282.367310
 21
-129.800003
  0
LINE
  8
0
 62
     4
 10
-267.487305
 20
-133.500000
 11
-267.487305
 21
-158.000000
  0
LINE
  8
0
 62
     4
 10
-301.487305
 20
-132.800003
 11
-277.487305
 21
-132.800003
  0
LINE
  8
0
 62
     4
 10
-277.487305
 20
-131.800003
 11
-277.487305
 21
-158.000000
  0
LINE
  8
0
 62
     4
 10
-301.487305
 20
-131.800003
 11
-301.487305
 21
-158.000000
  0
LINE
  8
0
 62
     4
 10
-277.487305
 20
-158.000000
 11
-267.487305
 21
-158.000000
  0
LINE
  8
0
  6
CENTER
 62
     2
 10
-289.480011
 20
-124.800003
 11
-289.480011
 21
-163.000000
  0
LINE
  8
0
 62
     4
 10
-206.007507
 20
-129.860001
 11
-205.987503
 21
-129.800018
  0
LINE
  8
0
 62
     4
 10
-194.987503
 20
-132.000000
 11
-194.987503
 21
-133.500000
  0
LINE
  8
0
 62
     4
 10
-203.987503
 20
-132.000000
 11
-203.987503
 21
-133.500000
  0
LINE
  8
0
 62
     4
 10
-203.987503
 20
-132.000000
 11
-194.987503
 21
-132.000000
  0
LINE
  8
0
 62
     4
 10
-206.487503
 20
-133.500000
 11
-192.487503
 21
-133.500000
  0
LINE
  8
0
 62
     4
 10
-197.137497
 20
-127.310013
 11
-197.137497
 21
-132.000000
  0
LINE
  8
0
 62
     4
 10
-198.837509
 20
-126.860001
 11
-198.837509
 21
-132.000000
  0
LINE
  8
0
 62
     4
 10
-200.137497
 20
-126.510010
 11
-200.137497
 21
-132.000000
  0
LINE
  8
0
 62
     4
 10
-201.837509
 20
-126.050003
 11
-201.837509
 21
-132.000000
  0
LINE
  8
0
  6
PHANTOM
 62
     1
 10
-203.837509
 20
-123.960007
 11
-195.137512
 21
-126.290009
  0
LINE
  8
0
  6
PHANTOM
 62
     1
 10
-203.837509
 20
-125.520012
 11
-195.137512
 21
-127.850006
  0
LINE
  8
0
 62
     4
 10
-200.137497
 20
-129.800003
 11
-198.837509
 21
-129.800003
  0
LINE
  8
0
 62
     4
 10
-197.137497
 20
-129.800003
 11
-192.987503
 21
-129.800003
  0
LINE
  8
0
 62
     4
 10
-197.137497
 20
-131.800003
 11
-191.987503
 21
-131.800003
  0
LINE
  8
0
 62
     4
 10
-200.137497
 20
-131.800003
 11
-198.837509
 21
-131.800003
  0
LINE
  8
0
 62
     4
 10
-194.987503
 20
-132.800003
 11
-191.987503
 21
-132.800003
  0
LINE
  8
0
 62
     4
 10
-198.837509
 20
-122.000000
 11
-197.137497
 21
-122.000000
  0
LINE
  8
0
 62
     4
 10
-201.837509
 20
-122.000000
 11
-200.137497
 21
-122.000000
  0
LINE
  8
0
 62
     4
 10
-198.307510
 20
-112.000000
 11
-197.667511
 21
-112.000000
  0
LINE
  8
0
 62
     4
 10
-201.307495
 20
-112.000000
 11
-200.667496
 21
-112.000000
  0
LINE
  8
0
 62
     4
 10
-198.837509
 20
-122.000000
 11
-198.837509
 21
-125.300003
  0
LINE
  8
0
 62
     4
 10
-197.137497
 20
-122.000000
 11
-197.137497
 21
-125.760010
  0
LINE
  8
0
 62
     4
 10
-198.307510
 20
-112.000000
 11
-198.307510
 21
-122.000000
  0
LINE
  8
0
 62
     4
 10
-197.667511
 20
-112.000000
 11
-197.667511
 21
-122.000000
  0
LINE
  8
0
 62
     4
 10
-201.307495
 20
-112.000000
 11
-201.307495
 21
-122.000000
  0
LINE
  8
0
 62
     4
 10
-200.667496
 20
-112.000000
 11
-200.667496
 21
-122.000000
  0
LINE
  8
0
 62
     4
 10
-201.837509
 20
-122.000000
 11
-201.837509
 21
-124.500000
  0
LINE
  8
0
 62
     4
 10
-200.137497
 20
-122.000000
 11
-200.137497
 21
-124.950012
  0
LINE
  8
0
 62
     4
 10
-202.107498
 20
-129.800003
 11
-201.837509
 21
-129.800003
  0
LINE
  8
0
 62
     4
 10
-206.237503
 20
-129.940002
 11
-206.237503
 21
-131.200012
  0
LINE
  8
0
 62
     4
 10
-206.537506
 20
-131.200012
 11
-206.537506
 21
-131.800003
  0
LINE
  8
0
 62
     4
 10
-201.837509
 20
-131.200012
 11
-206.537506
 21
-131.200012
  0
LINE
  8
0
 62
     4
 10
-206.987488
 20
-131.800018
 11
-206.237503
 21
-130.300018
  0
LINE
  8
0
 62
     4
 10
-191.987518
 20
-131.800018
 11
-192.987518
 21
-129.800018
  0
LINE
  8
0
 62
     4
 10
-205.987503
 20
-129.800003
 11
-205.857498
 21
-129.800003
  0
LINE
  8
0
 62
     4
 10
-206.987503
 20
-131.800003
 11
-201.837509
 21
-131.800003
  0
LINE
  8
0
 62
     4
 10
-196.987503
 20
-144.000000
 11
-196.987503
 21
-147.000000
  0
LINE
  8
0
 62
     4
 10
-201.987503
 20
-147.000000
 11
-196.987503
 21
-147.000000
  0
LINE
  8
0
 62
     4
 10
-201.987503
 20
-144.000000
 11
-201.987503
 21
-147.000000
  0
LINE
  8
0
 62
     4
 10
-201.987503
 20
-144.000000
 11
-196.987503
 21
-144.000000
  0
LINE
  8
0
 62
     4
 10
-197.487503
 20
-144.500000
 11
-197.487503
 21
-146.500000
  0
LINE
  8
0
 62
     4
 10
-201.487503
 20
-144.500000
 11
-201.487503
 21
-146.500000
  0
LINE
  8
0
 62
     4
 10
-201.487503
 20
-146.500000
 11
-197.487503
 21
-146.500000
  0
LINE
  8
0
 62
     4
 10
-201.487503
 20
-144.500000
 11
-197.487503
 21
-144.500000
  0
LINE
  8
0
 62
     4
 10
-192.487503
 20
-133.500000
 11
-192.487503
 21
-158.000000
  0
LINE
  8
0
 62
     4
 10
-206.487503
 20
-133.500000
 11
-206.487503
 21
-158.000000
  0
LINE
  8
0
 62
     4
 10
-206.987503
 20
-132.800003
 11
-203.987503
 21
-132.800003
  0
LINE
  8
0
 62
     4
 10
-191.987503
 20
-131.800003
 11
-191.987503
 21
-158.000000
  0
LINE
  8
0
 62
     4
 10
-206.987503
 20
-131.800003
 11
-206.987503
 21
-158.000000
  0
LINE
  8
0
  6
CENTER
 62
     2
 10
-199.479996
 20
-108.260010
 11
-199.479996
 21
-163.000000
  0
LINE
  8
0
 62
     4
 10
269.625000
 20
168.500000
 11
263.125000
 21
168.500000
  0
LINE
  8
0
 62
     4
 10
260.964996
 20
201.089996
 11
262.795013
 21
202.920013
  0
LINE
  8
0
 62
     4
 10
260.964996
 20
202.919998
 11
262.795013
 21
201.089996
  0
LINE
  8
0
 62
     4
 10
269.954987
 20
220.920013
 11
271.785004
 21
219.090012
  0
LINE
  8
0
 62
     4
 10
269.954987
 20
219.089996
 11
271.785004
 21
220.920013
  0
LINE
  8
0
 62
     4
 10
273.774994
 20
191.500000
 11
258.975006
 21
191.500000
  0
LINE
  8
0
 62
     4
 10
273.774994
 20
192.000000
 11
273.774994
 21
169.000000
  0
LINE
  8
0
 62
     4
 10
258.975006
 20
192.000000
 11
258.975006
 21
169.000000
  0
LINE
  8
0
 62
     4
 10
263.125000
 20
168.500000
 11
263.125000
 21
169.000000
  0
LINE
  8
0
 62
     4
 10
269.625000
 20
168.500000
 11
269.625000
 21
169.000000
  0
LINE
  8
0
 62
     4
 10
269.174988
 20
167.460007
 11
269.174988
 21
168.500000
  0
LINE
  8
0
 62
     4
 10
263.575012
 20
167.460007
 11
263.575012
 21
168.500000
  0
LINE
  8
0
 62
     4
 10
273.774994
 20
169.000000
 11
258.975006
 21
169.000000
  0
LINE
  8
0
 62
     4
 10
272.684998
 20
180.270004
 11
266.554993
 21
183.800003
  0
LINE
  8
0
 62
     4
 10
266.195007
 20
169.010010
 11
260.065002
 21
172.540024
  0
LINE
  8
0
 62
     4
 10
266.195007
 20
183.800003
 11
260.065002
 21
180.269989
  0
LINE
  8
0
 62
     4
 10
272.684998
 20
172.540009
 11
266.554993
 21
169.010010
  0
LINE
  8
0
 62
     4
 10
259.875000
 20
179.940002
 11
259.875000
 21
172.870010
  0
LINE
  8
0
 62
     4
 10
272.875000
 20
179.940002
 11
272.875000
 21
172.870010
  0
LINE
  8
0
 62
     4
 10
273.875000
 20
192.000000
 11
258.875000
 21
192.000000
  0
LINE
  8
0
 62
     4
 10
273.875000
 20
196.000000
 11
258.875000
 21
196.000000
  0
LINE
  8
0
 62
     4
 10
258.875000
 20
223.000000
 11
258.875000
 21
192.000000
  0
LINE
  8
0
 62
     4
 10
273.875000
 20
223.000000
 11
258.875000
 21
223.000000
  0
LINE
  8
0
 62
     4
 10
273.875000
 20
223.000000
 11
273.875000
 21
192.000000
  0
LINE
  8
0
 62
     4
 10
259.875000
 20
222.000000
 11
259.875000
 21
205.000000
  0
LINE
  8
0
 62
     4
 10
272.875000
 20
217.000000
 11
272.875000
 21
200.000000
  0
LINE
  8
0
 62
     4
 10
272.875000
 20
200.000000
 11
264.875000
 21
200.000000
  0
LINE
  8
0
 62
     4
 10
267.875000
 20
222.000000
 11
259.875000
 21
222.000000
  0
LINE
  8
0
 62
     4
 10
261.875000
 20
205.000000
 11
258.875000
 21
205.000000
  0
LINE
  8
0
 62
     4
 10
270.875000
 20
217.000000
 11
273.875000
 21
217.000000
  0
LINE
  8
0
 62
     4
 10
267.875000
 20
220.000000
 11
267.875000
 21
223.000000
  0
LINE
  8
0
 62
     4
 10
264.875000
 20
202.000000
 11
264.875000
 21
199.000000
  0
LINE
  8
0
 62
     4
 10
273.875000
 20
199.000000
 11
258.875000
 21
199.000000
  0
LINE
  8
0
  6
CENTER
 62
     2
 10
266.369995
 20
163.570007
 11
266.369995
 21
229.500000
  0
LINE
  8
0
 62
     4
 10
373.394989
 20
136.639984
 11
373.375000
 21
136.699997
  0
LINE
  8
0
 62
     4
 10
342.875000
 20
118.099998
 11
342.875000
 21
132.899994
  0
LINE
  8
0
 62
     1
 10
333.105011
 20
145.199997
 11
333.105011
 21
143.199997
  0
LINE
  8
0
 62
     1
 10
322.455017
 20
145.199997
 11
322.455017
 21
143.199997
  0
LINE
  8
0
 62
     4
 10
321.775024
 20
145.199997
 11
321.775024
 21
143.199997
  0
LINE
  8
0
 62
     4
 10
333.775024
 20
145.199997
 11
333.775024
 21
143.199997
  0
LINE
  8
0
 62
     4
 10
335.174988
 20
143.199997
 11
335.174988
 21
132.899994
  0
LINE
  8
0
 62
     4
 10
320.375000
 20
143.199997
 11
320.375000
 21
118.099998
  0
LINE
  8
0
 62
     4
 10
335.174988
 20
143.199997
 11
320.375000
 21
143.199997
  0
LINE
  8
0
 62
     4
 10
343.375000
 20
133.500000
 11
343.375000
 21
108.500000
  0
LINE
  8
0
 62
     4
 10
343.375000
 20
118.099998
 11
320.375000
 21
118.099998
  0
LINE
  8
0
 62
     4
 10
343.375000
 20
132.899994
 11
320.375000
 21
132.899994
  0
LINE
  8
0
 62
     4
 10
324.244995
 20
151.669998
 11
323.915009
 21
151.669998
  0
LINE
  8
0
 62
     4
 10
331.645020
 20
151.669998
 11
331.315002
 21
151.669998
  0
LINE
  8
0
 62
     4
 10
323.915009
 20
151.669998
 11
323.915009
 21
146.199997
  0
LINE
  8
0
 62
     4
 10
324.244995
 20
151.669998
 11
324.244995
 21
146.199997
  0
LINE
  8
0
 62
     4
 10
331.315002
 20
151.669998
 11
331.315002
 21
146.199997
  0
LINE
  8
0
 62
     4
 10
331.645020
 20
151.669998
 11
331.645020
 21
146.199997
  0
LINE
  8
0
 62
     4
 10
333.575043
 20
152.599991
 11
335.175018
 21
151.669998
  0
LINE
  8
0
 62
     4
 10
321.975006
 20
152.599991
 11
320.375000
 21
151.669998
  0
LINE
  8
0
 62
     4
 10
322.775024
 20
130.500000
 11
322.775024
 21
120.500000
  0
LINE
  8
0
 62
     4
 10
332.775024
 20
130.500000
 11
332.775024
 21
120.500000
  0
LINE
  8
0
 62
     4
 10
332.775024
 20
120.500000
 11
322.775024
 21
120.500000
  0
LINE
  8
0
 62
     4
 10
332.775024
 20
130.500000
 11
322.775024
 21
130.500000
  0
LINE
  8
0
 62
     4
 10
335.174988
 20
146.199997
 11
320.375000
 21
146.199997
  0
LINE
  8
0
 62
     4
 10
335.174988
 20
145.199997
 11
320.375000
 21
145.199997
  0
LINE
  8
0
 62
     4
 10
319.875000
 20
128.750000
 11
320.375000
 21
128.750000
  0
LINE
  8
0
 62
     4
 10
319.875000
 20
122.250000
 11
320.375000
 21
122.250000
  0
LINE
  8
0
 62
     4
 10
319.875000
 20
122.250000
 11
319.875000
 21
128.750000
  0
LINE
  8
0
 62
     4
 10
318.835022
 20
128.299988
 11
319.875000
 21
128.299988
  0
LINE
  8
0
 62
     4
 10
318.835022
 20
122.699997
 11
319.875000
 21
122.699997
  0
LINE
  8
0
 62
     4
 10
333.575012
 20
152.599991
 11
321.975006
 21
152.599991
  0
LINE
  8
0
 62
     4
 10
335.174988
 20
151.669998
 11
335.174988
 21
145.199997
  0
LINE
  8
0
 62
     4
 10
320.375000
 20
151.669998
 11
320.375000
 21
145.199997
  0
LINE
  8
0
 62
     4
 10
347.375000
 20
133.500000
 11
343.375000
 21
133.500000
  0
LINE
  8
0
 62
     4
 10
347.375000
 20
133.699997
 11
347.375000
 21
108.500000
  0
LINE
  8
0
 62
     4
 10
373.244995
 20
136.699997
 11
373.375000
 21
136.699997
  0
LINE
  8
0
 62
     4
 10
369.125000
 20
136.559998
 11
369.125000
 21
135.299988
  0
LINE
  8
0
 62
     4
 10
373.625000
 20
136.559998
 11
373.625000
 21
135.299988
  0
LINE
  8
0
 62
     4
 10
368.825012
 20
135.299988
 11
368.825012
 21
134.699997
  0
LINE
  8
0
 62
     4
 10
373.924988
 20
135.299988
 11
373.924988
 21
134.699997
  0
LINE
  8
0
 62
     4
 10
373.924988
 20
135.299988
 11
368.825012
 21
135.299988
  0
LINE
  8
0
 62
     4
 10
368.375000
 20
136.699997
 11
368.375000
 21
134.699997
  0
LINE
  8
0
 62
     4
 10
374.375000
 20
134.699982
 11
373.625000
 21
136.199982
  0
LINE
  8
0
 62
     4
 10
350.375000
 20
134.699982
 11
351.375000
 21
136.699982
  0
LINE
  8
0
 62
     4
 10
374.375000
 20
134.699997
 11
350.375000
 21
134.699997
  0
LINE
  8
0
 62
     4
 10
351.375000
 20
136.699997
 11
369.494995
 21
136.699997
  0
LINE
  8
0
 62
     4
 10
350.375000
 20
134.699997
 11
350.375000
 21
133.699997
  0
LINE
  8
0
 62
     4
 10
374.375000
 20
133.699997
 11
347.375000
 21
133.699997
  0
LINE
  8
0
 62
     4
 10
374.375000
 20
134.699997
 11
374.375000
 21
108.500000
  0
LINE
  8
0
 62
     4
 10
347.375000
 20
108.500000
 11
343.375000
 21
108.500000
  0
LINE
  8
0
  6
CENTER
 62
     2
 10
362.369995
 20
141.699997
 11
362.369995
 21
103.500000
  0
LINE
  8
0
 62
     4
 10
194.375000
 20
108.500000
 11
190.375000
 21
108.500000
  0
LINE
  8
0
 62
     4
 10
186.394989
 20
136.639984
 11
186.374985
 21
136.699982
  0
LINE
  8
0
 62
     4
 10
194.875000
 20
118.099998
 11
194.875000
 21
132.899994
  0
LINE
  8
0
 62
     1
 10
204.644989
 20
145.199997
 11
204.644989
 21
143.199997
  0
LINE
  8
0
 62
     1
 10
215.294998
 20
145.199997
 11
215.294998
 21
143.199997
  0
LINE
  8
0
 62
     4
 10
203.974991
 20
145.199997
 11
203.974991
 21
143.199997
  0
LINE
  8
0
 62
     4
 10
215.974991
 20
145.199997
 11
215.974991
 21
143.199997
  0
LINE
  8
0
 62
     4
 10
217.375000
 20
143.199997
 11
217.375000
 21
118.099998
  0
LINE
  8
0
 62
     4
 10
202.574997
 20
143.199997
 11
202.574997
 21
132.899994
  0
LINE
  8
0
 62
     4
 10
202.574997
 20
143.199997
 11
217.375000
 21
143.199997
  0
LINE
  8
0
 62
     4
 10
194.375000
 20
133.500000
 11
194.375000
 21
108.500000
  0
LINE
  8
0
 62
     4
 10
213.504990
 20
151.669998
 11
213.834991
 21
151.669998
  0
LINE
  8
0
 62
     4
 10
206.104996
 20
151.669998
 11
206.434998
 21
151.669998
  0
LINE
  8
0
 62
     4
 10
213.834991
 20
151.669998
 11
213.834991
 21
146.199997
  0
LINE
  8
0
 62
     4
 10
213.504990
 20
151.669998
 11
213.504990
 21
146.199997
  0
LINE
  8
0
 62
     4
 10
206.434998
 20
151.669998
 11
206.434998
 21
146.199997
  0
LINE
  8
0
 62
     4
 10
206.104996
 20
151.669998
 11
206.104996
 21
146.199997
  0
LINE
  8
0
 62
     4
 10
204.175003
 20
152.599976
 11
202.574997
 21
151.669983
  0
LINE
  8
0
 62
     4
 10
215.775009
 20
152.599991
 11
217.375015
 21
151.669998
  0
LINE
  8
0
 62
     4
 10
214.974991
 20
130.500000
 11
214.974991
 21
120.500000
  0
LINE
  8
0
 62
     4
 10
204.974991
 20
130.500000
 11
204.974991
 21
120.500000
  0
LINE
  8
0
 62
     4
 10
204.974991
 20
120.500000
 11
214.974991
 21
120.500000
  0
LINE
  8
0
 62
     4
 10
204.974991
 20
130.500000
 11
214.974991
 21
130.500000
  0
LINE
  8
0
 62
     4
 10
202.574997
 20
146.199997
 11
217.375000
 21
146.199997
  0
LINE
  8
0
 62
     4
 10
202.574997
 20
145.199997
 11
217.375000
 21
145.199997
  0
LINE
  8
0
 62
     4
 10
217.875000
 20
128.750000
 11
217.375000
 21
128.750000
  0
LINE
  8
0
 62
     4
 10
217.875000
 20
122.250000
 11
217.375000
 21
122.250000
  0
LINE
  8
0
 62
     4
 10
217.875000
 20
122.250000
 11
217.875000
 21
128.750000
  0
LINE
  8
0
 62
     4
 10
218.914993
 20
128.299988
 11
217.875000
 21
128.299988
  0
LINE
  8
0
 62
     4
 10
218.914993
 20
122.699997
 11
217.875000
 21
122.699997
  0
LINE
  8
0
 62
     4
 10
204.174988
 20
152.599991
 11
215.774994
 21
152.599991
  0
LINE
  8
0
 62
     4
 10
202.574997
 20
151.669998
 11
202.574997
 21
145.199997
  0
LINE
  8
0
 62
     4
 10
194.375000
 20
132.899994
 11
217.375000
 21
132.899994
  0
LINE
  8
0
 62
     4
 10
194.375000
 20
118.099998
 11
217.375000
 21
118.099998
  0
LINE
  8
0
 62
     4
 10
217.375000
 20
151.669998
 11
217.375000
 21
145.199997
  0
LINE
  8
0
 62
     4
 10
190.375000
 20
133.500000
 11
194.375000
 21
133.500000
  0
LINE
  8
0
 62
     4
 10
190.375000
 20
133.699997
 11
190.375000
 21
108.500000
  0
LINE
  8
0
 62
     4
 10
186.244995
 20
136.699997
 11
186.375000
 21
136.699997
  0
LINE
  8
0
 62
     4
 10
182.125000
 20
136.559998
 11
182.125000
 21
135.299988
  0
LINE
  8
0
 62
     4
 10
186.625000
 20
136.559998
 11
186.625000
 21
135.299988
  0
LINE
  8
0
 62
     4
 10
181.824997
 20
135.299988
 11
181.824997
 21
134.699997
  0
LINE
  8
0
 62
     4
 10
186.925003
 20
135.299988
 11
186.925003
 21
134.699997
  0
LINE
  8
0
 62
     4
 10
186.925003
 20
135.299988
 11
181.824997
 21
135.299988
  0
LINE
  8
0
 62
     4
 10
181.375000
 20
136.699997
 11
181.375000
 21
134.699997
  0
LINE
  8
0
 62
     4
 10
187.375000
 20
134.699997
 11
186.625000
 21
136.199997
  0
LINE
  8
0
 62
     4
 10
163.375000
 20
134.699997
 11
164.375000
 21
136.699982
  0
LINE
  8
0
 62
     4
 10
163.375000
 20
134.699997
 11
187.375000
 21
134.699997
  0
LINE
  8
0
 62
     4
 10
164.375000
 20
136.699997
 11
182.494995
 21
136.699997
  0
LINE
  8
0
 62
     4
 10
187.375000
 20
134.699997
 11
187.375000
 21
133.699997
  0
LINE
  8
0
 62
     4
 10
163.375000
 20
133.699997
 11
190.375000
 21
133.699997
  0
LINE
  8
0
 62
     4
 10
163.375000
 20
134.699997
 11
163.375000
 21
108.500000
  0
LINE
  8
0
  6
CENTER
 62
     2
 10
175.369995
 20
141.699997
 11
175.369995
 21
103.500000
  0
LINE
  8
0
 62
     4
 10
265.314758
 20
124.430023
 11
267.434753
 21
126.560028
  0
LINE
  8
0
 62
     4
 10
267.434753
 20
124.430031
 11
265.314758
 21
126.560028
  0
LINE
  8
0
 62
     1
 10
261.054749
 20
145.200027
 11
261.054749
 21
143.200027
  0
LINE
  8
0
 62
     1
 10
271.694763
 20
145.200027
 11
271.694763
 21
143.200027
  0
LINE
  8
0
 62
     4
 10
260.374756
 20
145.200027
 11
260.374756
 21
143.200027
  0
LINE
  8
0
 62
     4
 10
272.374756
 20
145.200027
 11
272.374756
 21
143.200027
  0
LINE
  8
0
 62
     4
 10
273.774750
 20
143.200027
 11
273.774750
 21
118.100029
  0
LINE
  8
0
 62
     4
 10
258.974762
 20
143.200027
 11
258.974762
 21
118.100029
  0
LINE
  8
0
 62
     4
 10
258.974762
 20
143.200027
 11
273.774750
 21
143.200027
  0
LINE
  8
0
 62
     4
 10
266.194763
 20
151.670029
 11
266.194763
 21
146.200027
  0
LINE
  8
0
 62
     4
 10
266.554749
 20
151.670029
 11
266.554749
 21
146.200027
  0
LINE
  8
0
 62
     4
 10
273.774750
 20
133.700027
 11
273.874756
 21
133.700027
  0
LINE
  8
0
 62
     4
 10
273.774750
 20
134.700027
 11
273.874756
 21
134.700027
  0
LINE
  8
0
 62
     4
 10
266.194763
 20
151.670029
 11
266.554749
 21
151.670029
  0
LINE
  8
0
 62
     4
 10
260.574738
 20
152.600021
 11
259.874756
 21
152.190018
  0
LINE
  8
0
 62
     4
 10
272.174744
 20
152.600021
 11
272.874756
 21
152.190033
  0
LINE
  8
0
 62
     4
 10
272.874756
 20
152.190018
 11
272.874756
 21
146.200027
  0
LINE
  8
0
 62
     4
 10
259.874756
 20
152.190018
 11
259.874756
 21
146.200027
  0
LINE
  8
0
 62
     4
 10
258.974762
 20
146.200027
 11
258.974762
 21
145.200027
  0
LINE
  8
0
 62
     4
 10
273.774750
 20
146.200027
 11
273.774750
 21
145.200027
  0
LINE
  8
0
 62
     4
 10
258.974762
 20
146.200027
 11
273.774750
 21
146.200027
  0
LINE
  8
0
 62
     4
 10
260.574768
 20
152.600021
 11
272.174744
 21
152.600021
  0
LINE
  8
0
 62
     4
 10
258.974762
 20
145.200027
 11
273.774750
 21
145.200027
  0
LINE
  8
0
 62
     4
 10
258.974762
 20
118.100029
 11
273.774750
 21
118.100029
  0
LINE
  8
0
 62
     4
 10
258.974762
 20
132.900024
 11
273.774750
 21
132.900024
  0
LINE
  8
0
 62
     4
 10
258.874756
 20
134.700012
 11
258.974762
 21
134.900009
  0
LINE
  8
0
 62
     4
 10
273.874756
 20
134.700027
 11
273.774750
 21
134.900024
  0
LINE
  8
0
 62
     4
 10
258.874756
 20
134.700027
 11
258.974762
 21
134.700027
  0
LINE
  8
0
 62
     4
 10
258.874756
 20
133.700027
 11
258.974762
 21
133.700027
  0
LINE
  8
0
 62
     4
 10
273.874756
 20
134.700027
 11
273.874756
 21
108.500031
  0
LINE
  8
0
 62
     4
 10
258.874756
 20
134.700027
 11
258.874756
 21
108.500031
  0
LINE
  8
0
  6
CENTER
 62
     2
 10
266.369751
 20
157.600021
 11
266.369751
 21
103.500031
  0
LINE
  8
0
 62
     4
 10
0.875009
 20
69.369995
 11
0.875009
 21
74.500000
  0
LINE
  8
0
 62
     4
 10
-0.824991
 20
69.829987
 11
-0.824991
 21
74.500000
  0
LINE
  8
0
 62
     4
 10
-4.124990
 20
70.709991
 11
-4.124990
 21
74.500000
  0
LINE
  8
0
 62
     4
 10
-5.824989
 20
71.169998
 11
-5.824989
 21
74.500000
  0
LINE
  8
0
  6
PHANTOM
 62
     1
 10
2.875006
 20
67.289993
 11
-7.824993
 21
70.149994
  0
LINE
  8
0
  6
PHANTOM
 62
     1
 10
2.875009
 20
68.839996
 11
-7.824983
 21
71.709991
  0
LINE
  8
0
 62
     4
 10
-6.474990
 20
56.500000
 11
1.525009
 21
56.500000
  0
LINE
  8
0
 62
     4
 10
-6.474990
 20
63.000000
 11
1.525009
 21
63.000000
  0
LINE
  8
0
 62
     4
 10
-0.294991
 20
84.500000
 11
0.345010
 21
84.500000
  0
LINE
  8
0
 62
     4
 10
-0.824991
 20
74.500000
 11
0.875009
 21
74.500000
  0
LINE
  8
0
 62
     4
 10
0.875009
 20
64.500000
 11
0.875009
 21
67.819992
  0
LINE
  8
0
 62
     4
 10
-0.824991
 20
64.500000
 11
-0.824991
 21
68.279999
  0
LINE
  8
0
 62
     4
 10
-5.824989
 20
64.500000
 11
-5.824989
 21
69.619995
  0
LINE
  8
0
 62
     4
 10
-4.124990
 20
64.500000
 11
-4.124990
 21
69.159988
  0
LINE
  8
0
 62
     4
 10
-5.294990
 20
74.500000
 11
-5.294990
 21
84.500000
  0
LINE
  8
0
 62
     4
 10
-4.654989
 20
74.500000
 11
-4.654989
 21
84.500000
  0
LINE
  8
0
 62
     4
 10
-0.294991
 20
74.500000
 11
-0.294991
 21
84.500000
  0
LINE
  8
0
 62
     4
 10
0.345010
 20
74.500000
 11
0.345010
 21
84.500000
  0
LINE
  8
0
 62
     4
 10
-5.294990
 20
84.500000
 11
-4.654989
 21
84.500000
  0
LINE
  8
0
 62
     4
 10
-5.824989
 20
74.500000
 11
-4.124990
 21
74.500000
  0
LINE
  8
0
 62
     4
 10
3.025009
 20
54.000000
 11
3.025009
 21
64.500000
  0
LINE
  8
0
 62
     4
 10
-7.974990
 20
54.000000
 11
-7.974990
 21
64.500000
  0
LINE
  8
0
 62
     4
 10
-6.474990
 20
54.000000
 11
-6.474990
 21
64.500000
  0
LINE
  8
0
 62
     4
 10
1.525009
 20
54.000000
 11
1.525009
 21
64.500000
  0
LINE
  8
0
 62
     4
 10
-7.974990
 20
64.500000
 11
3.025009
 21
64.500000
  0
LINE
  8
0
 62
     4
 10
4.525009
 20
44.000000
 11
4.525009
 21
54.000000
  0
LINE
  8
0
 62
     4
 10
-9.474991
 20
54.000000
 11
4.525009
 21
54.000000
  0
LINE
  8
0
 62
     4
 10
-9.474991
 20
44.000000
 11
-9.474991
 21
54.000000
  0
LINE
  8
0
  6
CENTER
 62
     2
 10
-2.470000
 20
13.500000
 11
-2.470000
 21
87.779999
  0
LINE
  8
0
 62
     4
 10
1.105001
 20
220.919998
 11
2.935002
 21
219.089996
  0
LINE
  8
0
 62
     4
 10
-7.884985
 20
201.089996
 11
-6.054984
 21
202.919998
  0
LINE
  8
0
 62
     4
 10
1.105016
 20
219.089996
 11
2.935017
 21
220.919998
  0
LINE
  8
0
 62
     4
 10
-6.054986
 20
201.089996
 11
-7.884986
 21
202.919998
  0
LINE
  8
0
 62
     4
 10
-5.824989
 20
173.630005
 11
-5.824989
 21
168.500000
  0
LINE
  8
0
 62
     4
 10
-4.124990
 20
173.170013
 11
-4.124990
 21
168.500000
  0
LINE
  8
0
 62
     4
 10
-0.824990
 20
172.290009
 11
-0.824990
 21
168.500000
  0
LINE
  8
0
 62
     4
 10
0.875010
 20
171.830002
 11
0.875010
 21
168.500000
  0
LINE
  8
0
  6
PHANTOM
 62
     1
 10
-7.824987
 20
174.160019
 11
2.875001
 21
171.290009
  0
LINE
  8
0
  6
PHANTOM
 62
     1
 10
-7.824984
 20
175.710007
 11
2.875015
 21
172.850006
  0
LINE
  8
0
 62
     4
 10
-5.824989
 20
178.500000
 11
-5.824989
 21
175.180008
  0
LINE
  8
0
 62
     4
 10
-4.124990
 20
168.500000
 11
-5.824989
 21
168.500000
  0
LINE
  8
0
 62
     4
 10
-4.124990
 20
178.500000
 11
-4.124990
 21
174.720001
  0
LINE
  8
0
 62
     4
 10
-5.294990
 20
168.500000
 11
-5.294990
 21
158.500000
  0
LINE
  8
0
 62
     4
 10
-4.654989
 20
158.500000
 11
-5.294990
 21
158.500000
  0
LINE
  8
0
 62
     4
 10
-4.654989
 20
168.500000
 11
-4.654989
 21
158.500000
  0
LINE
  8
0
 62
     4
 10
-0.294991
 20
168.500000
 11
-0.294991
 21
158.500000
  0
LINE
  8
0
 62
     4
 10
0.345010
 20
158.500000
 11
-0.294991
 21
158.500000
  0
LINE
  8
0
 62
     4
 10
0.875010
 20
168.500000
 11
-0.824990
 21
168.500000
  0
LINE
  8
0
 62
     4
 10
0.345010
 20
168.500000
 11
0.345010
 21
158.500000
  0
LINE
  8
0
 62
     4
 10
-0.824990
 20
178.500000
 11
-0.824990
 21
173.840012
  0
LINE
  8
0
 62
     4
 10
0.875010
 20
178.500000
 11
0.875010
 21
173.380005
  0
LINE
  8
0
 62
     4
 10
-6.474990
 20
197.500000
 11
-6.474990
 21
178.500000
  0
LINE
  8
0
 62
     4
 10
1.525009
 20
197.500000
 11
1.525009
 21
178.500000
  0
LINE
  8
0
 62
     4
 10
3.025009
 20
189.900009
 11
3.025009
 21
178.500000
  0
LINE
  8
0
 62
     4
 10
3.025009
 20
178.500000
 11
-7.974990
 21
178.500000
  0
LINE
  8
0
 62
     4
 10
-7.974990
 20
189.900009
 11
-7.974990
 21
178.500000
  0
LINE
  8
0
 62
     4
 10
-9.474990
 20
199.000000
 11
-9.474990
 21
189.000000
  0
LINE
  8
0
 62
     4
 10
-7.974990
 20
189.000000
 11
-9.474990
 21
189.000000
  0
LINE
  8
0
 62
     4
 10
4.525009
 20
189.000000
 11
3.025009
 21
189.000000
  0
LINE
  8
0
 62
     4
 10
4.525009
 20
199.000000
 11
4.525009
 21
189.000000
  0
LINE
  8
0
 62
     4
 10
-9.974990
 20
223.000000
 11
-9.974990
 21
199.000000
  0
LINE
  8
0
 62
     4
 10
5.025009
 20
223.000000
 11
-9.974990
 21
223.000000
  0
LINE
  8
0
 62
     4
 10
5.025009
 20
223.000000
 11
5.025009
 21
199.000000
  0
LINE
  8
0
 62
     4
 10
-6.474990
 20
195.500000
 11
-6.674990
 21
195.500000
  0
LINE
  8
0
 62
     4
 10
-6.474990
 20
194.500000
 11
-6.674990
 21
194.500000
  0
LINE
  8
0
 62
     4
 10
-6.474990
 20
189.900009
 11
-9.474990
 21
189.900009
  0
LINE
  8
0
 62
     4
 10
1.725009
 20
194.500000
 11
1.725009
 21
189.900009
  0
LINE
  8
0
 62
     4
 10
-6.674990
 20
194.500000
 11
-6.674990
 21
189.900009
  0
LINE
  8
0
 62
     4
 10
1.725009
 20
194.500000
 11
1.525009
 21
194.500000
  0
LINE
  8
0
 62
     4
 10
1.725009
 20
195.500000
 11
1.525009
 21
195.500000
  0
LINE
  8
0
 62
     4
 10
1.725009
 20
199.000000
 11
1.725009
 21
195.500000
  0
LINE
  8
0
 62
     4
 10
-6.674990
 20
199.000000
 11
-6.674990
 21
195.500000
  0
LINE
  8
0
 62
     4
 10
1.525009
 20
197.500000
 11
-6.474990
 21
197.500000
  0
LINE
  8
0
 62
     4
 10
1.525009
 20
186.180008
 11
-6.474990
 21
186.180008
  0
LINE
  8
0
 62
     4
 10
1.525009
 20
180.500000
 11
-6.474990
 21
180.500000
  0
LINE
  8
0
 62
     4
 10
-8.974990
 20
222.000000
 11
-8.974990
 21
205.000000
  0
LINE
  8
0
 62
     4
 10
4.025009
 20
217.000000
 11
4.025009
 21
200.000000
  0
LINE
  8
0
 62
     4
 10
4.025009
 20
200.000000
 11
-3.974990
 21
200.000000
  0
LINE
  8
0
 62
     4
 10
-0.974991
 20
222.000000
 11
-8.974990
 21
222.000000
  0
LINE
  8
0
 62
     4
 10
-6.974990
 20
205.000000
 11
-9.974990
 21
205.000000
  0
LINE
  8
0
 62
     4
 10
2.025009
 20
217.000000
 11
5.025009
 21
217.000000
  0
LINE
  8
0
 62
     4
 10
-0.974991
 20
220.000000
 11
-0.974991
 21
223.000000
  0
LINE
  8
0
 62
     4
 10
-3.974990
 20
202.000000
 11
-3.974990
 21
199.000000
  0
LINE
  8
0
 62
     4
 10
4.525009
 20
189.900009
 11
1.525009
 21
189.900009
  0
LINE
  8
0
 62
     4
 10
5.025009
 20
199.000000
 11
-9.974990
 21
199.000000
  0
LINE
  8
0
  6
CENTER
 62
     2
 10
-2.469999
 20
157.150009
 11
-2.469999
 21
229.500000
  0
LINE
  8
0
 62
     4
 10
104.550056
 20
136.640015
 11
104.530052
 21
136.700012
  0
LINE
  8
0
 62
     4
 10
41.030064
 20
133.300018
 11
41.030064
 21
132.680023
  0
LINE
  8
0
 62
     4
 10
55.490070
 20
133.850021
 11
51.030064
 21
133.850021
  0
LINE
  8
0
 62
     4
 10
55.030064
 20
132.150024
 11
51.030064
 21
132.150024
  0
LINE
  8
0
  6
PHANTOM
 62
     1
 10
56.020069
 20
135.850021
 11
54.490067
 21
130.150024
  0
LINE
  8
0
  6
PHANTOM
 62
     1
 10
57.570068
 20
135.850021
 11
56.050068
 21
130.150009
  0
LINE
  8
0
 62
     4
 10
51.030064
 20
133.850021
 11
51.030064
 21
132.150024
  0
LINE
  8
0
 62
     4
 10
51.030064
 20
132.680023
 11
41.030064
 21
132.680023
  0
LINE
  8
0
 62
     4
 10
51.030064
 20
133.320023
 11
41.030064
 21
133.320023
  0
LINE
  8
0
 62
     4
 10
61.030064
 20
133.850021
 11
57.040073
 21
133.850021
  0
LINE
  8
0
 62
     4
 10
61.030064
 20
132.150024
 11
56.580067
 21
132.150024
  0
LINE
  8
0
 62
     4
 10
71.230072
 20
130.400024
 11
72.430069
 21
130.400024
  0
LINE
  8
0
 62
     4
 10
71.230072
 20
131.900024
 11
71.230072
 21
130.400024
  0
LINE
  8
0
 62
     4
 10
61.030064
 20
134.500031
 11
61.030064
 21
129.500031
  0
LINE
  8
0
 62
     4
 10
68.530060
 20
134.500031
 11
61.030064
 21
134.500031
  0
LINE
  8
0
 62
     4
 10
68.530060
 20
135.500031
 11
68.210068
 21
135.500031
  0
LINE
  8
0
 62
     4
 10
67.230072
 20
134.800018
 11
61.330067
 21
134.800018
  0
LINE
  8
0
 62
     4
 10
71.830070
 20
134.800003
 11
71.530067
 21
134.500031
  0
LINE
  8
0
 62
     4
 10
67.530060
 20
134.500031
 11
67.230064
 21
134.800018
  0
LINE
  8
0
 62
     4
 10
61.330074
 20
134.800018
 11
61.030071
 21
134.500031
  0
LINE
  8
0
 62
     4
 10
72.430069
 20
134.800018
 11
71.830063
 21
134.800018
  0
LINE
  8
0
 62
     4
 10
69.030060
 20
130.500031
 11
69.030060
 21
129.500031
  0
LINE
  8
0
 62
     4
 10
72.430069
 20
134.500031
 11
70.530060
 21
134.500031
  0
LINE
  8
0
 62
     4
 10
62.530071
 20
136.500015
 11
68.210060
 21
135.500015
  0
LINE
  8
0
 62
     4
 10
63.030067
 20
137.500015
 11
68.710075
 21
136.500015
  0
LINE
  8
0
 62
     4
 10
61.030064
 20
136.500031
 11
62.530064
 21
136.500031
  0
LINE
  8
0
 62
     4
 10
61.030064
 20
137.500031
 11
63.030064
 21
137.500031
  0
LINE
  8
0
 62
     4
 10
80.030060
 20
136.500031
 11
68.710068
 21
136.500031
  0
LINE
  8
0
 62
     4
 10
61.030064
 20
133.700027
 11
72.430069
 21
133.700027
  0
LINE
  8
0
 62
     4
 10
61.030064
 20
131.900024
 11
72.430069
 21
131.900024
  0
LINE
  8
0
 62
     4
 10
62.530064
 20
130.500031
 11
69.030060
 21
130.500031
  0
LINE
  8
0
 62
     4
 10
61.030064
 20
129.500031
 11
62.530064
 21
129.500031
  0
LINE
  8
0
 62
     4
 10
80.030060
 20
136.500031
 11
80.030060
 21
135.500031
  0
LINE
  8
0
 62
     4
 10
62.530064
 20
130.500031
 11
62.530064
 21
129.500031
  0
LINE
  8
0
 62
     4
 10
61.030064
 20
137.500031
 11
61.030064
 21
136.500031
  0
LINE
  8
0
 62
     4
 10
104.400063
 20
136.700027
 11
104.530060
 21
136.700027
  0
LINE
  8
0
 62
     4
 10
100.280067
 20
136.560028
 11
100.280067
 21
135.300018
  0
LINE
  8
0
 62
     4
 10
104.780060
 20
136.560028
 11
104.780060
 21
135.300018
  0
LINE
  8
0
 62
     4
 10
99.980064
 20
135.300018
 11
99.980064
 21
134.700027
  0
LINE
  8
0
 62
     4
 10
105.080063
 20
135.300018
 11
105.080063
 21
134.700027
  0
LINE
  8
0
 62
     4
 10
105.080063
 20
135.300018
 11
99.980064
 21
135.300018
  0
LINE
  8
0
 62
     4
 10
99.530067
 20
136.700027
 11
99.530067
 21
134.700027
  0
LINE
  8
0
 62
     4
 10
105.530060
 20
134.700012
 11
104.780060
 21
136.200012
  0
LINE
  8
0
 62
     4
 10
81.530060
 20
134.700012
 11
82.530060
 21
136.700012
  0
LINE
  8
0
 62
     4
 10
105.530060
 20
134.700027
 11
81.530060
 21
134.700027
  0
LINE
  8
0
 62
     4
 10
82.530060
 20
136.700027
 11
100.650063
 21
136.700027
  0
LINE
  8
0
 62
     4
 10
81.530060
 20
129.500031
 11
69.030060
 21
129.500031
  0
LINE
  8
0
 62
     4
 10
72.430069
 20
135.500031
 11
72.430069
 21
129.500031
  0
LINE
  8
0
 62
     4
 10
81.530060
 20
135.500031
 11
70.530060
 21
135.500031
  0
LINE
  8
0
 62
     4
 10
71.530060
 20
129.500031
 11
71.530060
 21
108.500031
  0
LINE
  8
0
 62
     4
 10
81.530060
 20
135.500031
 11
81.530060
 21
108.500031
  0
LINE
  8
0
 62
     4
 10
105.530060
 20
134.700027
 11
105.530060
 21
108.500031
  0
LINE
  8
0
 62
     4
 10
81.530060
 20
108.500031
 11
71.530060
 21
108.500031
  0
LINE
  8
0
 62
     4
 10
105.530060
 20
133.700027
 11
81.530060
 21
133.700027
  0
LINE
  8
0
  6
CENTER
 62
     2
 10
93.525055
 20
141.700027
 11
93.525055
 21
103.500031
  0
LINE
  8
0
 62
     4
 10
-82.459900
 20
136.639984
 11
-82.479904
 21
136.699982
  0
LINE
  8
0
 62
     4
 10
-55.439911
 20
132.149979
 11
-50.979919
 21
132.149979
  0
LINE
  8
0
 62
     4
 10
-54.979919
 20
133.849976
 11
-50.979919
 21
133.849976
  0
LINE
  8
0
  6
PHANTOM
 62
     1
 10
-55.969917
 20
130.149994
 11
-54.439919
 21
135.849976
  0
LINE
  8
0
  6
PHANTOM
 62
     1
 10
-57.519913
 20
130.149979
 11
-55.999912
 21
135.849976
  0
LINE
  8
0
 62
     4
 10
-40.979919
 20
133.319977
 11
-40.979919
 21
132.679977
  0
LINE
  8
0
 62
     4
 10
-50.979919
 20
133.849976
 11
-50.979919
 21
132.149979
  0
LINE
  8
0
 62
     4
 10
-50.979919
 20
132.679977
 11
-40.979919
 21
132.679977
  0
LINE
  8
0
 62
     4
 10
-50.979919
 20
133.319977
 11
-40.979919
 21
133.319977
  0
LINE
  8
0
 62
     4
 10
-60.979919
 20
133.849976
 11
-56.529907
 21
133.849976
  0
LINE
  8
0
 62
     4
 10
-60.979919
 20
132.149979
 11
-56.989914
 21
132.149979
  0
LINE
  8
0
 62
     4
 10
-71.179916
 20
130.399979
 11
-72.379913
 21
130.399979
  0
LINE
  8
0
 62
     4
 10
-71.179916
 20
131.899979
 11
-71.179916
 21
130.399979
  0
LINE
  8
0
 62
     4
 10
-60.979919
 20
134.499985
 11
-60.979919
 21
129.499985
  0
LINE
  8
0
 62
     4
 10
-68.479919
 20
134.499985
 11
-60.979919
 21
134.499985
  0
LINE
  8
0
 62
     4
 10
-68.479919
 20
135.499985
 11
-68.159912
 21
135.499985
  0
LINE
  8
0
 62
     4
 10
-67.179916
 20
134.799973
 11
-61.279907
 21
134.799973
  0
LINE
  8
0
 62
     4
 10
-71.779907
 20
134.799988
 11
-71.479904
 21
134.499985
  0
LINE
  8
0
 62
     4
 10
-67.479897
 20
134.499985
 11
-67.179901
 21
134.799973
  0
LINE
  8
0
 62
     4
 10
-61.279907
 20
134.799988
 11
-60.979916
 21
134.499985
  0
LINE
  8
0
 62
     4
 10
-72.379913
 20
134.799973
 11
-71.779907
 21
134.799973
  0
LINE
  8
0
 62
     4
 10
-68.979919
 20
130.499985
 11
-68.979919
 21
129.499985
  0
LINE
  8
0
 62
     4
 10
-72.379913
 20
134.499985
 11
-70.479919
 21
134.499985
  0
LINE
  8
0
 62
     4
 10
-62.479904
 20
136.500000
 11
-68.159912
 21
135.500000
  0
LINE
  8
0
 62
     4
 10
-62.979908
 20
137.499985
 11
-68.659904
 21
136.499985
  0
LINE
  8
0
 62
     4
 10
-60.979919
 20
136.499985
 11
-62.479919
 21
136.499985
  0
LINE
  8
0
 62
     4
 10
-60.979919
 20
137.499985
 11
-62.979919
 21
137.499985
  0
LINE
  8
0
 62
     4
 10
-79.979904
 20
136.499985
 11
-68.659912
 21
136.499985
  0
LINE
  8
0
 62
     4
 10
-60.979919
 20
133.699982
 11
-72.379913
 21
133.699982
  0
LINE
  8
0
 62
     4
 10
-60.979919
 20
131.899979
 11
-72.379913
 21
131.899979
  0
LINE
  8
0
 62
     4
 10
-62.479919
 20
130.499985
 11
-68.979919
 21
130.499985
  0
LINE
  8
0
 62
     4
 10
-60.979919
 20
129.499985
 11
-62.479919
 21
129.499985
  0
LINE
  8
0
 62
     4
 10
-79.979904
 20
136.499985
 11
-79.979904
 21
135.499985
  0
LINE
  8
0
 62
     4
 10
-62.479919
 20
130.499985
 11
-62.479919
 21
129.499985
  0
LINE
  8
0
 62
     4
 10
-60.979919
 20
137.499985
 11
-60.979919
 21
136.499985
  0
LINE
  8
0
 62
     4
 10
-82.609909
 20
136.699982
 11
-82.479904
 21
136.699982
  0
LINE
  8
0
 62
     4
 10
-86.729904
 20
136.559982
 11
-86.729904
 21
135.299973
  0
LINE
  8
0
 62
     4
 10
-82.229904
 20
136.559982
 11
-82.229904
 21
135.299973
  0
LINE
  8
0
 62
     4
 10
-87.029907
 20
135.299973
 11
-87.029907
 21
134.699982
  0
LINE
  8
0
 62
     4
 10
-81.929901
 20
135.299973
 11
-81.929901
 21
134.699982
  0
LINE
  8
0
 62
     4
 10
-81.929901
 20
135.299973
 11
-87.029907
 21
135.299973
  0
LINE
  8
0
 62
     4
 10
-87.479904
 20
136.699982
 11
-87.479904
 21
134.699982
  0
LINE
  8
0
 62
     4
 10
-81.479912
 20
134.699982
 11
-82.229912
 21
136.199966
  0
LINE
  8
0
 62
     4
 10
-105.479897
 20
134.699966
 11
-104.479897
 21
136.699966
  0
LINE
  8
0
 62
     4
 10
-105.479904
 20
134.699982
 11
-81.479904
 21
134.699982
  0
LINE
  8
0
 62
     4
 10
-104.479904
 20
136.699982
 11
-86.359901
 21
136.699982
  0
LINE
  8
0
 62
     4
 10
-81.479904
 20
129.499985
 11
-68.979919
 21
129.499985
  0
LINE
  8
0
 62
     4
 10
-72.379913
 20
135.499985
 11
-72.379913
 21
129.499985
  0
LINE
  8
0
 62
     4
 10
-81.479904
 20
135.499985
 11
-70.479919
 21
135.499985
  0
LINE
  8
0
 62
     4
 10
-71.479919
 20
129.499985
 11
-71.479919
 21
108.499985
  0
LINE
  8
0
 62
     4
 10
-81.479904
 20
135.499985
 11
-81.479904
 21
108.499985
  0
LINE
  8
0
 62
     4
 10
-105.479904
 20
134.699982
 11
-105.479904
 21
108.499985
  0
LINE
  8
0
 62
     4
 10
-81.479904
 20
108.499985
 11
-71.479919
 21
108.499985
  0
LINE
  8
0
 62
     4
 10
-105.479904
 20
133.699982
 11
-81.479904
 21
133.699982
  0
LINE
  8
0
  6
CENTER
 62
     2
 10
-93.474915
 20
141.699982
 11
-93.474915
 21
103.499985
  0
LINE
  8
0
 62
     4
 10
-8.994994
 20
136.639984
 11
-8.974993
 21
136.699997
  0
LINE
  8
0
 62
     4
 10
4.025009
 20
136.699997
 11
1.525009
 21
136.699997
  0
LINE
  8
0
 62
     4
 10
-0.474992
 20
132.049988
 11
-0.474992
 21
131.750000
  0
LINE
  8
0
 62
     4
 10
0.525008
 20
132.049988
 11
0.525008
 21
131.750000
  0
LINE
  8
0
 62
     4
 10
-1.974991
 20
132.049988
 11
-1.974991
 21
131.750000
  0
LINE
  8
0
 62
     4
 10
-2.974991
 20
132.049988
 11
-2.974991
 21
131.750000
  0
LINE
  8
0
 62
     4
 10
-4.474991
 20
132.049988
 11
-4.474991
 21
131.750000
  0
LINE
  8
0
 62
     4
 10
-5.474991
 20
132.049988
 11
-5.474991
 21
131.750000
  0
LINE
  8
0
 62
     4
 10
-0.474992
 20
131.750000
 11
0.525008
 21
131.750000
  0
LINE
  8
0
 62
     4
 10
-2.974991
 20
131.750000
 11
-1.974991
 21
131.750000
  0
LINE
  8
0
 62
     4
 10
-5.474991
 20
131.750000
 11
-4.474991
 21
131.750000
  0
LINE
  8
0
 62
     4
 10
-0.924991
 20
134.149994
 11
0.975008
 21
134.149994
  0
LINE
  8
0
 62
     4
 10
-3.424991
 20
134.149994
 11
-1.524991
 21
134.149994
  0
LINE
  8
0
 62
     4
 10
-5.924991
 20
134.149994
 11
-4.024991
 21
134.149994
  0
LINE
  8
0
 62
     4
 10
-6.474991
 20
137.500000
 11
-6.474991
 21
133.699997
  0
LINE
  8
0
 62
     4
 10
1.525009
 20
137.500000
 11
1.525009
 21
133.699997
  0
LINE
  8
0
 62
     4
 10
-6.474991
 20
137.500000
 11
1.525009
 21
137.500000
  0
LINE
  8
0
 62
     4
 10
-6.174991
 20
134.799988
 11
1.225008
 21
134.799988
  0
LINE
  8
0
 62
     4
 10
-6.674990
 20
134.500000
 11
1.725008
 21
134.500000
  0
LINE
  8
0
 62
     4
 10
-0.924991
 20
133.949997
 11
0.975008
 21
133.949997
  0
LINE
  8
0
 62
     4
 10
-0.924991
 20
132.049988
 11
0.975008
 21
132.049988
  0
LINE
  8
0
 62
     4
 10
-3.424991
 20
132.049988
 11
-1.524991
 21
132.049988
  0
LINE
  8
0
 62
     4
 10
-3.424991
 20
133.949997
 11
-1.524991
 21
133.949997
  0
LINE
  8
0
 62
     4
 10
-0.924991
 20
134.149994
 11
-0.924991
 21
132.049988
  0
LINE
  8
0
 62
     4
 10
0.975008
 20
134.149994
 11
0.975008
 21
132.049988
  0
LINE
  8
0
 62
     4
 10
-1.524991
 20
134.149994
 11
-1.524991
 21
132.049988
  0
LINE
  8
0
 62
     4
 10
-3.424991
 20
134.149994
 11
-3.424991
 21
132.049988
  0
LINE
  8
0
 62
     4
 10
-4.024991
 20
134.149994
 11
-4.024991
 21
132.049988
  0
LINE
  8
0
 62
     4
 10
-5.924991
 20
134.149994
 11
-5.924991
 21
132.049988
  0
LINE
  8
0
 62
     4
 10
-5.924991
 20
132.049988
 11
-4.024991
 21
132.049988
  0
LINE
  8
0
 62
     4
 10
-5.924991
 20
133.949997
 11
-4.024991
 21
133.949997
  0
LINE
  8
0
 62
     4
 10
1.525009
 20
133.699997
 11
3.025009
 21
133.699997
  0
LINE
  8
0
 62
     4
 10
1.525009
 20
131.899994
 11
1.525009
 21
129.500000
  0
LINE
  8
0
 62
     4
 10
-6.474991
 20
131.899994
 11
-6.474991
 21
129.500000
  0
LINE
  8
0
 62
     4
 10
1.525007
 20
134.500000
 11
1.225009
 21
134.800003
  0
LINE
  8
0
 62
     4
 10
-6.474985
 20
134.499985
 11
-6.174981
 21
134.799988
  0
LINE
  8
0
 62
     4
 10
3.025009
 20
133.699997
 11
3.025009
 21
131.899994
  0
LINE
  8
0
 62
     4
 10
-7.974990
 20
133.699997
 11
-7.974990
 21
131.899994
  0
LINE
  8
0
 62
     4
 10
-6.474991
 20
136.500000
 11
1.525009
 21
136.500000
  0
LINE
  8
0
 62
     4
 10
-7.974990
 20
133.699997
 11
-6.474991
 21
133.699997
  0
LINE
  8
0
 62
     4
 10
1.525009
 20
131.899994
 11
3.225008
 21
131.899994
  0
LINE
  8
0
 62
     4
 10
1.725008
 20
133.899994
 11
3.225008
 21
133.899994
  0
LINE
  8
0
 62
     4
 10
1.725008
 20
131.899994
 11
1.725008
 21
129.500000
  0
LINE
  8
0
 62
     4
 10
-6.674990
 20
131.899994
 11
-6.674990
 21
129.500000
  0
LINE
  8
0
 62
     4
 10
-8.174990
 20
133.899994
 11
-8.174990
 21
131.899994
  0
LINE
  8
0
 62
     4
 10
3.225008
 20
133.899994
 11
3.225008
 21
131.899994
  0
LINE
  8
0
 62
     4
 10
-6.674990
 20
135.500000
 11
-6.674990
 21
133.899994
  0
LINE
  8
0
 62
     4
 10
1.725008
 20
135.500000
 11
1.725008
 21
133.899994
  0
LINE
  8
0
 62
     4
 10
-8.174990
 20
133.899994
 11
-6.674990
 21
133.899994
  0
LINE
  8
0
 62
     4
 10
-8.174990
 20
131.899994
 11
-6.474991
 21
131.899994
  0
LINE
  8
0
 62
     4
 10
-9.224991
 20
136.559998
 11
-9.224991
 21
135.500000
  0
LINE
  8
0
 62
     4
 10
4.525009
 20
134.699997
 11
5.025009
 21
134.699997
  0
LINE
  8
0
 62
     4
 10
-9.524990
 20
135.299988
 11
-9.524990
 21
134.699997
  0
LINE
  8
0
 62
     4
 10
-9.474991
 20
135.299988
 11
-9.524990
 21
135.299988
  0
LINE
  8
0
 62
     4
 10
5.025012
 20
134.699982
 11
4.025011
 21
136.699982
  0
LINE
  8
0
 62
     4
 10
-9.974983
 20
134.699997
 11
-9.224982
 21
136.199982
  0
LINE
  8
0
 62
     4
 10
-9.974991
 20
134.699997
 11
-9.474991
 21
134.699997
  0
LINE
  8
0
 62
     4
 10
-8.974991
 20
136.699997
 11
-8.844990
 21
136.699997
  0
LINE
  8
0
 62
     4
 10
0.025008
 20
122.500000
 11
0.025008
 21
119.500000
  0
LINE
  8
0
 62
     4
 10
-4.974991
 20
119.500000
 11
0.025008
 21
119.500000
  0
LINE
  8
0
 62
     4
 10
-4.974991
 20
122.500000
 11
-4.974991
 21
119.500000
  0
LINE
  8
0
 62
     4
 10
-4.974991
 20
122.500000
 11
0.025008
 21
122.500000
  0
LINE
  8
0
 62
     4
 10
-0.474992
 20
122.000000
 11
-0.474992
 21
120.000000
  0
LINE
  8
0
 62
     4
 10
-4.474991
 20
122.000000
 11
-4.474991
 21
120.000000
  0
LINE
  8
0
 62
     4
 10
-4.474991
 20
120.000000
 11
-0.474992
 21
120.000000
  0
LINE
  8
0
 62
     4
 10
-4.474991
 20
122.000000
 11
-0.474992
 21
122.000000
  0
LINE
  8
0
 62
     4
 10
4.525009
 20
133.699997
 11
5.025009
 21
133.699997
  0
LINE
  8
0
 62
     4
 10
-9.474991
 20
129.500000
 11
4.525009
 21
129.500000
  0
LINE
  8
0
 62
     4
 10
-9.474991
 20
135.500000
 11
4.525009
 21
135.500000
  0
LINE
  8
0
 62
     4
 10
-9.474991
 20
135.500000
 11
-9.474991
 21
108.500000
  0
LINE
  8
0
 62
     4
 10
4.525009
 20
135.500000
 11
4.525009
 21
108.500000
  0
LINE
  8
0
 62
     4
 10
-9.974991
 20
133.699997
 11
-9.474991
 21
133.699997
  0
LINE
  8
0
 62
     4
 10
5.025009
 20
134.699997
 11
5.025009
 21
108.500000
  0
LINE
  8
0
 62
     4
 10
-9.974991
 20
134.699997
 11
-9.974991
 21
108.500000
  0
LINE
  8
0
  6
CENTER
 62
     2
 10
-2.470000
 20
142.629990
 11
-2.470000
 21
103.500000
  0
LINE
  8
0
 62
     4
 10
-259.074768
 20
44.000000
 11
-259.074768
 21
54.000000
  0
LINE
  8
0
 62
     4
 10
-273.074768
 20
54.000000
 11
-259.074768
 21
54.000000
  0
LINE
  8
0
 62
     4
 10
-273.074768
 20
44.000000
 11
-273.074768
 21
54.000000
  0
LINE
  8
0
  6
CENTER
 62
     2
 10
-266.069824
 20
60.531570
 11
-266.069824
 21
11.361503
  0
LINE
  8
0
 62
     4
 10
-262.494537
 20
219.089996
 11
-260.664520
 21
220.919998
  0
LINE
  8
0
 62
     4
 10
-260.664520
 20
219.089996
 11
-262.494537
 21
220.919983
  0
LINE
  8
0
 62
     4
 10
-271.484528
 20
202.920013
 11
-269.654510
 21
201.089996
  0
LINE
  8
0
 62
     4
 10
-271.484528
 20
201.089996
 11
-269.654510
 21
202.919998
  0
LINE
  8
0
 62
     4
 10
-270.074524
 20
190.499985
 11
-271.574524
 21
190.499985
  0
LINE
  8
0
 62
     4
 10
-270.574524
 20
190.499985
 11
-270.574524
 21
189.799988
  0
LINE
  8
0
 62
     4
 10
-261.574524
 20
190.499985
 11
-261.574524
 21
189.799988
  0
LINE
  8
0
 62
     4
 10
-271.574524
 20
191.999985
 11
-271.574524
 21
190.499985
  0
LINE
  8
0
 62
     4
 10
-260.574524
 20
191.999985
 11
-260.574524
 21
190.499985
  0
LINE
  8
0
 62
     4
 10
-261.574524
 20
189.799988
 11
-270.574524
 21
189.799988
  0
LINE
  8
0
 62
     4
 10
-260.574524
 20
190.499985
 11
-262.074524
 21
190.499985
  0
LINE
  8
0
 62
     4
 10
-273.074524
 20
198.999985
 11
-273.074524
 21
188.999985
  0
LINE
  8
0
 62
     4
 10
-259.074524
 20
188.999985
 11
-273.074524
 21
188.999985
  0
LINE
  8
0
 62
     4
 10
-259.074524
 20
198.999985
 11
-259.074524
 21
188.999985
  0
LINE
  8
0
 62
     4
 10
-258.574524
 20
198.999985
 11
-273.574524
 21
198.999985
  0
LINE
  8
0
 62
     4
 10
-273.574524
 20
222.999985
 11
-273.574524
 21
198.999985
  0
LINE
  8
0
 62
     4
 10
-258.574524
 20
222.999985
 11
-258.574524
 21
198.999985
  0
LINE
  8
0
 62
     4
 10
-258.574524
 20
222.999985
 11
-273.574524
 21
222.999985
  0
LINE
  8
0
 62
     4
 10
-261.874542
 20
192.999985
 11
-270.274536
 21
192.999985
  0
LINE
  8
0
 62
     4
 10
-270.274536
 20
193.599991
 11
-270.274536
 21
191.999985
  0
LINE
  8
0
 62
     4
 10
-261.874542
 20
193.599991
 11
-261.874542
 21
191.999985
  0
LINE
  8
0
 62
     4
 10
-270.274536
 20
193.599991
 11
-271.774536
 21
193.599991
  0
LINE
  8
0
 62
     4
 10
-270.074524
 20
195.599991
 11
-271.774536
 21
195.599991
  0
LINE
  8
0
 62
     4
 10
-260.374542
 20
195.599991
 11
-260.374542
 21
193.599991
  0
LINE
  8
0
 62
     4
 10
-271.774536
 20
195.599991
 11
-271.774536
 21
193.599991
  0
LINE
  8
0
 62
     4
 10
-270.274536
 20
197.999985
 11
-270.274536
 21
195.599991
  0
LINE
  8
0
 62
     4
 10
-261.874542
 20
197.999985
 11
-261.874542
 21
195.599991
  0
LINE
  8
0
 62
     4
 10
-261.874542
 20
197.999985
 11
-270.274536
 21
197.999985
  0
LINE
  8
0
 62
     4
 10
-260.374542
 20
195.599991
 11
-262.074524
 21
195.599991
  0
LINE
  8
0
 62
     4
 10
-260.374542
 20
193.599991
 11
-261.874542
 21
193.599991
  0
LINE
  8
0
 62
     4
 10
-259.074524
 20
191.999985
 11
-273.074524
 21
191.999985
  0
LINE
  8
0
 62
     4
 10
-268.074524
 20
195.449997
 11
-268.074524
 21
195.749985
  0
LINE
  8
0
 62
     4
 10
-269.074524
 20
195.449997
 11
-269.074524
 21
195.749985
  0
LINE
  8
0
 62
     4
 10
-266.574524
 20
195.449997
 11
-266.574524
 21
195.749985
  0
LINE
  8
0
 62
     4
 10
-265.574524
 20
195.449997
 11
-265.574524
 21
195.749985
  0
LINE
  8
0
 62
     4
 10
-264.074524
 20
195.449997
 11
-264.074524
 21
195.749985
  0
LINE
  8
0
 62
     4
 10
-263.074524
 20
195.449997
 11
-263.074524
 21
195.749985
  0
LINE
  8
0
 62
     4
 10
-268.074524
 20
195.749985
 11
-269.074524
 21
195.749985
  0
LINE
  8
0
 62
     4
 10
-265.574524
 20
195.749985
 11
-266.574524
 21
195.749985
  0
LINE
  8
0
 62
     4
 10
-263.074524
 20
195.749985
 11
-264.074524
 21
195.749985
  0
LINE
  8
0
 62
     4
 10
-267.624542
 20
193.349991
 11
-269.524536
 21
193.349991
  0
LINE
  8
0
 62
     4
 10
-265.124542
 20
193.349991
 11
-267.024536
 21
193.349991
  0
LINE
  8
0
 62
     4
 10
-262.624542
 20
193.349991
 11
-264.524536
 21
193.349991
  0
LINE
  8
0
 62
     4
 10
-262.074524
 20
189.999985
 11
-262.074524
 21
193.799988
  0
LINE
  8
0
 62
     4
 10
-270.074524
 20
189.999985
 11
-270.074524
 21
193.799988
  0
LINE
  8
0
 62
     4
 10
-262.074524
 20
189.999985
 11
-270.074524
 21
189.999985
  0
LINE
  8
0
 62
     4
 10
-262.374542
 20
192.699997
 11
-269.774536
 21
192.699997
  0
LINE
  8
0
 62
     4
 10
-267.624542
 20
193.549988
 11
-269.524536
 21
193.549988
  0
LINE
  8
0
 62
     4
 10
-267.624542
 20
195.449997
 11
-269.524536
 21
195.449997
  0
LINE
  8
0
 62
     4
 10
-265.124542
 20
195.449997
 11
-267.024536
 21
195.449997
  0
LINE
  8
0
 62
     4
 10
-265.124542
 20
193.549988
 11
-267.024536
 21
193.549988
  0
LINE
  8
0
 62
     4
 10
-267.624542
 20
193.349991
 11
-267.624542
 21
195.449997
  0
LINE
  8
0
 62
     4
 10
-269.524536
 20
193.349991
 11
-269.524536
 21
195.449997
  0
LINE
  8
0
 62
     4
 10
-267.024536
 20
193.349991
 11
-267.024536
 21
195.449997
  0
LINE
  8
0
 62
     4
 10
-265.124542
 20
193.349991
 11
-265.124542
 21
195.449997
  0
LINE
  8
0
 62
     4
 10
-264.524536
 20
193.349991
 11
-264.524536
 21
195.449997
  0
LINE
  8
0
 62
     4
 10
-262.624542
 20
193.349991
 11
-262.624542
 21
195.449997
  0
LINE
  8
0
 62
     4
 10
-262.624542
 20
195.449997
 11
-264.524536
 21
195.449997
  0
LINE
  8
0
 62
     4
 10
-262.624542
 20
193.549988
 11
-264.524536
 21
193.549988
  0
LINE
  8
0
 62
     4
 10
-270.074524
 20
193.799988
 11
-271.574524
 21
193.799988
  0
LINE
  8
0
 62
     4
 10
-270.074524
 20
195.599991
 11
-270.074524
 21
197.999985
  0
LINE
  8
0
 62
     4
 10
-262.074524
 20
195.599991
 11
-262.074524
 21
197.999985
  0
LINE
  8
0
 62
     4
 10
-270.074524
 20
192.999969
 11
-269.774536
 21
192.699997
  0
LINE
  8
0
 62
     4
 10
-262.074524
 20
193.000000
 11
-262.374542
 21
192.699997
  0
LINE
  8
0
 62
     4
 10
-271.574524
 20
193.799988
 11
-271.574524
 21
195.599991
  0
LINE
  8
0
 62
     4
 10
-260.574524
 20
193.799988
 11
-260.574524
 21
195.599991
  0
LINE
  8
0
 62
     4
 10
-262.074524
 20
190.999985
 11
-270.074524
 21
190.999985
  0
LINE
  8
0
 62
     4
 10
-260.574524
 20
193.799988
 11
-262.074524
 21
193.799988
  0
LINE
  8
0
 62
     4
 10
-272.574524
 20
221.999985
 11
-272.574524
 21
204.999985
  0
LINE
  8
0
 62
     4
 10
-259.574524
 20
216.999985
 11
-259.574524
 21
199.999985
  0
LINE
  8
0
 62
     4
 10
-259.574524
 20
199.999985
 11
-267.574524
 21
199.999985
  0
LINE
  8
0
 62
     4
 10
-264.574524
 20
221.999985
 11
-272.574524
 21
221.999985
  0
LINE
  8
0
 62
     4
 10
-270.574524
 20
204.999985
 11
-273.574524
 21
204.999985
  0
LINE
  8
0
 62
     4
 10
-261.574524
 20
216.999985
 11
-258.574524
 21
216.999985
  0
LINE
  8
0
 62
     4
 10
-264.574524
 20
219.999985
 11
-264.574524
 21
222.999985
  0
LINE
  8
0
 62
     4
 10
-267.574524
 20
201.999985
 11
-267.574524
 21
198.999985
  0
LINE
  8
0
  6
CENTER
 62
     2
 10
-266.069580
 20
182.609985
 11
-266.069580
 21
229.499985
  0
LINE
  8
0
 62
     4
 10
-188.080017
 20
108.500031
 11
-198.080017
 21
108.500031
  0
LINE
  8
0
 62
     4
 10
-165.060013
 20
136.640015
 11
-165.080017
 21
136.700027
  0
LINE
  8
0
 62
     4
 10
-193.430023
 20
150.500031
 11
-193.430023
 21
154.500031
  0
LINE
  8
0
 62
     4
 10
-191.730026
 20
150.040024
 11
-191.730026
 21
154.500031
  0
LINE
  8
0
  6
PHANTOM
 62
     1
 10
-189.730011
 20
147.960022
 11
-195.430008
 21
149.480026
  0
LINE
  8
0
  6
PHANTOM
 62
     1
 10
-189.730026
 20
149.510010
 11
-195.430008
 21
151.040009
  0
LINE
  8
0
 62
     4
 10
-164.080017
 20
134.700027
 11
-188.080017
 21
134.700027
  0
LINE
  8
0
 62
     4
 10
-189.080017
 20
136.500031
 11
-189.080017
 21
134.500031
  0
LINE
  8
0
 62
     4
 10
-195.080017
 20
135.000031
 11
-195.080017
 21
129.500031
  0
LINE
  8
0
 62
     4
 10
-165.210022
 20
136.700027
 11
-165.080017
 21
136.700027
  0
LINE
  8
0
 62
     4
 10
-169.330017
 20
136.560028
 11
-169.330017
 21
135.300018
  0
LINE
  8
0
 62
     4
 10
-164.830017
 20
136.560028
 11
-164.830017
 21
135.300018
  0
LINE
  8
0
 62
     4
 10
-169.630020
 20
135.300018
 11
-169.630020
 21
134.700027
  0
LINE
  8
0
 62
     4
 10
-164.530029
 20
135.300018
 11
-164.530029
 21
134.700027
  0
LINE
  8
0
 62
     4
 10
-164.530029
 20
135.300018
 11
-169.630020
 21
135.300018
  0
LINE
  8
0
 62
     4
 10
-170.080017
 20
136.700027
 11
-170.080017
 21
134.700027
  0
LINE
  8
0
 62
     4
 10
-164.080032
 20
134.700027
 11
-164.830032
 21
136.200012
  0
LINE
  8
0
 62
     4
 10
-188.080017
 20
134.700027
 11
-187.080017
 21
136.700027
  0
LINE
  8
0
 62
     4
 10
-188.080017
 20
134.500031
 11
-195.080017
 21
134.500031
  0
LINE
  8
0
 62
     4
 10
-187.080017
 20
136.700027
 11
-168.960022
 21
136.700027
  0
LINE
  8
0
 62
     4
 10
-188.080017
 20
129.500031
 11
-198.080017
 21
129.500031
  0
LINE
  8
0
 62
     4
 10
-198.080017
 20
129.500031
 11
-198.080017
 21
108.500031
  0
LINE
  8
0
 62
     4
 10
-188.080017
 20
134.700027
 11
-188.080017
 21
108.500031
  0
LINE
  8
0
 62
     4
 10
-164.080017
 20
134.700027
 11
-164.080017
 21
108.500031
  0
LINE
  8
0
 62
     4
 10
-164.080017
 20
133.700027
 11
-188.080017
 21
133.700027
  0
LINE
  8
0
 62
     4
 10
-192.900024
 20
162.500031
 11
-192.260010
 21
162.500031
  0
LINE
  8
0
 62
     4
 10
-193.430023
 20
154.500031
 11
-191.730026
 21
154.500031
  0
LINE
  8
0
 62
     4
 10
-192.260010
 20
154.500031
 11
-192.260010
 21
162.500031
  0
LINE
  8
0
 62
     4
 10
-192.900024
 20
154.500031
 11
-192.900024
 21
162.500031
  0
LINE
  8
0
 62
     4
 10
-193.430023
 20
144.500031
 11
-193.430023
 21
148.950027
  0
LINE
  8
0
 62
     4
 10
-191.730026
 20
144.500031
 11
-191.730026
 21
148.490021
  0
LINE
  8
0
 62
     4
 10
-194.080017
 20
144.500031
 11
-189.080017
 21
144.500031
  0
LINE
  8
0
 62
     4
 10
-194.080017
 20
137.000031
 11
-194.080017
 21
144.500031
  0
LINE
  8
0
 62
     4
 10
-195.080017
 20
137.000031
 11
-195.080017
 21
137.320023
  0
LINE
  8
0
 62
     4
 10
-194.380005
 20
138.300018
 11
-194.380005
 21
144.200027
  0
LINE
  8
0
 62
     4
 10
-194.080017
 20
138.000031
 11
-194.380020
 21
138.300003
  0
LINE
  8
0
 62
     4
 10
-194.380020
 20
144.200027
 11
-194.080017
 21
144.500015
  0
LINE
  8
0
 62
     4
 10
-190.080017
 20
136.500031
 11
-189.080017
 21
136.500031
  0
LINE
  8
0
 62
     4
 10
-194.080017
 20
134.500031
 11
-194.080017
 21
135.000031
  0
LINE
  8
0
 62
     4
 10
-196.080017
 20
143.000015
 11
-195.080017
 21
137.320023
  0
LINE
  8
0
 62
     4
 10
-197.080017
 20
142.500031
 11
-196.080017
 21
136.820023
  0
LINE
  8
0
 62
     4
 10
-196.080017
 20
144.500031
 11
-196.080017
 21
143.000031
  0
LINE
  8
0
 62
     4
 10
-197.080017
 20
144.500031
 11
-197.080017
 21
142.500031
  0
LINE
  8
0
 62
     4
 10
-196.080017
 20
129.500031
 11
-196.080017
 21
136.820023
  0
LINE
  8
0
 62
     4
 10
-193.280029
 20
144.500031
 11
-193.280029
 21
134.500031
  0
LINE
  8
0
 62
     4
 10
-191.480026
 20
144.500031
 11
-191.480026
 21
134.500031
  0
LINE
  8
0
 62
     4
 10
-190.080017
 20
143.000031
 11
-190.080017
 21
136.500031
  0
LINE
  8
0
 62
     4
 10
-189.080017
 20
144.500031
 11
-189.080017
 21
143.000031
  0
LINE
  8
0
 62
     4
 10
-190.080017
 20
143.000031
 11
-189.080017
 21
143.000031
  0
LINE
  8
0
 62
     4
 10
-197.080017
 20
144.500031
 11
-196.080017
 21
144.500031
  0
LINE
  8
0
  6
CENTER
 62
     2
 10
-176.075012
 20
141.700027
 11
-176.075012
 21
103.500031
  0
LINE
  8
0
 62
     4
 10
-334.079895
 20
108.500061
 11
-344.079895
 21
108.500061
  0
LINE
  8
0
 62
     4
 10
-345.059906
 20
136.640060
 11
-345.079895
 21
136.700058
  0
LINE
  8
0
 62
     4
 10
-340.429901
 20
150.500061
 11
-340.429901
 21
154.500061
  0
LINE
  8
0
 62
     4
 10
-338.729919
 20
150.040054
 11
-338.729919
 21
154.500061
  0
LINE
  8
0
  6
PHANTOM
 62
     1
 10
-336.729858
 20
149.510056
 11
-342.429901
 21
151.040054
  0
LINE
  8
0
  6
PHANTOM
 62
     1
 10
-336.729950
 20
147.960068
 11
-342.429932
 21
149.480057
  0
LINE
  8
0
 62
     4
 10
-368.079895
 20
134.700058
 11
-344.079895
 21
134.700058
  0
LINE
  8
0
 62
     4
 10
-343.079895
 20
136.500061
 11
-343.079895
 21
134.500061
  0
LINE
  8
0
 62
     4
 10
-337.079895
 20
135.000061
 11
-337.079895
 21
129.500061
  0
LINE
  8
0
 62
     4
 10
-339.259888
 20
162.500061
 11
-339.899902
 21
162.500061
  0
LINE
  8
0
 62
     4
 10
-338.729919
 20
154.500061
 11
-340.429901
 21
154.500061
  0
LINE
  8
0
 62
     4
 10
-339.899902
 20
154.500061
 11
-339.899902
 21
162.500061
  0
LINE
  8
0
 62
     4
 10
-339.259888
 20
154.500061
 11
-339.259888
 21
162.500061
  0
LINE
  8
0
 62
     4
 10
-338.729919
 20
144.500061
 11
-338.729919
 21
148.490051
  0
LINE
  8
0
 62
     4
 10
-340.429901
 20
144.500061
 11
-340.429901
 21
148.950058
  0
LINE
  8
0
 62
     4
 10
-338.079895
 20
144.500061
 11
-343.079895
 21
144.500061
  0
LINE
  8
0
 62
     4
 10
-338.079895
 20
137.000061
 11
-338.079895
 21
144.500061
  0
LINE
  8
0
 62
     4
 10
-337.079895
 20
137.000061
 11
-337.079895
 21
137.320053
  0
LINE
  8
0
 62
     4
 10
-337.779907
 20
138.300049
 11
-337.779907
 21
144.200058
  0
LINE
  8
0
 62
     4
 10
-338.079895
 20
138.000046
 11
-337.779907
 21
138.300064
  0
LINE
  8
0
 62
     4
 10
-337.779907
 20
144.200043
 11
-338.079926
 21
144.500046
  0
LINE
  8
0
 62
     4
 10
-342.079895
 20
136.500061
 11
-343.079895
 21
136.500061
  0
LINE
  8
0
 62
     4
 10
-338.079895
 20
134.500061
 11
-338.079895
 21
135.000061
  0
LINE
  8
0
 62
     4
 10
-336.079895
 20
143.000061
 11
-337.079895
 21
137.320068
  0
LINE
  8
0
 62
     4
 10
-335.079895
 20
142.500061
 11
-336.079895
 21
136.820053
  0
LINE
  8
0
 62
     4
 10
-336.079895
 20
144.500061
 11
-336.079895
 21
143.000061
  0
LINE
  8
0
 62
     4
 10
-335.079895
 20
144.500061
 11
-335.079895
 21
142.500061
  0
LINE
  8
0
 62
     4
 10
-336.079895
 20
129.500061
 11
-336.079895
 21
136.820053
  0
LINE
  8
0
 62
     4
 10
-338.879913
 20
144.500061
 11
-338.879913
 21
134.500061
  0
LINE
  8
0
 62
     4
 10
-340.679901
 20
144.500061
 11
-340.679901
 21
134.500061
  0
LINE
  8
0
 62
     4
 10
-342.079895
 20
143.000061
 11
-342.079895
 21
136.500061
  0
LINE
  8
0
 62
     4
 10
-343.079895
 20
144.500061
 11
-343.079895
 21
143.000061
  0
LINE
  8
0
 62
     4
 10
-342.079895
 20
143.000061
 11
-343.079895
 21
143.000061
  0
LINE
  8
0
 62
     4
 10
-335.079895
 20
144.500061
 11
-336.079895
 21
144.500061
  0
LINE
  8
0
 62
     4
 10
-345.209900
 20
136.700058
 11
-345.079895
 21
136.700058
  0
LINE
  8
0
 62
     4
 10
-349.329895
 20
136.560059
 11
-349.329895
 21
135.300049
  0
LINE
  8
0
 62
     4
 10
-344.829895
 20
136.560059
 11
-344.829895
 21
135.300049
  0
LINE
  8
0
 62
     4
 10
-349.629913
 20
135.300049
 11
-349.629913
 21
134.700058
  0
LINE
  8
0
 62
     4
 10
-344.529907
 20
135.300049
 11
-344.529907
 21
134.700058
  0
LINE
  8
0
 62
     4
 10
-344.529907
 20
135.300049
 11
-349.629913
 21
135.300049
  0
LINE
  8
0
 62
     4
 10
-350.079895
 20
136.700058
 11
-350.079895
 21
134.700058
  0
LINE
  8
0
 62
     4
 10
-344.079895
 20
134.700058
 11
-344.829895
 21
136.200073
  0
LINE
  8
0
 62
     4
 10
-368.079895
 20
134.700043
 11
-367.079895
 21
136.700043
  0
LINE
  8
0
 62
     4
 10
-344.079895
 20
134.500061
 11
-337.079895
 21
134.500061
  0
LINE
  8
0
 62
     4
 10
-367.079895
 20
136.700058
 11
-348.959900
 21
136.700058
  0
LINE
  8
0
 62
     4
 10
-344.079895
 20
129.500061
 11
-334.079895
 21
129.500061
  0
LINE
  8
0
 62
     4
 10
-334.079895
 20
129.500061
 11
-334.079895
 21
108.500061
  0
LINE
  8
0
 62
     4
 10
-344.079895
 20
134.700058
 11
-344.079895
 21
108.500061
  0
LINE
  8
0
 62
     4
 10
-368.079895
 20
134.700058
 11
-368.079895
 21
108.500061
  0
LINE
  8
0
 62
     4
 10
-368.079895
 20
133.700058
 11
-344.079895
 21
133.700058
  0
LINE
  8
0
  6
CENTER
 62
     2
 10
-356.074951
 20
141.700058
 11
-356.074951
 21
103.500061
  0
LINE
  8
0
 62
     4
 10
-272.599915
 20
136.639984
 11
-272.579895
 21
136.699997
  0
LINE
  8
0
 62
     4
 10
-262.729889
 20
149.369995
 11
-262.729889
 21
154.500000
  0
LINE
  8
0
 62
     4
 10
-264.429901
 20
149.829987
 11
-264.429901
 21
154.500000
  0
LINE
  8
0
 62
     4
 10
-267.729889
 20
150.709991
 11
-267.729889
 21
154.500000
  0
LINE
  8
0
 62
     4
 10
-269.429901
 20
151.169998
 11
-269.429901
 21
154.500000
  0
LINE
  8
0
  6
PHANTOM
 62
     1
 10
-260.729919
 20
147.289978
 11
-271.429901
 21
150.149979
  0
LINE
  8
0
  6
PHANTOM
 62
     1
 10
-260.729889
 20
148.839996
 11
-271.429901
 21
151.709976
  0
LINE
  8
0
 62
     4
 10
-273.579895
 20
134.699997
 11
-271.579895
 21
134.699997
  0
LINE
  8
0
 62
     4
 10
-258.579895
 20
134.699997
 11
-260.579895
 21
134.699997
  0
LINE
  8
0
 62
     4
 10
-263.899902
 20
162.500000
 11
-263.259888
 21
162.500000
  0
LINE
  8
0
 62
     4
 10
-264.429901
 20
154.500000
 11
-262.729889
 21
154.500000
  0
LINE
  8
0
 62
     4
 10
-262.729889
 20
144.500000
 11
-262.729889
 21
147.819992
  0
LINE
  8
0
 62
     4
 10
-264.429901
 20
144.500000
 11
-264.429901
 21
148.279999
  0
LINE
  8
0
 62
     4
 10
-269.429901
 20
144.500000
 11
-269.429901
 21
149.619995
  0
LINE
  8
0
 62
     4
 10
-267.729889
 20
144.500000
 11
-267.729889
 21
149.159988
  0
LINE
  8
0
 62
     4
 10
-268.899902
 20
154.500000
 11
-268.899902
 21
162.500000
  0
LINE
  8
0
 62
     4
 10
-268.259888
 20
154.500000
 11
-268.259888
 21
162.500000
  0
LINE
  8
0
 62
     4
 10
-263.899902
 20
154.500000
 11
-263.899902
 21
162.500000
  0
LINE
  8
0
 62
     4
 10
-263.259888
 20
154.500000
 11
-263.259888
 21
162.500000
  0
LINE
  8
0
 62
     4
 10
-268.899902
 20
162.500000
 11
-268.259888
 21
162.500000
  0
LINE
  8
0
 62
     4
 10
-269.429901
 20
154.500000
 11
-267.729889
 21
154.500000
  0
LINE
  8
0
 62
     4
 10
-260.579895
 20
134.500000
 11
-260.579895
 21
144.500000
  0
LINE
  8
0
 62
     4
 10
-271.579895
 20
134.500000
 11
-271.579895
 21
144.500000
  0
LINE
  8
0
 62
     4
 10
-270.079895
 20
129.500000
 11
-270.079895
 21
144.500000
  0
LINE
  8
0
 62
     4
 10
-262.079895
 20
129.500000
 11
-262.079895
 21
144.500000
  0
LINE
  8
0
 62
     4
 10
-271.579895
 20
144.500000
 11
-260.579895
 21
144.500000
  0
LINE
  8
0
 62
     4
 10
-261.879913
 20
134.500000
 11
-259.079895
 21
134.500000
  0
LINE
  8
0
 62
     4
 10
-270.279907
 20
134.500000
 11
-270.279907
 21
129.500000
  0
LINE
  8
0
 62
     4
 10
-261.879913
 20
134.500000
 11
-261.879913
 21
129.500000
  0
LINE
  8
0
 62
     4
 10
-273.079895
 20
129.500000
 11
-259.079895
 21
129.500000
  0
LINE
  8
0
 62
     4
 10
-260.579895
 20
136.699997
 11
-259.579895
 21
136.699997
  0
LINE
  8
0
 62
     4
 10
-270.079895
 20
136.819992
 11
-262.079895
 21
136.819992
  0
LINE
  8
0
 62
     4
 10
-270.079895
 20
142.500000
 11
-262.079895
 21
142.500000
  0
LINE
  8
0
 62
     4
 10
-272.829895
 20
136.559998
 11
-272.829895
 21
135.299988
  0
LINE
  8
0
 62
     4
 10
-273.129913
 20
135.299988
 11
-273.129913
 21
134.699997
  0
LINE
  8
0
 62
     4
 10
-271.579895
 20
135.299988
 11
-273.129913
 21
135.299988
  0
LINE
  8
0
 62
     4
 10
-258.579895
 20
134.699982
 11
-259.579895
 21
136.699982
  0
LINE
  8
0
 62
     4
 10
-273.579895
 20
134.699997
 11
-272.829895
 21
136.199982
  0
LINE
  8
0
 62
     4
 10
-273.079895
 20
134.500000
 11
-270.279907
 21
134.500000
  0
LINE
  8
0
 62
     4
 10
-272.579895
 20
136.699997
 11
-272.449890
 21
136.699997
  0
LINE
  8
0
 62
     4
 10
-263.579895
 20
122.500000
 11
-263.579895
 21
119.500000
  0
LINE
  8
0
 62
     4
 10
-268.579895
 20
119.500000
 11
-263.579895
 21
119.500000
  0
LINE
  8
0
 62
     4
 10
-268.579895
 20
122.500000
 11
-268.579895
 21
119.500000
  0
LINE
  8
0
 62
     4
 10
-268.579895
 20
122.500000
 11
-263.579895
 21
122.500000
  0
LINE
  8
0
 62
     4
 10
-264.079895
 20
122.000000
 11
-264.079895
 21
120.000000
  0
LINE
  8
0
 62
     4
 10
-268.079895
 20
122.000000
 11
-268.079895
 21
120.000000
  0
LINE
  8
0
 62
     4
 10
-268.079895
 20
120.000000
 11
-264.079895
 21
120.000000
  0
LINE
  8
0
 62
     4
 10
-268.079895
 20
122.000000
 11
-264.079895
 21
122.000000
  0
LINE
  8
0
 62
     4
 10
-259.079895
 20
128.699997
 11
-259.079895
 21
109.300003
  0
LINE
  8
0
 62
     4
 10
-273.079895
 20
134.500000
 11
-273.079895
 21
108.500000
  0
LINE
  8
0
 62
     4
 10
-259.079895
 20
133.699997
 11
-258.579895
 21
133.699997
  0
LINE
  8
0
 62
     4
 10
-259.079895
 20
134.500000
 11
-259.079895
 21
108.500000
  0
LINE
  8
0
 62
     4
 10
-273.579895
 20
133.699997
 11
-273.079895
 21
133.699997
  0
LINE
  8
0
 62
     4
 10
-258.579895
 20
134.699997
 11
-258.579895
 21
108.500000
  0
LINE
  8
0
 62
     4
 10
-273.579895
 20
134.699997
 11
-273.579895
 21
108.500000
  0
LINE
  8
0
  6
CENTER
 62
     2
 10
-266.074951
 20
158.229996
 11
-266.074951
 21
103.500000
  0
LINE
  8
0
 62
     4
 10
164.627655
 20
-63.593227
 11
166.457642
 21
-65.423225
  0
LINE
  8
0
 62
     4
 10
164.627640
 20
-65.423225
 11
166.457642
 21
-63.593224
  0
LINE
  8
0
 62
     4
 10
173.617645
 20
-45.593224
 11
175.447647
 21
-47.423225
  0
LINE
  8
0
 62
     4
 10
173.617645
 20
-47.423229
 11
175.447647
 21
-45.593235
  0
LINE
  8
0
 62
     4
 10
164.037643
 20
-68.513222
 11
164.037643
 21
-71.513222
  0
LINE
  8
0
 62
     4
 10
174.037643
 20
-73.513222
 11
166.037643
 21
-73.513222
  0
LINE
  8
0
 62
     4
 10
176.037643
 20
-68.513222
 11
176.037643
 21
-71.513222
  0
LINE
  8
0
 62
     4
 10
176.037643
 20
-68.513222
 11
164.037643
 21
-68.513222
  0
LINE
  8
0
 62
     4
 10
164.037643
 20
-68.513222
 11
162.537643
 21
-68.513222
  0
LINE
  8
0
 62
     4
 10
171.837646
 20
-46.513229
 11
171.837646
 21
-43.513229
  0
LINE
  8
0
 62
     4
 10
165.537643
 20
-67.213219
 11
162.537643
 21
-67.213219
  0
LINE
  8
0
 62
     4
 10
165.537643
 20
-61.813225
 11
162.537643
 21
-61.813225
  0
LINE
  8
0
 62
     4
 10
174.537643
 20
-49.213230
 11
177.537643
 21
-49.213230
  0
LINE
  8
0
 62
     4
 10
177.537643
 20
-68.513222
 11
176.037643
 21
-68.513222
  0
LINE
  8
0
 62
     4
 10
177.537643
 20
-87.513222
 11
162.537643
 21
-87.513222
  0
LINE
  8
0
 62
     4
 10
162.537643
 20
-43.513229
 11
162.537643
 21
-87.513222
  0
LINE
  8
0
 62
     4
 10
177.537643
 20
-43.513229
 11
162.537643
 21
-43.513229
  0
LINE
  8
0
 62
     4
 10
177.537643
 20
-43.513229
 11
177.537643
 21
-87.513222
  0
LINE
  8
0
  6
CENTER
 62
     2
 10
170.037643
 20
-91.003227
 11
170.037643
 21
-37.013229
  0
LINE
  8
0
  6
CENTER
 62
     2
 10
170.024933
 20
-253.000000
 11
170.024933
 21
-199.070007
  0
LINE
  8
0
 62
     4
 10
162.524933
 20
-202.500000
 11
177.524933
 21
-202.500000
  0
LINE
  8
0
 62
     4
 10
162.524933
 20
-222.500000
 11
162.524933
 21
-202.500000
  0
LINE
  8
0
 62
     4
 10
177.524933
 20
-222.500000
 11
177.524933
 21
-202.500000
  0
LINE
  8
0
 10
-206.989792
 20
-222.499954
 11
-191.989792
 21
-222.500015
  0
LINE
  8
0
 10
-273.574951
 20
108.500000
 11
-258.574951
 21
108.500000
  0
LINE
  8
0
 10
-368.079651
 20
108.500038
 11
-344.079651
 21
108.500053
  0
LINE
  8
0
 10
-164.074997
 20
108.500023
 11
-188.074997
 21
108.499962
  0
LINE
  8
0
  6
CENTER
 62
     2
 10
-260.074951
 20
17.500000
 11
-260.074951
 21
22.500000
  0
LINE
  8
0
 10
-269.649933
 20
40.084999
 11
-271.489929
 21
41.925003
  0
LINE
  8
0
 10
-271.489960
 20
40.084999
 11
-269.649933
 21
41.925011
  0
LINE
  8
0
 10
-260.659943
 20
22.084999
 11
-262.499939
 21
23.925005
  0
LINE
  8
0
 10
-262.499939
 20
22.084990
 11
-260.659943
 21
23.924997
  0
LINE
  8
0
  6
CENTER
 62
     2
 10
-271.569824
 20
17.500000
 11
-271.569824
 21
22.500000
  0
LINE
  8
0
 10
-273.574951
 20
44.000000
 11
-258.574951
 21
44.000000
  0
LINE
  8
0
  6
CENTER
 62
     2
 10
-270.574951
 20
20.519989
 11
-270.574951
 21
25.309998
  0
LINE
  8
0
 10
-258.574951
 20
44.000000
 11
-258.574951
 21
20.000000
  0
LINE
  8
0
 10
-273.574951
 20
44.000000
 11
-273.574951
 21
20.000000
  0
LINE
  8
0
 10
-273.574951
 20
20.000000
 11
-258.574951
 21
20.000000
  0
LINE
  8
0
  6
CENTER
 62
     2
 10
-259.434814
 20
41.000000
 11
-263.824951
 21
41.000000
  0
LINE
  8
0
  6
CENTER
 62
     2
 10
-261.574951
 20
38.589996
 11
-261.574951
 21
43.149994
  0
LINE
  8
0
  6
CENTER
 62
     2
 10
-268.254883
 20
23.000000
 11
-272.774902
 21
23.000000
  0
LINE
  8
0
 10
-9.979984
 20
108.499969
 11
5.020015
 21
108.499969
  0
LINE
  8
0
 10
-105.479904
 20
108.499985
 11
-81.479904
 21
108.499985
  0
LINE
  8
0
 10
105.525009
 20
108.500023
 11
81.525009
 21
108.499962
  0
LINE
  8
0
  6
CENTER
 62
     2
 10
-4.659908
 20
23.000000
 11
-9.179908
 21
23.000000
  0
LINE
  8
0
  6
CENTER
 62
     2
 10
2.020060
 20
38.590012
 11
2.020060
 21
43.150009
  0
LINE
  8
0
  6
CENTER
 62
     2
 10
4.160054
 20
41.000015
 11
-0.229945
 21
41.000015
  0
LINE
  8
0
 10
-9.979902
 20
19.999994
 11
5.020097
 21
20.000025
  0
LINE
  8
0
 10
-9.979951
 20
43.999996
 11
-9.979902
 21
19.999994
  0
LINE
  8
0
 10
5.020048
 20
44.000027
 11
5.020097
 21
20.000025
  0
LINE
  8
0
  6
CENTER
 62
     2
 10
-6.979903
 20
20.520004
 11
-6.979903
 21
25.309998
  0
LINE
  8
0
 10
-9.979951
 20
43.999996
 11
5.020048
 21
44.000027
  0
LINE
  8
0
  6
CENTER
 62
     2
 10
-7.974835
 20
17.499998
 11
-7.974845
 21
22.499998
  0
LINE
  8
0
 10
1.095087
 20
22.085016
 11
2.935088
 21
23.925024
  0
LINE
  8
0
 10
2.935084
 20
22.085016
 11
1.095085
 21
23.925009
  0
LINE
  8
0
 10
-7.894945
 20
40.084995
 11
-6.054945
 21
41.925003
  0
LINE
  8
0
 10
-6.054940
 20
40.084988
 11
-7.894949
 21
41.924988
  0
LINE
  8
0
  6
CENTER
 62
     2
 10
3.520102
 20
17.500023
 11
3.520092
 21
22.500023
  0
LINE
  8
0
 10
258.874939
 20
108.500038
 11
273.874939
 21
108.499947
  0
LINE
  8
0
 10
163.374985
 20
108.500015
 11
190.374985
 21
108.499969
  0
LINE
  8
0
 10
374.374847
 20
108.500000
 11
347.374847
 21
108.499969
  0
LINE
  8
0
 10
258.864990
 20
43.000000
 11
273.864990
 21
43.000000
  0
LINE
  8
0
  6
CENTER
 62
     2
 10
272.364990
 20
16.500000
 11
272.364990
 21
21.500000
  0
LINE
  8
0
 10
262.790039
 20
39.085007
 11
260.950043
 21
40.925014
  0
LINE
  8
0
 10
260.950043
 20
39.085007
 11
262.790039
 21
40.924995
  0
LINE
  8
0
 10
271.780029
 20
21.085009
 11
269.940033
 21
22.924999
  0
LINE
  8
0
 10
269.940063
 20
21.084997
 11
271.780029
 21
22.924988
  0
LINE
  8
0
  6
CENTER
 62
     2
 10
260.869873
 20
16.500000
 11
260.869873
 21
21.500000
  0
LINE
  8
0
  6
CENTER
 62
     2
 10
261.864990
 20
19.519989
 11
261.864990
 21
24.309998
  0
LINE
  8
0
 10
258.864990
 20
19.000000
 11
273.864990
 21
19.000000
  0
LINE
  8
0
  6
CENTER
 62
     2
 10
273.004883
 20
40.000000
 11
268.614990
 21
40.000000
  0
LINE
  8
0
  6
CENTER
 62
     2
 10
270.864990
 20
37.589996
 11
270.864990
 21
42.149994
  0
LINE
  8
0
  6
CENTER
 62
     2
 10
264.184814
 20
22.000000
 11
259.665039
 21
22.000000
  0
LINE
  8
0
 10
258.864990
 20
43.000000
 11
258.864990
 21
19.000000
  0
LINE
  8
0
 10
273.864990
 20
43.000000
 11
273.864990
 21
19.000000
  0
LINE
  8
0
 10
-206.987488
 20
-157.999969
 11
-191.987488
 21
-158.000031
  0
LINE
  8
0
 10
-301.487274
 20
-157.999985
 11
-277.487274
 21
-158.000015
  0
LINE
  8
0
 10
-97.495033
 20
-158.000092
 11
-121.495033
 21
-158.000031
  0
LINE
  8
0
  6
CENTER
 62
     2
 10
-201.669876
 20
-243.499969
 11
-206.189880
 21
-243.499954
  0
LINE
  8
0
  6
CENTER
 62
     2
 10
-194.989822
 20
-227.909988
 11
-194.989807
 21
-223.349991
  0
LINE
  8
0
  6
CENTER
 62
     2
 10
-192.849808
 20
-225.500015
 11
-197.239807
 21
-225.499985
  0
LINE
  8
0
 10
-206.989899
 20
-246.499954
 11
-191.989899
 21
-246.500015
  0
LINE
  8
0
 10
-206.989792
 20
-222.499954
 11
-206.989899
 21
-246.499954
  0
LINE
  8
0
 10
-191.989792
 20
-222.500015
 11
-191.989899
 21
-246.500015
  0
LINE
  8
0
  6
CENTER
 62
     2
 10
-203.989899
 20
-245.979965
 11
-203.989868
 21
-241.189972
  0
LINE
  8
0
  6
CENTER
 62
     2
 10
-204.984833
 20
-248.999954
 11
-204.984818
 21
-243.999954
  0
LINE
  8
0
 10
-195.914886
 20
-244.414993
 11
-194.074768
 21
-242.574905
  0
LINE
  8
0
 10
-194.074753
 20
-244.414856
 11
-195.914749
 21
-242.574844
  0
LINE
  8
0
 10
-204.904770
 20
-226.414917
 11
-203.064667
 21
-224.574814
  0
LINE
  8
0
 10
-203.064819
 20
-226.414948
 11
-204.904800
 21
-224.574951
  0
LINE
  8
0
  6
CENTER
 62
     2
 10
-193.489899
 20
-249.000000
 11
-193.489883
 21
-244.000000
  0
LINE
  8
0
 10
162.537491
 20
-157.999939
 11
177.537491
 21
-158.000031
  0
LINE
  8
0
 10
272.044312
 20
-157.999908
 11
248.044479
 21
-157.999817
  0
LINE
  8
0
 10
68.044952
 20
-157.999924
 11
92.044952
 21
-157.999924
  0
LINE
  8
0
 10
166.449387
 20
-226.414963
 11
164.609406
 21
-224.575089
  0
LINE
  8
0
 10
164.609390
 20
-226.415024
 11
166.449341
 21
-224.574982
  0
LINE
  8
0
 10
175.439957
 20
-244.414825
 11
173.599808
 21
-242.574768
  0
LINE
  8
0
 10
173.600006
 20
-244.414902
 11
175.439941
 21
-242.574844
  0
LINE
  8
0
 10
162.524414
 20
-222.500183
 11
177.524414
 21
-222.499786
  0
LINE
  8
0
  6
CENTER
 62
     2
 10
165.525024
 20
-245.980103
 11
165.524902
 21
-241.190109
  0
LINE
  8
0
 10
177.524414
 20
-222.499786
 11
177.525040
 21
-246.499786
  0
LINE
  8
0
 10
162.524414
 20
-222.500183
 11
162.525040
 21
-246.500183
  0
LINE
  8
0
 10
162.525040
 20
-246.500183
 11
177.525040
 21
-246.499786
  0
LINE
  8
0
  6
CENTER
 62
     2
 10
176.664490
 20
-225.499817
 11
172.274490
 21
-225.499924
  0
LINE
  8
0
  6
CENTER
 62
     2
 10
174.524551
 20
-227.909882
 11
174.524429
 21
-223.349884
  0
LINE
  8
0
  6
CENTER
 62
     2
 10
167.844955
 20
-243.500046
 11
163.324966
 21
-243.500168
  0
LINE
  8
0
  6
CENTER
 62
     2
 10
164.530182
 20
-249.000137
 11
164.530045
 21
-244.000137
  0
LINE
  8
0
  6
CENTER
 62
     2
 10
176.025116
 20
-248.999832
 11
176.024979
 21
-243.999832
  0
LINE
  8
0
 10
0.270000
 20
-0.250000
 11
0.270000
 21
-276.750000
  0
LINE
  8
0
 10
130.949997
 20
276.250000
 11
130.949997
 21
-0.250000
  0
LINE
  8
0
 10
-137.899994
 20
276.250000
 11
-137.899994
 21
-0.250000
  0
LINE
  8
0
 10
-399.250000
 20
-0.250000
 11
399.799805
 21
-0.250000
  0
LINE
  8
0
 10
399.799805
 20
276.250000
 11
399.799805
 21
-276.750000
  0
LINE
  8
0
 10
-399.250000
 20
276.250000
 11
-399.250000
 21
-276.750000
  0
LINE
  8
0
 10
-399.250000
 20
276.250000
 11
399.799805
 21
276.250000
  0
LINE
  8
0
 10
-399.250000
 20
-276.750000
 11
399.799805
 21
-276.750000
  0
LINE
  8
0
 10
239.799988
 20
-251.750000
 11
399.799805
 21
-251.750000
  0
LINE
  8
0
 10
239.799988
 20
251.250000
 11
399.799805
 21
251.250000
  0
LINE
  8
0
 10
-399.250000
 20
251.250000
 11
-239.250000
 21
251.250000
  0
LINE
  8
0
 10
239.799988
 20
-251.750000
 11
239.799988
 21
-276.750000
  0
LINE
  8
0
 10
239.799988
 20
251.250000
 11
239.799988
 21
276.250000
  0
LINE
  8
0
 10
-239.250000
 20
276.250000
 11
-239.250000
 21
251.250000
  0
ARC
  8
0
 62
     4
 10
266.374878
 20
71.399994
 40
4.997946
 50
55.928452
 51
124.071548
  0
ARC
  8
0
 62
     4
 10
269.044434
 20
-135.499924
 40
5.998048
 50
67.968147
 51
112.031853
  0
ARC
  8
0
 62
     4
 10
89.037491
 20
-135.499985
 40
5.997992
 50
67.967926
 51
112.032074
  0
CIRCLE
  8
0
 62
     4
 10
170.037491
 20
-143.500000
 40
3.000000
  0
ARC
  8
0
 62
     4
 10
170.037491
 20
-143.500000
 40
3.248627
 50
279.926208
 51
260.073792
  0
CIRCLE
  8
0
 62
     4
 10
-197.987473
 20
-71.999985
 40
0.850000
  0
CIRCLE
  8
0
 62
     4
 10
-200.987473
 20
-71.999985
 40
0.850000
  0
ARC
  8
0
 62
     4
 10
-200.487503
 20
-72.000000
 40
3.500000
 50
90.000000
 51
270.000000
  0
ARC
  8
0
 62
     4
 10
-198.487503
 20
-72.000000
 40
3.500000
 50
270.000000
 51
90.000000
  0
CIRCLE
  8
0
 62
     4
 10
-194.987488
 20
-46.499985
 40
2.250000
  0
CIRCLE
  8
0
 62
     4
 10
-203.987473
 20
-64.500000
 40
2.250000
  0
CIRCLE
  8
0
 62
     4
 10
-194.987488
 20
-46.499985
 40
2.550000
  0
CIRCLE
  8
0
 62
     4
 10
-203.987473
 20
-64.500000
 40
2.550000
  0
ARC
  8
0
 62
     4
 10
-194.987488
 20
-46.499985
 40
3.000015
 50
180.000290
 51
269.999695
  0
ARC
  8
0
 62
     4
 10
-203.987488
 20
-64.499985
 40
2.999985
 50
359.999695
 51
90.000290
  0
ARC
  8
0
 62
     4
 10
-118.490021
 20
-135.500153
 40
6.000553
 50
71.791779
 51
108.208221
  0
ARC
  8
0
 62
     4
 10
-100.495026
 20
-135.500107
 40
5.998048
 50
67.968147
 51
112.031853
  0
ARC
  8
0
 62
     4
 10
-298.482300
 20
-135.500015
 40
6.000466
 50
71.791504
 51
108.208496
  0
ARC
  8
0
 62
     4
 10
-280.487305
 20
-135.499985
 40
5.997992
 50
67.967926
 51
112.032074
  0
ARC
  8
0
 62
     4
 10
-194.992508
 20
-135.500015
 40
6.000466
 50
71.791504
 51
108.208496
  0
ARC
  8
0
 62
     4
 10
-203.986771
 20
-135.500000
 40
5.998274
 50
69.003197
 51
112.038368
  0
ARC
  8
0
 62
     4
 10
266.375000
 20
171.600006
 40
4.997965
 50
235.928604
 51
304.071503
  0
CIRCLE
  8
0
 62
     4
 10
266.375000
 20
176.400009
 40
5.800000
  0
CIRCLE
  8
0
 62
     4
 10
266.375000
 20
176.400009
 40
3.799999
  0
CIRCLE
  8
0
 62
     4
 10
266.375000
 20
176.400009
 40
7.400000
  0
CIRCLE
  8
0
 62
     4
 10
270.875000
 20
220.000000
 40
2.250000
  0
CIRCLE
  8
0
 62
     4
 10
261.875000
 20
202.000000
 40
2.250000
  0
CIRCLE
  8
0
 62
     4
 10
270.875000
 20
220.000000
 40
2.550000
  0
CIRCLE
  8
0
 62
     4
 10
261.875000
 20
202.000000
 40
2.550000
  0
ARC
  8
0
 62
     4
 10
270.875000
 20
220.000000
 40
3.000000
 50
180.000000
 51
270.000000
  0
ARC
  8
0
 62
     4
 10
261.875000
 20
202.000000
 40
3.000000
 50
0.000000
 51
90.000000
  0
ARC
  8
0
 62
     4
 10
322.975037
 20
125.500000
 40
4.997973
 50
145.928452
 51
214.071548
  0
ARC
  8
0
 62
     4
 10
353.380005
 20
130.999985
 40
6.000466
 50
71.791504
 51
108.208496
  0
ARC
  8
0
 62
     4
 10
371.375000
 20
131.000015
 40
5.997992
 50
67.967926
 51
112.032074
  0
ARC
  8
0
 62
     4
 10
333.413757
 20
148.923004
 40
3.267162
 50
62.842808
 51
122.776726
  0
ARC
  8
0
 62
     4
 10
327.780029
 20
139.898376
 40
12.290931
 50
73.285034
 51
106.714966
  0
ARC
  8
0
 62
     4
 10
322.141663
 20
148.922745
 40
3.269886
 50
57.157848
 51
117.239807
  0
ARC
  8
0
 62
     4
 10
214.775024
 20
125.500000
 40
4.997935
 50
325.928162
 51
34.071838
  0
ARC
  8
0
 62
     4
 10
166.380005
 20
130.999969
 40
6.000480
 50
71.791550
 51
108.208450
  0
ARC
  8
0
 62
     4
 10
184.375000
 20
131.000000
 40
5.998006
 50
67.967979
 51
112.032021
  0
ARC
  8
0
 62
     4
 10
204.336243
 20
148.922974
 40
3.267205
 50
57.223343
 51
117.157188
  0
ARC
  8
0
 62
     4
 10
215.608322
 20
148.922745
 40
3.269869
 50
62.760429
 51
122.841927
  0
ARC
  8
0
 62
     4
 10
209.969986
 20
139.898361
 40
12.290945
 50
73.285049
 51
106.714882
  0
CIRCLE
  8
0
 62
     4
 10
266.374756
 20
125.500031
 40
2.799999
  0
ARC
  8
0
 62
     4
 10
269.714752
 20
142.348495
 40
9.842577
 50
71.273293
 51
108.726707
  0
ARC
  8
0
 62
     4
 10
263.034760
 20
142.348495
 40
9.842577
 50
71.273293
 51
108.726707
  0
CIRCLE
  8
0
 62
     4
 10
266.374756
 20
125.500031
 40
3.250000
  0
CIRCLE
  8
0
 62
     4
 10
2.025040
 20
220.000000
 40
2.250000
  0
CIRCLE
  8
0
 62
     4
 10
-6.974929
 20
202.000000
 40
2.250000
  0
CIRCLE
  8
0
 62
     4
 10
2.025040
 20
220.000000
 40
2.550000
  0
CIRCLE
  8
0
 62
     4
 10
-6.974929
 20
202.000000
 40
2.550000
  0
ARC
  8
0
 62
     4
 10
2.025024
 20
220.000015
 40
3.000015
 50
180.000290
 51
269.999756
  0
ARC
  8
0
 62
     4
 10
-6.974959
 20
202.000031
 40
2.999969
 50
359.999420
 51
90.000526
  0
ARC
  8
0
 62
     4
 10
70.530060
 20
135.000031
 40
0.500000
 50
90.000000
 51
270.000000
  0
ARC
  8
0
 62
     4
 10
68.530060
 20
135.000031
 40
0.500000
 50
270.000000
 51
90.000000
  0
ARC
  8
0
 62
     4
 10
84.535065
 20
130.999924
 40
6.000553
 50
71.791779
 51
108.208221
  0
ARC
  8
0
 62
     4
 10
102.530060
 20
130.999969
 40
5.998048
 50
67.968147
 51
112.031853
  0
ARC
  8
0
 62
     4
 10
-70.479919
 20
134.999985
 40
0.500000
 50
270.000000
 51
90.000000
  0
ARC
  8
0
 62
     4
 10
-68.479919
 20
134.999985
 40
0.500000
 50
90.000000
 51
270.000000
  0
ARC
  8
0
 62
     4
 10
-101.020882
 20
135.990021
 40
0.801030
 50
62.410858
 51
73.986244
  0
ARC
  8
0
 62
     4
 10
-103.930328
 20
135.993546
 40
0.797266
 50
105.986366
 51
117.616531
  0
ARC
  8
0
 62
     4
 10
-102.474907
 20
130.999954
 40
6.000483
 50
71.791481
 51
108.208382
  0
ARC
  8
0
 62
     4
 10
-84.479904
 20
131.000000
 40
5.997992
 50
67.967926
 51
112.032074
  0
CIRCLE
  8
0
 62
     4
 10
0.024993
 20
133.000000
 40
0.850000
  0
CIRCLE
  8
0
 62
     4
 10
-4.974991
 20
133.000000
 40
0.850000
  0
ARC
  8
0
 62
     4
 10
2.044997
 20
130.997665
 40
5.994925
 50
72.025345
 51
94.975975
  0
ARC
  8
0
 62
     4
 10
-6.990141
 20
130.997711
 40
5.994452
 50
85.070007
 51
111.889618
  0
CIRCLE
  8
0
 62
     4
 10
-268.574493
 20
194.499985
 40
0.850000
  0
CIRCLE
  8
0
 62
     4
 10
-263.574493
 20
194.499985
 40
0.850000
  0
CIRCLE
  8
0
 62
     4
 10
-261.574524
 20
219.999985
 40
2.250000
  0
CIRCLE
  8
0
 62
     4
 10
-270.574493
 20
201.999985
 40
2.250000
  0
CIRCLE
  8
0
 62
     4
 10
-261.574524
 20
219.999985
 40
2.550000
  0
CIRCLE
  8
0
 62
     4
 10
-270.574493
 20
201.999985
 40
2.550000
  0
ARC
  8
0
 62
     4
 10
-261.574524
 20
219.999985
 40
3.000000
 50
180.000000
 51
270.000000
  0
ARC
  8
0
 62
     4
 10
-270.574524
 20
202.000000
 40
3.000000
 50
359.999695
 51
90.000000
  0
ARC
  8
0
 62
     4
 10
-167.080017
 20
130.999954
 40
5.998062
 50
67.968201
 51
112.031799
  0
ARC
  8
0
 62
     4
 10
-194.580017
 20
135.000031
 40
0.500000
 50
0.000000
 51
180.000000
  0
ARC
  8
0
 62
     4
 10
-194.580017
 20
137.000031
 40
0.500000
 50
180.000000
 51
0.000000
  0
ARC
  8
0
 62
     4
 10
-185.075027
 20
130.999939
 40
6.000538
 50
71.791733
 51
108.208267
  0
ARC
  8
0
 62
     4
 10
-337.579895
 20
137.000061
 40
0.500000
 50
180.000000
 51
0.000000
  0
ARC
  8
0
 62
     4
 10
-365.074890
 20
131.000046
 40
6.000466
 50
71.791504
 51
108.208496
  0
ARC
  8
0
 62
     4
 10
-347.079895
 20
131.000061
 40
5.998006
 50
67.967979
 51
112.032021
  0
ARC
  8
0
 62
     4
 10
-337.579895
 20
135.000061
 40
0.500000
 50
0.000000
 51
180.000000
  0
ARC
  8
0
 62
     4
 10
-261.548004
 20
130.992203
 40
5.996461
 50
72.149673
 51
80.709412
  0
ARC
  8
0
 62
     4
 10
-270.597687
 20
130.994980
 40
5.996004
 50
99.428139
 51
111.856430
  0
CIRCLE
  8
0
 62
     4
 10
173.437683
 20
-70.513206
 40
0.850000
  0
CIRCLE
  8
0
 62
     4
 10
171.287674
 20
-70.513206
 40
0.850000
  0
CIRCLE
  8
0
 62
     4
 10
168.787674
 20
-70.513206
 40
0.850000
  0
CIRCLE
  8
0
 62
     4
 10
166.637680
 20
-70.513222
 40
0.850000
  0
ARC
  8
0
 62
     4
 10
166.037659
 20
-71.513206
 40
2.000015
 50
180.000443
 51
269.999573
  0
ARC
  8
0
 62
     4
 10
174.037643
 20
-71.513222
 40
1.999992
 50
270.000000
 51
0.000219
  0
CIRCLE
  8
0
 62
     4
 10
174.537659
 20
-46.513214
 40
2.250000
  0
CIRCLE
  8
0
 62
     4
 10
165.537674
 20
-64.513222
 40
2.250000
  0
CIRCLE
  8
0
 62
     4
 10
174.537659
 20
-46.513214
 40
2.550000
  0
CIRCLE
  8
0
 62
     4
 10
165.537674
 20
-64.513222
 40
2.550000
  0
ARC
  8
0
 62
     4
 10
174.537659
 20
-46.513214
 40
2.700012
 50
180.000320
 51
269.999664
  0
ARC
  8
0
 62
     4
 10
165.537643
 20
-64.513222
 40
2.699997
 50
270.000000
 51
90.000000
  0
CIRCLE
  8
0
 62
     2
 10
-261.574951
 20
41.000000
 40
1.500000
  0
CIRCLE
  8
0
 62
     2
 10
-270.574951
 20
23.000000
 40
1.500000
  0
CIRCLE
  8
0
 10
-261.574951
 20
23.000000
 40
2.599999
  0
CIRCLE
  8
0
 10
-270.574951
 20
41.000000
 40
2.599999
  0
CIRCLE
  8
0
 10
-261.574951
 20
41.000000
 40
1.250000
  0
CIRCLE
  8
0
 10
-270.574951
 20
23.000000
 40
1.250000
  0
CIRCLE
  8
0
 10
-6.979944
 20
41.000000
 40
2.599999
  0
CIRCLE
  8
0
 10
2.020091
 20
23.000015
 40
2.599999
  0
CIRCLE
  8
0
 62
     2
 10
-6.979908
 20
23.000000
 40
1.500000
  0
CIRCLE
  8
0
 62
     2
 10
2.020055
 20
41.000015
 40
1.500000
  0
CIRCLE
  8
0
 10
2.020055
 20
41.000015
 40
1.250000
  0
CIRCLE
  8
0
 10
-6.979908
 20
23.000000
 40
1.250000
  0
CIRCLE
  8
0
 62
     2
 10
270.864990
 20
40.000000
 40
1.500000
  0
CIRCLE
  8
0
 62
     2
 10
261.864990
 20
22.000000
 40
1.500000
  0
CIRCLE
  8
0
 10
270.864990
 20
22.000000
 40
2.599999
  0
CIRCLE
  8
0
 10
261.864990
 20
40.000000
 40
2.599999
  0
CIRCLE
  8
0
 10
270.864990
 20
40.000000
 40
1.250000
  0
CIRCLE
  8
0
 10
261.864990
 20
22.000000
 40
1.250000
  0
CIRCLE
  8
0
 10
-203.989807
 20
-225.499954
 40
2.599999
  0
CIRCLE
  8
0
 10
-194.989883
 20
-243.500000
 40
2.599999
  0
CIRCLE
  8
0
 62
     2
 10
-203.989883
 20
-243.499954
 40
1.500000
  0
CIRCLE
  8
0
 62
     2
 10
-194.989807
 20
-225.500000
 40
1.500000
  0
CIRCLE
  8
0
 10
-194.989807
 20
-225.500000
 40
1.250000
  0
CIRCLE
  8
0
 10
-203.989883
 20
-243.499954
 40
1.250000
  0
CIRCLE
  8
0
 62
     2
 10
174.524490
 20
-225.499878
 40
1.500000
  0
CIRCLE
  8
0
 62
     2
 10
165.524963
 20
-243.500107
 40
1.500000
  0
CIRCLE
  8
0
 10
174.524963
 20
-243.499878
 40
2.599999
  0
CIRCLE
  8
0
 10
165.524490
 20
-225.500107
 40
2.599999
  0
CIRCLE
  8
0
 10
174.524490
 20
-225.499878
 40
1.250000
  0
CIRCLE
  8
0
 10
165.524963
 20
-243.500107
 40
1.250000
  0
TEXT
  8
0
 10
146.200012
 20
258.470001
 40
6.300000
  1
MODEL:-39
 50
0.000000
 41
1.052632
 51
0.000000
  7
STANDARD
  0
TEXT
  8
0
 10
-122.649994
 20
258.470001
 40
6.300000
  1
MODEL:-PLL
 50
0.000000
 41
1.052632
 51
0.000000
  7
STANDARD
  0
TEXT
  8
0
 10
-365.285339
 20
261.649994
 40
9.000000
  1
030 SERIES
 50
0.000000
 41
1.052632
 51
0.000000
  7
STANDARD
  0
TEXT
  8
0
 10
-356.285309
 20
251.649994
 40
9.000000
  1
SOLENOID
 50
0.000000
 41
1.052632
 51
0.000000
  7
STANDARD
  0
TEXT
  8
0
 10
-384.000000
 20
233.470001
 40
6.300000
  1
MODEL:-PSL
 50
0.000000
 41
1.052632
 51
0.000000
  7
STANDARD
  0
TEXT
  8
0
 10
-384.000000
 20
-18.030001
 40
6.300000
  1
MODEL:-L
 50
0.000000
 41
1.052632
 51
0.000000
  7
STANDARD
  0
TEXT
  8
0
 10
15.524994
 20
-18.030001
 40
6.300000
  1
MODEL:-FA
 50
0.000000
 41
1.052632
 51
0.000000
  7
STANDARD
  0
TEXT
  8
0
 10
242.014633
 20
-274.500000
 40
12.500000
  1
KOGANEI CORP.
 50
0.000000
 41
1.052632
 51
0.000000
  7
STANDARD
  0
TEXT
  8
0
 10
282.764496
 20
256.649994
 40
9.000000
  1
VER. 1.0
 50
0.000000
 41
1.052632
 51
0.000000
  7
STANDARD
  0
ENDSEC
  0
EOF
