  0
SECTION
  2
HEADER
  0
ENDSEC
  0
SECTION
  2
TABLES
  0
TABLE
  2
LTYPE
 70
     4
  0
LTYPE
  2
CONTINUOUS
 70
    64
  3
Solid line
 72
    65
 73
     0
 40
0.000000
  0
LTYPE
  2
DASHED
 70
    64
  3
__ __ __ __ __ __ __ __ __ __ __ __ __ __ __
 72
    65
 73
     2
 40
3.500000
 49
2.000000
 49
-1.500000
  0
LTYPE
  2
CENTER
 70
    64
  3
____ _ ____ _ ____ _ ____ _ ____ _ ____ _ ____
 72
    65
 73
     4
 40
17.500000
 49
13.000000
 49
-1.500000
 49
1.500000
 49
-1.500000
  0
LTYPE
  2
PHANTOM
 70
    64
  3
_____ _ _ _____ _ _ _____ _ _ _____ _ _ ____  
 72
    65
 73
     6
 40
15.500000
 49
8.000000
 49
-1.500000
 49
1.500000
 49
-1.500000
 49
1.500000
 49
-1.500000
  0
LTYPE
  2
DASHED1
 70
    64
  3
__ __ __ __ __ __ __ __ __ __ __ __ __ __ __
 72
    65
 73
     2
 40
1.500000
 49
1.000000
 49
-0.500000
  0
LTYPE
  2
DASHED2
 70
    64
  3
__ __ __ __ __ __ __ __ __ __ __ __ __ __ __
 72
    65
 73
     2
 40
3.500000
 49
2.500000
 49
-1.000000
  0
LTYPE
  2
DASHED3
 70
    64
  3
__ __ __ __ __ __ __ __ __ __ __ __ __ __ __
 72
    65
 73
     2
 40
6.000000
 49
4.000000
 49
-2.000000
  0
LTYPE
  2
DASHED4
 70
    64
  3
__ __ __ __ __ __ __ __ __ __ __ __ __ __ __
 72
    65
 73
     2
 40
12.000000
 49
10.000000
 49
-2.000000
  0
LTYPE
  2
DASHED5
 70
    64
  3
__ __ __ __ __ __ __ __ __ __ __ __ __ __ __
 72
    65
 73
     2
 40
17.000000
 49
15.000000
 49
-2.000000
  0
LTYPE
  2
DASHED6
 70
    64
  3
__ __ __ __ __ __ __ __ __ __ __ __ __ __ __
 72
    65
 73
     2
 40
29.000000
 49
27.000000
 49
-2.000000
  0
LTYPE
  2
PHANTOM1
 70
    64
  3
_____ _ _ _____ _ _ _____ _ _ _____ _ _ ____  
 72
    65
 73
     6
 40
31.000000
 49
25.000000
 49
-1.500000
 49
1.000000
 49
-1.000000
 49
1.000000
 49
-1.500000
  0
LTYPE
  2
PHANTOM2
 70
    64
  3
_____ _ _ _____ _ _ _____ _ _ _____ _ _ ____  
 72
    65
 73
     6
 40
36.000000
 49
27.000000
 49
-1.500000
 49
2.500000
 49
-1.000000
 49
2.500000
 49
-1.500000
  0
LTYPE
  2
PHANTOM3
 70
    64
  3
_____ _ _ _____ _ _ _____ _ _ _____ _ _ ____  
 72
    65
 73
     6
 40
78.000000
 49
64.000000
 49
-2.000000
 49
4.000000
 49
-2.000000
 49
4.000000
 49
-2.000000
  0
LTYPE
  2
CENTER1
 70
    64
  3
____ _ ____ _ ____ _ ____ _ ____ _ ____ _ ____
 72
    65
 73
     4
 40
19.000000
 49
14.000000
 49
-1.000000
 49
3.000000
 49
-1.000000
  0
LTYPE
  2
CENTER2
 70
    64
  3
____ _ ____ _ ____ _ ____ _ ____ _ ____ _ ____
 72
    65
 73
     4
 40
28.500000
 49
25.000000
 49
-1.000000
 49
1.500000
 49
-1.000000
  0
LTYPE
  2
CENTER3
 70
    64
  3
____ _ ____ _ ____ _ ____ _ ____ _ ____ _ ____
 72
    65
 73
     4
 40
31.500000
 49
27.000000
 49
-1.000000
 49
2.500000
 49
-1.000000
  0
LTYPE
  2
CENTER4
 70
    64
  3
____ _ ____ _ ____ _ ____ _ ____ _ ____ _ ____
 72
    65
 73
     4
 40
50.000000
 49
45.000000
 49
-1.000000
 49
3.000000
 49
-1.000000
  0
LTYPE
  2
CENTER5
 70
    64
  3
____ _ ____ _ ____ _ ____ _ ____ _ ____ _ ____
 72
    65
 73
     4
 40
100.000000
 49
92.000000
 49
-2.000000
 49
4.000000
 49
-2.000000
  0
LTYPE
  2
SBK1
 70
    64
  3
______ _ _ _ ______ _ _ _ ______ _ _ _ _____  
 72
    65
 73
     8
 40
60.500000
 49
45.000000
 49
-2.000000
 49
2.500000
 49
-2.000000
 49
2.500000
 49
-2.000000
 49
2.500000
 49
-2.000000
  0
LTYPE
  2
SBK2
 70
    64
  3
______ _ _ _ ______ _ _ _ ______ _ _ _ _____  
 72
    65
 73
     8
 40
84.000000
 49
64.000000
 49
-2.000000
 49
4.000000
 49
-2.000000
 49
4.000000
 49
-2.000000
 49
4.000000
 49
-2.000000
  0
LTYPE
  2
STCH
 70
    64
  3
__ __ __ __ __ __ __ __ __ __ __ __ __ __ __
 72
    65
 73
     2
 40
3.000000
 49
1.000000
 49
-2.000000
  0
LTYPE
  2
MTCH
 70
    64
  3
_____ _ _ _____ _ _ _____ _ _ _____ _ _ ____  
 72
    65
 73
     6
 40
80.000000
 49
66.000000
 49
-2.000000
 49
4.000000
 49
-2.000000
 49
4.000000
 49
-2.000000
  0
ENDTAB
  0
TABLE
  2
LAYER
 70
     1
  0
LAYER
  2
0
 70
     0
 62
     7
  6
CONTINUOUS
  0
ENDTAB
  0
TABLE
  2
STYLE
 70
     1
  0
STYLE
  2
STANDARD
 70
     0
 40
0.000000
 41
1.000000
 50
0.000000
 71
     0
 42
0.200000
  3
txt
  4
BIGFONT
  0
ENDTAB
  0
TABLE
  2
VIEW
 70
     0
  0
ENDTAB
  0
ENDSEC
  0
SECTION
  2
BLOCKS
  0
ENDSEC
  0
SECTION
  2
ENTITIES
  0
LINE
  8
0
 10
281.560577
 20
151.934814
 11
308.560577
 21
151.934814
  0
LINE
  8
0
 10
281.560577
 20
188.934814
 11
308.560577
 21
188.934814
  0
LINE
  8
0
 10
281.560577
 20
194.234818
 11
308.560577
 21
194.234818
  0
LINE
  8
0
 10
173.560593
 20
193.234818
 11
173.560593
 21
117.934814
  0
LINE
  8
0
 10
200.560593
 20
193.234818
 11
200.560593
 21
117.934814
  0
LINE
  8
0
 10
211.060593
 20
184.934814
 11
211.060593
 21
156.434814
  0
LINE
  8
0
 10
285.757996
 20
176.934814
 11
304.924927
 21
176.934814
  0
LINE
  8
0
 10
212.560593
 20
173.434814
 11
211.060593
 21
173.434814
  0
LINE
  8
0
 10
212.560593
 20
180.434814
 11
211.060593
 21
180.434814
  0
LINE
  8
0
 10
212.560593
 20
180.434814
 11
212.560593
 21
173.434814
  0
LINE
  8
0
 10
232.364563
 20
51.434814
 11
227.364563
 21
51.434814
  0
LINE
  8
0
 10
232.364563
 20
52.434814
 11
227.364563
 21
52.434814
  0
LINE
  8
0
 10
227.364563
 20
52.934814
 11
227.364563
 21
50.934814
  0
LINE
  8
0
 10
232.364563
 20
52.434814
 11
232.364563
 21
51.434814
  0
LINE
  8
0
 10
227.364563
 20
50.934814
 11
212.560593
 21
50.934814
  0
LINE
  8
0
 10
227.364563
 20
52.934814
 11
212.560593
 21
52.934814
  0
LINE
  8
0
 10
281.560577
 20
117.934814
 11
308.560577
 21
117.934814
  0
LINE
  8
0
 10
201.560593
 20
186.934814
 11
201.560593
 21
154.434814
  0
LINE
  8
0
 10
201.560593
 20
186.934814
 11
200.560593
 21
186.934814
  0
LINE
  8
0
 10
201.560593
 20
154.434814
 11
200.560593
 21
154.434814
  0
LINE
  8
0
 10
200.560593
 20
151.934814
 11
173.560593
 21
151.934814
  0
LINE
  8
0
 10
82.560577
 20
151.934814
 11
109.560577
 21
151.934814
  0
LINE
  8
0
 10
200.560593
 20
117.934814
 11
173.560593
 21
117.934814
  0
LINE
  8
0
 10
82.560577
 20
117.934814
 11
109.560577
 21
117.934814
  0
LINE
  8
0
 10
199.560593
 20
194.234818
 11
174.560593
 21
194.234818
  0
LINE
  8
0
 10
200.560593
 20
188.934814
 11
173.560593
 21
188.934814
  0
LINE
  8
0
 10
82.560577
 20
194.234818
 11
109.560577
 21
194.234818
  0
LINE
  8
0
 10
82.560577
 20
188.934814
 11
109.560577
 21
188.934814
  0
LINE
  8
0
 10
295.060577
 20
196.154694
 11
295.060577
 21
116.555298
  0
LINE
  8
0
 10
210.060593
 20
185.934814
 11
201.560593
 21
185.934814
  0
LINE
  8
0
 10
210.060593
 20
155.434814
 11
201.560593
 21
155.434814
  0
LINE
  8
0
 10
308.560577
 20
194.234818
 11
308.560577
 21
117.934814
  0
LINE
  8
0
 10
281.560577
 20
194.234818
 11
281.560577
 21
117.934814
  0
LINE
  8
0
 10
307.360596
 20
185.734818
 11
307.360596
 21
155.634811
  0
LINE
  8
0
 10
283.760559
 20
186.734818
 11
306.360565
 21
186.734818
  0
LINE
  8
0
 10
283.760559
 20
154.634811
 11
306.360565
 21
154.634811
  0
LINE
  8
0
 10
282.760559
 20
185.734818
 11
282.760559
 21
155.634811
  0
LINE
  8
0
 10
291.060577
 20
180.434814
 11
299.060577
 21
180.434814
  0
LINE
  8
0
 10
291.060577
 20
173.434814
 11
299.060577
 21
173.434814
  0
LINE
  8
0
 10
96.060577
 20
196.273804
 11
96.060577
 21
114.947189
  0
LINE
  8
0
 10
288.669769
 20
132.934814
 11
301.093842
 21
132.934814
  0
LINE
  8
0
 10
290.806152
 20
142.934814
 11
299.243958
 21
142.934814
  0
LINE
  8
0
 10
304.060577
 20
146.547028
 11
304.060577
 21
139.054840
  0
LINE
  8
0
 10
286.060577
 20
126.543610
 11
286.060577
 21
119.196899
  0
LINE
  8
0
 10
300.335052
 20
142.934814
 11
307.754486
 21
142.934814
  0
LINE
  8
0
 10
110.451172
 20
122.934814
 11
99.746735
 21
122.934814
  0
LINE
  8
0
 10
92.303833
 20
142.934814
 11
81.683029
 21
142.934814
  0
LINE
  8
0
 10
87.060577
 20
148.115967
 11
87.060577
 21
137.495163
  0
LINE
  8
0
 10
105.060577
 20
127.710663
 11
105.060577
 21
117.507996
  0
LINE
  8
0
 10
200.560593
 20
68.934814
 11
173.560593
 21
68.934814
  0
LINE
  8
0
 10
200.560593
 20
41.934814
 11
173.560593
 21
41.934814
  0
LINE
  8
0
 10
200.560593
 20
68.934814
 11
200.560593
 21
41.934814
  0
LINE
  8
0
 10
173.560593
 20
68.934814
 11
173.560593
 21
41.934814
  0
LINE
  8
0
 10
182.003159
 20
64.434814
 11
172.528534
 21
64.434814
  0
LINE
  8
0
 10
199.909012
 20
46.434814
 11
190.247925
 21
46.434814
  0
LINE
  8
0
 10
178.060593
 20
68.305595
 11
178.060593
 21
60.664246
  0
LINE
  8
0
 10
196.060593
 20
50.798920
 11
196.060593
 21
42.416245
  0
LINE
  8
0
 10
211.060593
 20
65.934814
 11
211.060593
 21
44.934814
  0
LINE
  8
0
 10
210.060593
 20
66.934814
 11
200.560593
 21
66.934814
  0
LINE
  8
0
 10
210.060593
 20
43.934814
 11
200.560593
 21
43.934814
  0
LINE
  8
0
 10
212.560593
 20
62.934814
 11
212.560593
 21
47.934814
  0
LINE
  8
0
 10
212.560593
 20
62.934814
 11
211.060593
 21
62.934814
  0
LINE
  8
0
 10
212.560593
 20
47.934814
 11
211.060593
 21
47.934814
  0
LINE
  8
0
 10
232.364563
 20
176.434814
 11
227.364563
 21
176.434814
  0
LINE
  8
0
 10
232.364563
 20
177.434814
 11
227.364563
 21
177.434814
  0
LINE
  8
0
 10
227.364563
 20
177.934814
 11
227.364563
 21
175.934814
  0
LINE
  8
0
 10
232.364563
 20
177.434814
 11
232.364563
 21
176.434814
  0
LINE
  8
0
 10
227.364563
 20
175.934814
 11
212.560593
 21
175.934814
  0
LINE
  8
0
 10
227.364563
 20
177.934814
 11
212.560593
 21
177.934814
  0
LINE
  8
0
 10
232.364563
 20
58.434814
 11
227.364563
 21
58.434814
  0
LINE
  8
0
 10
232.364563
 20
59.434814
 11
227.364563
 21
59.434814
  0
LINE
  8
0
 10
227.364563
 20
59.934814
 11
227.364563
 21
57.934814
  0
LINE
  8
0
 10
232.364563
 20
59.434814
 11
232.364563
 21
58.434814
  0
LINE
  8
0
 10
227.364563
 20
57.934814
 11
212.560593
 21
57.934814
  0
LINE
  8
0
 10
227.364563
 20
59.934814
 11
212.560593
 21
59.934814
  0
LINE
  8
0
 10
82.560577
 20
194.234818
 11
82.560577
 21
117.934814
  0
LINE
  8
0
 10
109.560577
 20
194.234818
 11
109.560577
 21
117.934814
  0
LINE
  8
0
  6
PHANTOM
 10
200.060577
 20
37.434814
 11
200.060577
 21
73.434814
  0
LINE
  8
0
  6
PHANTOM
 10
174.060577
 20
37.434814
 11
174.060577
 21
73.434814
  0
LINE
  8
0
 10
187.060577
 20
80.369492
 11
187.060577
 21
30.501595
  0
LINE
  8
0
  6
PHANTOM
 10
194.060577
 20
79.434814
 11
180.060577
 21
79.434814
  0
LINE
  8
0
  6
PHANTOM
 10
194.060577
 20
31.434814
 11
180.060593
 21
31.434814
  0
LINE
  8
0
  6
PHANTOM
 10
194.060577
 20
31.434799
 11
200.060577
 21
37.434811
  0
LINE
  8
0
  6
PHANTOM
 10
200.060608
 20
73.434814
 11
194.060593
 21
79.434822
  0
LINE
  8
0
  6
PHANTOM
 10
180.060516
 20
79.434906
 11
174.060501
 21
73.434898
  0
LINE
  8
0
  6
PHANTOM
 10
174.060501
 20
37.434757
 11
180.060501
 21
31.434767
  0
LINE
  8
0
 10
212.450378
 20
55.434814
 11
161.236786
 21
55.434814
  0
LINE
  8
0
  6
PHANTOM
 10
190.878632
 20
36.434814
 11
183.225067
 21
36.434814
  0
LINE
  8
0
  6
PHANTOM
 10
190.878632
 20
35.434814
 11
183.364227
 21
35.434814
  0
LINE
  8
0
  6
PHANTOM
 10
189.310577
 20
35.434814
 11
189.310577
 21
36.434814
  0
LINE
  8
0
  6
PHANTOM
 10
184.810577
 20
35.434814
 11
184.810577
 21
36.434814
  0
LINE
  8
0
  6
PHANTOM
 10
190.878632
 20
74.434814
 11
183.225067
 21
74.434814
  0
LINE
  8
0
  6
PHANTOM
 10
190.878632
 20
75.434814
 11
183.364227
 21
75.434814
  0
LINE
  8
0
  6
PHANTOM
 10
189.310577
 20
75.434814
 11
189.310577
 21
74.434814
  0
LINE
  8
0
  6
PHANTOM
 10
184.810577
 20
75.434814
 11
184.810577
 21
74.434814
  0
LINE
  8
0
  6
PHANTOM
 10
271.060577
 20
111.934814
 11
279.060577
 21
111.934814
  0
LINE
  8
0
  6
PHANTOM
 10
283.060577
 20
115.934814
 11
307.060577
 21
115.934814
  0
LINE
  8
0
  6
PHANTOM
 10
271.060577
 20
113.934814
 11
279.060577
 21
113.934814
  0
LINE
  8
0
  6
PHANTOM
 10
295.060577
 20
119.674255
 11
295.060577
 21
114.038452
  0
LINE
  8
0
  6
PHANTOM
 10
271.060577
 20
113.934814
 11
271.060577
 21
111.934814
  0
LINE
  8
0
  6
PHANTOM
 10
319.060577
 20
113.934814
 11
319.060577
 21
111.934814
  0
LINE
  8
0
  6
PHANTOM
 10
310.060577
 20
114.934814
 11
310.060577
 21
114.934814
  0
LINE
  8
0
  6
PHANTOM
 10
311.060577
 20
113.934814
 11
319.060577
 21
113.934814
  0
LINE
  8
0
  6
PHANTOM
 10
311.060577
 20
111.934814
 11
319.060577
 21
111.934814
  0
LINE
  8
0
  6
PHANTOM
 10
72.060577
 20
111.934814
 11
80.060577
 21
111.934814
  0
LINE
  8
0
  6
PHANTOM
 10
84.060577
 20
115.934814
 11
108.060577
 21
115.934814
  0
LINE
  8
0
  6
PHANTOM
 10
72.060577
 20
113.934814
 11
80.060577
 21
113.934814
  0
LINE
  8
0
  6
PHANTOM
 10
72.060577
 20
113.934814
 11
72.060577
 21
111.934814
  0
LINE
  8
0
  6
PHANTOM
 10
120.060577
 20
113.934814
 11
120.060577
 21
111.934814
  0
LINE
  8
0
  6
PHANTOM
 10
83.060577
 20
114.934814
 11
83.060577
 21
114.934814
  0
LINE
  8
0
  6
PHANTOM
 10
109.060577
 20
114.934814
 11
109.060577
 21
114.934814
  0
LINE
  8
0
  6
PHANTOM
 10
81.060577
 20
114.934814
 11
81.060577
 21
114.934814
  0
LINE
  8
0
  6
PHANTOM
 10
111.060577
 20
114.934814
 11
111.060577
 21
114.934814
  0
LINE
  8
0
  6
PHANTOM
 10
112.060577
 20
113.934814
 11
120.060577
 21
113.934814
  0
LINE
  8
0
  6
PHANTOM
 10
112.060577
 20
111.934814
 11
120.060577
 21
111.934814
  0
LINE
  8
0
  6
PHANTOM
 10
200.060593
 20
115.934814
 11
174.060593
 21
115.934814
  0
LINE
  8
0
  6
PHANTOM
 10
200.060593
 20
113.934814
 11
174.060593
 21
113.934814
  0
LINE
  8
0
  6
PHANTOM
 10
200.060593
 20
111.934814
 11
174.060593
 21
111.934814
  0
LINE
  8
0
  6
PHANTOM
 10
200.060593
 20
117.934814
 11
200.060593
 21
111.934814
  0
LINE
  8
0
  6
PHANTOM
 10
174.060593
 20
117.934814
 11
174.060593
 21
111.934814
  0
LINE
  8
0
  6
PHANTOM
 10
194.060593
 20
113.934814
 11
194.060593
 21
111.934814
  0
LINE
  8
0
  6
PHANTOM
 10
180.060593
 20
113.934814
 11
180.060593
 21
111.934814
  0
LINE
  8
0
  6
PHANTOM
 10
205.060577
 20
68.434814
 11
169.060577
 21
68.434814
  0
LINE
  8
0
  6
PHANTOM
 10
205.060577
 20
42.434814
 11
169.060577
 21
42.434814
  0
LINE
  8
0
  6
PHANTOM
 10
163.060577
 20
62.434814
 11
163.060577
 21
48.434814
  0
LINE
  8
0
  6
PHANTOM
 10
211.060577
 20
62.434814
 11
211.060577
 21
48.434818
  0
LINE
  8
0
  6
PHANTOM
 10
211.060486
 20
62.434746
 11
205.060486
 21
68.434738
  0
LINE
  8
0
  6
PHANTOM
 10
169.060593
 20
68.434814
 11
163.060577
 21
62.434807
  0
LINE
  8
0
  6
PHANTOM
 10
163.060486
 20
48.434750
 11
169.060486
 21
42.434738
  0
LINE
  8
0
  6
PHANTOM
 10
205.060623
 20
42.434811
 11
211.060623
 21
48.434807
  0
LINE
  8
0
  6
PHANTOM
 10
206.060577
 20
59.252861
 11
206.060577
 21
51.599289
  0
LINE
  8
0
  6
PHANTOM
 10
207.060577
 20
59.252861
 11
207.060577
 21
51.738449
  0
LINE
  8
0
  6
PHANTOM
 10
207.060577
 20
57.684814
 11
206.060577
 21
57.684814
  0
LINE
  8
0
  6
PHANTOM
 10
207.060577
 20
53.184814
 11
206.060577
 21
53.184814
  0
LINE
  8
0
  6
PHANTOM
 10
168.060577
 20
59.252861
 11
168.060577
 21
51.599289
  0
LINE
  8
0
  6
PHANTOM
 10
167.060577
 20
59.252861
 11
167.060577
 21
51.738449
  0
LINE
  8
0
  6
PHANTOM
 10
167.060577
 20
57.684814
 11
168.060577
 21
57.684814
  0
LINE
  8
0
  6
PHANTOM
 10
167.060577
 20
53.184814
 11
168.060577
 21
53.184814
  0
LINE
  8
0
 10
202.900345
 20
142.934814
 11
198.070343
 21
142.934814
  0
LINE
  8
0
 10
176.020355
 20
137.934814
 11
171.085358
 21
137.934814
  0
LINE
  8
0
 10
203.110352
 20
132.934814
 11
198.070343
 21
132.934814
  0
LINE
  8
0
  6
PHANTOM
 10
219.060577
 20
145.434814
 11
211.060577
 21
145.434814
  0
LINE
  8
0
  6
PHANTOM
 10
219.060577
 20
140.434814
 11
211.060577
 21
140.434814
  0
LINE
  8
0
  6
PHANTOM
 10
210.560577
 20
144.934814
 11
210.560577
 21
140.934814
  0
LINE
  8
0
  6
PHANTOM
 10
211.060593
 20
145.434799
 11
210.560593
 21
144.934799
  0
LINE
  8
0
  6
PHANTOM
 10
210.560562
 20
140.934784
 11
211.060562
 21
140.434784
  0
LINE
  8
0
  6
PHANTOM
 10
216.060577
 20
144.934814
 11
210.560577
 21
144.934814
  0
LINE
  8
0
  6
PHANTOM
 10
211.060577
 20
145.434814
 11
211.060577
 21
143.434814
  0
LINE
  8
0
  6
PHANTOM
 10
216.060577
 20
140.934814
 11
210.560577
 21
140.934814
  0
LINE
  8
0
 10
219.525024
 20
142.934814
 11
209.813324
 21
142.934814
  0
LINE
  8
0
 10
92.389404
 20
127.934814
 11
99.717926
 21
127.934814
  0
LINE
  8
0
 10
92.502136
 20
137.934814
 11
99.717926
 21
137.934814
  0
LINE
  8
0
 10
90.134460
 20
124.934814
 11
101.972839
 21
124.934814
  0
LINE
  8
0
 10
90.021729
 20
140.934814
 11
102.085602
 21
140.934814
  0
LINE
  8
0
 10
282.924683
 20
122.934814
 11
289.848236
 21
122.934814
  0
LINE
  8
0
  6
PHANTOM
 10
219.060577
 20
143.434814
 11
217.560577
 21
143.434814
  0
LINE
  8
0
  6
PHANTOM
 10
219.060577
 20
142.434814
 11
217.560577
 21
142.434814
  0
LINE
  8
0
  6
PHANTOM
 10
215.060577
 20
143.434814
 11
215.060577
 21
142.434814
  0
LINE
  8
0
  6
PHANTOM
 10
211.060577
 20
142.434814
 11
211.060577
 21
140.434814
  0
LINE
  8
0
  6
PHANTOM
 10
219.060577
 20
145.434814
 11
219.060577
 21
140.434814
  0
LINE
  8
0
  6
PHANTOM
 10
216.060577
 20
145.434814
 11
216.060577
 21
140.434814
  0
LINE
  8
0
  6
PHANTOM
 10
217.560577
 20
143.434814
 11
217.560577
 21
142.434814
  0
LINE
  8
0
  6
PHANTOM
 10
215.060577
 20
143.434814
 11
210.560577
 21
143.434814
  0
LINE
  8
0
  6
PHANTOM
 10
215.060577
 20
142.434814
 11
210.560577
 21
142.434814
  0
LINE
  8
0
  6
PHANTOM
 10
219.060577
 20
120.434814
 11
211.060577
 21
120.434814
  0
LINE
  8
0
  6
PHANTOM
 10
219.060577
 20
125.434814
 11
211.060577
 21
125.434814
  0
LINE
  8
0
  6
PHANTOM
 10
210.560577
 20
120.934814
 11
210.560577
 21
124.934814
  0
LINE
  8
0
  6
PHANTOM
 10
211.060516
 20
120.434753
 11
210.560516
 21
120.934746
  0
LINE
  8
0
  6
PHANTOM
 10
210.560577
 20
124.934799
 11
211.060577
 21
125.434799
  0
LINE
  8
0
  6
PHANTOM
 10
216.060577
 20
120.934814
 11
210.560577
 21
120.934814
  0
LINE
  8
0
  6
PHANTOM
 10
211.060577
 20
120.434814
 11
211.060577
 21
122.434814
  0
LINE
  8
0
  6
PHANTOM
 10
216.060577
 20
124.934814
 11
210.560577
 21
124.934814
  0
LINE
  8
0
 10
219.525024
 20
122.934814
 11
209.813324
 21
122.934814
  0
LINE
  8
0
  6
PHANTOM
 10
219.060577
 20
122.434814
 11
217.560577
 21
122.434814
  0
LINE
  8
0
  6
PHANTOM
 10
219.060577
 20
123.434814
 11
217.560577
 21
123.434814
  0
LINE
  8
0
  6
PHANTOM
 10
215.060577
 20
122.434814
 11
215.060577
 21
123.434814
  0
LINE
  8
0
  6
PHANTOM
 10
211.060577
 20
123.434814
 11
211.060577
 21
125.434814
  0
LINE
  8
0
  6
PHANTOM
 10
219.060577
 20
120.434814
 11
219.060577
 21
125.434814
  0
LINE
  8
0
  6
PHANTOM
 10
216.060577
 20
120.434814
 11
216.060577
 21
125.434814
  0
LINE
  8
0
  6
PHANTOM
 10
217.560577
 20
122.434814
 11
217.560577
 21
123.434814
  0
LINE
  8
0
  6
PHANTOM
 10
215.060577
 20
122.434814
 11
210.560577
 21
122.434814
  0
LINE
  8
0
  6
PHANTOM
 10
215.060577
 20
123.434814
 11
210.560577
 21
123.434814
  0
LINE
  8
0
 10
202.900345
 20
122.934814
 11
198.070343
 21
122.934814
  0
LINE
  8
0
 10
176.020355
 20
127.934814
 11
171.085358
 21
127.934814
  0
LINE
  8
0
 10
0.000000
 20
0.000000
 11
0.000000
 21
254.558472
  0
LINE
  8
0
 10
370.873566
 20
254.558472
 11
370.873566
 21
0.000000
  0
LINE
  8
0
 10
0.000000
 20
0.000000
 11
370.873566
 21
0.000000
  0
LINE
  8
0
 10
0.000000
 20
254.558472
 11
370.873566
 21
254.558472
  0
LINE
  8
0
 10
0.000000
 20
240.257431
 11
76.272194
 21
240.257431
  0
LINE
  8
0
 10
76.272194
 20
240.257431
 11
76.272194
 21
254.558472
  0
LINE
  8
0
 10
294.601379
 20
14.301025
 11
370.873566
 21
14.301025
  0
LINE
  8
0
 10
294.601379
 20
240.257431
 11
370.873566
 21
240.257431
  0
LINE
  8
0
 10
294.601379
 20
254.558472
 11
294.601379
 21
240.257431
  0
LINE
  8
0
 10
294.601379
 20
14.301025
 11
294.601379
 21
0.000000
  0
LINE
  8
0
 10
116.897392
 20
137.435165
 11
138.564865
 21
137.435165
  0
LINE
  8
0
 10
311.797424
 20
165.101013
 11
355.401123
 21
165.101013
  0
LINE
  8
0
 10
291.026703
 20
122.934814
 11
299.243958
 21
122.934814
  0
ARC
  8
0
 10
199.560593
 20
193.234818
 40
1.000000
 50
0.000000
 51
90.000000
  0
ARC
  8
0
 10
174.560593
 20
193.234818
 40
1.000000
 50
90.000000
 51
180.000000
  0
ARC
  8
0
 10
306.360596
 20
185.734818
 40
1.000000
 50
0.000000
 51
90.000000
  0
ARC
  8
0
 10
283.760559
 20
185.734818
 40
1.000000
 50
90.000000
 51
180.000000
  0
ARC
  8
0
 10
283.760559
 20
155.634811
 40
1.000000
 50
180.000000
 51
270.000000
  0
ARC
  8
0
 10
306.360596
 20
155.634811
 40
1.000000
 50
270.000000
 51
0.000000
  0
ARC
  8
0
 10
291.060577
 20
176.934814
 40
3.500000
 50
90.000000
 51
270.000000
  0
ARC
  8
0
 10
299.060577
 20
176.934814
 40
3.500000
 50
270.000000
 51
90.000000
  0
CIRCLE
  8
0
 10
299.060577
 20
176.934814
 40
2.000000
  0
CIRCLE
  8
0
 10
291.060577
 20
176.934814
 40
2.000000
  0
CIRCLE
  8
0
 10
304.060577
 20
142.934814
 40
2.000000
  0
CIRCLE
  8
0
 10
286.060577
 20
122.934814
 40
2.000000
  0
CIRCLE
  8
0
 10
87.060577
 20
142.934814
 40
1.750000
  0
CIRCLE
  8
0
 10
105.060577
 20
122.934814
 40
1.750000
  0
CIRCLE
  8
0
 10
87.060577
 20
142.934814
 40
3.250000
  0
CIRCLE
  8
0
 10
105.060577
 20
122.934814
 40
3.250000
  0
CIRCLE
  8
0
 10
178.060593
 20
64.434814
 40
1.500000
  0
CIRCLE
  8
0
 10
196.060593
 20
46.434814
 40
1.500000
  0
CIRCLE
  8
0
 10
178.060593
 20
64.434814
 40
2.500000
  0
CIRCLE
  8
0
 10
196.060593
 20
46.434814
 40
2.500000
  0
ARC
  8
0
 10
210.060593
 20
184.934814
 40
1.000000
 50
0.000000
 51
90.000000
  0
ARC
  8
0
 10
210.060593
 20
156.434814
 40
1.000000
 50
270.000000
 51
0.000000
  0
ARC
  8
0
 10
210.060593
 20
65.934814
 40
1.000000
 50
0.000000
 51
90.000000
  0
ARC
  8
0
 10
210.060593
 20
44.934814
 40
1.000000
 50
270.000000
 51
0.000000
  0
ARC
  8
0
  6
PHANTOM
 10
187.060593
 20
36.434814
 40
2.250000
 50
0.000000
 51
90.000000
  0
ARC
  8
0
  6
PHANTOM
 10
187.060593
 20
35.434814
 40
2.250000
 50
180.000000
 51
0.000000
  0
ARC
  8
0
  6
PHANTOM
 10
187.060593
 20
36.434814
 40
2.250000
 50
90.000000
 51
179.999908
  0
ARC
  8
0
  6
PHANTOM
 10
187.060577
 20
74.434814
 40
2.250000
 50
270.000000
 51
0.000000
  0
ARC
  8
0
  6
PHANTOM
 10
187.060577
 20
75.434814
 40
2.250000
 50
0.000000
 51
180.000000
  0
ARC
  8
0
  6
PHANTOM
 10
187.060577
 20
74.434814
 40
2.250000
 50
180.000000
 51
270.000000
  0
ARC
  8
0
  6
PHANTOM
 10
279.060577
 20
114.934814
 40
1.000000
 50
270.000000
 51
0.000000
  0
ARC
  8
0
  6
PHANTOM
 10
311.060577
 20
114.934814
 40
1.000000
 50
180.000000
 51
270.000000
  0
ARC
  8
0
  6
PHANTOM
 10
283.060577
 20
114.934814
 40
1.000000
 50
90.000000
 51
180.000000
  0
ARC
  8
0
  6
PHANTOM
 10
307.060577
 20
114.934814
 40
1.000000
 50
0.000000
 51
90.000000
  0
ARC
  8
0
  6
PHANTOM
 10
283.060577
 20
114.934814
 40
3.000000
 50
90.000000
 51
180.000000
  0
ARC
  8
0
  6
PHANTOM
 10
307.060577
 20
114.934814
 40
3.000000
 50
0.000000
 51
90.000000
  0
ARC
  8
0
  6
PHANTOM
 10
279.060577
 20
114.934814
 40
3.000000
 50
270.000000
 51
0.000000
  0
ARC
  8
0
  6
PHANTOM
 10
311.060577
 20
114.934814
 40
3.000000
 50
180.000000
 51
270.000000
  0
ARC
  8
0
  6
PHANTOM
 10
80.060577
 20
114.934814
 40
1.000000
 50
270.000000
 51
0.000000
  0
ARC
  8
0
  6
PHANTOM
 10
112.060577
 20
114.934814
 40
1.000000
 50
180.000000
 51
270.000000
  0
ARC
  8
0
  6
PHANTOM
 10
84.060577
 20
114.934814
 40
1.000000
 50
90.000000
 51
180.000000
  0
ARC
  8
0
  6
PHANTOM
 10
108.060577
 20
114.934814
 40
1.000000
 50
0.000000
 51
90.000000
  0
ARC
  8
0
  6
PHANTOM
 10
84.060577
 20
114.934814
 40
3.000000
 50
90.000000
 51
180.000000
  0
ARC
  8
0
  6
PHANTOM
 10
108.060577
 20
114.934814
 40
3.000000
 50
0.000000
 51
90.000000
  0
ARC
  8
0
  6
PHANTOM
 10
80.060577
 20
114.934814
 40
3.000000
 50
270.000000
 51
0.000000
  0
ARC
  8
0
  6
PHANTOM
 10
112.060577
 20
114.934814
 40
3.000000
 50
180.000000
 51
270.000000
  0
ARC
  8
0
  6
PHANTOM
 10
168.060577
 20
55.434814
 40
2.250000
 50
270.000000
 51
0.000000
  0
ARC
  8
0
  6
PHANTOM
 10
167.060577
 20
55.434814
 40
2.250000
 50
90.000000
 51
270.000000
  0
ARC
  8
0
  6
PHANTOM
 10
206.060577
 20
55.434814
 40
2.250000
 50
90.000000
 51
180.000000
  0
ARC
  8
0
  6
PHANTOM
 10
207.060577
 20
55.434814
 40
2.250000
 50
270.000000
 51
90.000000
  0
ARC
  8
0
  6
PHANTOM
 10
206.060577
 20
55.434814
 40
2.250000
 50
180.000000
 51
270.000000
  0
ARC
  8
0
  6
PHANTOM
 10
168.060577
 20
55.434814
 40
2.250000
 50
0.000000
 51
90.000000
  0
CIRCLE
  8
0
  6
PHANTOM
 10
295.060577
 20
132.934814
 40
4.000000
  0
CIRCLE
  8
0
  6
PHANTOM
 10
295.060577
 20
132.934814
 40
5.000000
  0
CIRCLE
  8
0
 10
295.060577
 20
142.934814
 40
1.750000
  0
CIRCLE
  8
0
 10
295.060577
 20
142.934814
 40
2.500000
  0
CIRCLE
  8
0
 10
295.060577
 20
132.934814
 40
1.750000
  0
CIRCLE
  8
0
 10
295.060577
 20
132.934814
 40
2.500000
  0
CIRCLE
  8
0
 10
96.060577
 20
137.934814
 40
2.500000
  0
CIRCLE
  8
0
 10
96.060577
 20
127.934814
 40
2.500000
  0
CIRCLE
  8
0
 10
96.060577
 20
127.934814
 40
1.750000
  0
CIRCLE
  8
0
 10
96.060577
 20
137.934814
 40
1.750000
  0
CIRCLE
  8
0
  6
PHANTOM
 10
96.060577
 20
140.934814
 40
5.000000
  0
CIRCLE
  8
0
  6
PHANTOM
 10
96.060577
 20
140.934814
 40
4.000000
  0
CIRCLE
  8
0
  6
PHANTOM
 10
96.060577
 20
124.934814
 40
4.000000
  0
CIRCLE
  8
0
  6
PHANTOM
 10
96.060577
 20
124.934814
 40
5.000000
  0
CIRCLE
  8
0
 10
295.060577
 20
122.934814
 40
2.500000
  0
CIRCLE
  8
0
 10
295.060577
 20
122.934814
 40
1.750000
  0
TEXT
  8
0
 10
286.279846
 20
131.694214
 40
2.500000
  1
P
 50
0.000000
 41
1.052632
 51
0.000000
  7
STANDARD
  0
TEXT
  8
0
 10
286.158600
 20
141.998993
 40
2.500000
  1
R1
 50
0.000000
 41
1.052632
 51
0.000000
  7
STANDARD
  0
TEXT
  8
0
 10
299.701538
 20
121.767670
 40
2.500000
  1
R2
 50
0.000000
 41
1.052632
 51
0.000000
  7
STANDARD
  0
TEXT
  8
0
 10
88.820381
 20
135.567596
 40
2.500000
  1
A
 50
0.000000
 41
1.052632
 51
0.000000
  7
STANDARD
  0
TEXT
  8
0
 10
88.908882
 20
128.310593
 40
2.500000
  1
B
 50
0.000000
 41
1.052632
 51
0.000000
  7
STANDARD
  0
TEXT
  8
0
 10
298.797760
 20
244.589584
 40
4.242641
  1
DATE : AUG ,1992
 50
0.000000
 41
1.052631
 51
0.000000
  7
STANDARD
  0
TEXT
  8
0
 10
20.171822
 20
243.907959
 40
5.000000
  1
050-4E1
 50
0.000000
 41
1.052632
 51
0.000000
  7
STANDARD
  0
TEXT
  8
0
 10
302.273193
 20
3.650512
 40
5.000000
  1
KOGANEI,CORP
 50
0.000000
 41
1.052632
 51
0.000000
  7
STANDARD
  0
TEXT
  8
0
 10
28.158930
 20
211.673187
 40
6.000000
  1
MODEL:050-4E1
 50
0.000000
 41
1.052632
 51
0.000000
  7
STANDARD
  0
TEXT
  8
0
 10
118.006828
 20
137.705368
 40
3.200000
  1
ƒÓ6.5-3
 50
0.000000
 41
1.052632
 51
0.000000
  7
STANDARD
  0
TEXT
  8
0
 10
313.328827
 20
165.283340
 40
3.200000
  1
2-M5X0.8(-01)
 50
0.000000
 41
1.052632
 51
0.000000
  7
STANDARD
  0
LINE
  8
0
 10
92.177383
 20
144.084534
 11
72.177376
 21
178.725540
  0
LINE
  8
0
 10
72.177376
 20
178.725540
 11
34.967426
 21
178.725555
  0
LINE
  8
0
 10
92.177383
 20
144.084534
 11
91.400925
 21
146.982315
  0
LINE
  8
0
 10
92.177383
 20
144.084534
 11
90.056061
 21
146.205856
  0
TEXT
  8
0
 10
35.217426
 20
179.725555
 40
3.200000
  1
-01:3-RC1/8
 50
0.000000
 41
1.052632
 51
0.000000
  7
STANDARD
  0
LINE
  8
0
 10
107.011581
 20
125.534050
 11
117.011589
 21
142.854568
  0
LINE
  8
0
 10
117.011589
 20
142.854568
 11
137.507599
 21
142.854568
  0
LINE
  8
0
 10
107.011581
 20
125.534050
 11
109.132904
 21
127.655373
  0
LINE
  8
0
 10
107.011581
 20
125.534050
 11
107.788040
 21
128.431824
  0
TEXT
  8
0
 10
117.643593
 20
143.854568
 40
3.200000
  1
2-ƒÓ3.5
 50
0.000000
 41
1.052632
 51
0.000000
  7
STANDARD
  0
LINE
  8
0
 10
297.203705
 20
144.222031
 11
312.203705
 21
170.202789
  0
LINE
  8
0
 10
312.203705
 20
170.202789
 11
339.637207
 21
170.202789
  0
LINE
  8
0
 10
297.203705
 20
144.222031
 11
299.325012
 21
146.343353
  0
LINE
  8
0
 10
297.203705
 20
144.222031
 11
297.980164
 21
147.119812
  0
TEXT
  8
0
 10
313.373199
 20
171.202789
 40
3.200000
  1
5-M5X0.8
 50
0.000000
 41
1.052632
 51
0.000000
  7
STANDARD
  0
LINE
  8
0
 10
197.986984
 20
44.841412
 11
207.986984
 21
27.520908
  0
LINE
  8
0
 10
207.986984
 20
27.520908
 11
242.362289
 21
27.520912
  0
LINE
  8
0
 10
197.986984
 20
44.841412
 11
198.763443
 21
41.943634
  0
LINE
  8
0
 10
197.986984
 20
44.841412
 11
200.108307
 21
42.720093
  0
TEXT
  8
0
 10
209.698288
 20
28.520912
 40
3.200000
  1
2-M4X0.7-5
 50
0.000000
 41
1.052632
 51
0.000000
  7
STANDARD
  0
LINE
  8
0
 10
115.632973
 20
111.934807
 11
105.632965
 21
94.614304
  0
LINE
  8
0
 10
105.632965
 20
94.614304
 11
53.577393
 21
94.614311
  0
LINE
  8
0
 10
115.632973
 20
111.934807
 11
113.511650
 21
109.813484
  0
LINE
  8
0
 10
115.632973
 20
111.934807
 11
114.856514
 21
109.037033
  0
TEXT
  8
0
 10
53.827393
 20
95.614311
 40
3.200000
  1
BASE PLATE(-21)
 50
0.000000
 41
1.052632
 51
0.000000
  7
STANDARD
  0
LINE
  8
0
 10
217.699356
 20
120.434814
 11
230.199356
 21
98.784180
  0
LINE
  8
0
 10
230.199356
 20
98.784180
 11
258.231049
 21
98.784180
  0
LINE
  8
0
 10
217.699356
 20
120.434814
 11
218.475815
 21
117.537041
  0
LINE
  8
0
 10
217.699356
 20
120.434814
 11
219.820679
 21
118.313492
  0
TEXT
  8
0
 10
231.967056
 20
99.784180
 40
3.200000
  1
S.C(-70)
 50
0.000000
 41
1.052632
 51
0.000000
  7
STANDARD
  0
ENDSEC
  0
EOF
