  0
SECTION
  2
HEADER
  9
$ACADVER
  1
AC1015
  9
$ACADMAINTVER
 70
    20
  9
$DWGCODEPAGE
  3
ANSI_932
  9
$INSBASE
 10
0.0
 20
0.0
 30
0.0
  9
$EXTMIN
 10
-281.25
 20
-195.0
 30
0.0
  9
$EXTMAX
 10
282.09985352
 20
195.5
 30
0.0
  9
$LIMMIN
 10
-297.0
 20
-210.0
  9
$LIMMAX
 10
297.0
 20
210.0
  9
$ORTHOMODE
 70
     0
  9
$REGENMODE
 70
     1
  9
$FILLMODE
 70
     1
  9
$QTEXTMODE
 70
     0
  9
$MIRRTEXT
 70
     1
  9
$LTSCALE
 40
1.0
  9
$ATTMODE
 70
     1
  9
$TEXTSIZE
 40
3.200000049999999
  9
$TRACEWID
 40
0.05
  9
$TEXTSTYLE
  7
MX_NOTE_STANDARD
  9
$CLAYER
  8
0
  9
$CELTYPE
  6
CONTINUOUS
  9
$CECOLOR
 62
   256
  9
$CELTSCALE
 40
1.0
  9
$DISPSILH
 70
     0
  9
$DIMSCALE
 40
1.0
  9
$DIMASZ
 40
2.5
  9
$DIMEXO
 40
1.5
  9
$DIMDLI
 40
3.75
  9
$DIMRND
 40
0.0
  9
$DIMDLE
 40
0.0
  9
$DIMEXE
 40
1.5
  9
$DIMTP
 40
0.0
  9
$DIMTM
 40
0.0
  9
$DIMTXT
 40
3.200000049999999
  9
$DIMCEN
 40
2.5
  9
$DIMTSZ
 40
0.0
  9
$DIMTOL
 70
     0
  9
$DIMLIM
 70
     0
  9
$DIMTIH
 70
     0
  9
$DIMTOH
 70
     0
  9
$DIMSE1
 70
     0
  9
$DIMSE2
 70
     0
  9
$DIMTAD
 70
     1
  9
$DIMZIN
 70
     8
  9
$DIMBLK
  1

  9
$DIMASO
 70
     1
  9
$DIMSHO
 70
     1
  9
$DIMPOST
  1

  9
$DIMAPOST
  1

  9
$DIMALT
 70
     0
  9
$DIMALTD
 70
     4
  9
$DIMALTF
 40
0.03937008
  9
$DIMLFAC
 40
1.0
  9
$DIMTOFL
 70
     1
  9
$DIMTVP
 40
0.0
  9
$DIMTIX
 70
     0
  9
$DIMSOXD
 70
     0
  9
$DIMSAH
 70
     1
  9
$DIMBLK1
  1
OPEN30
  9
$DIMBLK2
  1
OPEN30
  9
$DIMSTYLE
  2
MXDIMSTYLE
  9
$DIMCLRD
 70
     0
  9
$DIMCLRE
 70
     0
  9
$DIMCLRT
 70
     0
  9
$DIMTFAC
 40
1.0
  9
$DIMGAP
 40
1.0
  9
$DIMJUST
 70
     0
  9
$DIMSD1
 70
     0
  9
$DIMSD2
 70
     0
  9
$DIMTOLJ
 70
     1
  9
$DIMTZIN
 70
     0
  9
$DIMALTZ
 70
     0
  9
$DIMALTTZ
 70
     0
  9
$DIMUPT
 70
     0
  9
$DIMDEC
 70
     4
  9
$DIMTDEC
 70
     4
  9
$DIMALTU
 70
     2
  9
$DIMALTTD
 70
     2
  9
$DIMTXSTY
  7
Standard
  9
$DIMAUNIT
 70
     0
  9
$DIMADEC
 70
     0
  9
$DIMALTRND
 40
0.0
  9
$DIMAZIN
 70
     0
  9
$DIMDSEP
 70
    46
  9
$DIMATFIT
 70
     3
  9
$DIMFRAC
 70
     0
  9
$DIMLDRBLK
  1
OPEN30
  9
$DIMLUNIT
 70
     2
  9
$DIMLWD
 70
    -2
  9
$DIMLWE
 70
    -2
  9
$DIMTMOVE
 70
     0
  9
$LUNITS
 70
     2
  9
$LUPREC
 70
     4
  9
$SKETCHINC
 40
0.1
  9
$FILLETRAD
 40
0.0
  9
$AUNITS
 70
     0
  9
$AUPREC
 70
     0
  9
$MENU
  1
acad
  9
$ELEVATION
 40
0.0
  9
$PELEVATION
 40
0.0
  9
$THICKNESS
 40
0.0
  9
$LIMCHECK
 70
     0
  9
$CHAMFERA
 40
0.0
  9
$CHAMFERB
 40
0.0
  9
$CHAMFERC
 40
0.0
  9
$CHAMFERD
 40
0.0
  9
$SKPOLY
 70
     0
  9
$TDCREATE
 40
2454048.468657408
  9
$TDUCREATE
 40
2454048.093657408
  9
$TDUPDATE
 40
2454259.609304595
  9
$TDUUPDATE
 40
2454259.234304595
  9
$TDINDWG
 40
0.0016478935
  9
$TDUSRTIMER
 40
0.0016120833
  9
$USRTIMER
 70
     1
  9
$ANGBASE
 50
0.0
  9
$ANGDIR
 70
     0
  9
$PDMODE
 70
     0
  9
$PDSIZE
 40
0.0
  9
$PLINEWID
 40
0.0
  9
$SPLFRAME
 70
     0
  9
$SPLINETYPE
 70
     6
  9
$SPLINESEGS
 70
     8
  9
$HANDSEED
  5
14E
  9
$SURFTAB1
 70
     6
  9
$SURFTAB2
 70
     6
  9
$SURFTYPE
 70
     6
  9
$SURFU
 70
     6
  9
$SURFV
 70
     6
  9
$UCSBASE
  2

  9
$UCSNAME
  2

  9
$UCSORG
 10
0.0
 20
0.0
 30
0.0
  9
$UCSXDIR
 10
1.0
 20
0.0
 30
0.0
  9
$UCSYDIR
 10
0.0
 20
1.0
 30
0.0
  9
$UCSORTHOREF
  2

  9
$UCSORTHOVIEW
 70
     0
  9
$UCSORGTOP
 10
0.0
 20
0.0
 30
0.0
  9
$UCSORGBOTTOM
 10
0.0
 20
0.0
 30
0.0
  9
$UCSORGLEFT
 10
0.0
 20
0.0
 30
0.0
  9
$UCSORGRIGHT
 10
0.0
 20
0.0
 30
0.0
  9
$UCSORGFRONT
 10
0.0
 20
0.0
 30
0.0
  9
$UCSORGBACK
 10
0.0
 20
0.0
 30
0.0
  9
$PUCSBASE
  2

  9
$PUCSNAME
  2

  9
$PUCSORG
 10
0.0
 20
0.0
 30
0.0
  9
$PUCSXDIR
 10
1.0
 20
0.0
 30
0.0
  9
$PUCSYDIR
 10
0.0
 20
1.0
 30
0.0
  9
$PUCSORTHOREF
  2

  9
$PUCSORTHOVIEW
 70
     0
  9
$PUCSORGTOP
 10
0.0
 20
0.0
 30
0.0
  9
$PUCSORGBOTTOM
 10
0.0
 20
0.0
 30
0.0
  9
$PUCSORGLEFT
 10
0.0
 20
0.0
 30
0.0
  9
$PUCSORGRIGHT
 10
0.0
 20
0.0
 30
0.0
  9
$PUCSORGFRONT
 10
0.0
 20
0.0
 30
0.0
  9
$PUCSORGBACK
 10
0.0
 20
0.0
 30
0.0
  9
$USERI1
 70
     0
  9
$USERI2
 70
     0
  9
$USERI3
 70
     0
  9
$USERI4
 70
     0
  9
$USERI5
 70
     0
  9
$USERR1
 40
0.0
  9
$USERR2
 40
0.0
  9
$USERR3
 40
0.0
  9
$USERR4
 40
0.0
  9
$USERR5
 40
0.0
  9
$WORLDVIEW
 70
     1
  9
$SHADEDGE
 70
     3
  9
$SHADEDIF
 70
    70
  9
$TILEMODE
 70
     1
  9
$MAXACTVP
 70
    16
  9
$PINSBASE
 10
0.0
 20
0.0
 30
0.0
  9
$PLIMCHECK
 70
     0
  9
$PEXTMIN
 10
1.000000000000000E+20
 20
1.000000000000000E+20
 30
1.000000000000000E+20
  9
$PEXTMAX
 10
-1.000000000000000E+20
 20
-1.000000000000000E+20
 30
-1.000000000000000E+20
  9
$PLIMMIN
 10
0.0
 20
0.0
  9
$PLIMMAX
 10
12.0
 20
9.0
  9
$UNITMODE
 70
     0
  9
$VISRETAIN
 70
     0
  9
$PLINEGEN
 70
     1
  9
$PSLTSCALE
 70
     0
  9
$TREEDEPTH
 70
  3020
  9
$CMLSTYLE
  2
Standard
  9
$CMLJUST
 70
     0
  9
$CMLSCALE
 40
1.0
  9
$PROXYGRAPHICS
 70
     1
  9
$MEASUREMENT
 70
     0
  9
$CELWEIGHT
370
    -1
  9
$ENDCAPS
280
     0
  9
$JOINSTYLE
280
     0
  9
$LWDISPLAY
290
     0
  9
$INSUNITS
 70
     0
  9
$HYPERLINKBASE
  1

  9
$STYLESHEET
  1

  9
$XEDIT
290
     1
  9
$CEPSNTYPE
380
     0
  9
$PSTYLEMODE
290
     1
  9
$FINGERPRINTGUID
  2
{805416ED-FA3E-410D-8DA4-3EF4F03038A7}
  9
$VERSIONGUID
  2
{2D758DBA-B860-495B-9927-61AFD96E08A1}
  9
$EXTNAMES
290
     1
  9
$PSVPSCALE
 40
0.0
  9
$OLESTARTUP
290
     0
  0
ENDSEC
  0
SECTION
  2
CLASSES
  0
CLASS
  1
ACDBDICTIONARYWDFLT
  2
AcDbDictionaryWithDefault
  3
ObjectDBX Classes
 90
        0
280
     0
281
     0
  0
CLASS
  1
TABLESTYLE
  2
AcDbTableStyle
  3
ObjectDBX Classes
 90
     2047
280
     0
281
     0
  0
CLASS
  1
DICTIONARYVAR
  2
AcDbDictionaryVar
  3
ObjectDBX Classes
 90
        0
280
     0
281
     0
  0
CLASS
  1
ACDBPLACEHOLDER
  2
AcDbPlaceHolder
  3
ObjectDBX Classes
 90
        0
280
     0
281
     0
  0
CLASS
  1
LAYOUT
  2
AcDbLayout
  3
ObjectDBX Classes
 90
        0
280
     0
281
     0
  0
ENDSEC
  0
SECTION
  2
TABLES
  0
TABLE
  2
VPORT
  5
11D
330
0
100
AcDbSymbolTable
 70
     2
  0
VPORT
  5
147
330
11D
100
AcDbSymbolTableRecord
100
AcDbViewportTableRecord
  2
*Active
 70
     0
 10
0.0
 20
0.0
 11
1.0
 21
1.0
 12
-31.89966995609211
 22
43.79876076034043
 13
0.0
 23
0.0
 14
1.0
 24
1.0
 15
0.0
 25
0.0
 16
0.0
 26
0.0
 36
1.0
 17
0.0
 27
0.0
 37
0.0
 40
541.3361954266368
 41
1.481971153846153
 42
50.0
 43
0.0
 44
0.0
 50
0.0
 51
0.0
 71
     0
 72
   100
 73
     1
 74
     1
 75
     0
 76
     0
 77
     0
 78
     0
281
     0
 65
     1
110
0.0
120
0.0
130
0.0
111
1.0
121
0.0
131
0.0
112
0.0
122
1.0
132
0.0
 79
     0
146
0.0
  0
ENDTAB
  0
TABLE
  2
LTYPE
  5
11A
330
0
100
AcDbSymbolTable
 70
     1
  0
LTYPE
  5
128
330
11A
100
AcDbSymbolTableRecord
100
AcDbLinetypeTableRecord
  2
ByBlock
 70
     0
  3

 72
    65
 73
     0
 40
0.0
  0
LTYPE
  5
129
330
11A
100
AcDbSymbolTableRecord
100
AcDbLinetypeTableRecord
  2
ByLayer
 70
     0
  3

 72
    65
 73
     0
 40
0.0
  0
LTYPE
  5
12A
330
11A
100
AcDbSymbolTableRecord
100
AcDbLinetypeTableRecord
  2
CONTINUOUS
 70
     0
  3
Solid line
 72
    65
 73
     0
 40
0.0
  0
ENDTAB
  0
TABLE
  2
LAYER
  5
117
330
0
100
AcDbSymbolTable
 70
     2
  0
LAYER
  5
125
330
117
100
AcDbSymbolTableRecord
100
AcDbLayerTableRecord
  2
0
 70
     0
 62
     7
  6
CONTINUOUS
370
    -3
390
124
  0
LAYER
  5
13D
330
117
100
AcDbSymbolTableRecord
100
AcDbLayerTableRecord
  2
DEFPOINTS
 70
     0
 62
     7
  6
CONTINUOUS
290
     0
370
    -3
390
124
  0
ENDTAB
  0
TABLE
  2
STYLE
  5
118
330
0
100
AcDbSymbolTable
 70
     2
  0
STYLE
  5
126
330
118
100
AcDbSymbolTableRecord
100
AcDbTextStyleTableRecord
  2
Standard
 70
     0
 40
0.0
 41
1.0
 50
0.0
 71
     0
 42
0.2
  3
txt
  4

  0
STYLE
  5
13B
330
118
100
AcDbSymbolTableRecord
100
AcDbTextStyleTableRecord
  2
MX_NOTE_STANDARD
 70
     0
 40
0.0
 41
1.0
 50
0.0
 71
     0
 42
3.200000049999999
  3
txt.shx
  4
extfont.shx
  0
ENDTAB
  0
TABLE
  2
VIEW
  5
11B
330
0
100
AcDbSymbolTable
 70
     0
  0
ENDTAB
  0
TABLE
  2
UCS
  5
11C
330
0
100
AcDbSymbolTable
 70
     0
  0
ENDTAB
  0
TABLE
  2
APPID
  5
11E
330
0
100
AcDbSymbolTable
 70
     1
  0
APPID
  5
127
330
11E
100
AcDbSymbolTableRecord
100
AcDbRegAppTableRecord
  2
ACAD
 70
     0
  0
ENDTAB
  0
TABLE
  2
DIMSTYLE
  5
11F
330
0
100
AcDbSymbolTable
 70
     1
100
AcDbDimStyleTable
 71
     0
  0
DIMSTYLE
105
13E
330
11F
100
AcDbSymbolTableRecord
100
AcDbDimStyleTableRecord
  2
MXDIMSTYLE
 70
     0
 41
2.5
 42
1.5
 43
3.75
 44
1.5
 73
     0
 74
     0
 77
     1
 78
     8
140
3.200000049999999
141
2.5
143
0.03937008
147
1.0
171
     4
172
     1
173
     1
274
     4
279
     2
284
     8
285
     8
286
     8
340
13B
  0
ENDTAB
  0
TABLE
  2
BLOCK_RECORD
  5
116
330
0
100
AcDbSymbolTable
 70
     1
  0
BLOCK_RECORD
  5
137
330
116
100
AcDbSymbolTableRecord
100
AcDbBlockTableRecord
  2
*Model_Space
340
13A
  0
BLOCK_RECORD
  5
133
330
116
100
AcDbSymbolTableRecord
100
AcDbBlockTableRecord
  2
*Paper_Space
340
136
  0
BLOCK_RECORD
  5
141
330
116
100
AcDbSymbolTableRecord
100
AcDbBlockTableRecord
  2
_OPEN30
340
0
  0
ENDTAB
  0
ENDSEC
  0
SECTION
  2
BLOCKS
  0
BLOCK
  5
138
330
137
100
AcDbEntity
  8
0
100
AcDbBlockBegin
  2
*Model_Space
 70
     0
 10
0.0
 20
0.0
 30
0.0
  3
*Model_Space
  1

  0
ENDBLK
  5
139
330
137
100
AcDbEntity
  8
0
100
AcDbBlockEnd
  0
BLOCK
  5
134
330
133
100
AcDbEntity
 67
     1
  8
0
100
AcDbBlockBegin
  2
*Paper_Space
 70
     0
 10
0.0
 20
0.0
 30
0.0
  3
*Paper_Space
  1

  0
ENDBLK
  5
135
330
133
100
AcDbEntity
 67
     1
  8
0
100
AcDbBlockEnd
  0
BLOCK
  5
1F
330
141
100
AcDbEntity
  8
0
  6
ByBlock
 62
     0
100
AcDbBlockBegin
  2
_OPEN30
 70
     2
 10
0.0
 20
0.0
 30
0.0
  3
_OPEN30
  1

  0
LINE
  5
20
330
141
100
AcDbEntity
  8
0
  6
ByBlock
 62
     0
100
AcDbLine
 10
-1.0
 20
0.267949
 30
0.0
 11
0.0
 21
0.0
 31
0.0
  0
LINE
  5
21
330
141
100
AcDbEntity
  8
0
  6
ByBlock
 62
     0
100
AcDbLine
 10
0.0
 20
0.0
 30
0.0
 11
-1.0
 21
-0.267949
 31
0.0
  0
LINE
  5
22
330
141
100
AcDbEntity
  8
0
  6
ByBlock
 62
     0
100
AcDbLine
 10
0.0
 20
0.0
 30
0.0
 11
-1.0
 21
0.0
 31
0.0
  0
ENDBLK
  5
23
330
141
100
AcDbEntity
  8
0
  6
ByBlock
 62
     0
100
AcDbBlockEnd
  0
ENDSEC
  0
SECTION
  2
ENTITIES
  0
ARC
  5
24
330
137
100
AcDbEntity
  8
0
  6
Continuous
 62
     7
100
AcDbCircle
 10
171.94023779
 20
87.77760492
 30
0.0
 40
2.56247805
100
AcDbArc
 50
12.67820208
 51
167.32179792
  0
ARC
  5
25
330
137
100
AcDbEntity
  8
0
  6
Continuous
 62
     7
100
AcDbCircle
 10
-11.15720582
 20
87.56691799
 30
0.0
 40
2.563449429999999
100
AcDbArc
 50
12.68038349
 51
167.31961651
  0
ARC
  5
26
330
137
100
AcDbEntity
  8
0
  6
Continuous
 62
     7
100
AcDbCircle
 10
-142.16209664
 20
87.54523643
 30
0.0
 40
2.5625
100
AcDbArc
 50
12.68038349
 51
167.31961651
  0
LINE
  5
27
330
137
100
AcDbEntity
  8
0
  6
Continuous
 62
     7
100
AcDbLine
 10
54.64168266
 20
-85.49067673999999
 30
0.0
 11
54.64168266
 21
-84.49067674
 31
0.0
  0
LINE
  5
28
330
137
100
AcDbEntity
  8
0
  6
Continuous
 62
     2
100
AcDbLine
 10
38.00803104
 20
-83.01075264999999
 30
0.0
 11
35.45900962000001
 21
-86.75931355000001
 31
0.0
  0
LINE
  5
29
330
137
100
AcDbEntity
  8
0
  6
Continuous
 62
     2
100
AcDbLine
 10
36.53291759
 20
-83.01075264999999
 30
0.0
 11
33.98389618
 21
-86.75931355000001
 31
0.0
  0
LINE
  5
2A
330
137
100
AcDbEntity
  8
0
  6
Continuous
 62
     7
100
AcDbLine
 10
54.64168266
 20
-81.49067673999999
 30
0.0
 11
54.64168266
 21
-80.49067673999999
 31
0.0
  0
LINE
  5
2B
330
137
100
AcDbEntity
  8
0
  6
Continuous
 62
     2
100
AcDbLine
 10
38.00803104
 20
-79.01075265
 30
0.0
 11
35.45900962000001
 21
-82.75931355
 31
0.0
  0
LINE
  5
2C
330
137
100
AcDbEntity
  8
0
  6
Continuous
 62
     2
100
AcDbLine
 10
36.53291759
 20
-79.01075265
 30
0.0
 11
33.98389618
 21
-82.75931355
 31
0.0
  0
LINE
  5
2D
330
137
100
AcDbEntity
  8
0
  6
Continuous
 62
     7
100
AcDbLine
 10
12.34168266
 20
-69.49067674
 30
0.0
 11
12.34168266
 21
-64.99067673999999
 31
0.0
  0
LINE
  5
2E
330
137
100
AcDbEntity
  8
0
  6
Continuous
 62
     7
100
AcDbLine
 10
-13.65831734
 20
-69.49067674
 30
0.0
 11
-13.65831734
 21
-64.99067673999999
 31
0.0
  0
LINE
  5
2F
330
137
100
AcDbEntity
  8
0
  6
Continuous
 62
     2
100
AcDbLine
 10
38.01247714
 20
75.71992900000001
 30
0.0
 11
35.46345572
 21
71.97136809999999
 31
0.0
  0
LINE
  5
30
330
137
100
AcDbEntity
  8
0
  6
Continuous
 62
     2
100
AcDbLine
 10
36.53736369
 20
75.71992900000001
 30
0.0
 11
33.98834228
 21
71.97136809999999
 31
0.0
  0
ARC
  5
31
330
137
100
AcDbEntity
  8
0
  6
Continuous
 62
     7
100
AcDbCircle
 10
22.33666721
 20
-72.49569218000001
 30
0.0
 40
1.00502796
100
AcDbArc
 50
0.28592738
 51
89.71407261999999
  0
ARC
  5
32
330
137
100
AcDbEntity
  8
0
  6
Continuous
 62
     7
100
AcDbCircle
 10
22.33667822
 20
-93.4856723
 30
0.0
 40
1.005016899999999
100
AcDbArc
 50
270.28530298
 51
359.71469702
  0
CIRCLE
  5
33
330
137
100
AcDbEntity
  8
0
  6
Continuous
 62
     2
100
AcDbCircle
 10
-9.648335649999999
 20
-91.99065232
 30
0.0
 40
2.5
  0
CIRCLE
  5
34
330
137
100
AcDbEntity
  8
0
  6
Continuous
 62
     2
100
AcDbCircle
 10
8.35166435
 20
-73.99067902999999
 30
0.0
 40
2.5
  0
CIRCLE
  5
35
330
137
100
AcDbEntity
  8
0
  6
Continuous
 62
     7
100
AcDbCircle
 10
-9.648335649999999
 20
-91.99065232
 30
0.0
 40
1.5
  0
CIRCLE
  5
36
330
137
100
AcDbEntity
  8
0
  6
Continuous
 62
     7
100
AcDbCircle
 10
8.35166435
 20
-73.99067902999999
 30
0.0
 40
1.5
  0
LINE
  5
37
330
137
100
AcDbEntity
  8
0
  6
Continuous
 62
     2
100
AcDbLine
 10
55.36168266
 20
-84.99067674
 30
0.0
 11
23.96168266
 21
-84.99067674
 31
0.0
  0
LINE
  5
38
330
137
100
AcDbEntity
  8
0
  6
Continuous
 62
     7
100
AcDbLine
 10
34.50656921
 20
-85.99067674
 30
0.0
 11
24.84168266
 21
-85.99067674
 31
0.0
  0
LINE
  5
39
330
137
100
AcDbEntity
  8
0
  6
Continuous
 62
     7
100
AcDbLine
 10
35.86656922
 20
-83.99067673999999
 30
0.0
 11
24.84168266
 21
-83.99067673999999
 31
0.0
  0
LINE
  5
3A
330
137
100
AcDbEntity
  8
0
  6
Continuous
 62
     7
100
AcDbLine
 10
49.64168266
 20
-85.99067674
 30
0.0
 11
49.64168266
 21
-83.99067673999999
 31
0.0
  0
LINE
  5
3B
330
137
100
AcDbEntity
  8
0
  6
Continuous
 62
     7
100
AcDbLine
 10
54.64168266
 20
-85.49067673999999
 30
0.0
 11
49.64168266
 21
-85.49067673999999
 31
0.0
  0
LINE
  5
3C
330
137
100
AcDbEntity
  8
0
  6
Continuous
 62
     7
100
AcDbLine
 10
54.64168266
 20
-84.49067674
 30
0.0
 11
49.64168266
 21
-84.49067674
 31
0.0
  0
LINE
  5
3D
330
137
100
AcDbEntity
  8
0
  6
Continuous
 62
     7
100
AcDbLine
 10
49.64168266
 20
-83.99067673999999
 30
0.0
 11
37.34168266
 21
-83.99067673999999
 31
0.0
  0
LINE
  5
3E
330
137
100
AcDbEntity
  8
0
  6
Continuous
 62
     7
100
AcDbLine
 10
49.64168266
 20
-85.99067674
 30
0.0
 11
35.98168266
 21
-85.99067674
 31
0.0
  0
LINE
  5
3F
330
137
100
AcDbEntity
  8
0
  6
Continuous
 62
     7
100
AcDbLine
 10
24.84168266
 20
-77.49067673999999
 30
0.0
 11
23.34168266
 21
-77.49067673999999
 31
0.0
  0
LINE
  5
40
330
137
100
AcDbEntity
  8
0
  6
Continuous
 62
     7
100
AcDbLine
 10
24.84168266
 20
-88.49067674
 30
0.0
 11
23.34168266
 21
-88.49067674
 31
0.0
  0
LINE
  5
41
330
137
100
AcDbEntity
  8
0
  6
Continuous
 62
     2
100
AcDbLine
 10
27.34168266
 20
-82.99067673999999
 30
0.0
 11
-21.40831734
 21
-82.99067673999999
 31
0.0
  0
LINE
  5
42
330
137
100
AcDbEntity
  8
0
  6
Continuous
 62
     2
100
AcDbLine
 10
55.36168266
 20
-80.99067674
 30
0.0
 11
23.96168266
 21
-80.99067674
 31
0.0
  0
LINE
  5
43
330
137
100
AcDbEntity
  8
0
  6
Continuous
 62
     7
100
AcDbLine
 10
34.50656921
 20
-81.99067674
 30
0.0
 11
24.84168266
 21
-81.99067674
 31
0.0
  0
LINE
  5
44
330
137
100
AcDbEntity
  8
0
  6
Continuous
 62
     7
100
AcDbLine
 10
35.86656922
 20
-79.99067673999999
 30
0.0
 11
24.84168266
 21
-79.99067673999999
 31
0.0
  0
LINE
  5
45
330
137
100
AcDbEntity
  8
0
  6
Continuous
 62
     7
100
AcDbLine
 10
49.64168266
 20
-81.99067674
 30
0.0
 11
49.64168266
 21
-79.99067673999999
 31
0.0
  0
LINE
  5
46
330
137
100
AcDbEntity
  8
0
  6
Continuous
 62
     7
100
AcDbLine
 10
54.64168266
 20
-81.49067673999999
 30
0.0
 11
49.64168266
 21
-81.49067673999999
 31
0.0
  0
LINE
  5
47
330
137
100
AcDbEntity
  8
0
  6
Continuous
 62
     7
100
AcDbLine
 10
54.64168266
 20
-80.49067673999999
 30
0.0
 11
49.64168266
 21
-80.49067673999999
 31
0.0
  0
LINE
  5
48
330
137
100
AcDbEntity
  8
0
  6
Continuous
 62
     7
100
AcDbLine
 10
49.64168266
 20
-79.99067673999999
 30
0.0
 11
37.34168266
 21
-79.99067673999999
 31
0.0
  0
LINE
  5
49
330
137
100
AcDbEntity
  8
0
  6
Continuous
 62
     7
100
AcDbLine
 10
49.64168266
 20
-81.99067674
 30
0.0
 11
35.98168266
 21
-81.99067674
 31
0.0
  0
LINE
  5
4A
330
137
100
AcDbEntity
  8
0
  6
Continuous
 62
     7
100
AcDbLine
 10
24.84168266
 20
-88.49067674
 30
0.0
 11
24.84168266
 21
-77.49067673999999
 31
0.0
  0
LINE
  5
4B
330
137
100
AcDbEntity
  8
0
  6
Continuous
 62
     7
100
AcDbLine
 10
22.34168266
 20
-71.49067674
 30
0.0
 11
12.84168266
 21
-71.49067674
 31
0.0
  0
LINE
  5
4C
330
137
100
AcDbEntity
  8
0
  6
Continuous
 62
     7
100
AcDbLine
 10
22.34168266
 20
-94.49067674
 30
0.0
 11
12.84168266
 21
-94.49067674
 31
0.0
  0
LINE
  5
4D
330
137
100
AcDbEntity
  8
0
  6
Continuous
 62
     7
100
AcDbLine
 10
23.34168266
 20
-93.49067674
 30
0.0
 11
23.34168266
 21
-72.49067673999999
 31
0.0
  0
LINE
  5
4E
330
137
100
AcDbEntity
  8
0
  6
Continuous
 62
     2
100
AcDbLine
 10
-9.658317339999999
 20
-87.99067673999999
 30
0.0
 11
-9.658317339999999
 21
-95.99067674
 31
0.0
  0
LINE
  5
4F
330
137
100
AcDbEntity
  8
0
  6
Continuous
 62
     2
100
AcDbLine
 10
8.34168266
 20
-69.99067673999999
 30
0.0
 11
8.34168266
 21
-77.99067903
 31
0.0
  0
LINE
  5
50
330
137
100
AcDbEntity
  8
0
  6
Continuous
 62
     2
100
AcDbLine
 10
-13.65831734
 20
-91.99067674
 30
0.0
 11
-5.658317339999999
 21
-91.99067674
 31
0.0
  0
LINE
  5
51
330
137
100
AcDbEntity
  8
0
  6
Continuous
 62
     2
100
AcDbLine
 10
4.34168266
 20
-73.99067674
 30
0.0
 11
12.34168266
 21
-73.99067674
 31
0.0
  0
LINE
  5
52
330
137
100
AcDbEntity
  8
0
  6
Continuous
 62
     7
100
AcDbLine
 10
12.84168266
 20
-69.49067674
 30
0.0
 11
12.84168266
 21
-96.49067674000001
 31
0.0
  0
LINE
  5
53
330
137
100
AcDbEntity
  8
0
  6
Continuous
 62
     7
100
AcDbLine
 10
-14.15831734
 20
-69.49067674
 30
0.0
 11
-14.15831734
 21
-96.49067674000001
 31
0.0
  0
LINE
  5
54
330
137
100
AcDbEntity
  8
0
  6
Continuous
 62
     7
100
AcDbLine
 10
-14.15831734
 20
-96.49067674000001
 30
0.0
 11
12.84168266
 21
-96.49067674000001
 31
0.0
  0
LINE
  5
55
330
137
100
AcDbEntity
  8
0
  6
Continuous
 62
     7
100
AcDbLine
 10
-14.15831734
 20
-69.49067674
 30
0.0
 11
12.84168266
 21
-69.49067674
 31
0.0
  0
LINE
  5
56
330
137
100
AcDbEntity
  8
0
  6
Continuous
 62
     7
100
AcDbLine
 10
-13.65831734
 20
-100.99067674
 30
0.0
 11
-13.65831734
 21
-96.49067674000001
 31
0.0
  0
LINE
  5
57
330
137
100
AcDbEntity
  8
0
  6
Continuous
 62
     7
100
AcDbLine
 10
12.34168266
 20
-100.99067674
 30
0.0
 11
12.34168266
 21
-96.49067674000001
 31
0.0
  0
LINE
  5
58
330
137
100
AcDbEntity
  8
0
  6
Continuous
 62
     2
100
AcDbLine
 10
-0.65831734
 20
-58.05067674
 30
0.0
 11
-0.65831734
 21
-107.91067674
 31
0.0
  0
ARC
  5
59
330
137
100
AcDbEntity
  8
0
  6
Continuous
 62
     7
100
AcDbCircle
 10
-0.64333097
 20
-63.98570763
 30
0.0
 40
2.24501913
100
AcDbArc
 50
269.61752573
 51
359.8731818
  0
ARC
  5
5A
330
137
100
AcDbEntity
  8
0
  6
Continuous
 62
     7
100
AcDbCircle
 10
-0.64831734
 20
-62.99067673999999
 30
0.0
 40
2.25
100
AcDbArc
 50
0.0
 51
180.0
  0
ARC
  5
5B
330
137
100
AcDbEntity
  8
0
  6
Continuous
 62
     7
100
AcDbCircle
 10
-0.6533220800000001
 20
-63.98568147
 30
0.0
 40
2.24500082
100
AcDbArc
 50
180.12748668
 51
269.87251332
  0
LINE
  5
5C
330
137
100
AcDbEntity
  8
0
  6
Continuous
 62
     7
100
AcDbLine
 10
-12.13831734
 20
-67.99067673999999
 30
0.0
 11
10.76168266
 21
-67.99067673999999
 31
0.0
  0
LINE
  5
5D
330
137
100
AcDbEntity
  8
0
  6
Continuous
 62
     7
100
AcDbLine
 10
1.601682659999999
 20
-62.99067673999999
 30
0.0
 11
1.601682659999999
 21
-63.99067674
 31
0.0
  0
LINE
  5
5E
330
137
100
AcDbEntity
  8
0
  6
Continuous
 62
     7
100
AcDbLine
 10
-2.89831734
 20
-62.99067673999999
 30
0.0
 11
-2.89831734
 21
-63.99067674
 31
0.0
  0
LINE
  5
5F
330
137
100
AcDbEntity
  8
0
  6
Continuous
 62
     2
100
AcDbLine
 10
-4.47831734
 20
-62.99067673999999
 30
0.0
 11
3.04168266
 21
-62.99067673999999
 31
0.0
  0
LINE
  5
60
330
137
100
AcDbEntity
  8
0
  6
Continuous
 62
     2
100
AcDbLine
 10
-4.47831734
 20
-63.99067674
 30
0.0
 11
3.181682659999999
 21
-63.99067674
 31
0.0
  0
LINE
  5
61
330
137
100
AcDbEntity
  8
0
  6
Continuous
 62
     7
100
AcDbLine
 10
6.34168266
 20
-58.99067674
 30
0.0
 11
12.34168266
 21
-64.99067673999999
 31
0.0
  0
LINE
  5
62
330
137
100
AcDbEntity
  8
0
  6
Continuous
 62
     7
100
AcDbLine
 10
-13.65831734
 20
-64.99067673999999
 30
0.0
 11
-7.658317339999999
 21
-58.99067674
 31
0.0
  0
LINE
  5
63
330
137
100
AcDbEntity
  8
0
  6
Continuous
 62
     7
100
AcDbLine
 10
-7.658317339999999
 20
-58.99067674
 30
0.0
 11
6.34168266
 21
-58.99067674
 31
0.0
  0
ARC
  5
64
330
137
100
AcDbEntity
  8
0
  6
Continuous
 62
     7
100
AcDbCircle
 10
-0.65331977
 20
-101.98567917
 30
0.0
 40
2.255007969999999
100
AcDbArc
 50
359.8730205
 51
90.12697950000001
  0
ARC
  5
65
330
137
100
AcDbEntity
  8
0
  6
Continuous
 62
     7
100
AcDbCircle
 10
-0.64831734
 20
-102.99067674
 30
0.0
 40
2.25
100
AcDbArc
 50
180.0
 51
0.0
  0
ARC
  5
66
330
137
100
AcDbEntity
  8
0
  6
Continuous
 62
     7
100
AcDbCircle
 10
-0.64333336
 20
-101.98561661
 30
0.0
 40
2.25498966
100
AcDbArc
 50
90.38072247
 51
180.12856999
  0
LINE
  5
67
330
137
100
AcDbEntity
  8
0
  6
Continuous
 62
     7
100
AcDbLine
 10
-12.05831734
 20
-97.99067673999999
 30
0.0
 11
10.62168266
 21
-97.99067673999999
 31
0.0
  0
LINE
  5
68
330
137
100
AcDbEntity
  8
0
  6
Continuous
 62
     7
100
AcDbLine
 10
1.601682659999999
 20
-102.99067674
 30
0.0
 11
1.601682659999999
 21
-101.99067674
 31
0.0
  0
LINE
  5
69
330
137
100
AcDbEntity
  8
0
  6
Continuous
 62
     7
100
AcDbLine
 10
-2.89831734
 20
-102.99067674
 30
0.0
 11
-2.89831734
 21
-101.99067674
 31
0.0
  0
LINE
  5
6A
330
137
100
AcDbEntity
  8
0
  6
Continuous
 62
     2
100
AcDbLine
 10
-4.47831734
 20
-102.99067674
 30
0.0
 11
3.04168266
 21
-102.99067674
 31
0.0
  0
LINE
  5
6B
330
137
100
AcDbEntity
  8
0
  6
Continuous
 62
     2
100
AcDbLine
 10
-4.47831734
 20
-101.99067674
 30
0.0
 11
3.181682659999999
 21
-101.99067674
 31
0.0
  0
LINE
  5
6C
330
137
100
AcDbEntity
  8
0
  6
Continuous
 62
     7
100
AcDbLine
 10
12.34168266
 20
-100.99067674
 30
0.0
 11
6.34168266
 21
-106.99067674
 31
0.0
  0
LINE
  5
6D
330
137
100
AcDbEntity
  8
0
  6
Continuous
 62
     7
100
AcDbLine
 10
-7.658317339999999
 20
-106.99067674
 30
0.0
 11
-13.65831734
 21
-100.99067674
 31
0.0
  0
LINE
  5
6E
330
137
100
AcDbEntity
  8
0
  6
Continuous
 62
     7
100
AcDbLine
 10
-7.658317339999999
 20
-106.99067674
 30
0.0
 11
6.34168266
 21
-106.99067674
 31
0.0
  0
CIRCLE
  5
6F
330
137
100
AcDbEntity
  8
0
  6
Continuous
 62
     7
100
AcDbCircle
 10
-143.65831734
 20
19.01331505
 30
0.0
 40
3.25
  0
CIRCLE
  5
70
330
137
100
AcDbEntity
  8
0
  6
Continuous
 62
     7
100
AcDbCircle
 10
-161.65831734
 20
39.01331505
 30
0.0
 40
3.25
  0
CIRCLE
  5
71
330
137
100
AcDbEntity
  8
0
  6
Continuous
 62
     7
100
AcDbCircle
 10
-143.65831734
 20
19.01331505
 30
0.0
 40
1.75
  0
CIRCLE
  5
72
330
137
100
AcDbEntity
  8
0
  6
Continuous
 62
     7
100
AcDbCircle
 10
-161.65831734
 20
39.01331505
 30
0.0
 40
1.75
  0
LINE
  5
73
330
137
100
AcDbEntity
  8
0
  6
Continuous
 62
     7
100
AcDbLine
 10
-163.66209664
 20
88.00773642999999
 30
0.0
 11
-158.66209664
 21
88.00773642999999
 31
0.0
  0
LINE
  5
74
330
137
100
AcDbEntity
  8
0
  6
Continuous
 62
     7
100
AcDbLine
 10
-158.66209664
 20
88.00773642999999
 30
0.0
 11
-158.66209664
 21
85.00773643
 31
0.0
  0
LINE
  5
75
330
137
100
AcDbEntity
  8
0
  6
Continuous
 62
     7
100
AcDbLine
 10
-163.66209664
 20
88.00773642999999
 30
0.0
 11
-163.66209664
 21
85.00773643
 31
0.0
  0
LINE
  5
76
330
137
100
AcDbEntity
  8
0
  6
Continuous
 62
     7
100
AcDbLine
 10
-139.16209664
 20
90.30773643000001
 30
0.0
 11
-139.16209664
 21
14.00773643
 31
0.0
  0
LINE
  5
77
330
137
100
AcDbEntity
  8
0
  6
Continuous
 62
     7
100
AcDbLine
 10
-166.16209664
 20
90.30773643000001
 30
0.0
 11
-166.16209664
 21
14.00773643
 31
0.0
  0
LINE
  5
78
330
137
100
AcDbEntity
  8
0
  6
Continuous
 62
     2
100
AcDbLine
 10
-143.66209664
 20
24.00773643
 30
0.0
 11
-143.66209664
 21
14.00773643
 31
0.0
  0
LINE
  5
79
330
137
100
AcDbEntity
  8
0
  6
Continuous
 62
     2
100
AcDbLine
 10
-161.66209664
 20
44.00773642999999
 30
0.0
 11
-161.66209664
 21
34.00773643
 31
0.0
  0
LINE
  5
7A
330
137
100
AcDbEntity
  8
0
  6
Continuous
 62
     2
100
AcDbLine
 10
-158.66209664
 20
34.00773643
 30
0.0
 11
-146.66209664
 21
34.00773643
 31
0.0
  0
LINE
  5
7B
330
137
100
AcDbEntity
  8
0
  6
Continuous
 62
     2
100
AcDbLine
 10
-156.66209664
 20
39.00773643
 30
0.0
 11
-166.66209664
 21
39.00773643
 31
0.0
  0
LINE
  5
7C
330
137
100
AcDbEntity
  8
0
  6
Continuous
 62
     2
100
AcDbLine
 10
-138.66209664
 20
19.00773643
 30
0.0
 11
-148.66209664
 21
19.00773643
 31
0.0
  0
LINE
  5
7D
330
137
100
AcDbEntity
  8
0
  6
Continuous
 62
     2
100
AcDbLine
 10
-152.66209664
 20
92.34773643
 30
0.0
 11
-152.66209664
 21
9.01172116
 31
0.0
  0
LINE
  5
7E
330
137
100
AcDbEntity
  8
0
  6
Continuous
 62
     7
100
AcDbLine
 10
-144.66209664
 20
88.10773643
 30
0.0
 11
-144.66209664
 21
87.30773643
 31
0.0
  0
LINE
  5
7F
330
137
100
AcDbEntity
  8
0
  6
Continuous
 62
     7
100
AcDbLine
 10
-139.66209664
 20
88.10773643
 30
0.0
 11
-139.66209664
 21
87.30773643
 31
0.0
  0
LINE
  5
80
330
137
100
AcDbEntity
  8
0
  6
Continuous
 62
     7
100
AcDbLine
 10
-144.66209664
 20
88.10773643
 30
0.0
 11
-139.66209664
 21
88.10773643
 31
0.0
  0
LINE
  5
81
330
137
100
AcDbEntity
  8
0
  6
Continuous
 62
     7
100
AcDbLine
 10
-145.66209664
 20
90.30773643000001
 30
0.0
 11
-145.66209664
 21
87.30773643
 31
0.0
  0
LINE
  5
82
330
137
100
AcDbEntity
  8
0
  6
Continuous
 62
     7
100
AcDbLine
 10
-145.66209664
 20
87.30773643
 30
0.0
 11
-139.16209664
 21
87.30773643
 31
0.0
  0
LINE
  5
83
330
137
100
AcDbEntity
  8
0
  6
Continuous
 62
     2
100
AcDbLine
 10
-142.16209664
 20
91.83773643
 30
0.0
 11
-142.16209664
 21
86.77773643
 31
0.0
  0
LINE
  5
84
330
137
100
AcDbEntity
  8
0
  6
Continuous
 62
     7
100
AcDbLine
 10
-166.16209664
 20
85.00773643
 30
0.0
 11
-139.16209664
 21
85.00773643
 31
0.0
  0
LINE
  5
85
330
137
100
AcDbEntity
  8
0
  6
Continuous
 62
     7
100
AcDbLine
 10
-166.16209664
 20
90.30773643000001
 30
0.0
 11
-139.16209664
 21
90.30773643000001
 31
0.0
  0
LINE
  5
86
330
137
100
AcDbEntity
  8
0
  6
Continuous
 62
     7
100
AcDbLine
 10
-166.16209664
 20
14.00773643
 30
0.0
 11
-139.16209664
 21
14.00773643
 31
0.0
  0
LINE
  5
87
330
137
100
AcDbEntity
  8
0
  6
Continuous
 62
     7
100
AcDbLine
 10
-166.16209664
 20
48.00773643
 30
0.0
 11
-139.16209664
 21
48.00773643
 31
0.0
  0
ARC
  5
88
330
137
100
AcDbEntity
  8
0
  6
Continuous
 62
     7
100
AcDbCircle
 10
11.84599683
 20
89.33475568
 30
0.0
 40
0.9956968599999999
100
AcDbArc
 50
359.73042697
 51
90.26957303000001
  0
ARC
  5
89
330
137
100
AcDbEntity
  8
0
  6
Continuous
 62
     7
100
AcDbCircle
 10
-13.1638473
 20
89.33597147
 30
0.0
 40
0.99448755
100
AcDbArc
 50
89.66005272
 51
180.33994728
  0
LINE
  5
8A
330
137
100
AcDbEntity
  8
0
  6
Continuous
 62
     2
100
AcDbLine
 10
15.39262746
 20
29.00772937
 30
0.0
 11
10.3507601
 21
29.00772937
 31
0.0
  0
LINE
  5
8B
330
137
100
AcDbEntity
  8
0
  6
Continuous
 62
     2
100
AcDbLine
 10
-11.6974059
 20
34.00958191
 30
0.0
 11
-16.6292325
 21
34.00958191
 31
0.0
  0
LINE
  5
8C
330
137
100
AcDbEntity
  8
0
  6
Continuous
 62
     7
100
AcDbLine
 10
-13.65813209
 20
88.1296264
 30
0.0
 11
-13.65813209
 21
87.32932999
 31
0.0
  0
LINE
  5
8D
330
137
100
AcDbEntity
  8
0
  6
Continuous
 62
     7
100
AcDbLine
 10
-8.65627955
 20
88.1296264
 30
0.0
 11
-8.65627955
 21
87.32932999
 31
0.0
  0
LINE
  5
8E
330
137
100
AcDbEntity
  8
0
  6
Continuous
 62
     7
100
AcDbLine
 10
-13.65813209
 20
88.1296264
 30
0.0
 11
-8.65627955
 21
88.1296264
 31
0.0
  0
LINE
  5
8F
330
137
100
AcDbEntity
  8
0
  6
Continuous
 62
     7
100
AcDbLine
 10
-14.15831735
 20
85.02847782000001
 30
0.0
 11
12.84168266
 21
85.02847782000001
 31
0.0
  0
LINE
  5
90
330
137
100
AcDbEntity
  8
0
  6
Continuous
 62
     7
100
AcDbLine
 10
-13.15794684
 20
90.33044151
 30
0.0
 11
11.84131215
 21
90.33044151
 31
0.0
  0
LINE
  5
91
330
137
100
AcDbEntity
  8
0
  6
Continuous
 62
     7
100
AcDbLine
 10
-14.15831735
 20
14.00217175
 30
0.0
 11
12.84168266
 21
14.00217175
 31
0.0
  0
LINE
  5
92
330
137
100
AcDbEntity
  8
0
  6
Continuous
 62
     7
100
AcDbLine
 10
-14.15831735
 20
48.01476903
 30
0.0
 11
12.84168266
 21
48.01476903
 31
0.0
  0
LINE
  5
93
330
137
100
AcDbEntity
  8
0
  6
Continuous
 62
     2
100
AcDbLine
 10
-11.15720582
 20
91.86100838999999
 30
0.0
 11
-11.15720582
 21
86.38898170999999
 31
0.0
  0
LINE
  5
94
330
137
100
AcDbEntity
  8
0
  6
Continuous
 62
     7
100
AcDbLine
 10
-7.655909049999999
 20
90.33044151
 30
0.0
 11
-7.655909049999999
 21
87.32932999
 31
0.0
  0
LINE
  5
95
330
137
100
AcDbEntity
  8
0
  6
Continuous
 62
     7
100
AcDbLine
 10
-14.15831735
 20
87.32932999
 30
0.0
 11
-7.655909049999999
 21
87.32932999
 31
0.0
  0
LINE
  5
96
330
137
100
AcDbEntity
  8
0
  6
Continuous
 62
     7
100
AcDbLine
 10
-14.15831735
 20
89.33007100999999
 30
0.0
 11
-14.15831735
 21
14.00217175
 31
0.0
  0
LINE
  5
97
330
137
100
AcDbEntity
  8
0
  6
Continuous
 62
     7
100
AcDbLine
 10
12.84168266
 20
89.33007100999999
 30
0.0
 11
12.84168266
 21
14.00217175
 31
0.0
  0
CIRCLE
  5
98
330
137
100
AcDbEntity
  8
0
  6
Continuous
 62
     7
100
AcDbCircle
 10
152.43403234
 20
19.2455835
 30
0.0
 40
2.0
  0
CIRCLE
  5
99
330
137
100
AcDbEntity
  8
0
  6
Continuous
 62
     7
100
AcDbCircle
 10
170.43403235
 20
39.24558351
 30
0.0
 40
2.0
  0
LINE
  5
9A
330
137
100
AcDbEntity
  8
0
  6
Continuous
 62
     2
100
AcDbLine
 10
167.44023779
 20
39.24000489
 30
0.0
 11
173.44023779
 21
39.24000489
 31
0.0
  0
LINE
  5
9B
330
137
100
AcDbEntity
  8
0
  6
Continuous
 62
     2
100
AcDbLine
 10
170.44023779
 20
42.24000489
 30
0.0
 11
170.44023779
 21
36.24000489
 31
0.0
  0
LINE
  5
9C
330
137
100
AcDbEntity
  8
0
  6
Continuous
 62
     2
100
AcDbLine
 10
149.43403234
 20
19.24000488
 30
0.0
 11
155.43403234
 21
19.24000488
 31
0.0
  0
LINE
  5
9D
330
137
100
AcDbEntity
  8
0
  6
Continuous
 62
     2
100
AcDbLine
 10
157.44023779
 20
39.24000489
 30
0.0
 11
165.44023779
 21
39.24000489
 31
0.0
  0
LINE
  5
9E
330
137
100
AcDbEntity
  8
0
  6
Continuous
 62
     2
100
AcDbLine
 10
155.44023779
 20
29.24000489
 30
0.0
 11
167.44023779
 21
29.24000489
 31
0.0
  0
LINE
  5
9F
330
137
100
AcDbEntity
  8
0
  6
Continuous
 62
     7
100
AcDbLine
 10
174.44023779
 20
88.34000491999999
 30
0.0
 11
174.44023779
 21
87.54000492000001
 31
0.0
  0
LINE
  5
A0
330
137
100
AcDbEntity
  8
0
  6
Continuous
 62
     7
100
AcDbLine
 10
169.44023779
 20
88.34000491999999
 30
0.0
 11
169.44023779
 21
87.54000492000001
 31
0.0
  0
LINE
  5
A1
330
137
100
AcDbEntity
  8
0
  6
Continuous
 62
     7
100
AcDbLine
 10
169.44023779
 20
88.34000491999999
 30
0.0
 11
174.44023779
 21
88.34000491999999
 31
0.0
  0
LINE
  5
A2
330
137
100
AcDbEntity
  8
0
  6
Continuous
 62
     2
100
AcDbLine
 10
171.94023779
 20
92.07000492
 30
0.0
 11
171.94023779
 21
87.01000492
 31
0.0
  0
LINE
  5
A3
330
137
100
AcDbEntity
  8
0
  6
Continuous
 62
     7
100
AcDbLine
 10
168.44023779
 20
87.54000492000001
 30
0.0
 11
174.94023779
 21
87.54000492000001
 31
0.0
  0
LINE
  5
A4
330
137
100
AcDbEntity
  8
0
  6
Continuous
 62
     7
100
AcDbLine
 10
168.44023779
 20
90.54000492
 30
0.0
 11
168.44023779
 21
87.54000492000001
 31
0.0
  0
LINE
  5
A5
330
137
100
AcDbEntity
  8
0
  6
Continuous
 62
     7
100
AcDbLine
 10
147.94023778
 20
90.54000492
 30
0.0
 11
147.94023778
 21
14.24000488
 31
0.0
  0
LINE
  5
A6
330
137
100
AcDbEntity
  8
0
  6
Continuous
 62
     7
100
AcDbLine
 10
174.94023779
 20
90.54000492
 30
0.0
 11
174.94023779
 21
14.24000488
 31
0.0
  0
LINE
  5
A7
330
137
100
AcDbEntity
  8
0
  6
Continuous
 62
     2
100
AcDbLine
 10
161.44023779
 20
92.46000492
 30
0.0
 11
161.44023779
 21
8.077932089999999
 31
0.0
  0
LINE
  5
A8
330
137
100
AcDbEntity
  8
0
  6
Continuous
 62
     7
100
AcDbLine
 10
147.94023778
 20
14.24000488
 30
0.0
 11
174.94023779
 21
14.24000488
 31
0.0
  0
LINE
  5
A9
330
137
100
AcDbEntity
  8
0
  6
Continuous
 62
     7
100
AcDbLine
 10
147.94023778
 20
90.54000492
 30
0.0
 11
174.94023779
 21
90.54000492
 31
0.0
  0
LINE
  5
AA
330
137
100
AcDbEntity
  8
0
  6
Continuous
 62
     7
100
AcDbLine
 10
147.94023778
 20
85.24000492
 30
0.0
 11
174.94023779
 21
85.24000492
 31
0.0
  0
LINE
  5
AB
330
137
100
AcDbEntity
  8
0
  6
Continuous
 62
     7
100
AcDbLine
 10
147.94023778
 20
48.2400049
 30
0.0
 11
174.94023779
 21
48.2400049
 31
0.0
  0
LINE
  5
AC
330
137
100
AcDbEntity
  8
0
  6
Continuous
 62
     2
100
AcDbLine
 10
152.43403234
 20
22.24000488
 30
0.0
 11
152.43403234
 21
16.24000488
 31
0.0
  0
ARC
  5
AD
330
137
100
AcDbEntity
  8
0
  6
Continuous
 62
     7
100
AcDbCircle
 10
149.49839404
 20
11.08924919
 30
0.0
 40
3.00193067
100
AcDbArc
 50
90.19460432
 51
180.0897414
  0
ARC
  5
AE
330
137
100
AcDbEntity
  8
0
  6
Continuous
 62
     7
100
AcDbCircle
 10
173.48961642
 20
11.07769657
 30
0.0
 40
3.01347376
100
AcDbArc
 50
0.13025467
 51
89.86974532999999
  0
LINE
  5
AF
330
137
100
AcDbEntity
  8
0
  6
Continuous
 62
     7
100
AcDbLine
 10
137.4915056
 20
8.077932089999999
 30
0.0
 11
145.48433915
 21
8.077932089999999
 31
0.0
  0
LINE
  5
B0
330
137
100
AcDbEntity
  8
0
  6
Continuous
 62
     7
100
AcDbLine
 10
149.48819804
 20
12.08179098
 30
0.0
 11
173.49646716
 21
12.08179098
 31
0.0
  0
LINE
  5
B1
330
137
100
AcDbEntity
  8
0
  6
Continuous
 62
     7
100
AcDbLine
 10
137.4915056
 20
10.08730365
 30
0.0
 11
145.48433915
 21
10.08730365
 31
0.0
  0
LINE
  5
B2
330
137
100
AcDbEntity
  8
0
  6
Continuous
 62
     7
100
AcDbLine
 10
185.49315961
 20
10.08730365
 30
0.0
 11
185.49315961
 21
8.077932089999999
 31
0.0
  0
LINE
  5
B3
330
137
100
AcDbEntity
  8
0
  6
Continuous
 62
     7
100
AcDbLine
 10
177.50032606
 20
10.08730365
 30
0.0
 11
185.49315961
 21
10.08730365
 31
0.0
  0
LINE
  5
B4
330
137
100
AcDbEntity
  8
0
  6
Continuous
 62
     7
100
AcDbLine
 10
177.50032606
 20
8.077932089999999
 30
0.0
 11
185.49315961
 21
8.077932089999999
 31
0.0
  0
LINE
  5
B5
330
137
100
AcDbEntity
  8
0
  6
Continuous
 62
     7
100
AcDbLine
 10
137.4915056
 20
10.08730365
 30
0.0
 11
137.4915056
 21
8.077932089999999
 31
0.0
  0
ARC
  5
B6
330
137
100
AcDbEntity
  8
0
  6
Continuous
 62
     7
100
AcDbCircle
 10
177.49198981
 20
11.07621107
 30
0.0
 40
0.98894256
100
AcDbArc
 50
179.51702226
 51
270.48297774
  0
ARC
  5
B7
330
137
100
AcDbEntity
  8
0
  6
Continuous
 62
     7
100
AcDbCircle
 10
177.49198979
 20
11.07621106
 30
0.0
 40
2.99829056
100
AcDbArc
 50
179.84069816
 51
270.15930184
  0
ARC
  5
B8
330
137
100
AcDbEntity
  8
0
  6
Continuous
 62
     7
100
AcDbCircle
 10
173.48961589
 20
11.07769604
 30
0.0
 40
1.004118309999999
100
AcDbArc
 50
0.39094202
 51
89.60905798
  0
ARC
  5
B9
330
137
100
AcDbEntity
  8
0
  6
Continuous
 62
     7
100
AcDbCircle
 10
145.48857395
 20
11.08031251
 30
0.0
 40
3.00238341
100
AcDbArc
 50
269.91918542
 51
0.08081458
  0
ARC
  5
BA
330
137
100
AcDbEntity
  8
0
  6
Continuous
 62
     7
100
AcDbCircle
 10
149.49096393
 20
11.08178144
 30
0.0
 40
1.00001337
100
AcDbArc
 50
90.15847141000001
 51
179.84152859
  0
ARC
  5
BB
330
137
100
AcDbEntity
  8
0
  6
Continuous
 62
     7
100
AcDbCircle
 10
145.49600726
 20
11.08770037
 30
0.0
 40
1.00046476
100
AcDbArc
 50
269.33176226
 51
359.8194269
  0
ARC
  5
BC
330
137
100
AcDbEntity
  8
0
  6
Continuous
 62
     7
100
AcDbCircle
 10
-140.60229287
 20
10.85587241
 30
0.0
 40
3.00304298
100
AcDbArc
 50
359.93143794
 51
89.78421635
  0
ARC
  5
BD
330
137
100
AcDbEntity
  8
0
  6
Continuous
 62
     7
100
AcDbCircle
 10
-164.59353629
 20
10.84656301
 30
0.0
 40
3.012336509999999
100
AcDbArc
 50
90.1087178
 51
179.8912822
  0
LINE
  5
BE
330
137
100
AcDbEntity
  8
0
  6
Continuous
 62
     7
100
AcDbLine
 10
-164.59925215
 20
11.84952253
 30
0.0
 11
-140.59098303
 21
11.84952253
 31
0.0
  0
LINE
  5
BF
330
137
100
AcDbEntity
  8
0
  6
Continuous
 62
     7
100
AcDbLine
 10
-176.61082882
 20
7.845663639999999
 30
0.0
 11
-168.60311104
 21
7.845663639999999
 31
0.0
  0
LINE
  5
C0
330
137
100
AcDbEntity
  8
0
  6
Continuous
 62
     7
100
AcDbLine
 10
-176.61082882
 20
9.855035199999999
 30
0.0
 11
-168.60311104
 21
9.855035199999999
 31
0.0
  0
LINE
  5
C1
330
137
100
AcDbEntity
  8
0
  6
Continuous
 62
     7
100
AcDbLine
 10
-176.61082882
 20
9.855035199999999
 30
0.0
 11
-176.61082882
 21
7.845663639999999
 31
0.0
  0
LINE
  5
C2
330
137
100
AcDbEntity
  8
0
  6
Continuous
 62
     7
100
AcDbLine
 10
-136.60200837
 20
7.845663639999999
 30
0.0
 11
-128.59429059
 21
7.845663639999999
 31
0.0
  0
LINE
  5
C3
330
137
100
AcDbEntity
  8
0
  6
Continuous
 62
     7
100
AcDbLine
 10
-128.59429059
 20
9.855035199999999
 30
0.0
 11
-128.59429059
 21
7.845663639999999
 31
0.0
  0
LINE
  5
C4
330
137
100
AcDbEntity
  8
0
  6
Continuous
 62
     7
100
AcDbLine
 10
-136.60200837
 20
9.855035199999999
 30
0.0
 11
-128.59429059
 21
9.855035199999999
 31
0.0
  0
ARC
  5
C5
330
137
100
AcDbEntity
  8
0
  6
Continuous
 62
     7
100
AcDbCircle
 10
-168.59591048
 20
10.84507831
 30
0.0
 40
2.99942331
100
AcDbArc
 50
269.86245292
 51
0.13754708
  0
ARC
  5
C6
330
137
100
AcDbEntity
  8
0
  6
Continuous
 62
     7
100
AcDbCircle
 10
-168.59591076
 20
10.84507859
 30
0.0
 40
0.9900695699999999
100
AcDbArc
 50
269.58331272
 51
0.4166872800000001
  0
ARC
  5
C7
330
137
100
AcDbEntity
  8
0
  6
Continuous
 62
     7
100
AcDbCircle
 10
-164.59353437
 20
10.84656109
 30
0.0
 40
1.002977739999999
100
AcDbArc
 50
90.32663336999998
 51
179.67336663
  0
ARC
  5
C8
330
137
100
AcDbEntity
  8
0
  6
Continuous
 62
     7
100
AcDbCircle
 10
-140.59485642
 20
10.84840548
 30
0.0
 40
1.001124549999999
100
AcDbArc
 50
0.22168025
 51
89.77831974999999
  0
ARC
  5
C9
330
137
100
AcDbEntity
  8
0
  6
Continuous
 62
     7
100
AcDbCircle
 10
-136.59247242
 20
10.84692022
 30
0.0
 40
3.00127173
100
AcDbArc
 50
179.89770073
 51
269.81795356
  0
ARC
  5
CA
330
137
100
AcDbEntity
  8
0
  6
Continuous
 62
     7
100
AcDbCircle
 10
-136.59987573
 20
10.85441151
 30
0.0
 40
0.9993785799999999
100
AcDbArc
 50
180.12226733
 51
269.87773267
  0
LINE
  5
CB
330
137
100
AcDbEntity
  8
0
  6
Continuous
 62
     7
100
AcDbLine
 10
-14.15831735
 20
14.00217175
 30
0.0
 11
-14.15831735
 21
7.43460418
 31
0.0
  0
LINE
  5
CC
330
137
100
AcDbEntity
  8
0
  6
Continuous
 62
     7
100
AcDbLine
 10
12.84168266
 20
14.00217175
 30
0.0
 11
12.84168266
 21
7.43460418
 31
0.0
  0
LINE
  5
CD
330
137
100
AcDbEntity
  8
0
  6
Continuous
 62
     7
100
AcDbLine
 10
-14.15831735
 20
7.43460418
 30
0.0
 11
12.84168266
 21
7.43460418
 31
0.0
  0
LINE
  5
CE
330
137
100
AcDbEntity
  8
0
  6
Continuous
 62
     7
100
AcDbLine
 10
-14.15831735
 20
8.89406364
 30
0.0
 11
12.84168266
 21
8.89406364
 31
0.0
  0
LINE
  5
CF
330
137
100
AcDbEntity
  8
0
  6
Continuous
 62
     7
100
AcDbLine
 10
-14.15831735
 20
11.81298256
 30
0.0
 11
12.84168266
 21
11.81298256
 31
0.0
  0
LINE
  5
D0
330
137
100
AcDbEntity
  8
0
  6
Continuous
 62
     7
100
AcDbLine
 10
150.94023778
 20
51.7400049
 30
0.0
 11
171.94023779
 21
51.7400049
 31
0.0
  0
LINE
  5
D1
330
137
100
AcDbEntity
  8
0
  6
Continuous
 62
     7
100
AcDbLine
 10
150.94023778
 20
82.24000492
 30
0.0
 11
171.94023779
 21
82.24000492
 31
0.0
  0
LINE
  5
D2
330
137
100
AcDbEntity
  8
0
  6
Continuous
 62
     7
100
AcDbLine
 10
159.44023779
 20
77.24000492
 30
0.0
 11
163.44023779
 21
77.24000492
 31
0.0
  0
LINE
  5
D3
330
137
100
AcDbEntity
  8
0
  6
Continuous
 62
     2
100
AcDbLine
 10
154.94023779
 20
73.74000492
 30
0.0
 11
167.94023779
 21
73.74000492
 31
0.0
  0
LINE
  5
D4
330
137
100
AcDbEntity
  8
0
  6
Continuous
 62
     7
100
AcDbLine
 10
159.44023779
 20
70.24000492
 30
0.0
 11
163.44023779
 21
70.24000492
 31
0.0
  0
CIRCLE
  5
D5
330
137
100
AcDbEntity
  8
0
  6
Continuous
 62
     7
100
AcDbCircle
 10
159.44023779
 20
73.74000492
 30
0.0
 40
1.199999999999999
  0
LINE
  5
D6
330
137
100
AcDbEntity
  8
0
  6
Continuous
 62
     7
100
AcDbLine
 10
150.44023778
 20
82.74000492
 30
0.0
 11
172.44023779
 21
82.74000492
 31
0.0
  0
LINE
  5
D7
330
137
100
AcDbEntity
  8
0
  6
Continuous
 62
     7
100
AcDbLine
 10
150.44023778
 20
51.2400049
 30
0.0
 11
172.44023779
 21
51.2400049
 31
0.0
  0
LINE
  5
D8
330
137
100
AcDbEntity
  8
0
  6
Continuous
 62
     7
100
AcDbLine
 10
153.94023779
 20
63.7400049
 30
0.0
 11
168.94023779
 21
63.7400049
 31
0.0
  0
LINE
  5
D9
330
137
100
AcDbEntity
  8
0
  6
Continuous
 62
     7
100
AcDbLine
 10
153.94023779
 20
55.7400049
 30
0.0
 11
168.94023779
 21
55.7400049
 31
0.0
  0
ARC
  5
DA
330
137
100
AcDbEntity
  8
0
  6
Continuous
 62
     7
100
AcDbCircle
 10
153.94023779
 20
56.2400049
 30
0.0
 40
0.5
100
AcDbArc
 50
180.0
 51
270.0
  0
ARC
  5
DB
330
137
100
AcDbEntity
  8
0
  6
Continuous
 62
     7
100
AcDbCircle
 10
153.94023779
 20
63.2400049
 30
0.0
 40
0.5
100
AcDbArc
 50
90.0
 51
180.0
  0
LINE
  5
DC
330
137
100
AcDbEntity
  8
0
  6
Continuous
 62
     7
100
AcDbLine
 10
153.44023779
 20
63.2400049
 30
0.0
 11
153.44023779
 21
56.2400049
 31
0.0
  0
ARC
  5
DD
330
137
100
AcDbEntity
  8
0
  6
Continuous
 62
     7
100
AcDbCircle
 10
150.44023778
 20
51.7400049
 30
0.0
 40
0.5
100
AcDbArc
 50
180.0
 51
270.0
  0
ARC
  5
DE
330
137
100
AcDbEntity
  8
0
  6
Continuous
 62
     7
100
AcDbCircle
 10
150.44023778
 20
82.24000492
 30
0.0
 40
0.5
100
AcDbArc
 50
90.0
 51
180.0
  0
LINE
  5
DF
330
137
100
AcDbEntity
  8
0
  6
Continuous
 62
     7
100
AcDbLine
 10
149.94023778
 20
82.24000492
 30
0.0
 11
149.94023778
 21
51.7400049
 31
0.0
  0
CIRCLE
  5
E0
330
137
100
AcDbEntity
  8
0
  6
Continuous
 62
     7
100
AcDbCircle
 10
159.44023779
 20
73.74000492
 30
0.0
 40
0.4
  0
LINE
  5
E1
330
137
100
AcDbEntity
  8
0
  6
Continuous
 62
     2
100
AcDbLine
 10
159.44023779
 20
78.24000492
 30
0.0
 11
159.44023779
 21
69.24000492000001
 31
0.0
  0
ARC
  5
E2
330
137
100
AcDbEntity
  8
0
  6
Continuous
 62
     7
100
AcDbCircle
 10
159.44023779
 20
73.74000492
 30
0.0
 40
3.5
100
AcDbArc
 50
90.0
 51
270.0
  0
ARC
  5
E3
330
137
100
AcDbEntity
  8
0
  6
Continuous
 62
     7
100
AcDbCircle
 10
150.94023778
 20
52.2400049
 30
0.0
 40
0.5
100
AcDbArc
 50
180.0
 51
270.0
  0
ARC
  5
E4
330
137
100
AcDbEntity
  8
0
  6
Continuous
 62
     7
100
AcDbCircle
 10
150.94023778
 20
81.74000492000001
 30
0.0
 40
0.5
100
AcDbArc
 50
90.0
 51
180.0
  0
LINE
  5
E5
330
137
100
AcDbEntity
  8
0
  6
Continuous
 62
     7
100
AcDbLine
 10
150.44023778
 20
81.74000492000001
 30
0.0
 11
150.44023778
 21
52.2400049
 31
0.0
  0
LINE
  5
E6
330
137
100
AcDbEntity
  8
0
  6
Continuous
 62
     7
100
AcDbLine
 10
172.44023779
 20
81.74000492000001
 30
0.0
 11
172.44023779
 21
52.2400049
 31
0.0
  0
CIRCLE
  5
E7
330
137
100
AcDbEntity
  8
0
  6
Continuous
 62
     7
100
AcDbCircle
 10
163.44023779
 20
73.74000492
 30
0.0
 40
1.199999999999999
  0
LINE
  5
E8
330
137
100
AcDbEntity
  8
0
  6
Continuous
 62
     7
100
AcDbLine
 10
172.94023779
 20
82.24000492
 30
0.0
 11
172.94023779
 21
51.7400049
 31
0.0
  0
ARC
  5
E9
330
137
100
AcDbEntity
  8
0
  6
Continuous
 62
     7
100
AcDbCircle
 10
172.44023779
 20
82.24000492
 30
0.0
 40
0.5
100
AcDbArc
 50
0.0
 51
90.0
  0
ARC
  5
EA
330
137
100
AcDbEntity
  8
0
  6
Continuous
 62
     7
100
AcDbCircle
 10
163.44023779
 20
73.74000492
 30
0.0
 40
3.5
100
AcDbArc
 50
270.0
 51
90.0
  0
CIRCLE
  5
EB
330
137
100
AcDbEntity
  8
0
  6
Continuous
 62
     7
100
AcDbCircle
 10
163.44023779
 20
73.74000492
 30
0.0
 40
0.4
  0
LINE
  5
EC
330
137
100
AcDbEntity
  8
0
  6
Continuous
 62
     2
100
AcDbLine
 10
163.44023779
 20
78.24000492
 30
0.0
 11
163.44023779
 21
69.24000492000001
 31
0.0
  0
ARC
  5
ED
330
137
100
AcDbEntity
  8
0
  6
Continuous
 62
     7
100
AcDbCircle
 10
171.94023779
 20
81.74000492000001
 30
0.0
 40
0.5
100
AcDbArc
 50
0.0
 51
90.0
  0
LINE
  5
EE
330
137
100
AcDbEntity
  8
0
  6
Continuous
 62
     7
100
AcDbLine
 10
169.44023779
 20
63.2400049
 30
0.0
 11
169.44023779
 21
56.2400049
 31
0.0
  0
ARC
  5
EF
330
137
100
AcDbEntity
  8
0
  6
Continuous
 62
     7
100
AcDbCircle
 10
168.94023779
 20
63.2400049
 30
0.0
 40
0.5
100
AcDbArc
 50
0.0
 51
90.0
  0
ARC
  5
F0
330
137
100
AcDbEntity
  8
0
  6
Continuous
 62
     7
100
AcDbCircle
 10
168.94023779
 20
56.2400049
 30
0.0
 40
0.5
100
AcDbArc
 50
270.0
 51
0.0
  0
ARC
  5
F1
330
137
100
AcDbEntity
  8
0
  6
Continuous
 62
     7
100
AcDbCircle
 10
172.44023779
 20
51.7400049
 30
0.0
 40
0.5
100
AcDbArc
 50
270.0
 51
0.0
  0
ARC
  5
F2
330
137
100
AcDbEntity
  8
0
  6
Continuous
 62
     7
100
AcDbCircle
 10
171.94023779
 20
52.2400049
 30
0.0
 40
0.5
100
AcDbArc
 50
270.0
 51
0.0
  0
LINE
  5
F3
330
137
100
AcDbEntity
  8
0
  6
Continuous
 62
     2
100
AcDbLine
 10
55.36612876
 20
73.74000492
 30
0.0
 11
23.96612876
 21
73.74000492
 31
0.0
  0
LINE
  5
F4
330
137
100
AcDbEntity
  8
0
  6
Continuous
 62
     7
100
AcDbLine
 10
35.87101532
 20
74.74000492
 30
0.0
 11
24.84612876
 21
74.74000492
 31
0.0
  0
LINE
  5
F5
330
137
100
AcDbEntity
  8
0
  6
Continuous
 62
     7
100
AcDbLine
 10
34.42612876
 20
72.74000492
 30
0.0
 11
24.84612876
 21
72.74000492
 31
0.0
  0
LINE
  5
F6
330
137
100
AcDbEntity
  8
0
  6
Continuous
 62
     7
100
AcDbLine
 10
12.84168266
 20
82.74000492
 30
0.0
 11
13.84205316
 21
82.74000492
 31
0.0
  0
LINE
  5
F7
330
137
100
AcDbEntity
  8
0
  6
Continuous
 62
     7
100
AcDbLine
 10
12.84168266
 20
51.2400049
 30
0.0
 11
13.84205317
 21
51.2400049
 31
0.0
  0
ARC
  5
F8
330
137
100
AcDbEntity
  8
0
  6
Continuous
 62
     7
100
AcDbCircle
 10
24.34612876
 20
70.74000492
 30
0.0
 40
0.5
100
AcDbArc
 50
270.0
 51
0.0
  0
ARC
  5
F9
330
137
100
AcDbEntity
  8
0
  6
Continuous
 62
     7
100
AcDbCircle
 10
24.34612876
 20
76.74000492000001
 30
0.0
 40
0.5
100
AcDbArc
 50
0.0
 51
90.0
  0
LINE
  5
FA
330
137
100
AcDbEntity
  8
0
  6
Continuous
 62
     7
100
AcDbLine
 10
23.34557305
 20
70.24000492
 30
0.0
 11
24.34612876
 21
70.24000492
 31
0.0
  0
LINE
  5
FB
330
137
100
AcDbEntity
  8
0
  6
Continuous
 62
     7
100
AcDbLine
 10
23.34557305
 20
77.24000492
 30
0.0
 11
24.34612876
 21
77.24000492
 31
0.0
  0
ARC
  5
FC
330
137
100
AcDbEntity
  8
0
  6
Continuous
 62
     7
100
AcDbCircle
 10
22.845573
 20
52.2400049
 30
0.0
 40
0.5
100
AcDbArc
 50
270.0
 51
0.0
  0
ARC
  5
FD
330
137
100
AcDbEntity
  8
0
  6
Continuous
 62
     7
100
AcDbCircle
 10
22.845573
 20
81.74000492000001
 30
0.0
 40
0.5
100
AcDbArc
 50
0.0
 51
90.0
  0
LINE
  5
FE
330
137
100
AcDbEntity
  8
0
  6
Continuous
 62
     7
100
AcDbLine
 10
13.84205316
 20
51.7400049
 30
0.0
 11
22.845573
 21
51.7400049
 31
0.0
  0
LINE
  5
FF
330
137
100
AcDbEntity
  8
0
  6
Continuous
 62
     7
100
AcDbLine
 10
13.84205316
 20
82.24000492
 30
0.0
 11
22.845573
 21
82.24000492
 31
0.0
  0
LINE
  5
100
330
137
100
AcDbEntity
  8
0
  6
Continuous
 62
     7
100
AcDbLine
 10
23.345573
 20
81.74000492000001
 30
0.0
 11
23.345573
 21
52.2400049
 31
0.0
  0
LINE
  5
101
330
137
100
AcDbEntity
  8
0
  6
Continuous
 62
     7
100
AcDbLine
 10
24.84612876
 20
76.74000492000001
 30
0.0
 11
24.84612876
 21
70.74000492
 31
0.0
  0
LINE
  5
102
330
137
100
AcDbEntity
  8
0
  6
Continuous
 62
     7
100
AcDbLine
 10
13.84205317
 20
82.74000492
 30
0.0
 11
13.84205317
 21
51.2400049
 31
0.0
  0
LINE
  5
103
330
137
100
AcDbEntity
  8
0
  6
Continuous
 62
     7
100
AcDbLine
 10
54.64612876
 20
74.24000492000001
 30
0.0
 11
49.64612876
 21
74.24000492000001
 31
0.0
  0
LINE
  5
104
330
137
100
AcDbEntity
  8
0
  6
Continuous
 62
     7
100
AcDbLine
 10
54.64612876
 20
73.24000492
 30
0.0
 11
49.64612876
 21
73.24000492
 31
0.0
  0
LINE
  5
105
330
137
100
AcDbEntity
  8
0
  6
Continuous
 62
     7
100
AcDbLine
 10
49.64612876
 20
72.74000492
 30
0.0
 11
49.64612876
 21
74.74000492
 31
0.0
  0
LINE
  5
106
330
137
100
AcDbEntity
  8
0
  6
Continuous
 62
     7
100
AcDbLine
 10
49.64612876
 20
74.74000492
 30
0.0
 11
37.34612876
 21
74.74000492
 31
0.0
  0
LINE
  5
107
330
137
100
AcDbEntity
  8
0
  6
Continuous
 62
     7
100
AcDbLine
 10
49.64612876
 20
72.74000492
 30
0.0
 11
35.98612876
 21
72.74000492
 31
0.0
  0
LINE
  5
108
330
137
100
AcDbEntity
  8
0
  6
Continuous
 62
     7
100
AcDbLine
 10
54.64612876
 20
73.24000492
 30
0.0
 11
54.64612876
 21
74.24000492000001
 31
0.0
  0
CIRCLE
  5
109
330
137
100
AcDbEntity
  8
0
  6
Continuous
 62
     7
100
AcDbCircle
 10
161.44023779
 20
39.24000489
 30
0.0
 40
2.066999999999999
  0
CIRCLE
  5
10A
330
137
100
AcDbEntity
  8
0
  6
Continuous
 62
     2
100
AcDbCircle
 10
161.44023779
 20
39.24000489
 30
0.0
 40
2.5
  0
CIRCLE
  5
10B
330
137
100
AcDbEntity
  8
0
  6
Continuous
 62
     7
100
AcDbCircle
 10
161.44023779
 20
29.24000489
 30
0.0
 40
4.283
  0
CIRCLE
  5
10C
330
137
100
AcDbEntity
  8
0
  6
Continuous
 62
     2
100
AcDbCircle
 10
161.44023779
 20
29.24000489
 30
0.0
 40
4.863999999999999
  0
CIRCLE
  5
10D
330
137
100
AcDbEntity
  8
0
  6
Continuous
 62
     7
100
AcDbCircle
 10
-152.66209664
 20
34.00773643
 30
0.0
 40
4.283
  0
CIRCLE
  5
10E
330
137
100
AcDbEntity
  8
0
  6
Continuous
 62
     2
100
AcDbCircle
 10
-152.66209664
 20
34.00773643
 30
0.0
 40
4.863999999999999
  0
TEXT
  5
10F
330
137
100
AcDbEntity
  8
0
  6
Continuous
 62
     7
100
AcDbText
 10
-268.24956528
 20
177.349999905
 30
0.0
 40
6.30000019
  1
MODEL:050E1-01-21-LF
 41
1.095652169999999
  7
MX_NOTE_STANDARD
 11
-268.24956528
 21
180.5
 31
0.0
100
AcDbText
 73
     2
  0
LINE
  5
110
330
137
100
AcDbEntity
  8
0
  6
Continuous
 62
     7
100
AcDbLine
 10
282.09985352
 20
195.5
 30
0.0
 11
282.09985352
 21
-195.0
 31
0.0
  0
LINE
  5
111
330
137
100
AcDbEntity
  8
0
  6
Continuous
 62
     7
100
AcDbLine
 10
-281.25
 20
195.5
 30
0.0
 11
282.09985352
 21
195.5
 31
0.0
  0
LINE
  5
112
330
137
100
AcDbEntity
  8
0
  6
Continuous
 62
     7
100
AcDbLine
 10
-281.25
 20
195.5
 30
0.0
 11
-281.25
 21
-195.0
 31
0.0
  0
LINE
  5
113
330
137
100
AcDbEntity
  8
0
  6
Continuous
 62
     7
100
AcDbLine
 10
-281.25
 20
-195.0
 30
0.0
 11
282.09985352
 21
-195.0
 31
0.0
  0
ENDSEC
  0
SECTION
  2
OBJECTS
  0
DICTIONARY
  5
121
330
0
100
AcDbDictionary
281
     1
  3
ACAD_COLOR
350
130
  3
ACAD_GROUP
350
122
  3
ACAD_LAYOUT
350
12E
  3
ACAD_MATERIAL
350
12F
  3
ACAD_MLINESTYLE
350
12B
  3
ACAD_PLOTSETTINGS
350
12D
  3
ACAD_PLOTSTYLENAME
350
123
  3
ACAD_TABLESTYLE
350
131
  3
ACDBHEADERROUNDTRIPXREC
350
149
  3
AcDbVariableDictionary
350
143
  3
DWGPROPS
350
148
  0
DICTIONARY
  5
130
102
{ACAD_REACTORS
330
121
102
}
330
121
100
AcDbDictionary
281
     1
  0
DICTIONARY
  5
122
102
{ACAD_REACTORS
330
121
102
}
330
121
100
AcDbDictionary
281
     1
  0
DICTIONARY
  5
12E
102
{ACAD_REACTORS
330
121
102
}
330
121
100
AcDbDictionary
281
     1
  3
Model
350
13A
  3
レイアウト1
350
136
  0
DICTIONARY
  5
12F
102
{ACAD_REACTORS
330
121
102
}
330
121
100
AcDbDictionary
281
     1
  0
DICTIONARY
  5
12B
102
{ACAD_REACTORS
330
121
102
}
330
121
100
AcDbDictionary
281
     1
  3
Standard
350
12C
  0
DICTIONARY
  5
12D
102
{ACAD_REACTORS
330
121
102
}
330
121
100
AcDbDictionary
281
     1
  0
ACDBDICTIONARYWDFLT
  5
123
102
{ACAD_REACTORS
330
121
102
}
330
121
100
AcDbDictionary
281
     1
  3
Normal
350
124
100
AcDbDictionaryWithDefault
340
124
  0
DICTIONARY
  5
131
102
{ACAD_REACTORS
330
121
102
}
330
121
100
AcDbDictionary
281
     1
  3
Standard
350
132
  0
DICTIONARY
  5
149
102
{ACAD_REACTORS
330
121
102
}
330
121
100
AcDbDictionary
281
     1
  0
DICTIONARY
  5
143
102
{ACAD_REACTORS
330
121
102
}
330
121
100
AcDbDictionary
281
     1
  3
CTABLESTYLE
350
144
  3
DIMASSOC
350
145
  3
PROJECTNAME
350
146
  0
XRECORD
  5
148
102
{ACAD_REACTORS
330
121
102
}
330
121
100
AcDbXrecord
280
     1
  1
DWGPROPS COOKIE
  2

  3

  4

  6

  7

  8

  9

300
=
301
=
302
=
303
=
304
=
305
=
306
=
307
=
308
=
309
=
 40
0.0016477083333333
 41
2454048.468657408
 42
2454259.609304595
  1

 90
        0
  0
LAYOUT
  5
13A
102
{ACAD_XDICTIONARY
360
14C
102
}
102
{ACAD_REACTORS
330
12E
102
}
330
12E
100
AcDbPlotSettings
  1

  2
DocuCentre Color f450
  4

  6

 40
0.0
 41
0.0
 42
0.0
 43
0.0
 44
0.0
 45
0.0
 46
0.0
 47
0.0
 48
0.0
 49
0.0
140
0.0
141
0.0
142
1.0
143
1.0
 70
  1712
 72
     0
 73
     0
 74
     0
  7

 75
     0
147
1.0
148
0.0
149
0.0
100
AcDbLayout
  1
Model
 70
     1
 71
     0
 10
0.0
 20
0.0
 11
12.0
 21
9.0
 12
0.0
 22
0.0
 32
0.0
 14
0.0
 24
0.0
 34
0.0
 15
0.0
 25
0.0
 35
0.0
146
0.0
 13
0.0
 23
0.0
 33
0.0
 16
1.0
 26
0.0
 36
0.0
 17
0.0
 27
1.0
 37
0.0
 76
     0
330
137
  0
LAYOUT
  5
136
102
{ACAD_XDICTIONARY
360
14A
102
}
102
{ACAD_REACTORS
330
12E
102
}
330
12E
100
AcDbPlotSettings
  1

  2
DocuCentre Color f450
  4

  6

 40
0.0
 41
0.0
 42
0.0
 43
0.0
 44
0.0
 45
0.0
 46
0.0
 47
0.0
 48
0.0
 49
0.0
140
0.0
141
0.0
142
1.0
143
1.0
 70
   688
 72
     0
 73
     0
 74
     5
  7

 75
    16
147
1.0
148
0.0
149
0.0
100
AcDbLayout
  1
レイアウト1
 70
     0
 71
     1
 10
0.0
 20
0.0
 11
12.0
 21
9.0
 12
0.0
 22
0.0
 32
0.0
 14
1.000000000000000E+20
 24
1.000000000000000E+20
 34
1.000000000000000E+20
 15
-1.000000000000000E+20
 25
-1.000000000000000E+20
 35
-1.000000000000000E+20
146
0.0
 13
0.0
 23
0.0
 33
0.0
 16
1.0
 26
0.0
 36
0.0
 17
0.0
 27
1.0
 37
0.0
 76
     0
330
133
  0
MLINESTYLE
  5
12C
102
{ACAD_REACTORS
330
12B
102
}
330
12B
100
AcDbMlineStyle
  2
STANDARD
 70
     0
  3

 62
   256
 51
90.0
 52
90.0
 71
     2
 49
0.5
 62
   256
  6
BYLAYER
 49
-0.5
 62
   256
  6
BYLAYER
  0
ACDBPLACEHOLDER
  5
124
102
{ACAD_REACTORS
330
123
102
}
330
123
  0
TABLESTYLE
  5
132
102
{ACAD_REACTORS
330
131
102
}
330
131
100
AcDbTableStyle
  3
Standard
 70
     0
 71
     0
 40
0.06
 41
0.06
280
     0
281
     0
  7
Standard
140
0.18
170
     2
 62
     0
 63
     7
283
     0
274
    -2
284
     1
 64
     0
275
    -2
285
     1
 65
     0
276
    -2
286
     1
 66
     0
277
    -2
287
     1
 67
     0
278
    -2
288
     1
 68
     0
279
    -2
289
     1
 69
     0
  7
Standard
140
0.25
170
     5
 62
     0
 63
     7
283
     0
274
    -2
284
     1
 64
     0
275
    -2
285
     1
 65
     0
276
    -2
286
     1
 66
     0
277
    -2
287
     1
 67
     0
278
    -2
288
     1
 68
     0
279
    -2
289
     1
 69
     0
  7
Standard
140
0.18
170
     5
 62
     0
 63
     7
283
     0
274
    -2
284
     1
 64
     0
275
    -2
285
     1
 65
     0
276
    -2
286
     1
 66
     0
277
    -2
287
     1
 67
     0
278
    -2
288
     1
 68
     0
279
    -2
289
     1
 69
     0
  0
DICTIONARYVAR
  5
144
102
{ACAD_REACTORS
330
143
102
}
330
143
100
DictionaryVariables
280
     0
  1
STANDARD
  0
DICTIONARYVAR
  5
145
102
{ACAD_REACTORS
330
143
102
}
330
143
100
DictionaryVariables
280
     0
  1
1
  0
DICTIONARYVAR
  5
146
102
{ACAD_REACTORS
330
143
102
}
330
143
100
DictionaryVariables
280
     0
  1

  0
DICTIONARY
  5
14C
330
13A
100
AcDbDictionary
280
     1
281
     1
  3
ACAD_XREC_ROUNDTRIP
360
14D
  0
DICTIONARY
  5
14A
330
136
100
AcDbDictionary
280
     1
281
     1
  3
ACAD_XREC_ROUNDTRIP
360
14B
  0
XRECORD
  5
14D
102
{ACAD_REACTORS
330
14C
102
}
330
14C
100
AcDbXrecord
280
     1
102
SHADEPLOT
 70
     0
102
SHADEPLOTRESLEVEL
 70
     2
102
SHADEPLOTCUSTOMDPI
 70
   300
  0
XRECORD
  5
14B
102
{ACAD_REACTORS
330
14A
102
}
330
14A
100
AcDbXrecord
280
     1
102
SHADEPLOT
 70
     0
102
SHADEPLOTRESLEVEL
 70
     2
102
SHADEPLOTCUSTOMDPI
 70
   300
  0
ENDSEC
  0
EOF
