  0
SECTION
  2
HEADER
  9
$ACADVER
  1
AC1018
  9
$ACADMAINTVER
 70
    76
  9
$DWGCODEPAGE
  3
ANSI_932
  9
$INSBASE
 10
0.0
 20
0.0
 30
0.0
  9
$EXTMIN
 10
-281.25
 20
-195.0
 30
0.0
  9
$EXTMAX
 10
282.09985352
 20
195.5
 30
0.0
  9
$LIMMIN
 10
-297.0
 20
-210.0
  9
$LIMMAX
 10
297.0
 20
210.0
  9
$ORTHOMODE
 70
     1
  9
$REGENMODE
 70
     1
  9
$FILLMODE
 70
     1
  9
$QTEXTMODE
 70
     0
  9
$MIRRTEXT
 70
     1
  9
$LTSCALE
 40
1.0
  9
$ATTMODE
 70
     1
  9
$TEXTSIZE
 40
3.200000049999998
  9
$TRACEWID
 40
0.05
  9
$TEXTSTYLE
  7
MX_NOTE_STANDARD
  9
$CLAYER
  8
0
  9
$CELTYPE
  6
CONTINUOUS
  9
$CECOLOR
 62
     7
  9
$CELTSCALE
 40
1.0
  9
$DISPSILH
 70
     0
  9
$DIMSCALE
 40
1.0
  9
$DIMASZ
 40
2.5
  9
$DIMEXO
 40
1.5
  9
$DIMDLI
 40
3.75
  9
$DIMRND
 40
0.0
  9
$DIMDLE
 40
0.0
  9
$DIMEXE
 40
1.5
  9
$DIMTP
 40
0.0
  9
$DIMTM
 40
0.0
  9
$DIMTXT
 40
3.200000049999998
  9
$DIMCEN
 40
2.5
  9
$DIMTSZ
 40
0.0
  9
$DIMTOL
 70
     0
  9
$DIMLIM
 70
     0
  9
$DIMTIH
 70
     0
  9
$DIMTOH
 70
     0
  9
$DIMSE1
 70
     0
  9
$DIMSE2
 70
     0
  9
$DIMTAD
 70
     1
  9
$DIMZIN
 70
     8
  9
$DIMBLK
  1

  9
$DIMASO
 70
     1
  9
$DIMSHO
 70
     1
  9
$DIMPOST
  1

  9
$DIMAPOST
  1

  9
$DIMALT
 70
     0
  9
$DIMALTD
 70
     4
  9
$DIMALTF
 40
0.03937008
  9
$DIMLFAC
 40
1.0
  9
$DIMTOFL
 70
     1
  9
$DIMTVP
 40
0.0
  9
$DIMTIX
 70
     0
  9
$DIMSOXD
 70
     0
  9
$DIMSAH
 70
     1
  9
$DIMBLK1
  1
OPEN30
  9
$DIMBLK2
  1
OPEN30
  9
$DIMSTYLE
  2
MXDIMSTYLE
  9
$DIMCLRD
 70
     0
  9
$DIMCLRE
 70
     0
  9
$DIMCLRT
 70
     0
  9
$DIMTFAC
 40
1.0
  9
$DIMGAP
 40
1.0
  9
$DIMJUST
 70
     0
  9
$DIMSD1
 70
     0
  9
$DIMSD2
 70
     0
  9
$DIMTOLJ
 70
     1
  9
$DIMTZIN
 70
     0
  9
$DIMALTZ
 70
     0
  9
$DIMALTTZ
 70
     0
  9
$DIMUPT
 70
     0
  9
$DIMDEC
 70
     4
  9
$DIMTDEC
 70
     4
  9
$DIMALTU
 70
     2
  9
$DIMALTTD
 70
     2
  9
$DIMTXSTY
  7
Standard
  9
$DIMAUNIT
 70
     0
  9
$DIMADEC
 70
     0
  9
$DIMALTRND
 40
0.0
  9
$DIMAZIN
 70
     0
  9
$DIMDSEP
 70
    46
  9
$DIMATFIT
 70
     3
  9
$DIMFRAC
 70
     0
  9
$DIMLDRBLK
  1
OPEN30
  9
$DIMLUNIT
 70
     2
  9
$DIMLWD
 70
    -2
  9
$DIMLWE
 70
    -2
  9
$DIMTMOVE
 70
     0
  9
$LUNITS
 70
     2
  9
$LUPREC
 70
     4
  9
$SKETCHINC
 40
0.1
  9
$FILLETRAD
 40
0.0
  9
$AUNITS
 70
     0
  9
$AUPREC
 70
     0
  9
$MENU
  1
acad
  9
$ELEVATION
 40
0.0
  9
$PELEVATION
 40
0.0
  9
$THICKNESS
 40
0.0
  9
$LIMCHECK
 70
     0
  9
$CHAMFERA
 40
0.0
  9
$CHAMFERB
 40
0.0
  9
$CHAMFERC
 40
0.5
  9
$CHAMFERD
 40
0.7853981633974483
  9
$SKPOLY
 70
     0
  9
$TDCREATE
 40
2453819.463206019
  9
$TDUCREATE
 40
2453819.088206018
  9
$TDUPDATE
 40
2454176.634710787
  9
$TDUUPDATE
 40
2454176.259710787
  9
$TDINDWG
 40
0.0755177662
  9
$TDUSRTIMER
 40
0.0755170370
  9
$USRTIMER
 70
     1
  9
$ANGBASE
 50
0.0
  9
$ANGDIR
 70
     0
  9
$PDMODE
 70
     0
  9
$PDSIZE
 40
0.0
  9
$PLINEWID
 40
0.0
  9
$SPLFRAME
 70
     0
  9
$SPLINETYPE
 70
     6
  9
$SPLINESEGS
 70
     8
  9
$HANDSEED
  5
331
  9
$SURFTAB1
 70
     6
  9
$SURFTAB2
 70
     6
  9
$SURFTYPE
 70
     6
  9
$SURFU
 70
     6
  9
$SURFV
 70
     6
  9
$UCSBASE
  2

  9
$UCSNAME
  2

  9
$UCSORG
 10
0.0
 20
0.0
 30
0.0
  9
$UCSXDIR
 10
1.0
 20
0.0
 30
0.0
  9
$UCSYDIR
 10
0.0
 20
1.0
 30
0.0
  9
$UCSORTHOREF
  2

  9
$UCSORTHOVIEW
 70
     0
  9
$UCSORGTOP
 10
0.0
 20
0.0
 30
0.0
  9
$UCSORGBOTTOM
 10
0.0
 20
0.0
 30
0.0
  9
$UCSORGLEFT
 10
0.0
 20
0.0
 30
0.0
  9
$UCSORGRIGHT
 10
0.0
 20
0.0
 30
0.0
  9
$UCSORGFRONT
 10
0.0
 20
0.0
 30
0.0
  9
$UCSORGBACK
 10
0.0
 20
0.0
 30
0.0
  9
$PUCSBASE
  2

  9
$PUCSNAME
  2

  9
$PUCSORG
 10
0.0
 20
0.0
 30
0.0
  9
$PUCSXDIR
 10
1.0
 20
0.0
 30
0.0
  9
$PUCSYDIR
 10
0.0
 20
1.0
 30
0.0
  9
$PUCSORTHOREF
  2

  9
$PUCSORTHOVIEW
 70
     0
  9
$PUCSORGTOP
 10
0.0
 20
0.0
 30
0.0
  9
$PUCSORGBOTTOM
 10
0.0
 20
0.0
 30
0.0
  9
$PUCSORGLEFT
 10
0.0
 20
0.0
 30
0.0
  9
$PUCSORGRIGHT
 10
0.0
 20
0.0
 30
0.0
  9
$PUCSORGFRONT
 10
0.0
 20
0.0
 30
0.0
  9
$PUCSORGBACK
 10
0.0
 20
0.0
 30
0.0
  9
$USERI1
 70
     0
  9
$USERI2
 70
     0
  9
$USERI3
 70
     0
  9
$USERI4
 70
     0
  9
$USERI5
 70
     0
  9
$USERR1
 40
0.0
  9
$USERR2
 40
0.0
  9
$USERR3
 40
0.0
  9
$USERR4
 40
0.0
  9
$USERR5
 40
0.0
  9
$WORLDVIEW
 70
     1
  9
$SHADEDGE
 70
     3
  9
$SHADEDIF
 70
    70
  9
$TILEMODE
 70
     1
  9
$MAXACTVP
 70
    16
  9
$PINSBASE
 10
0.0
 20
0.0
 30
0.0
  9
$PLIMCHECK
 70
     0
  9
$PEXTMIN
 10
1.000000000000000E+20
 20
1.000000000000000E+20
 30
1.000000000000000E+20
  9
$PEXTMAX
 10
-1.000000000000000E+20
 20
-1.000000000000000E+20
 30
-1.000000000000000E+20
  9
$PLIMMIN
 10
0.0
 20
0.0
  9
$PLIMMAX
 10
12.0
 20
9.0
  9
$UNITMODE
 70
     0
  9
$VISRETAIN
 70
     0
  9
$PLINEGEN
 70
     1
  9
$PSLTSCALE
 70
     0
  9
$TREEDEPTH
 70
  3020
  9
$CMLSTYLE
  2
Standard
  9
$CMLJUST
 70
     0
  9
$CMLSCALE
 40
1.0
  9
$PROXYGRAPHICS
 70
     1
  9
$MEASUREMENT
 70
     0
  9
$CELWEIGHT
370
    -1
  9
$ENDCAPS
280
     0
  9
$JOINSTYLE
280
     0
  9
$LWDISPLAY
290
     0
  9
$INSUNITS
 70
     0
  9
$HYPERLINKBASE
  1

  9
$STYLESHEET
  1

  9
$XEDIT
290
     1
  9
$CEPSNTYPE
380
     0
  9
$PSTYLEMODE
290
     1
  9
$FINGERPRINTGUID
  2
{434F5AF8-5458-49F4-9B36-45B8390EF010}
  9
$VERSIONGUID
  2
{C6DBE9C7-6F0F-4511-9A22-D2EA0F9B6C56}
  9
$EXTNAMES
290
     1
  9
$PSVPSCALE
 40
0.0
  9
$OLESTARTUP
290
     0
  9
$SORTENTS
280
   127
  9
$INDEXCTL
280
     0
  9
$HIDETEXT
280
     0
  9
$XCLIPFRAME
290
     0
  9
$HALOGAP
280
     0
  9
$OBSCOLOR
 70
   257
  9
$OBSLTYPE
280
     0
  9
$INTERSECTIONDISPLAY
280
     0
  9
$INTERSECTIONCOLOR
 70
   257
  9
$DIMASSOC
280
     1
  9
$PROJECTNAME
  1

  0
ENDSEC
  0
SECTION
  2
CLASSES
  0
CLASS
  1
ACDBDICTIONARYWDFLT
  2
AcDbDictionaryWithDefault
  3
ObjectDBX Classes
 90
        0
 91
        1
280
     0
281
     0
  0
CLASS
  1
TABLESTYLE
  2
AcDbTableStyle
  3
ObjectDBX Classes
 90
     2047
 91
        1
280
     0
281
     0
  0
CLASS
  1
DICTIONARYVAR
  2
AcDbDictionaryVar
  3
ObjectDBX Classes
 90
        0
 91
        3
280
     0
281
     0
  0
CLASS
  1
SORTENTSTABLE
  2
AcDbSortentsTable
  3
ObjectDBX Classes
 90
        0
 91
        1
280
     0
281
     0
  0
ENDSEC
  0
SECTION
  2
TABLES
  0
TABLE
  2
VPORT
  5
127
330
0
100
AcDbSymbolTable
 70
     3
  0
VPORT
  5
330
330
127
100
AcDbSymbolTableRecord
100
AcDbViewportTableRecord
  2
*Active
 70
     0
 10
0.0
 20
0.0
 11
1.0
 21
1.0
 12
299.4222227773542
 22
41.74258389975205
 13
0.0
 23
0.0
 14
1.0
 24
1.0
 15
0.0
 25
0.0
 16
0.0
 26
0.0
 36
1.0
 17
0.0
 27
0.0
 37
0.0
 40
717.8038687087185
 41
1.669410150891632
 42
50.0
 43
0.0
 44
0.0
 50
0.0
 51
0.0
 71
     0
 72
   100
 73
     1
 74
     1
 75
     0
 76
     0
 77
     0
 78
     0
281
     0
 65
     1
110
0.0
120
0.0
130
0.0
111
1.0
121
0.0
131
0.0
112
0.0
122
1.0
132
0.0
 79
     0
146
0.0
  0
ENDTAB
  0
TABLE
  2
LTYPE
  5
124
330
0
100
AcDbSymbolTable
 70
     4
  0
LTYPE
  5
132
330
124
100
AcDbSymbolTableRecord
100
AcDbLinetypeTableRecord
  2
ByBlock
 70
     0
  3

 72
    65
 73
     0
 40
0.0
  0
LTYPE
  5
133
330
124
100
AcDbSymbolTableRecord
100
AcDbLinetypeTableRecord
  2
ByLayer
 70
     0
  3

 72
    65
 73
     0
 40
0.0
  0
LTYPE
  5
134
330
124
100
AcDbSymbolTableRecord
100
AcDbLinetypeTableRecord
  2
CONTINUOUS
 70
     0
  3
Solid line
 72
    65
 73
     0
 40
0.0
  0
LTYPE
  5
147
330
124
100
AcDbSymbolTableRecord
100
AcDbLinetypeTableRecord
  2
PHANTOM
 70
     0
  3
Phantom ______  __  __  ______  __  __  ______
 72
    65
 73
     6
 40
63.5
 49
31.75
 74
     0
 49
-6.349999999999998
 74
     0
 49
6.349999999999998
 74
     0
 49
-6.349999999999998
 74
     0
 49
6.349999999999998
 74
     0
 49
-6.349999999999998
 74
     0
  0
LTYPE
  5
1FB
330
124
100
AcDbSymbolTableRecord
100
AcDbLinetypeTableRecord
  2
DASHED
 70
     0
  3
__ __ __ __ __ __ __ __ __ __ __ __ __ __ __
 72
    65
 73
     2
 40
3.5
 49
2.0
 74
     0
 49
-1.5
 74
     0
  0
LTYPE
  5
1FC
330
124
100
AcDbSymbolTableRecord
100
AcDbLinetypeTableRecord
  2
CENTER
 70
     0
  3
____ _ ____ _ ____ _ ____ _ ____ _ ____ _ ____
 72
    65
 73
     4
 40
17.5
 49
13.0
 74
     0
 49
-1.5
 74
     0
 49
1.5
 74
     0
 49
-1.5
 74
     0
  0
ENDTAB
  0
TABLE
  2
LAYER
  5
121
102
{ACAD_XDICTIONARY
360
1FF
102
}
330
0
100
AcDbSymbolTable
 70
     2
  0
LAYER
  5
12F
330
121
100
AcDbSymbolTableRecord
100
AcDbLayerTableRecord
  2
0
 70
     0
 62
     7
  6
CONTINUOUS
370
    -3
390
12E
  0
LAYER
  5
148
330
121
100
AcDbSymbolTableRecord
100
AcDbLayerTableRecord
  2
DEFPOINTS
 70
     0
 62
     7
  6
CONTINUOUS
290
     0
370
    -3
390
12E
  0
ENDTAB
  0
TABLE
  2
STYLE
  5
122
330
0
100
AcDbSymbolTable
 70
     2
  0
STYLE
  5
130
330
122
100
AcDbSymbolTableRecord
100
AcDbTextStyleTableRecord
  2
Standard
 70
     0
 40
0.0
 41
1.0
 50
0.0
 71
     0
 42
0.2
  3
txt
  4

  0
STYLE
  5
145
330
122
100
AcDbSymbolTableRecord
100
AcDbTextStyleTableRecord
  2
MX_NOTE_STANDARD
 70
     0
 40
0.0
 41
1.0
 50
0.0
 71
     0
 42
3.200000049999998
  3
txt.shx
  4
extfont.shx
  0
ENDTAB
  0
TABLE
  2
VIEW
  5
125
330
0
100
AcDbSymbolTable
 70
     0
  0
ENDTAB
  0
TABLE
  2
UCS
  5
126
330
0
100
AcDbSymbolTable
 70
     0
  0
ENDTAB
  0
TABLE
  2
APPID
  5
128
330
0
100
AcDbSymbolTable
 70
     2
  0
APPID
  5
131
330
128
100
AcDbSymbolTableRecord
100
AcDbRegAppTableRecord
  2
ACAD
 70
     0
  0
APPID
  5
1FE
330
128
100
AcDbSymbolTableRecord
100
AcDbRegAppTableRecord
  2
ACAD_PSEXT
 70
     0
  0
ENDTAB
  0
TABLE
  2
DIMSTYLE
  5
129
330
0
100
AcDbSymbolTable
 70
     2
100
AcDbDimStyleTable
 71
     1
340
149
  0
DIMSTYLE
105
149
330
129
100
AcDbSymbolTableRecord
100
AcDbDimStyleTableRecord
  2
MXDIMSTYLE
 70
     0
 41
2.5
 42
1.5
 43
3.75
 44
1.5
 73
     0
 74
     0
 77
     1
 78
     8
140
3.200000049999998
141
2.5
143
0.03937008
147
1.0
171
     4
172
     1
173
     1
274
     4
279
     2
284
     8
285
     8
286
     8
340
145
  0
DIMSTYLE
105
1FD
330
129
100
AcDbSymbolTableRecord
100
AcDbDimStyleTableRecord
  2
Standard
 70
     0
340
130
  0
ENDTAB
  0
TABLE
  2
BLOCK_RECORD
  5
120
330
0
100
AcDbSymbolTable
 70
     1
  0
BLOCK_RECORD
  5
141
102
{ACAD_XDICTIONARY
360
18C
102
}
330
120
100
AcDbSymbolTableRecord
100
AcDbBlockTableRecord
  2
*Model_Space
340
144
  0
BLOCK_RECORD
  5
13D
330
120
100
AcDbSymbolTableRecord
100
AcDbBlockTableRecord
  2
*Paper_Space
340
140
  0
BLOCK_RECORD
  5
14C
330
120
100
AcDbSymbolTableRecord
100
AcDbBlockTableRecord
  2
_OPEN30
340
0
102
{BLKREFS
331
48
102
}
  0
ENDTAB
  0
ENDSEC
  0
SECTION
  2
BLOCKS
  0
BLOCK
  5
142
330
141
100
AcDbEntity
  8
0
100
AcDbBlockBegin
  2
*Model_Space
 70
     0
 10
0.0
 20
0.0
 30
0.0
  3
*Model_Space
  1

  0
ENDBLK
  5
143
330
141
100
AcDbEntity
  8
0
100
AcDbBlockEnd
  0
BLOCK
  5
13E
330
13D
100
AcDbEntity
 67
     1
  8
0
100
AcDbBlockBegin
  2
*Paper_Space
 70
     0
 10
0.0
 20
0.0
 30
0.0
  3
*Paper_Space
  1

  0
ENDBLK
  5
13F
330
13D
100
AcDbEntity
 67
     1
  8
0
100
AcDbBlockEnd
  0
BLOCK
  5
1F
330
14C
100
AcDbEntity
  8
0
  6
ByBlock
 62
     0
100
AcDbBlockBegin
  2
_OPEN30
 70
     2
 10
0.0
 20
0.0
 30
0.0
  3
_OPEN30
  1

  0
LINE
  5
20
330
14C
100
AcDbEntity
  8
0
  6
ByBlock
 62
     0
100
AcDbLine
 10
-1.0
 20
0.267949
 30
0.0
 11
0.0
 21
0.0
 31
0.0
  0
LINE
  5
21
330
14C
100
AcDbEntity
  8
0
  6
ByBlock
 62
     0
100
AcDbLine
 10
0.0
 20
0.0
 30
0.0
 11
-1.0
 21
-0.267949
 31
0.0
  0
LINE
  5
22
330
14C
100
AcDbEntity
  8
0
  6
ByBlock
 62
     0
100
AcDbLine
 10
0.0
 20
0.0
 30
0.0
 11
-1.0
 21
0.0
 31
0.0
  0
ENDBLK
  5
23
330
14C
100
AcDbEntity
  8
0
  6
ByBlock
 62
     0
100
AcDbBlockEnd
  0
ENDSEC
  0
SECTION
  2
ENTITIES
  0
CIRCLE
  5
2A
330
141
100
AcDbEntity
  8
0
  6
Continuous
 62
     7
100
AcDbCircle
 10
-92.23480395999999
 20
-87.50346425
 30
0.0
 40
21.0
  0
LINE
  5
2B
330
141
100
AcDbEntity
  8
0
  6
Continuous
 62
     2
100
AcDbLine
 10
-74.15478257
 20
-62.50346425
 30
0.0
 11
-60.76664147999999
 21
-62.50346425
 31
0.0
  0
LINE
  5
2C
330
141
100
AcDbEntity
  8
0
  6
Continuous
 62
     2
100
AcDbLine
 10
-117.23480396
 20
-106.04177724
 30
0.0
 11
-117.23480396
 21
-118.73980796
 31
0.0
  0
LINE
  5
2D
330
141
100
AcDbEntity
  8
0
  6
Continuous
 62
     2
100
AcDbLine
 10
-74.15478257
 20
-112.50346425
 30
0.0
 11
-60.76664147999999
 21
-112.50346425
 31
0.0
  0
LINE
  5
2E
330
141
100
AcDbEntity
  8
0
  6
Continuous
 62
     2
100
AcDbLine
 10
-67.23480395999999
 20
-106.04177724
 30
0.0
 11
-67.23480395999999
 21
-118.73980796
 31
0.0
  0
CIRCLE
  5
2F
330
141
100
AcDbEntity
  8
0
  6
Continuous
 62
     7
100
AcDbCircle
 10
-67.23480395999999
 20
-62.50346425
 30
0.0
 40
2.75
  0
CIRCLE
  5
30
330
141
100
AcDbEntity
  8
0
  6
Continuous
 62
     7
100
AcDbCircle
 10
-117.23480396
 20
-62.50346425
 30
0.0
 40
2.75
  0
CIRCLE
  5
31
330
141
100
AcDbEntity
  8
0
  6
Continuous
 62
     7
100
AcDbCircle
 10
-117.23480396
 20
-112.50346425
 30
0.0
 40
2.75
  0
CIRCLE
  5
32
330
141
100
AcDbEntity
  8
0
  6
Continuous
 62
     7
100
AcDbCircle
 10
-67.23480395999999
 20
-112.50346425
 30
0.0
 40
2.75
  0
LINE
  5
37
330
141
100
AcDbEntity
  8
0
  6
Continuous
 62
     2
100
AcDbLine
 10
-117.23480396
 20
-56.84350849
 30
0.0
 11
-117.23480396
 21
-69.12747299
 31
0.0
  0
LINE
  5
38
330
141
100
AcDbEntity
  8
0
  6
Continuous
 62
     2
100
AcDbLine
 10
-67.23480395999999
 20
-56.84350849
 30
0.0
 11
-67.23480395999999
 21
-69.12747299
 31
0.0
  0
LINE
  5
39
330
141
100
AcDbEntity
  8
0
  6
Continuous
 62
     2
100
AcDbLine
 10
-123.35305132
 20
-112.50346425
 30
0.0
 11
-110.93106475
 21
-112.50346425
 31
0.0
  0
LINE
  5
3A
330
141
100
AcDbEntity
  8
0
  6
Continuous
 62
     2
100
AcDbLine
 10
-123.35305132
 20
-62.50346425
 30
0.0
 11
-110.93106475
 21
-62.50346425
 31
0.0
  0
LINE
  5
3C
330
141
100
AcDbEntity
  8
0
  6
Continuous
 62
     7
100
AcDbLine
 10
-117.23480396
 20
-55.50346425
 30
0.0
 11
-67.23480395999998
 21
-55.50346424999999
 31
0.0
  0
LINE
  5
3D
330
141
100
AcDbEntity
  8
0
  6
Continuous
 62
     7
100
AcDbLine
 10
-124.23480396
 20
-62.50346425
 30
0.0
 11
-124.23480396
 21
-112.50346425
 31
0.0
  0
LINE
  5
3F
330
141
100
AcDbEntity
  8
0
  6
Continuous
 62
     2
100
AcDbLine
 10
-126.49635363
 20
-87.50346425
 30
0.0
 11
-57.68360233
 21
-87.50346425
 31
0.0
  0
CIRCLE
  5
42
330
141
100
AcDbEntity
  8
0
  6
Continuous
 62
     7
100
AcDbCircle
 10
-92.23480395999999
 20
-87.50346425
 30
0.0
 40
19.5
  0
LINE
  5
43
330
141
100
AcDbEntity
  8
0
  6
Continuous
 62
     2
100
AcDbLine
 10
-92.23480395999999
 20
-53.24191457999997
 30
0.0
 11
-92.23480395999999
 21
-121.76501392
 31
0.0
  0
LINE
  5
44
330
141
100
AcDbEntity
  8
0
  6
Continuous
 62
     7
100
AcDbLine
 10
-42.98883370000001
 20
38.54432588
 30
0.0
 11
-42.98883370000001
 21
48.95874553
 31
0.0
  0
LINE
  5
45
330
141
100
AcDbEntity
  8
0
  6
Continuous
 62
     7
100
AcDbLine
 10
-42.51990409
 20
48.14653569
 30
0.0
 11
-42.98883370000001
 21
48.95874559
 31
0.0
  0
LINE
  5
46
330
141
100
AcDbEntity
  8
0
  6
Continuous
 62
     7
100
AcDbLine
 10
-42.51990409
 20
39.34653581
 30
0.0
 11
-42.98883370000001
 21
38.53432591
 31
0.0
  0
LWPOLYLINE
  5
47
330
141
100
AcDbEntity
  8
0
  6
Continuous
 62
     7
100
AcDbPolyline
 90
        3
 70
     0
 43
0.0
 10
-46.49391012
 20
38.72766837
 10
-42.18003255
 20
20.18800027
 10
-31.61952311
 20
20.18800027
  0
INSERT
  5
48
330
141
100
AcDbEntity
  8
0
  6
Continuous
 62
     7
100
AcDbBlockReference
  2
_OPEN30
 10
-46.49391012
 20
38.72766837
 30
0.0
 41
2.77
 42
2.77
 43
2.77
 50
103.09871493
  0
TEXT
  5
49
330
141
100
AcDbEntity
  8
0
  6
Continuous
 62
     7
100
AcDbText
 10
-39.86952311000001
 20
22.59425003
 30
0.0
 40
4.5
  1
-2
  7
MX_NOTE_STANDARD
 11
-39.86952311000001
 21
24.84425003
 31
0.0
100
AcDbText
 73
     2
  0
LINE
  5
4A
330
141
100
AcDbEntity
  8
0
  6
Continuous
 62
     7
100
AcDbLine
 10
-42.51990417
 20
48.14653582
 30
0.0
 11
-42.51990417
 21
39.34653568
 31
0.0
  0
LINE
  5
4B
330
141
100
AcDbEntity
  8
0
  6
Continuous
 62
     7
100
AcDbLine
 10
-50.51990416999998
 20
47.43653574999999
 30
0.0
 11
-50.51990416999998
 21
40.05653574999999
 31
0.0
  0
LINE
  5
4C
330
141
100
AcDbEntity
  8
0
  6
Continuous
 62
     7
100
AcDbLine
 10
-42.51990417
 20
48.14653575
 30
0.0
 11
-49.80990417000001
 21
48.14653575
 31
0.0
  0
LINE
  5
4D
330
141
100
AcDbEntity
  8
0
  6
Continuous
 62
     7
100
AcDbLine
 10
-42.98883370000001
 20
48.95874559
 30
0.0
 11
-49.33990417
 21
48.62653575
 31
0.0
  0
LINE
  5
4E
330
141
100
AcDbEntity
  8
0
  6
Continuous
 62
     7
100
AcDbLine
 10
-50.51990416999998
 20
47.43653574999999
 30
0.0
 11
-49.33990417
 21
48.62653575
 31
0.0
  0
LINE
  5
4F
330
141
100
AcDbEntity
  8
0
  6
Continuous
 62
     7
100
AcDbLine
 10
-49.39990417
 20
48.61653575
 30
0.0
 11
-49.39990417
 21
38.87653575
 31
0.0
  0
LINE
  5
50
330
141
100
AcDbEntity
  8
0
  6
Continuous
 62
     7
100
AcDbLine
 10
-42.51990417
 20
39.34653575
 30
0.0
 11
-49.80990417000001
 21
39.34653575
 31
0.0
  0
LINE
  5
51
330
141
100
AcDbEntity
  8
0
  6
Continuous
 62
     7
100
AcDbLine
 10
-42.98322944
 20
38.54403277
 30
0.0
 11
-49.33990417
 21
38.87653575
 31
0.0
  0
LINE
  5
52
330
141
100
AcDbEntity
  8
0
  6
Continuous
 62
     7
100
AcDbLine
 10
-50.51990416999998
 20
40.05653574999999
 30
0.0
 11
-49.33990417
 21
38.87653575
 31
0.0
  0
LINE
  5
53
330
141
100
AcDbEntity
  8
0
  6
Continuous
 62
     2
100
AcDbLine
 10
-117.59826156
 20
43.74653574999999
 30
0.0
 11
-38.14778766
 21
43.74653574999999
 31
0.0
  0
LINE
  5
54
330
141
100
AcDbEntity
  8
0
  6
Continuous
 62
     7
100
AcDbLine
 10
85.61519604
 20
91.99653575000001
 30
0.0
 11
85.61519604
 21
66.03573272
 31
0.0
  0
LINE
  5
55
330
141
100
AcDbEntity
  8
0
  6
Continuous
 62
     7
100
AcDbLine
 10
69.11519604
 20
92.03573271999999
 30
0.0
 11
69.11519604
 21
66.03573272
 31
0.0
  0
LINE
  5
56
330
141
100
AcDbEntity
  8
0
  6
Continuous
 62
     7
100
AcDbLine
 10
65.11519604
 20
91.03573272
 30
0.0
 11
65.11519604
 21
67.03573271999998
 31
0.0
  0
ARC
  5
57
330
141
100
AcDbEntity
  8
0
  6
Continuous
 62
     7
100
AcDbCircle
 10
66.11519604
 20
91.03573272
 30
0.0
 40
1.0
100
AcDbArc
 50
90.0
 51
180.0
  0
ARC
  5
58
330
141
100
AcDbEntity
  8
0
  6
Continuous
 62
     7
100
AcDbCircle
 10
66.11519604
 20
67.03573271999998
 30
0.0
 40
1.0
100
AcDbArc
 50
180.0
 51
270.0
  0
LINE
  5
59
330
141
100
AcDbEntity
  8
0
  6
Continuous
 62
     7
100
AcDbLine
 10
65.11519604
 20
86.53573272
 30
0.0
 11
63.11519604
 21
86.53573272
 31
0.0
  0
LINE
  5
5A
330
141
100
AcDbEntity
  8
0
  6
Continuous
 62
     7
100
AcDbLine
 10
65.11519604
 20
71.53573272
 30
0.0
 11
63.11519604
 21
71.53573272
 31
0.0
  0
LINE
  5
5B
330
141
100
AcDbEntity
  8
0
  6
Continuous
 62
     7
100
AcDbLine
 10
62.11519604
 20
85.53573271999999
 30
0.0
 11
62.11519604
 21
72.53573272
 31
0.0
  0
ARC
  5
5C
330
141
100
AcDbEntity
  8
0
  6
Continuous
 62
     7
100
AcDbCircle
 10
63.11519604
 20
85.53573271999999
 30
0.0
 40
1.0
100
AcDbArc
 50
90.0
 51
180.0
  0
ARC
  5
5D
330
141
100
AcDbEntity
  8
0
  6
Continuous
 62
     7
100
AcDbCircle
 10
63.11519604
 20
72.53573272
 30
0.0
 40
1.0
100
AcDbArc
 50
180.0
 51
270.0
  0
LINE
  5
5E
330
141
100
AcDbEntity
  8
0
  6
Continuous
 62
     7
100
AcDbLine
 10
62.11519604
 20
83.03573271999999
 30
0.0
 11
51.64236568999999
 21
83.03573271999999
 31
0.0
  0
LINE
  5
5F
330
141
100
AcDbEntity
  8
0
  6
Continuous
 62
     7
100
AcDbLine
 10
62.11519604
 20
80.53573271999999
 30
0.0
 11
52.08318314
 21
80.53573271999999
 31
0.0
  0
LINE
  5
60
330
141
100
AcDbEntity
  8
0
  6
Continuous
 62
     7
100
AcDbLine
 10
62.11519604
 20
77.53573272
 30
0.0
 11
52.61216409
 21
77.53573272
 31
0.0
  0
LINE
  5
61
330
141
100
AcDbEntity
  8
0
  6
Continuous
 62
     7
100
AcDbLine
 10
62.11519604
 20
75.03573272
 30
0.0
 11
53.05298153999999
 21
75.03573272
 31
0.0
  0
LINE
  5
63
330
141
100
AcDbEntity
  8
0
  6
PHANTOM
 62
     7
100
AcDbLine
 10
53.80347839999998
 20
70.77945355
 30
0.0
 11
50.92720727999999
 21
87.09159759
 31
0.0
  0
LINE
  5
64
330
141
100
AcDbEntity
  8
0
  6
PHANTOM
 62
     7
100
AcDbLine
 10
50.84905514999999
 20
70.25850884
 30
0.0
 11
47.97278399
 21
86.57065323999999
 31
0.0
  0
LINE
  5
65
330
141
100
AcDbEntity
  8
0
  6
Continuous
 62
     7
100
AcDbLine
 10
48.59608585
 20
83.03573271999999
 30
0.0
 11
31.37858923
 21
83.03573271999999
 31
0.0
  0
LINE
  5
66
330
141
100
AcDbEntity
  8
0
  6
Continuous
 62
     7
100
AcDbLine
 10
49.03690329999999
 20
80.53573271999999
 30
0.0
 11
31.37858923
 21
80.53573271999999
 31
0.0
  0
LINE
  5
67
330
141
100
AcDbEntity
  8
0
  6
Continuous
 62
     7
100
AcDbLine
 10
49.56588424
 20
77.53573272
 30
0.0
 11
31.37858923
 21
77.53573272
 31
0.0
  0
LINE
  5
68
330
141
100
AcDbEntity
  8
0
  6
Continuous
 62
     7
100
AcDbLine
 10
50.00670169
 20
75.03573272
 30
0.0
 11
31.37858923
 21
75.03573272
 31
0.0
  0
LINE
  5
69
330
141
100
AcDbEntity
  8
0
  6
Continuous
 62
     7
100
AcDbLine
 10
31.37858923
 20
75.03573278000001
 30
0.0
 11
31.37858923
 21
77.53573272
 31
0.0
  0
LINE
  5
6A
330
141
100
AcDbEntity
  8
0
  6
Continuous
 62
     7
100
AcDbLine
 10
31.37858923
 20
82.28573272
 30
0.0
 11
21.37858923
 21
82.28573272
 31
0.0
  0
LINE
  5
6B
330
141
100
AcDbEntity
  8
0
  6
Continuous
 62
     7
100
AcDbLine
 10
31.37858923
 20
81.28573272
 30
0.0
 11
21.37858923
 21
81.28573272
 31
0.0
  0
LINE
  5
6C
330
141
100
AcDbEntity
  8
0
  6
Continuous
 62
     7
100
AcDbLine
 10
31.37858923
 20
76.78573272
 30
0.0
 11
21.37858923
 21
76.78573272
 31
0.0
  0
LINE
  5
6D
330
141
100
AcDbEntity
  8
0
  6
Continuous
 62
     7
100
AcDbLine
 10
31.37858923
 20
75.78573271999998
 30
0.0
 11
21.37858923
 21
75.78573271999998
 31
0.0
  0
LINE
  5
6E
330
141
100
AcDbEntity
  8
0
  6
Continuous
 62
     7
100
AcDbLine
 10
31.37858923
 20
80.53573271999999
 30
0.0
 11
31.37858923
 21
83.03573278
 31
0.0
  0
LINE
  5
6F
330
141
100
AcDbEntity
  8
0
  6
Continuous
 62
     7
100
AcDbLine
 10
21.37858923
 20
82.28573272
 30
0.0
 11
21.37858923
 21
81.28573272
 31
0.0
  0
LINE
  5
70
330
141
100
AcDbEntity
  8
0
  6
Continuous
 62
     7
100
AcDbLine
 10
21.37858923
 20
76.78573272
 30
0.0
 11
21.37858923
 21
75.78573271999998
 31
0.0
  0
LINE
  5
71
330
141
100
AcDbEntity
  8
0
  6
Continuous
 62
     2
100
AcDbLine
 10
113.3156916
 20
79.01909736
 30
0.0
 11
10.96300339
 21
78.93573272000002
 31
0.0
  0
LINE
  5
72
330
141
100
AcDbEntity
  8
0
  6
Continuous
 62
     7
100
AcDbLine
 10
85.61519604
 20
66.03573272
 30
0.0
 11
66.11519604
 21
66.03573272
 31
0.0
  0
LINE
  5
73
330
141
100
AcDbEntity
  8
0
  6
Continuous
 62
     7
100
AcDbLine
 10
85.61519604
 20
92.03573271999999
 30
0.0
 11
66.11519604
 21
92.03573271999999
 31
0.0
  0
LINE
  5
74
330
141
100
AcDbEntity
  8
0
  6
Continuous
 62
     7
100
AcDbLine
 10
75.76519607999998
 20
21.24653575
 30
0.0
 11
139.76519608
 21
21.24653575
 31
0.0
  0
LINE
  5
75
330
141
100
AcDbEntity
  8
0
  6
Continuous
 62
     7
100
AcDbLine
 10
75.76519604000002
 20
21.24653575
 30
0.0
 11
75.76519604000002
 21
22.44653575
 31
0.0
  0
LINE
  5
76
330
141
100
AcDbEntity
  8
0
  6
Continuous
 62
     7
100
AcDbLine
 10
75.76519604000002
 20
22.44653575
 30
0.0
 11
139.76519604
 21
22.44653575
 31
0.0
  0
LINE
  5
77
330
141
100
AcDbEntity
  8
0
  6
Continuous
 62
     7
100
AcDbLine
 10
86.71519604
 20
24.44653575
 30
0.0
 11
86.71519604
 21
54.74653575
 31
0.0
  0
LINE
  5
78
330
141
100
AcDbEntity
  8
0
  6
Continuous
 62
     7
100
AcDbLine
 10
128.81519604
 20
24.44653575
 30
0.0
 11
128.81519604
 21
54.74653575
 31
0.0
  0
ARC
  5
79
330
141
100
AcDbEntity
  8
0
  6
Continuous
 62
     7
100
AcDbCircle
 10
130.81519604
 20
24.44653575
 30
0.0
 40
2.0
100
AcDbArc
 50
180.0
 51
270.0
  0
ARC
  5
7A
330
141
100
AcDbEntity
  8
0
  6
Continuous
 62
     7
100
AcDbCircle
 10
84.71519603999999
 20
24.44653575
 30
0.0
 40
2.0
100
AcDbArc
 50
270.0
 51
0.0
  0
LINE
  5
7B
330
141
100
AcDbEntity
  8
0
  6
Continuous
 62
     7
100
AcDbLine
 10
86.71519604
 20
29.24653575
 30
0.0
 11
128.81519604
 21
29.24653575
 31
0.0
  0
LINE
  5
7D
330
141
100
AcDbEntity
  8
0
  6
Continuous
 62
     7
100
AcDbLine
 10
86.71519604
 20
54.74653575
 30
0.0
 11
128.81519604
 21
54.74653575
 31
0.0
  0
LINE
  5
80
330
141
100
AcDbEntity
  8
0
  6
Continuous
 62
     7
100
AcDbLine
 10
128.41519604
 20
54.74653575
 30
0.0
 11
128.41519604
 21
97.24653575000001
 31
0.0
  0
LINE
  5
81
330
141
100
AcDbEntity
  8
0
  6
Continuous
 62
     7
100
AcDbLine
 10
87.11519604000001
 20
54.74653575
 30
0.0
 11
87.11519604000001
 21
59.20453648837927
 31
0.0
  0
ARC
  5
83
330
141
100
AcDbEntity
  8
0
  6
Continuous
 62
     7
100
AcDbCircle
 10
123.41519604
 20
97.24653575000001
 30
0.0
 40
5.0
100
AcDbArc
 50
0.0
 51
90.0
  0
LINE
  5
85
330
141
100
AcDbEntity
  8
0
  6
Continuous
 62
     2
100
AcDbLine
 10
102.94640785
 20
60.24653575
 30
0.0
 11
113.03891619
 21
60.24653575
 31
0.0
  0
LINE
  5
88
330
141
100
AcDbEntity
  8
0
  6
Continuous
 62
     7
100
AcDbLine
 10
85.61519604
 20
91.99653575000001
 30
0.0
 11
86.9773934509112
 21
98.30230256501067
 31
0.0
  0
CIRCLE
  5
A3
330
141
100
AcDbEntity
  8
0
  6
Continuous
 62
     7
100
AcDbCircle
 10
107.76519602
 20
60.24653575
 30
0.0
 40
3.5
  0
LINE
  5
A4
330
141
100
AcDbEntity
  8
0
  6
Continuous
 62
     7
100
AcDbLine
 10
106.3509824
 20
58.83232217999999
 30
0.0
 11
109.1794096
 21
61.66074925
 31
0.0
  0
LINE
  5
A5
330
141
100
AcDbEntity
  8
0
  6
Continuous
 62
     7
100
AcDbLine
 10
106.3509824
 20
61.66074925
 30
0.0
 11
109.17940956
 21
58.83232208999999
 31
0.0
  0
LINE
  5
A6
330
141
100
AcDbEntity
  8
0
  6
Continuous
 62
     2
100
AcDbLine
 10
127.37702873
 20
60.24653575
 30
0.0
 11
132.60109748
 21
60.24653575
 31
0.0
  0
ARC
  5
A7
330
141
100
AcDbEntity
  8
0
  6
Continuous
 62
     7
100
AcDbCircle
 10
129.41519604
 20
61.14653575
 30
0.0
 40
2.6
100
AcDbArc
 50
0.0
 51
90.0
  0
LINE
  5
A8
330
141
100
AcDbEntity
  8
0
  6
Continuous
 62
     7
100
AcDbLine
 10
128.41519604
 20
63.74653574999999
 30
0.0
 11
129.41519604
 21
63.74653574999999
 31
0.0
  0
LINE
  5
A9
330
141
100
AcDbEntity
  8
0
  6
Continuous
 62
     7
100
AcDbLine
 10
129.41519604
 20
56.74653575
 30
0.0
 11
129.41519604
 21
63.74653574999999
 31
0.0
  0
LINE
  5
AA
330
141
100
AcDbEntity
  8
0
  6
Continuous
 62
     7
100
AcDbLine
 10
128.41519604
 20
56.74653575
 30
0.0
 11
129.41519604
 21
56.74653575
 31
0.0
  0
LINE
  5
AB
330
141
100
AcDbEntity
  8
0
  6
Continuous
 62
     7
100
AcDbLine
 10
130.41519603
 20
58.64653569
 30
0.0
 11
132.01519606
 21
60.24653571
 31
0.0
  0
LINE
  5
AC
330
141
100
AcDbEntity
  8
0
  6
Continuous
 62
     7
100
AcDbLine
 10
130.41519603
 20
61.84653574
 30
0.0
 11
132.01519606
 21
60.24653571
 31
0.0
  0
ARC
  5
AD
330
141
100
AcDbEntity
  8
0
  6
Continuous
 62
     7
100
AcDbCircle
 10
129.41519604
 20
59.34653575
 30
0.0
 40
2.6
100
AcDbArc
 50
270.0
 51
0.0
  0
LINE
  5
AE
330
141
100
AcDbEntity
  8
0
  6
Continuous
 62
     7
100
AcDbLine
 10
132.01519604
 20
59.34653575
 30
0.0
 11
132.01519604
 21
61.14653575
 31
0.0
  0
CIRCLE
  5
B3
330
141
100
AcDbEntity
  8
0
  6
Continuous
 62
     7
100
AcDbCircle
 10
107.76519604
 20
43.74653574999999
 30
0.0
 40
5.5
  0
CIRCLE
  5
B4
330
141
100
AcDbEntity
  8
0
  6
Continuous
 62
     7
100
AcDbCircle
 10
107.76519604
 20
43.74653574999999
 30
0.0
 40
4.5
  0
LINE
  5
B5
330
141
100
AcDbEntity
  8
0
  6
Continuous
 62
     2
100
AcDbLine
 10
83.71519603999997
 20
43.74653574999999
 30
0.0
 11
138.9988501504338
 21
43.74653574999999
 31
0.0
  0
LINE
  5
B6
330
141
100
AcDbEntity
  8
0
  6
Continuous
 62
     7
100
AcDbLine
 10
107.76519604
 20
125.47114794
 30
0.0
 11
107.76519604
 21
15.08716075
 31
0.0
  0
ARC
  5
C5
330
141
100
AcDbEntity
  8
0
  6
Continuous
 62
     7
100
AcDbCircle
 10
-76.58480396
 20
97.24653575000001
 30
0.0
 40
5.0
100
AcDbArc
 50
0.0
 51
90.0
  0
ARC
  5
C6
330
141
100
AcDbEntity
  8
0
  6
Continuous
 62
     7
100
AcDbCircle
 10
-107.88480396
 20
97.24653575000001
 30
0.0
 40
5.0
100
AcDbArc
 50
90.0
 51
180.0
  0
LINE
  5
C7
330
141
100
AcDbEntity
  8
0
  6
Continuous
 62
     7
100
AcDbLine
 10
-107.88480396
 20
102.24653575
 30
0.0
 11
-76.58480396
 21
102.24653575
 31
0.0
  0
LINE
  5
C8
330
141
100
AcDbEntity
  8
0
  6
Continuous
 62
     2
100
AcDbLine
 10
-108.67724035
 20
78.99653575000002
 30
0.0
 11
-74.70690084000001
 21
78.99653575000002
 31
0.0
  0
CIRCLE
  5
C9
330
141
100
AcDbEntity
  8
0
  6
Continuous
 62
     7
100
AcDbCircle
 10
-92.23480395999999
 20
78.99653575000002
 30
0.0
 40
13.0
  0
CIRCLE
  5
CA
330
141
100
AcDbEntity
  8
0
  6
Continuous
 62
     7
100
AcDbCircle
 10
-92.23480395999999
 20
78.99653575000002
 30
0.0
 40
7.5
  0
LINE
  5
CB
330
141
100
AcDbEntity
  8
0
  6
Continuous
 62
     2
100
AcDbLine
 10
-97.38102236999999
 20
81.74653575
 30
0.0
 11
-87.46504329999998
 21
81.74653575
 31
0.0
  0
LINE
  5
CC
330
141
100
AcDbEntity
  8
0
  6
Continuous
 62
     2
100
AcDbLine
 10
-97.38102236999999
 20
76.24653575
 30
0.0
 11
-87.46504329999998
 21
76.24653575
 31
0.0
  0
CIRCLE
  5
CD
330
141
100
AcDbEntity
  8
0
  6
Continuous
 62
     7
100
AcDbCircle
 10
-92.23480395999999
 20
76.24653575
 30
0.0
 40
2.5
  0
CIRCLE
  5
CE
330
141
100
AcDbEntity
  8
0
  6
Continuous
 62
     7
100
AcDbCircle
 10
-92.23480395999999
 20
81.74653575
 30
0.0
 40
2.5
  0
ARC
  5
CF
330
141
100
AcDbEntity
  8
0
  6
Continuous
 62
     7
100
AcDbCircle
 10
-92.23480395999999
 20
78.99653575000002
 30
0.0
 40
20.0
100
AcDbArc
 50
14.47751219
 51
165.52248781
  0
CIRCLE
  5
D0
330
141
100
AcDbEntity
  8
0
  6
Continuous
 62
     7
100
AcDbCircle
 10
-92.23480395999999
 20
81.74653575
 30
0.0
 40
1.0
  0
CIRCLE
  5
D1
330
141
100
AcDbEntity
  8
0
  6
Continuous
 62
     7
100
AcDbCircle
 10
-92.23480395999999
 20
76.24653575
 30
0.0
 40
1.0
  0
ARC
  5
D4
330
141
100
AcDbEntity
  8
0
  6
Continuous
 62
     7
100
AcDbCircle
 10
-92.23480395999999
 20
78.99653575000002
 30
0.0
 40
20.0
100
AcDbArc
 50
194.47751219
 51
345.52248781
  0
LINE
  5
D5
330
141
100
AcDbEntity
  8
0
  6
Continuous
 62
     7
100
AcDbLine
 10
-71.58480396000001
 20
54.74653575000001
 30
0.0
 11
-71.58480396
 21
97.24653575000001
 31
0.0
  0
LINE
  5
D6
330
141
100
AcDbEntity
  8
0
  6
Continuous
 62
     7
100
AcDbLine
 10
-112.88480396
 20
97.24653575000001
 30
0.0
 11
-112.88480396
 21
54.74653575
 31
0.0
  0
LINE
  5
D7
330
141
100
AcDbEntity
  8
0
  6
Continuous
 62
     2
100
AcDbLine
 10
-92.23480395999999
 20
133.8665714514472
 30
0.0
 11
-92.23480395999999
 21
15.08716075
 31
0.0
  0
CIRCLE
  5
D8
330
141
100
AcDbEntity
  8
0
  6
Continuous
 62
     7
100
AcDbCircle
 10
-92.23480395999999
 20
43.74653574999999
 30
0.0
 40
4.5
  0
CIRCLE
  5
D9
330
141
100
AcDbEntity
  8
0
  6
Continuous
 62
     7
100
AcDbCircle
 10
-92.23480395999999
 20
43.74653574999999
 30
0.0
 40
5.5
  0
LINE
  5
DB
330
141
100
AcDbEntity
  8
0
  6
Continuous
 62
     7
100
AcDbLine
 10
-112.93480398
 20
56.74653575
 30
0.0
 11
-113.93480398
 21
56.74653575
 31
0.0
  0
LINE
  5
DC
330
141
100
AcDbEntity
  8
0
  6
Continuous
 62
     7
100
AcDbLine
 10
-116.53480403
 20
60.24653571
 30
0.0
 11
-114.93480398
 21
58.64653566
 31
0.0
  0
ARC
  5
DD
330
141
100
AcDbEntity
  8
0
  6
Continuous
 62
     7
100
AcDbCircle
 10
-113.93480398
 20
59.34653575
 30
0.0
 40
2.6
100
AcDbArc
 50
180.0
 51
270.0
  0
ARC
  5
DE
330
141
100
AcDbEntity
  8
0
  6
Continuous
 62
     7
100
AcDbCircle
 10
-113.93480398
 20
61.14653575
 30
0.0
 40
2.6
100
AcDbArc
 50
90.0
 51
180.0
  0
LINE
  5
DF
330
141
100
AcDbEntity
  8
0
  6
Continuous
 62
     7
100
AcDbLine
 10
-116.53480403
 20
60.24653571
 30
0.0
 11
-114.93480398
 21
61.84653577
 31
0.0
  0
LINE
  5
E0
330
141
100
AcDbEntity
  8
0
  6
Continuous
 62
     7
100
AcDbLine
 10
-116.53480398
 20
59.34653575
 30
0.0
 11
-116.53480398
 21
61.14653575
 31
0.0
  0
LINE
  5
E1
330
141
100
AcDbEntity
  8
0
  6
Continuous
 62
     7
100
AcDbLine
 10
-112.93480398
 20
63.74653574999999
 30
0.0
 11
-113.93480398
 21
63.74653574999999
 31
0.0
  0
LINE
  5
E2
330
141
100
AcDbEntity
  8
0
  6
Continuous
 62
     7
100
AcDbLine
 10
-113.93480398
 20
56.74653575
 30
0.0
 11
-113.93480398
 21
63.74653574999999
 31
0.0
  0
LINE
  5
E3
330
141
100
AcDbEntity
  8
0
  6
Continuous
 62
     7
100
AcDbLine
 10
-67.93480397999998
 20
59.34653575
 30
0.0
 11
-67.93480397999998
 21
61.14653575
 31
0.0
  0
LINE
  5
E4
330
141
100
AcDbEntity
  8
0
  6
Continuous
 62
     7
100
AcDbLine
 10
-71.53480398000002
 20
56.74653575
 30
0.0
 11
-70.53480398000002
 21
56.74653575
 31
0.0
  0
LINE
  5
E5
330
141
100
AcDbEntity
  8
0
  6
Continuous
 62
     7
100
AcDbLine
 10
-70.53480398000002
 20
56.74653575
 30
0.0
 11
-70.53480398000002
 21
63.74653574999999
 31
0.0
  0
LINE
  5
E6
330
141
100
AcDbEntity
  8
0
  6
Continuous
 62
     7
100
AcDbLine
 10
-69.53480399
 20
58.64653569
 30
0.0
 11
-67.93480395999999
 21
60.24653571
 31
0.0
  0
ARC
  5
E7
330
141
100
AcDbEntity
  8
0
  6
Continuous
 62
     7
100
AcDbCircle
 10
-70.53480398000002
 20
59.34653575
 30
0.0
 40
2.6
100
AcDbArc
 50
270.0
 51
0.0
  0
LINE
  5
E8
330
141
100
AcDbEntity
  8
0
  6
Continuous
 62
     7
100
AcDbLine
 10
-69.53480399
 20
61.84653574
 30
0.0
 11
-67.93480395999999
 21
60.24653571
 31
0.0
  0
LINE
  5
E9
330
141
100
AcDbEntity
  8
0
  6
Continuous
 62
     7
100
AcDbLine
 10
-71.53480398000002
 20
63.74653574999999
 30
0.0
 11
-70.53480398000002
 21
63.74653574999999
 31
0.0
  0
ARC
  5
EA
330
141
100
AcDbEntity
  8
0
  6
Continuous
 62
     7
100
AcDbCircle
 10
-70.53480398000002
 20
61.14653575
 30
0.0
 40
2.6
100
AcDbArc
 50
0.0
 51
90.0
  0
LINE
  5
103
330
141
100
AcDbEntity
  8
0
  6
Continuous
 62
     2
100
AcDbLine
 10
-73.47983979999998
 20
60.24653575
 30
0.0
 11
-66.53013683000001
 21
60.24653575
 31
0.0
  0
LINE
  5
107
330
141
100
AcDbEntity
  8
0
  6
Continuous
 62
     7
100
AcDbLine
 10
-60.23480396
 20
21.24653571
 30
0.0
 11
-60.23480396
 21
22.44653576
 31
0.0
  0
LINE
  5
108
330
141
100
AcDbEntity
  8
0
  6
Continuous
 62
     7
100
AcDbLine
 10
-124.23480396
 20
21.24653571
 30
0.0
 11
-124.23480396
 21
22.44653575
 31
0.0
  0
ARC
  5
109
330
141
100
AcDbEntity
  8
0
  6
Continuous
 62
     7
100
AcDbCircle
 10
-115.23480396
 20
24.44653575
 30
0.0
 40
2.0
100
AcDbArc
 50
270.0
 51
0.0
  0
ARC
  5
10A
330
141
100
AcDbEntity
  8
0
  6
Continuous
 62
     7
100
AcDbCircle
 10
-69.23480395999999
 20
24.44653575
 30
0.0
 40
2.0
100
AcDbArc
 50
180.0
 51
270.0
  0
LINE
  5
10B
330
141
100
AcDbEntity
  8
0
  6
Continuous
 62
     7
100
AcDbLine
 10
-71.23480395999997
 20
24.44653576
 30
0.0
 11
-71.23480395999997
 21
54.74653575
 31
0.0
  0
LINE
  5
10C
330
141
100
AcDbEntity
  8
0
  6
Continuous
 62
     7
100
AcDbLine
 10
-113.23480396
 20
24.44653576
 30
0.0
 11
-113.23480396
 21
54.74653575
 31
0.0
  0
LINE
  5
10D
330
141
100
AcDbEntity
  8
0
  6
Continuous
 62
     7
100
AcDbLine
 10
-124.23480399
 20
22.44653575
 30
0.0
 11
-60.23480399
 21
22.44653575
 31
0.0
  0
LINE
  5
10E
330
141
100
AcDbEntity
  8
0
  6
Continuous
 62
     7
100
AcDbLine
 10
-124.23480399
 20
21.24653575
 30
0.0
 11
-60.23480399
 21
21.24653575
 31
0.0
  0
LINE
  5
10F
330
141
100
AcDbEntity
  8
0
  6
Continuous
 62
     7
100
AcDbLine
 10
-113.23480399
 20
29.24653575
 30
0.0
 11
-71.23480399
 21
29.24653575
 31
0.0
  0
LINE
  5
110
330
141
100
AcDbEntity
  8
0
  6
Continuous
 62
     2
100
AcDbLine
 10
-118.07691307
 20
60.24653575
 30
0.0
 11
-110.73024775
 21
60.24653575
 31
0.0
  0
LINE
  5
111
330
141
100
AcDbEntity
  8
0
  6
Continuous
 62
     7
100
AcDbLine
 10
-113.23480399
 20
54.74653575
 30
0.0
 11
-71.23480399
 21
54.74653575
 31
0.0
  0
LINE
  5
113
330
141
100
AcDbEntity
  8
0
  6
Continuous
 62
     7
100
AcDbLine
 10
139.76519604
 20
22.44653575
 30
0.0
 11
139.76519604
 21
21.24653575
 31
0.0
  0
TEXT
  5
115
330
141
100
AcDbEntity
  8
0
  6
Continuous
 62
     7
100
AcDbText
 10
-268.22542379
 20
167.349999905
 30
0.0
 40
6.30000019
  1
MODEL:062-4E1-21-70-81
 41
1.118644069999998
  7
MX_NOTE_STANDARD
 11
-268.22542379
 21
170.5
 31
0.0
100
AcDbText
 73
     2
  0
LINE
  5
116
330
141
100
AcDbEntity
  8
0
  6
Continuous
 62
   254
100
AcDbLine
 10
282.09985352
 20
195.5
 30
0.0
 11
282.09985352
 21
-195.0
 31
0.0
  0
LINE
  5
117
330
141
100
AcDbEntity
  8
0
  6
Continuous
 62
   254
100
AcDbLine
 10
-281.25
 20
195.5
 30
0.0
 11
282.09985352
 21
195.5
 31
0.0
  0
LINE
  5
118
330
141
100
AcDbEntity
  8
0
  6
Continuous
 62
   254
100
AcDbLine
 10
-281.25
 20
195.5
 30
0.0
 11
-281.25
 21
-195.0
 31
0.0
  0
LINE
  5
119
330
141
100
AcDbEntity
  8
0
  6
Continuous
 62
   254
100
AcDbLine
 10
-281.25
 20
-195.0
 30
0.0
 11
282.09985352
 21
-195.0
 31
0.0
  0
ARC
  5
16D
330
141
100
AcDbEntity
  8
0
  6
Continuous
 62
     7
100
AcDbCircle
 10
-87.47603817999998
 20
114.19081998
 30
0.0
 40
13.55571577
100
AcDbArc
 50
69.40881255999967
 51
110.5911874400003
  0
ARC
  5
16E
330
141
100
AcDbEntity
  8
0
  6
Continuous
 62
     7
100
AcDbCircle
 10
-97.00231762000001
 20
114.23893331
 30
0.0
 40
13.50760244
100
AcDbArc
 50
69.37177221999963
 51
110.6282277800003
  0
LINE
  5
16F
330
141
100
AcDbEntity
  8
0
  6
Continuous
 62
     7
100
AcDbLine
 10
-82.70852451999997
 20
124.74653571
 30
0.0
 11
-82.70852451999997
 21
127.74653575
 31
0.0
  0
LINE
  5
170
330
141
100
AcDbEntity
  8
0
  6
Continuous
 62
     7
100
AcDbLine
 10
-101.76108341
 20
124.74653571
 30
0.0
 11
-101.76108341
 21
127.74653575
 31
0.0
  0
LINE
  5
171
330
141
100
AcDbEntity
  8
0
  6
Continuous
 62
     7
100
AcDbLine
 10
-77.23480395999998
 20
112.74653575
 30
0.0
 11
-107.23480396
 21
112.74653575
 31
0.0
  0
LINE
  5
172
330
141
100
AcDbEntity
  8
0
  6
Continuous
 62
     7
100
AcDbLine
 10
-79.18493999
 20
112.74653564
 30
0.0
 11
-79.66612764999998
 21
118.24653575
 31
0.0
  0
LINE
  5
173
330
141
100
AcDbEntity
  8
0
  6
Continuous
 62
     7
100
AcDbLine
 10
-84.58835737999997
 20
128.10008914
 30
0.0
 11
-99.88125055000001
 21
128.10008914
 31
0.0
  0
LINE
  5
174
330
141
100
AcDbEntity
  8
0
  6
Continuous
 62
     7
100
AcDbLine
 10
-99.88125057000001
 20
128.10008914
 30
0.0
 11
-99.88125057000001
 21
127.74653575
 31
0.0
  0
LINE
  5
175
330
141
100
AcDbEntity
  8
0
  6
Continuous
 62
     7
100
AcDbLine
 10
-84.58835734999999
 20
128.10008914
 30
0.0
 11
-84.58835734999999
 21
127.74653575
 31
0.0
  0
LINE
  5
176
330
141
100
AcDbEntity
  8
0
  6
Continuous
 62
     7
100
AcDbLine
 10
-99.23480396
 20
128.74653575
 30
0.0
 11
-99.88125057000001
 21
128.10008914
 31
0.0
  0
LINE
  5
177
330
141
100
AcDbEntity
  8
0
  6
Continuous
 62
     7
100
AcDbLine
 10
-84.58835734999999
 20
128.10008914
 30
0.0
 11
-85.23480396
 21
128.74653575
 31
0.0
  0
LINE
  5
178
330
141
100
AcDbEntity
  8
0
  6
Continuous
 62
     7
100
AcDbLine
 10
-85.23480396
 20
128.74653575
 30
0.0
 11
-85.23480396
 21
127.74653575
 31
0.0
  0
LINE
  5
179
330
141
100
AcDbEntity
  8
0
  6
Continuous
 62
     7
100
AcDbLine
 10
-99.23480396
 20
128.74653575
 30
0.0
 11
-99.23480396
 21
127.74653575
 31
0.0
  0
LINE
  5
17A
330
141
100
AcDbEntity
  8
0
  6
Continuous
 62
     7
100
AcDbLine
 10
-82.73480396
 20
127.74653575
 30
0.0
 11
-101.76108341
 21
127.74653575
 31
0.0
  0
LINE
  5
17B
330
141
100
AcDbEntity
  8
0
  6
Continuous
 62
     7
100
AcDbLine
 10
-85.23480396
 20
128.74653575
 30
0.0
 11
-99.23480396
 21
128.74653575
 31
0.0
  0
LINE
  5
17C
330
141
100
AcDbEntity
  8
0
  6
Continuous
 62
     7
100
AcDbLine
 10
-105.28466791
 20
112.74653588
 30
0.0
 11
-104.80348028
 21
118.24653575
 31
0.0
  0
LINE
  5
17D
330
141
100
AcDbEntity
  8
0
  6
Continuous
 62
     7
100
AcDbLine
 10
-80.23480396
 20
124.74653575
 30
0.0
 11
-104.23480396
 21
124.74653575
 31
0.0
  0
LINE
  5
17E
330
141
100
AcDbEntity
  8
0
  6
Continuous
 62
     7
100
AcDbLine
 10
-78.23480395999998
 20
112.74653575
 30
0.0
 11
-78.23480395999998
 21
102.24653575
 31
0.0
  0
LINE
  5
17F
330
141
100
AcDbEntity
  8
0
  6
Continuous
 62
     7
100
AcDbLine
 10
-77.23480395999998
 20
112.74653575
 30
0.0
 11
-77.23480395999998
 21
102.24653575
 31
0.0
  0
LINE
  5
180
330
141
100
AcDbEntity
  8
0
  6
Continuous
 62
     7
100
AcDbLine
 10
-107.23480396
 20
112.74653575
 30
0.0
 11
-107.23480396
 21
102.24653575
 31
0.0
  0
LINE
  5
181
330
141
100
AcDbEntity
  8
0
  6
Continuous
 62
     7
100
AcDbLine
 10
-80.23480396
 20
112.74653575
 30
0.0
 11
-80.23480396
 21
102.24653575
 31
0.0
  0
LINE
  5
182
330
141
100
AcDbEntity
  8
0
  6
Continuous
 62
     7
100
AcDbLine
 10
-83.23480395999999
 20
112.74653575
 30
0.0
 11
-83.23480395999999
 21
102.24653575
 31
0.0
  0
LINE
  5
183
330
141
100
AcDbEntity
  8
0
  6
Continuous
 62
     7
100
AcDbLine
 10
-87.23480395999997
 20
112.74653575
 30
0.0
 11
-87.23480395999997
 21
102.24653575
 31
0.0
  0
LINE
  5
184
330
141
100
AcDbEntity
  8
0
  6
Continuous
 62
     7
100
AcDbLine
 10
-76.58480396
 20
102.24653575
 30
0.0
 11
-107.88480396
 21
102.24653575
 31
0.0
  0
LINE
  5
185
330
141
100
AcDbEntity
  8
0
  6
Continuous
 62
     7
100
AcDbLine
 10
-104.80348028
 20
118.24653575
 30
0.0
 11
-104.23480398
 21
124.74653564
 31
0.0
  0
LINE
  5
186
330
141
100
AcDbEntity
  8
0
  6
Continuous
 62
     7
100
AcDbLine
 10
-79.66612764999998
 20
118.24653575
 30
0.0
 11
-80.23480394999998
 21
124.74653564
 31
0.0
  0
LINE
  5
187
330
141
100
AcDbEntity
  8
0
  6
Continuous
 62
     7
100
AcDbLine
 10
-92.23480395999999
 20
126.88379356
 30
0.0
 11
-92.23480395999999
 21
124.74653575
 31
0.0
  0
ARC
  5
18B
330
141
100
AcDbEntity
  8
0
  6
Continuous
 62
     7
100
AcDbCircle
 10
-117.23480396
 20
-62.50346425
 30
0.0
 40
7.0
100
AcDbArc
 50
90.00000000000005
 51
180.0
  0
LINE
  5
18E
330
141
100
AcDbEntity
  8
0
  6
Continuous
 62
     7
100
AcDbLine
 10
-60.23480395999998
 20
-62.50346425
 30
0.0
 11
-60.23480396
 21
-112.5034642499999
 31
0.0
  0
LINE
  5
190
330
141
100
AcDbEntity
  8
0
  6
Continuous
 62
     7
100
AcDbLine
 10
-117.23480396
 20
-119.50346425
 30
0.0
 11
-67.23480395999999
 21
-119.50346425
 31
0.0
  0
ARC
  5
191
330
141
100
AcDbEntity
  8
0
  6
Continuous
 62
     7
100
AcDbCircle
 10
-67.23480395999998
 20
-62.50346425
 30
0.0
 40
7.0
100
AcDbArc
 50
0.0
 51
90.0
  0
ARC
  5
192
330
141
100
AcDbEntity
  8
0
  6
Continuous
 62
     7
100
AcDbCircle
 10
-67.23480395999999
 20
-112.5034642499999
 30
0.0
 40
7.0
100
AcDbArc
 50
270.0
 51
0.0
  0
ARC
  5
193
330
141
100
AcDbEntity
  8
0
  6
Continuous
 62
     7
100
AcDbCircle
 10
-117.23480396
 20
-112.50346425
 30
0.0
 40
7.0
100
AcDbArc
 50
180.0
 51
270.0
  0
LINE
  5
19B
330
141
100
AcDbEntity
  8
0
  6
Continuous
 62
     7
100
AcDbLine
 10
85.63637261328493
 20
65.99655299004293
 30
0.0
 11
87.14768163474666
 21
59.05533497344528
 31
0.0
  0
ARC
  5
19C
330
141
100
AcDbEntity
  8
0
  6
Continuous
 62
     7
100
AcDbCircle
 10
85.61519604000645
 20
78.99653574206013
 30
0.0
 40
20.0
100
AcDbArc
 50
274.3945552853853
 51
341.4959723153848
  0
ARC
  5
19D
330
141
100
AcDbEntity
  8
0
  6
Continuous
 62
     7
100
AcDbCircle
 10
85.61519603999997
 20
78.99653575000002
 30
0.0
 40
20.0
100
AcDbArc
 50
18.59736067000017
 51
85.5727969437582
  0
ARC
  5
1A0
330
141
100
AcDbEntity
  8
0
  6
Continuous
 62
     7
100
AcDbCircle
 10
91.86465816978229
 20
97.24653575000001
 30
0.0
 40
5.0
100
AcDbArc
 50
90.0
 51
167.8100491788731
  0
LINE
  5
1C7
330
141
100
AcDbEntity
  8
0
  6
Continuous
 62
     7
100
AcDbLine
 10
91.86465816978229
 20
102.24653575
 30
0.0
 11
123.41519604
 21
102.24653575
 31
0.0
  0
LINE
  5
1C8
330
141
100
AcDbEntity
  8
0
  6
Continuous
 62
     2
100
AcDbLine
 10
107.76519604
 20
133.8665714514472
 30
0.0
 11
107.76519604
 21
15.08716075
 31
0.0
  0
ARC
  5
1C9
330
141
100
AcDbEntity
  8
0
  6
Continuous
 62
     7
100
AcDbCircle
 10
112.52396182
 20
114.19081998
 30
0.0
 40
13.55571577
100
AcDbArc
 50
69.40881255999967
 51
110.5911874400003
  0
ARC
  5
1CA
330
141
100
AcDbEntity
  8
0
  6
Continuous
 62
     7
100
AcDbCircle
 10
102.99768238
 20
114.23893331
 30
0.0
 40
13.50760244
100
AcDbArc
 50
69.37177222000038
 51
110.6282277799996
  0
LINE
  5
1CB
330
141
100
AcDbEntity
  8
0
  6
Continuous
 62
     7
100
AcDbLine
 10
117.29147548
 20
124.74653571
 30
0.0
 11
117.29147548
 21
127.74653575
 31
0.0
  0
LINE
  5
1CC
330
141
100
AcDbEntity
  8
0
  6
Continuous
 62
     7
100
AcDbLine
 10
98.23891659
 20
124.74653571
 30
0.0
 11
98.23891659
 21
127.74653575
 31
0.0
  0
LINE
  5
1CD
330
141
100
AcDbEntity
  8
0
  6
Continuous
 62
     7
100
AcDbLine
 10
122.76519604
 20
112.74653575
 30
0.0
 11
92.76519604
 21
112.74653575
 31
0.0
  0
LINE
  5
1CE
330
141
100
AcDbEntity
  8
0
  6
Continuous
 62
     7
100
AcDbLine
 10
120.81506001
 20
112.74653564
 30
0.0
 11
120.33387235
 21
118.24653575
 31
0.0
  0
LINE
  5
1CF
330
141
100
AcDbEntity
  8
0
  6
Continuous
 62
     7
100
AcDbLine
 10
115.41164262
 20
128.10008914
 30
0.0
 11
100.11874945
 21
128.10008914
 31
0.0
  0
LINE
  5
1D0
330
141
100
AcDbEntity
  8
0
  6
Continuous
 62
     7
100
AcDbLine
 10
100.11874943
 20
128.10008914
 30
0.0
 11
100.11874943
 21
127.74653575
 31
0.0
  0
LINE
  5
1D1
330
141
100
AcDbEntity
  8
0
  6
Continuous
 62
     7
100
AcDbLine
 10
115.41164265
 20
128.10008914
 30
0.0
 11
115.41164265
 21
127.74653575
 31
0.0
  0
LINE
  5
1D2
330
141
100
AcDbEntity
  8
0
  6
Continuous
 62
     7
100
AcDbLine
 10
100.76519604
 20
128.74653575
 30
0.0
 11
100.11874943
 21
128.10008914
 31
0.0
  0
LINE
  5
1D3
330
141
100
AcDbEntity
  8
0
  6
Continuous
 62
     7
100
AcDbLine
 10
115.41164265
 20
128.10008914
 30
0.0
 11
114.76519604
 21
128.74653575
 31
0.0
  0
LINE
  5
1D4
330
141
100
AcDbEntity
  8
0
  6
Continuous
 62
     7
100
AcDbLine
 10
114.76519604
 20
128.74653575
 30
0.0
 11
114.76519604
 21
127.74653575
 31
0.0
  0
LINE
  5
1D5
330
141
100
AcDbEntity
  8
0
  6
Continuous
 62
     7
100
AcDbLine
 10
100.76519604
 20
128.74653575
 30
0.0
 11
100.76519604
 21
127.74653575
 31
0.0
  0
LINE
  5
1D6
330
141
100
AcDbEntity
  8
0
  6
Continuous
 62
     7
100
AcDbLine
 10
117.26519604
 20
127.74653575
 30
0.0
 11
98.23891659
 21
127.74653575
 31
0.0
  0
LINE
  5
1D7
330
141
100
AcDbEntity
  8
0
  6
Continuous
 62
     7
100
AcDbLine
 10
114.76519604
 20
128.74653575
 30
0.0
 11
100.76519604
 21
128.74653575
 31
0.0
  0
LINE
  5
1D8
330
141
100
AcDbEntity
  8
0
  6
Continuous
 62
     7
100
AcDbLine
 10
94.71533209
 20
112.74653588
 30
0.0
 11
95.19651972
 21
118.24653575
 31
0.0
  0
LINE
  5
1D9
330
141
100
AcDbEntity
  8
0
  6
Continuous
 62
     7
100
AcDbLine
 10
119.76519604
 20
124.74653575
 30
0.0
 11
95.76519604000001
 21
124.74653575
 31
0.0
  0
LINE
  5
1DA
330
141
100
AcDbEntity
  8
0
  6
Continuous
 62
     7
100
AcDbLine
 10
121.76519604
 20
112.74653575
 30
0.0
 11
121.76519604
 21
102.24653575
 31
0.0
  0
LINE
  5
1DB
330
141
100
AcDbEntity
  8
0
  6
Continuous
 62
     7
100
AcDbLine
 10
122.76519604
 20
112.74653575
 30
0.0
 11
122.76519604
 21
102.24653575
 31
0.0
  0
LINE
  5
1DC
330
141
100
AcDbEntity
  8
0
  6
Continuous
 62
     7
100
AcDbLine
 10
92.76519604
 20
112.74653575
 30
0.0
 11
92.76519604
 21
102.24653575
 31
0.0
  0
LINE
  5
1DD
330
141
100
AcDbEntity
  8
0
  6
Continuous
 62
     7
100
AcDbLine
 10
119.76519604
 20
112.74653575
 30
0.0
 11
119.76519604
 21
102.24653575
 31
0.0
  0
LINE
  5
1DE
330
141
100
AcDbEntity
  8
0
  6
Continuous
 62
     7
100
AcDbLine
 10
116.76519604
 20
112.74653575
 30
0.0
 11
116.76519604
 21
102.24653575
 31
0.0
  0
LINE
  5
1DF
330
141
100
AcDbEntity
  8
0
  6
Continuous
 62
     7
100
AcDbLine
 10
112.76519604
 20
112.74653575
 30
0.0
 11
112.76519604
 21
102.24653575
 31
0.0
  0
LINE
  5
1E0
330
141
100
AcDbEntity
  8
0
  6
Continuous
 62
     7
100
AcDbLine
 10
95.19651972
 20
118.24653575
 30
0.0
 11
95.76519602000001
 21
124.74653564
 31
0.0
  0
LINE
  5
1E1
330
141
100
AcDbEntity
  8
0
  6
Continuous
 62
     7
100
AcDbLine
 10
120.33387235
 20
118.24653575
 30
0.0
 11
119.76519605
 21
124.74653564
 31
0.0
  0
LINE
  5
1E2
330
141
100
AcDbEntity
  8
0
  6
Continuous
 62
     7
100
AcDbLine
 10
107.76519604
 20
126.88379356
 30
0.0
 11
107.76519604
 21
124.74653575
 31
0.0
  0
LINE
  5
2C2
330
141
100
AcDbEntity
  8
0
  6
DASHED
 62
     2
100
AcDbLine
 10
-104.2348079599999
 20
50.23169375
 30
0.0
 11
-113.23480396
 21
50.51295774999999
 31
0.0
  0
LINE
  5
2C3
330
141
100
AcDbEntity
  8
0
  6
DASHED
 62
     2
100
AcDbLine
 10
-104.23480396
 20
49.37528074999999
 30
0.0
 11
-113.23480396
 21
49.65654475
 31
0.0
  0
LINE
  5
2C4
330
141
100
AcDbEntity
  8
0
  6
DASHED
 62
     2
100
AcDbLine
 10
-104.23480396
 20
38.11778775
 30
0.0
 11
-113.23480396
 21
37.83652375
 31
0.0
  0
LINE
  5
2C5
330
141
100
AcDbEntity
  8
0
  6
DASHED
 62
     2
100
AcDbLine
 10
-104.23480396
 20
37.26136775
 30
0.0
 11
-113.23479996
 21
36.98010175
 31
0.0
  0
LINE
  5
2CA
330
141
100
AcDbEntity
  8
0
  6
DASHED
 62
     2
100
AcDbLine
 10
-80.23479996
 20
50.23169375
 30
0.0
 11
-71.23480395999997
 21
50.51295774999999
 31
0.0
  0
LINE
  5
2CB
330
141
100
AcDbEntity
  8
0
  6
DASHED
 62
     2
100
AcDbLine
 10
-80.23480396
 20
49.37528074999999
 30
0.0
 11
-71.23480395999997
 21
49.65654475
 31
0.0
  0
LINE
  5
2CC
330
141
100
AcDbEntity
  8
0
  6
DASHED
 62
     2
100
AcDbLine
 10
-80.23480396
 20
38.11778775
 30
0.0
 11
-71.23480395999997
 21
37.83652375
 31
0.0
  0
LINE
  5
2CD
330
141
100
AcDbEntity
  8
0
  6
DASHED
 62
     2
100
AcDbLine
 10
-80.23480396
 20
37.26136775
 30
0.0
 11
-71.23480795999999
 21
36.98010175
 31
0.0
  0
LINE
  5
2E3
330
141
100
AcDbEntity
  8
0
  6
Continuous
100
AcDbLine
 10
128.81519604
 20
51.74653575
 30
0.0
 11
131.8151960399999
 21
51.74653574999999
 31
0.0
  0
LINE
  5
2E4
330
141
100
AcDbEntity
  8
0
  6
Continuous
100
AcDbLine
 10
128.81519604
 20
35.74653575
 30
0.0
 11
131.81519604
 21
35.74653575000001
 31
0.0
  0
LINE
  5
2E5
330
141
100
AcDbEntity
  8
0
  6
Continuous
100
AcDbLine
 10
132.3151960399999
 20
51.24653574999999
 30
0.0
 11
132.31519604
 21
36.24653575000002
 31
0.0
  0
LINE
  5
2E9
330
141
100
AcDbEntity
  8
0
  6
Continuous
100
AcDbLine
 10
132.31519604
 20
36.24653575000002
 30
0.0
 11
131.81519604
 21
35.74653575000001
 31
0.0
  0
LINE
  5
2EA
330
141
100
AcDbEntity
  8
0
  6
Continuous
100
AcDbLine
 10
131.8151960399999
 20
51.74653574999999
 30
0.0
 11
132.3151960399999
 21
51.24653574999999
 31
0.0
  0
LINE
  5
2ED
330
141
100
AcDbEntity
  8
0
  6
Continuous
100
AcDbLine
 10
132.3151960399999
 20
50.32153575
 30
0.0
 11
135.31519604
 21
50.32153574999998
 31
0.0
  0
LINE
  5
2EE
330
141
100
AcDbEntity
  8
0
  6
Continuous
 62
     7
100
AcDbLine
 10
135.81519604
 20
37.67153575000003
 30
0.0
 11
135.81519604
 21
49.82153574999999
 31
0.0
  0
LINE
  5
2EF
330
141
100
AcDbEntity
  8
0
  6
Continuous
100
AcDbLine
 10
135.31519604
 20
50.32153574999998
 30
0.0
 11
135.81519604
 21
49.82153574999999
 31
0.0
  0
LINE
  5
2F0
330
141
100
AcDbEntity
  8
0
  6
Continuous
100
AcDbLine
 10
132.31519604
 20
37.17153575000003
 30
0.0
 11
135.31519604
 21
37.17153575000003
 31
0.0
  0
LINE
  5
2F1
330
141
100
AcDbEntity
  8
0
  6
Continuous
100
AcDbLine
 10
135.31519604
 20
37.17153575000003
 30
0.0
 11
135.81519604
 21
37.67153575000003
 31
0.0
  0
LINE
  5
2F8
330
141
100
AcDbEntity
  8
0
  6
Continuous
 62
     2
100
AcDbLine
 10
126.9531892730215
 20
46.14653575000001
 30
0.0
 11
138.9988501504338
 21
46.14653575000001
 31
0.0
  0
LINE
  5
2F9
330
141
100
AcDbEntity
  8
0
  6
Continuous
 62
     7
100
AcDbLine
 10
138.81519604
 20
46.44653575000001
 30
0.0
 11
138.81519604
 21
47.14653574999999
 31
0.0
  0
LINE
  5
2FA
330
141
100
AcDbEntity
  8
0
  6
Continuous
 62
     7
100
AcDbLine
 10
135.81519604
 20
47.64653574999999
 30
0.0
 11
138.31519604
 21
47.64653574999999
 31
0.0
  0
LINE
  5
2FB
330
141
100
AcDbEntity
  8
0
  6
Continuous
 62
     7
100
AcDbLine
 10
135.81519604
 20
44.64653574999998
 30
0.0
 11
138.31519604
 21
44.64653574999998
 31
0.0
  0
LINE
  5
2FC
330
141
100
AcDbEntity
  8
0
  6
Continuous
 62
     7
100
AcDbLine
 10
138.31519604
 20
47.64653574999999
 30
0.0
 11
138.81519604
 21
47.14653574999999
 31
0.0
  0
LINE
  5
2FD
330
141
100
AcDbEntity
  8
0
  6
Continuous
 62
     7
100
AcDbLine
 10
138.81519604
 20
45.14653574999999
 30
0.0
 11
138.31519604
 21
44.64653574999998
 31
0.0
  0
LINE
  5
2FE
330
141
100
AcDbEntity
  8
0
  6
Continuous
 62
     7
100
AcDbLine
 10
137.61519604
 20
45.84653574999999
 30
0.0
 11
138.81519604
 21
45.84653574999999
 31
0.0
  0
LINE
  5
2FF
330
141
100
AcDbEntity
  8
0
  6
Continuous
 62
     7
100
AcDbLine
 10
137.61519604
 20
45.84653574999999
 30
0.0
 11
137.61519604
 21
46.44653575000001
 31
0.0
  0
LINE
  5
300
330
141
100
AcDbEntity
  8
0
  6
Continuous
 62
     7
100
AcDbLine
 10
137.61519604
 20
46.44653575000001
 30
0.0
 11
138.81519604
 21
46.44653575000001
 31
0.0
  0
LINE
  5
301
330
141
100
AcDbEntity
  8
0
  6
Continuous
 62
     7
100
AcDbLine
 10
138.81519604
 20
45.84653574999999
 30
0.0
 11
138.81519604
 21
45.14653574999999
 31
0.0
  0
LINE
  5
302
330
141
100
AcDbEntity
  8
0
  6
Continuous
 62
     2
100
AcDbLine
 10
126.9531892730215
 20
41.34653575
 30
0.0
 11
138.9988501504338
 21
41.34653575
 31
0.0
  0
LINE
  5
303
330
141
100
AcDbEntity
  8
0
  6
Continuous
 62
     7
100
AcDbLine
 10
138.81519604
 20
41.04653574999999
 30
0.0
 11
138.81519604
 21
40.34653575
 31
0.0
  0
LINE
  5
304
330
141
100
AcDbEntity
  8
0
  6
Continuous
 62
     7
100
AcDbLine
 10
138.31519604
 20
39.84653575000001
 30
0.0
 11
138.81519604
 21
40.34653575
 31
0.0
  0
LINE
  5
305
330
141
100
AcDbEntity
  8
0
  6
Continuous
 62
     7
100
AcDbLine
 10
135.81519604
 20
39.84653575000001
 30
0.0
 11
138.31519604
 21
39.84653575000001
 31
0.0
  0
LINE
  5
306
330
141
100
AcDbEntity
  8
0
  6
Continuous
 62
     7
100
AcDbLine
 10
135.81519604
 20
42.84653575
 30
0.0
 11
138.31519604
 21
42.84653575
 31
0.0
  0
LINE
  5
307
330
141
100
AcDbEntity
  8
0
  6
Continuous
 62
     7
100
AcDbLine
 10
138.81519604
 20
42.34653575000002
 30
0.0
 11
138.31519604
 21
42.84653575
 31
0.0
  0
LINE
  5
308
330
141
100
AcDbEntity
  8
0
  6
Continuous
 62
     7
100
AcDbLine
 10
137.61519604
 20
41.64653575000001
 30
0.0
 11
138.81519604
 21
41.64653575000001
 31
0.0
  0
LINE
  5
309
330
141
100
AcDbEntity
  8
0
  6
Continuous
 62
     7
100
AcDbLine
 10
137.61519604
 20
41.64653575000001
 30
0.0
 11
137.61519604
 21
41.04653574999999
 31
0.0
  0
LINE
  5
30A
330
141
100
AcDbEntity
  8
0
  6
Continuous
 62
     7
100
AcDbLine
 10
137.61519604
 20
41.04653574999999
 30
0.0
 11
138.81519604
 21
41.04653574999999
 31
0.0
  0
LINE
  5
30B
330
141
100
AcDbEntity
  8
0
  6
Continuous
 62
     7
100
AcDbLine
 10
138.81519604
 20
41.64653575000001
 30
0.0
 11
138.81519604
 21
42.34653575000002
 31
0.0
  0
LINE
  5
31B
330
141
100
AcDbEntity
  8
0
  6
DASHED
 62
     2
100
AcDbLine
 10
-104.2348079599999
 20
37.26137774999999
 30
0.0
 11
-113.23480396
 21
36.98011374999999
 31
0.0
  0
LINE
  5
31C
330
141
100
AcDbEntity
  8
0
  6
DASHED
 62
     2
100
AcDbLine
 10
-104.23480396
 20
38.11779075
 30
0.0
 11
-113.23480396
 21
37.83652674999999
 31
0.0
  0
LINE
  5
31D
330
141
100
AcDbEntity
  8
0
  6
DASHED
 62
     2
100
AcDbLine
 10
-104.23480396
 20
49.37528374999999
 30
0.0
 11
-113.23480396
 21
49.65654774999999
 31
0.0
  0
LINE
  5
31E
330
141
100
AcDbEntity
  8
0
  6
DASHED
 62
     2
100
AcDbLine
 10
-104.23480396
 20
50.23170374999999
 30
0.0
 11
-113.23479996
 21
50.51296974999998
 31
0.0
  0
LINE
  5
31F
330
141
100
AcDbEntity
  8
0
  6
DASHED
 62
     2
100
AcDbLine
 10
95.7651920400001
 20
50.23169375
 30
0.0
 11
86.76519604
 21
50.51295774999999
 31
0.0
  0
LINE
  5
320
330
141
100
AcDbEntity
  8
0
  6
DASHED
 62
     2
100
AcDbLine
 10
95.76519604000001
 20
49.37528074999999
 30
0.0
 11
86.76519604
 21
49.65654475
 31
0.0
  0
LINE
  5
321
330
141
100
AcDbEntity
  8
0
  6
DASHED
 62
     2
100
AcDbLine
 10
95.76519604000001
 20
38.11778775
 30
0.0
 11
86.76519604
 21
37.83652375
 31
0.0
  0
LINE
  5
322
330
141
100
AcDbEntity
  8
0
  6
DASHED
 62
     2
100
AcDbLine
 10
95.76519604000001
 20
37.26136775
 30
0.0
 11
86.76520004
 21
36.98010175
 31
0.0
  0
LINE
  5
323
330
141
100
AcDbEntity
  8
0
  6
DASHED
 62
     2
100
AcDbLine
 10
95.7651920400001
 20
37.26137774999999
 30
0.0
 11
86.76519604
 21
36.98011374999999
 31
0.0
  0
LINE
  5
324
330
141
100
AcDbEntity
  8
0
  6
DASHED
 62
     2
100
AcDbLine
 10
95.76519604000001
 20
38.11779075
 30
0.0
 11
86.76519604
 21
37.83652674999999
 31
0.0
  0
LINE
  5
325
330
141
100
AcDbEntity
  8
0
  6
DASHED
 62
     2
100
AcDbLine
 10
95.76519604000001
 20
49.37528374999999
 30
0.0
 11
86.76519604
 21
49.65654774999999
 31
0.0
  0
LINE
  5
326
330
141
100
AcDbEntity
  8
0
  6
DASHED
 62
     2
100
AcDbLine
 10
95.76519604000001
 20
50.23170374999999
 30
0.0
 11
86.76520004
 21
50.51296974999998
 31
0.0
  0
LINE
  5
327
330
141
100
AcDbEntity
  8
0
  6
DASHED
 62
     2
100
AcDbLine
 10
119.7652000399999
 20
50.23169375
 30
0.0
 11
128.76519604
 21
50.51295774999999
 31
0.0
  0
LINE
  5
328
330
141
100
AcDbEntity
  8
0
  6
DASHED
 62
     2
100
AcDbLine
 10
119.76519604
 20
49.37528074999999
 30
0.0
 11
128.76519604
 21
49.65654475
 31
0.0
  0
LINE
  5
329
330
141
100
AcDbEntity
  8
0
  6
DASHED
 62
     2
100
AcDbLine
 10
119.76519604
 20
38.11778775
 30
0.0
 11
128.76519604
 21
37.83652375
 31
0.0
  0
LINE
  5
32A
330
141
100
AcDbEntity
  8
0
  6
DASHED
 62
     2
100
AcDbLine
 10
119.76519604
 20
37.26136775
 30
0.0
 11
128.76519204
 21
36.98010175
 31
0.0
  0
LINE
  5
32B
330
141
100
AcDbEntity
  8
0
  6
DASHED
 62
     2
100
AcDbLine
 10
119.7652000399999
 20
37.26137774999999
 30
0.0
 11
128.76519604
 21
36.98011374999999
 31
0.0
  0
LINE
  5
32C
330
141
100
AcDbEntity
  8
0
  6
DASHED
 62
     2
100
AcDbLine
 10
119.76519604
 20
38.11779075
 30
0.0
 11
128.76519604
 21
37.83652674999999
 31
0.0
  0
LINE
  5
32D
330
141
100
AcDbEntity
  8
0
  6
DASHED
 62
     2
100
AcDbLine
 10
119.76519604
 20
49.37528374999999
 30
0.0
 11
128.76519604
 21
49.65654774999999
 31
0.0
  0
LINE
  5
32E
330
141
100
AcDbEntity
  8
0
  6
DASHED
 62
     2
100
AcDbLine
 10
119.76519604
 20
50.23170374999999
 30
0.0
 11
128.76519204
 21
50.51296974999998
 31
0.0
  0
ENDSEC
  0
SECTION
  2
OBJECTS
  0
DICTIONARY
  5
12B
330
0
100
AcDbDictionary
281
     1
  3
ACAD_COLOR
350
13A
  3
ACAD_GROUP
350
12C
  3
ACAD_LAYOUT
350
138
  3
ACAD_MATERIAL
350
139
  3
ACAD_MLINESTYLE
350
135
  3
ACAD_PLOTSETTINGS
350
137
  3
ACAD_PLOTSTYLENAME
350
12D
  3
ACAD_TABLESTYLE
350
13B
  3
AcDbVariableDictionary
350
189
  0
DICTIONARY
  5
1FF
330
121
100
AcDbDictionary
280
     1
281
     1
  3
ACAD_LAYERSTATES
360
200
  0
DICTIONARY
  5
18C
330
141
100
AcDbDictionary
280
     1
281
     1
  3
ACAD_SORTENTS
360
18D
  0
DICTIONARY
  5
13A
102
{ACAD_REACTORS
330
12B
102
}
330
12B
100
AcDbDictionary
281
     1
  0
DICTIONARY
  5
12C
102
{ACAD_REACTORS
330
12B
102
}
330
12B
100
AcDbDictionary
281
     1
  0
DICTIONARY
  5
138
102
{ACAD_REACTORS
330
12B
102
}
330
12B
100
AcDbDictionary
281
     1
  3
Model
350
144
  3
レイアウト1
350
140
  0
DICTIONARY
  5
139
102
{ACAD_REACTORS
330
12B
102
}
330
12B
100
AcDbDictionary
281
     1
  0
DICTIONARY
  5
135
102
{ACAD_REACTORS
330
12B
102
}
330
12B
100
AcDbDictionary
281
     1
  3
Standard
350
136
  0
DICTIONARY
  5
137
102
{ACAD_REACTORS
330
12B
102
}
330
12B
100
AcDbDictionary
281
     1
  0
ACDBDICTIONARYWDFLT
  5
12D
102
{ACAD_REACTORS
330
12B
102
}
330
12B
100
AcDbDictionary
281
     1
  3
Normal
350
12E
100
AcDbDictionaryWithDefault
340
12E
  0
DICTIONARY
  5
13B
102
{ACAD_REACTORS
330
12B
102
}
330
12B
100
AcDbDictionary
281
     1
  3
Standard
350
13C
  0
DICTIONARY
  5
189
102
{ACAD_REACTORS
330
12B
102
}
330
12B
100
AcDbDictionary
281
     1
  3
CTABLESTYLE
350
18A
  3
DIMASSOC
350
1E4
  3
PROJECTNAME
350
1E5
  0
DICTIONARY
  5
200
102
{ACAD_REACTORS
330
1FF
102
}
330
1FF
100
AcDbDictionary
281
     1
  0
SORTENTSTABLE
  5
18D
102
{ACAD_REACTORS
330
18C
102
}
330
18C
100
AcDbSortentsTable
330
141
331
113
  5
115
331
19D
  5
1A0
331
3A
  5
3A
331
79
  5
7A
331
81
  5
82
331
42
  5
43
331
CC
  5
CE
331
D4
  5
D6
331
18E
  5
190
331
52
  5
53
331
DC
  5
DE
331
2F0
  5
2F1
331
5A
  5
5B
331
4D
  5
4E
331
E4
  5
E6
331
1C9
  5
1C9
331
176
  5
178
331
2F8
  5
2F8
331
17E
  5
180
331
A5
  5
A7
331
1D1
  5
1D1
331
1D9
  5
1D9
331
2B
  5
2B
331
186
  5
18B
331
AD
  5
AF
331
6A
  5
6B
331
72
  5
73
331
B5
  5
B7
331
10C
  5
10E
331
1E1
  5
1E1
331
C5
  5
C7
331
7A
  5
7B
331
43
  5
44
331
CD
  5
CF
331
D5
  5
D7
331
2E9
  5
2E5
331
53
  5
54
331
DD
  5
DF
331
1CA
  5
1CA
331
2F1
  5
2EF
331
E5
  5
E7
331
177
  5
179
331
4E
  5
4F
331
5B
  5
5C
331
A6
  5
A8
331
63
  5
64
331
1D2
  5
1D2
331
17F
  5
181
331
2F9
  5
2F9
331
2C
  5
2C
331
AE
  5
B4
331
6B
  5
6C
331
1DA
  5
1DA
331
187
  5
18E
331
73
  5
74
331
B6
  5
B8
331
10D
  5
10F
331
1E2
  5
1E2
331
2C2
  5
2C2
331
115
  5
117
331
3C
  5
3C
331
C6
  5
C8
331
7B
  5
7C
331
83
  5
84
331
2CA
  5
2CA
331
CE
  5
D0
331
44
  5
45
331
D6
  5
D8
331
16D
  5
16F
331
1C7
  5
1C7
331
54
  5
55
331
DE
  5
E0
331
2EA
  5
2E8
331
170
  5
172
331
5C
  5
5D
331
178
  5
17A
331
4F
  5
50
331
E6
  5
E8
331
1CB
  5
1CB
331
1D3
  5
1D3
331
2FA
  5
2FB
331
180
  5
182
331
A7
  5
A9
331
64
  5
65
331
1DB
  5
1DB
331
190
  5
192
331
2D
  5
2D
331
6C
  5
6D
331
74
  5
75
331
10E
  5
110
331
3D
  5
3E
331
C7
  5
C9
331
116
  5
118
331
2C3
  5
2C3
331
1A0
  5
8D
331
45
  5
46
331
CF
  5
D1
331
2CB
  5
2CB
331
16E
  5
170
331
2E3
  5
2E3
331
D7
  5
D9
331
DF
  5
E1
331
55
  5
56
331
171
  5
173
331
48
  5
49
331
1CC
  5
1CC
331
E7
  5
E9
331
179
  5
17B
331
5D
  5
5E
331
A8
  5
AA
331
65
  5
66
331
1D4
  5
1D4
331
181
  5
183
331
2FB
  5
2FC
331
2E
  5
2E
331
6D
  5
6E
331
191
  5
191
331
107
  5
109
331
1DC
  5
1DC
331
75
  5
76
331
10F
  5
111
331
2C4
  5
2C4
331
117
  5
119
331
C8
  5
CA
331
7D
  5
7E
331
85
  5
86
331
2CC
  5
2CC
331
D0
  5
D2
331
46
  5
47
331
D8
  5
DA
331
16F
  5
171
331
2E4
  5
2E4
331
56
  5
57
331
49
  5
4A
331
E0
  5
E2
331
172
  5
174
331
5E
  5
5F
331
17A
  5
17C
331
E8
  5
EA
331
1CD
  5
1CD
331
1D5
  5
1D5
331
2FC
  5
2FA
331
182
  5
184
331
A9
  5
AB
331
66
  5
67
331
1DD
  5
1DD
331
108
  5
10A
331
192
  5
19B
331
2F
  5
2F
331
6E
  5
6F
331
76
  5
77
331
37
  5
37
331
110
  5
112
331
3F
  5
42
331
C9
  5
CB
331
118
  5
16D
331
2C5
  5
2C5
331
2CD
  5
2CD
331
47
  5
48
331
D1
  5
D3
331
18B
  5
3D
331
2E5
  5
2E7
331
D9
  5
DC
331
2ED
  5
2ED
331
57
  5
58
331
E1
  5
E3
331
173
  5
175
331
4A
  5
4B
331
5F
  5
60
331
E9
  5
EB
331
1CE
  5
1CE
331
17B
  5
17D
331
AA
  5
AC
331
67
  5
68
331
1D6
  5
1D6
331
183
  5
185
331
2FD
  5
2FD
331
30
  5
30
331
6F
  5
70
331
193
  5
193
331
109
  5
10B
331
1DE
  5
1DE
331
77
  5
78
331
111
  5
113
331
19B
  5
19C
331
38
  5
38
331
119
  5
16E
331
CA
  5
CC
331
50
  5
51
331
2EE
  5
2EE
331
58
  5
59
331
4B
  5
4C
331
E2
  5
E4
331
174
  5
176
331
60
  5
61
331
17C
  5
17E
331
A3
  5
A5
331
EA
  5
104
331
1CF
  5
1CF
331
1D7
  5
1D7
331
184
  5
186
331
AB
  5
AD
331
68
  5
69
331
70
  5
71
331
1DF
  5
1DF
331
10A
  5
10C
331
31
  5
31
331
B3
  5
B5
331
78
  5
79
331
19C
  5
19D
331
39
  5
39
331
CB
  5
CD
331
80
  5
81
331
88
  5
89
331
51
  5
52
331
DB
  5
DD
331
2EF
  5
2F0
331
1C8
  5
1C8
331
E3
  5
E5
331
175
  5
177
331
4C
  5
4D
331
59
  5
5A
331
A4
  5
A6
331
61
  5
63
331
1D0
  5
1D0
331
17D
  5
17F
331
69
  5
6A
331
1D8
  5
1D8
331
AC
  5
AE
331
103
  5
105
331
185
  5
187
331
2A
  5
2A
331
32
  5
32
331
71
  5
72
331
B4
  5
B6
331
10B
  5
10D
331
1E0
  5
1E0
  0
LAYOUT
  5
144
102
{ACAD_REACTORS
330
138
102
}
330
138
100
AcDbPlotSettings
  1

  2
DocuCentre Color f450
  4

  6

 40
0.0
 41
0.0
 42
0.0
 43
0.0
 44
0.0
 45
0.0
 46
0.0
 47
0.0
 48
0.0
 49
0.0
140
0.0
141
0.0
142
1.0
143
1.0
 70
  1712
 72
     0
 73
     0
 74
     0
  7

 75
     0
147
1.0
 76
     0
 77
     2
 78
   300
148
0.0
149
0.0
100
AcDbLayout
  1
Model
 70
     1
 71
     0
 10
0.0
 20
0.0
 11
12.0
 21
9.0
 12
0.0
 22
0.0
 32
0.0
 14
0.0
 24
0.0
 34
0.0
 15
0.0
 25
0.0
 35
0.0
146
0.0
 13
0.0
 23
0.0
 33
0.0
 16
1.0
 26
0.0
 36
0.0
 17
0.0
 27
1.0
 37
0.0
 76
     0
330
141
  0
LAYOUT
  5
140
102
{ACAD_REACTORS
330
138
102
}
330
138
100
AcDbPlotSettings
  1

  2
DocuCentre Color f450
  4

  6

 40
0.0
 41
0.0
 42
0.0
 43
0.0
 44
0.0
 45
0.0
 46
0.0
 47
0.0
 48
0.0
 49
0.0
140
0.0
141
0.0
142
1.0
143
1.0
 70
   688
 72
     0
 73
     0
 74
     5
  7

 75
    16
147
1.0
 76
     0
 77
     2
 78
   300
148
0.0
149
0.0
100
AcDbLayout
  1
レイアウト1
 70
     0
 71
     1
 10
0.0
 20
0.0
 11
12.0
 21
9.0
 12
0.0
 22
0.0
 32
0.0
 14
1.000000000000000E+20
 24
1.000000000000000E+20
 34
1.000000000000000E+20
 15
-1.000000000000000E+20
 25
-1.000000000000000E+20
 35
-1.000000000000000E+20
146
0.0
 13
0.0
 23
0.0
 33
0.0
 16
1.0
 26
0.0
 36
0.0
 17
0.0
 27
1.0
 37
0.0
 76
     0
330
13D
  0
MLINESTYLE
  5
136
102
{ACAD_REACTORS
330
135
102
}
330
135
100
AcDbMlineStyle
  2
STANDARD
 70
     0
  3

 62
   256
 51
90.0
 52
90.0
 71
     2
 49
0.5
 62
   256
  6
BYLAYER
 49
-0.5
 62
   256
  6
BYLAYER
  0
ACDBPLACEHOLDER
  5
12E
102
{ACAD_REACTORS
330
12D
102
}
330
12D
  0
TABLESTYLE
  5
13C
102
{ACAD_REACTORS
330
13B
102
}
330
13B
100
AcDbTableStyle
  3
Standard
 70
     0
 71
     0
 40
0.06
 41
0.06
280
     0
281
     0
  7
Standard
140
0.18
170
     2
 62
     0
 63
     7
283
     0
274
    -2
284
     1
 64
     0
275
    -2
285
     1
 65
     0
276
    -2
286
     1
 66
     0
277
    -2
287
     1
 67
     0
278
    -2
288
     1
 68
     0
279
    -2
289
     1
 69
     0
  7
Standard
140
0.25
170
     5
 62
     0
 63
     7
283
     0
274
    -2
284
     1
 64
     0
275
    -2
285
     1
 65
     0
276
    -2
286
     1
 66
     0
277
    -2
287
     1
 67
     0
278
    -2
288
     1
 68
     0
279
    -2
289
     1
 69
     0
  7
Standard
140
0.18
170
     5
 62
     0
 63
     7
283
     0
274
    -2
284
     1
 64
     0
275
    -2
285
     1
 65
     0
276
    -2
286
     1
 66
     0
277
    -2
287
     1
 67
     0
278
    -2
288
     1
 68
     0
279
    -2
289
     1
 69
     0
  0
DICTIONARYVAR
  5
18A
102
{ACAD_REACTORS
330
189
102
}
330
189
100
DictionaryVariables
280
     0
  1
STANDARD
  0
DICTIONARYVAR
  5
1E4
102
{ACAD_REACTORS
330
189
102
}
330
189
100
DictionaryVariables
280
     0
  1
1
  0
DICTIONARYVAR
  5
1E5
102
{ACAD_REACTORS
330
189
102
}
330
189
100
DictionaryVariables
280
     0
  1

  0
ENDSEC
  0
EOF
