  0
SECTION
  2
HEADER
  9
$ACADVER
  1
AC1009
  9
$DWGCODEPAGE
  3
dos932
  9
$INSBASE
 10
0.0
 20
0.0
 30
0.0
  9
$EXTMIN
 10
-281.25
 20
-195.0
 30
0.0
  9
$EXTMAX
 10
282.09985352
 20
195.5
 30
0.0
  9
$LIMMIN
 10
-281.25
 20
-195.0
  9
$LIMMAX
 10
282.09985352
 20
195.5
  9
$ORTHOMODE
 70
       0
  9
$REGENMODE
 70
       1
  9
$FILLMODE
 70
       1
  9
$QTEXTMODE
 70
       0
  9
$MIRRTEXT
 70
       1
  9
$DRAGMODE
 70
       2
  9
$LTSCALE
 40
1.0
  9
$OSMODE
 70
       0
  9
$ATTMODE
 70
       1
  9
$TEXTSIZE
 40
3.20000005
  9
$TRACEWID
 40
0.05
  9
$TEXTSTYLE
  7
MX_NOTE_STANDARD
  9
$CLAYER
  8
0
  9
$CELTYPE
  6
CONTINUOUS
  9
$CECOLOR
 62
     256
  9
$DIMSCALE
 40
1.0
  9
$DIMASZ
 40
2.5
  9
$DIMEXO
 40
1.5
  9
$DIMDLI
 40
3.75
  9
$DIMRND
 40
0.0
  9
$DIMDLE
 40
0.0
  9
$DIMEXE
 40
1.5
  9
$DIMTP
 40
0.0
  9
$DIMTM
 40
0.0
  9
$DIMTXT
 40
3.20000005
  9
$DIMCEN
 40
2.5
  9
$DIMTSZ
 40
0.0
  9
$DIMTOL
 70
       0
  9
$DIMLIM
 70
       0
  9
$DIMTIH
 70
       0
  9
$DIMTOH
 70
       0
  9
$DIMSE1
 70
       0
  9
$DIMSE2
 70
       0
  9
$DIMTAD
 70
       1
  9
$DIMZIN
 70
       8
  9
$DIMBLK
  1

  9
$DIMASO
 70
       1
  9
$DIMSHO
 70
       1
  9
$DIMPOST
  1

  9
$DIMAPOST
  1

  9
$DIMALT
 70
       0
  9
$DIMALTD
 70
       4
  9
$DIMALTF
 40
0.03937008
  9
$DIMLFAC
 40
1.0
  9
$DIMTOFL
 70
       1
  9
$DIMTVP
 40
0.0
  9
$DIMTIX
 70
       0
  9
$DIMSOXD
 70
       0
  9
$DIMSAH
 70
       0
  9
$DIMBLK1
  1

  9
$DIMBLK2
  1

  9
$DIMSTYLE
  2
MXDIMSTYLE
  9
$DIMCLRD
 70
       0
  9
$DIMCLRE
 70
       0
  9
$DIMCLRT
 70
       0
  9
$DIMTFAC
 40
1.0
  9
$DIMGAP
 40
1.0
  9
$LUNITS
 70
       2
  9
$LUPREC
 70
       4
  9
$AXISMODE
 70
       0
  9
$AXISUNIT
 10
0.0
 20
0.0
  9
$SKETCHINC
 40
0.1
  9
$FILLETRAD
 40
0.0
  9
$AUNITS
 70
       0
  9
$AUPREC
 70
       0
  9
$MENU
  1
acad
  9
$ELEVATION
 40
0.0
  9
$PELEVATION
 40
0.0
  9
$THICKNESS
 40
0.0
  9
$LIMCHECK
 70
       0
  9
$BLIPMODE
 70
       1
  9
$CHAMFERA
 40
0.0
  9
$CHAMFERB
 40
0.0
  9
$SKPOLY
 70
       0
  9
$TDCREATE
 40
2453706.482581019
  9
$TDUPDATE
 40
2453706.482581019
  9
$TDINDWG
 40
0.0000000000
  9
$TDUSRTIMER
 40
0.0000000000
  9
$USRTIMER
 70
       1
  9
$ANGBASE
 50
0.0
  9
$ANGDIR
 70
       0
  9
$PDMODE
 70
       0
  9
$PDSIZE
 40
0.0
  9
$PLINEWID
 40
0.0
  9
$COORDS
 70
       1
  9
$SPLFRAME
 70
       0
  9
$SPLINETYPE
 70
       6
  9
$SPLINESEGS
 70
       8
  9
$ATTDIA
 70
       0
  9
$ATTREQ
 70
       1
  9
$HANDLING
 70
       1
  9
$HANDSEED
  5
15F
  9
$SURFTAB1
 70
       6
  9
$SURFTAB2
 70
       6
  9
$SURFTYPE
 70
       6
  9
$SURFU
 70
       6
  9
$SURFV
 70
       6
  9
$UCSNAME
  2

  9
$UCSORG
 10
0.0
 20
0.0
 30
0.0
  9
$UCSXDIR
 10
1.0
 20
0.0
 30
0.0
  9
$UCSYDIR
 10
0.0
 20
1.0
 30
0.0
  9
$PUCSNAME
  2

  9
$PUCSORG
 10
0.0
 20
0.0
 30
0.0
  9
$PUCSXDIR
 10
1.0
 20
0.0
 30
0.0
  9
$PUCSYDIR
 10
0.0
 20
1.0
 30
0.0
  9
$USERI1
 70
       0
  9
$USERI2
 70
       0
  9
$USERI3
 70
       0
  9
$USERI4
 70
       0
  9
$USERI5
 70
       0
  9
$USERR1
 40
0.0
  9
$USERR2
 40
0.0
  9
$USERR3
 40
0.0
  9
$USERR4
 40
0.0
  9
$USERR5
 40
0.0
  9
$WORLDVIEW
 70
       1
  9
$SHADEDGE
 70
       3
  9
$SHADEDIF
 70
      70
  9
$TILEMODE
 70
       1
  9
$MAXACTVP
 70
      16
  9
$PINSBASE
 10
0.0
 20
0.0
 30
0.0
  9
$PLIMCHECK
 70
       0
  9
$PEXTMIN
 10
1.00000000E+20
 20
1.00000000E+20
 30
1.00000000E+20
  9
$PEXTMAX
 10
-1.00000000E+20
 20
-1.00000000E+20
 30
-1.00000000E+20
  9
$PLIMMIN
 10
0.0
 20
0.0
  9
$PLIMMAX
 10
12.0
 20
9.0
  9
$UNITMODE
 70
       0
  9
$VISRETAIN
 70
       0
  9
$PLINEGEN
 70
       1
  9
$PSLTSCALE
 70
       0
  9
$TREEDEPTH
 70
    3020
  9
$DWGCODEPAGE
  3
dos932
  0
ENDSEC
  0
SECTION
  2
TABLES
  0
TABLE
  2
VPORT
 70
       1
  0
VPORT
  2
*ACTIVE
 70
       0
 10
0.0
 20
0.0
 11
1.0
 21
1.0
 12
0.42492676
 22
0.25
 13
0.0
 23
0.0
 14
1.0
 24
1.0
 15
0.0
 25
0.0
 16
0.0
 26
0.0
 36
1.0
 17
0.0
 27
0.0
 37
0.0
 40
394.405
 41
1.73205081
 42
50.0
 43
0.0
 44
0.0
 50
0.0
 51
0.0
 71
       0
 72
     100
 73
       1
 74
       1
 75
       0
 76
       0
 77
       0
 78
       0
  0
ENDTAB
  0
TABLE
  2
LTYPE
 70
       2
  0
LTYPE
  2
CONTINUOUS
 70
      64
  3
Solid line
 72
      65
 73
       0
 40
0.0
  0
LTYPE
  2
DASHED
 70
      64
  3
Dashed __ __ __ __ __ __ __ __ __ __ __ __ __ _
 72
      65
 73
       2
 40
4.0
 49
2.0
 49
-2.0
  0
ENDTAB
  0
TABLE
  2
LAYER
 70
       2
  0
LAYER
  2
0
 70
       0
 62
       7
  6
CONTINUOUS
  0
LAYER
  2
DEFPOINTS
 70
       0
 62
       7
  6
CONTINUOUS
  0
ENDTAB
  0
TABLE
  2
STYLE
 70
       1
  0
STYLE
  2
MX_NOTE_STANDARD
 70
       0
 40
0.0
 41
1.0
 50
0.0
 71
       0
 42
3.20000005
  3
txt.shx
  4
extfont.shx
  0
ENDTAB
  0
TABLE
  2
VIEW
 70
       0
  0
ENDTAB
  0
TABLE
  2
UCS
 70
       0
  0
ENDTAB
  0
TABLE
  2
APPID
 70
       1
  0
APPID
  2
ACAD
 70
       0
  0
ENDTAB
  0
TABLE
  2
DIMSTYLE
 70
       1
  0
DIMSTYLE
  2
MXDIMSTYLE
 70
       0
  3

  4

  5

  6

  7

 40
1.0
 41
2.5
 42
1.5
 43
3.75
 44
1.5
 45
0.0
 46
0.0
 47
0.0
 48
0.0
 71
       0
 72
       0
 73
       0
 74
       0
 75
       0
 76
       0
 77
       1
 78
       8
140
3.20000005
141
2.5
142
0.0
143
0.03937008
144
1.0
145
0.0
146
1.0
147
1.0
170
       0
171
       4
172
       1
173
       0
174
       0
175
       0
176
       0
177
       0
178
       0
  0
ENDTAB
  0
ENDSEC
  0
SECTION
  2
BLOCKS
  0
ENDSEC
  0
SECTION
  2
ENTITIES
  0
TEXT
  8
0
  6
CONTINUOUS
 62
       7
  5
1E
 10
-2.75018208
 20
28.27919286
 30
0.0
 40
4.5
  1
A
 41
0.91428604
  7
MX_NOTE_STANDARD
 11
-2.75018208
 21
30.52919286
 31
0.0
 73
       2
  0
LINE
  8
0
  6
CONTINUOUS
 62
       2
  5
1F
 10
-180.42257186
 20
-115.67799952
 30
0.0
 11
1.27742814
 21
-115.67799952
 31
0.0
  0
LINE
  8
0
  6
CONTINUOUS
 62
       7
  5
20
 10
-146.18923853
 20
-73.67799952
 30
0.0
 11
-140.18923853
 21
-73.67799952
 31
0.0
  0
LINE
  8
0
  6
CONTINUOUS
 62
       2
  5
21
 10
-142.5559052
 20
-81.67799952
 30
0.0
 11
-117.72257186
 21
-81.67799952
 31
0.0
  0
LINE
  8
0
  6
CONTINUOUS
 62
       7
  5
22
 10
-138.18923853
 20
-75.67799952
 30
0.0
 11
-138.18923853
 21
-81.44466619
 31
0.0
  0
LINE
  8
0
  6
CONTINUOUS
 62
       7
  5
23
 10
-126.18923853
 20
-75.67799952
 30
0.0
 11
-126.18923853
 21
-81.44466619
 31
0.0
  0
LINE
  8
0
  6
CONTINUOUS
 62
       7
  5
24
 10
-124.18923853
 20
-73.67799952
 30
0.0
 11
-56.18923853
 21
-73.67799952
 31
0.0
  0
LINE
  8
0
  6
CONTINUOUS
 62
       2
  5
25
 10
-57.6559052
 20
-81.67799952
 30
0.0
 11
-36.52257186
 21
-81.67799952
 31
0.0
  0
LINE
  8
0
  6
CONTINUOUS
 62
       7
  5
26
 10
-42.18923853
 20
-75.67799952
 30
0.0
 11
-42.18923853
 21
-81.44466619
 31
0.0
  0
LINE
  8
0
  6
CONTINUOUS
 62
       7
  5
27
 10
-54.18923853
 20
-75.67799952
 30
0.0
 11
-54.18923853
 21
-81.44466619
 31
0.0
  0
LINE
  8
0
  6
CONTINUOUS
 62
       7
  5
28
 10
-40.18923853
 20
-73.67799952
 30
0.0
 11
-34.18923853
 21
-73.67799952
 31
0.0
  0
LINE
  8
0
  6
CONTINUOUS
 62
       7
  5
29
 10
-168.18923853
 20
-85.67799952
 30
0.0
 11
-148.22257186
 21
-85.67799952
 31
0.0
  0
LINE
  8
0
  6
CONTINUOUS
 62
       7
  5
2A
 10
-12.18923853
 20
-85.67799952
 30
0.0
 11
-32.1559052
 21
-85.67799952
 31
0.0
  0
LINE
  8
0
  6
CONTINUOUS
 62
       7
  5
2B
 10
-168.20609129
 20
-145.67799952
 30
0.0
 11
-148.22257186
 21
-145.67799952
 31
0.0
  0
LINE
  8
0
  6
CONTINUOUS
 62
       7
  5
2C
 10
-146.18923853
 20
-157.67799952
 30
0.0
 11
-140.18923853
 21
-157.67799952
 31
0.0
  0
LINE
  8
0
  6
CONTINUOUS
 62
       7
  5
2D
 10
-138.18923853
 20
-155.67799952
 30
0.0
 11
-138.18923853
 21
-149.91133285
 31
0.0
  0
LINE
  8
0
  6
CONTINUOUS
 62
       2
  5
2E
 10
-142.5559052
 20
-149.67799952
 30
0.0
 11
-117.72257186
 21
-149.67799952
 31
0.0
  0
LINE
  8
0
  6
CONTINUOUS
 62
       7
  5
2F
 10
-126.18923853
 20
-155.67799952
 30
0.0
 11
-126.18923853
 21
-149.91133285
 31
0.0
  0
LINE
  8
0
  6
CONTINUOUS
 62
       7
  5
30
 10
-124.18923853
 20
-157.67799952
 30
0.0
 11
-56.18923853
 21
-157.67799952
 31
0.0
  0
LINE
  8
0
  6
CONTINUOUS
 62
       2
  5
31
 10
-90.18923853
 20
-166.24466619
 30
0.0
 11
-90.18923853
 21
-63.1767453
 31
0.0
  0
LINE
  8
0
  6
CONTINUOUS
 62
       7
  5
32
 10
-54.18923853
 20
-155.67799952
 30
0.0
 11
-54.18923853
 21
-149.91133285
 31
0.0
  0
LINE
  8
0
  6
CONTINUOUS
 62
       2
  5
33
 10
-57.6559052
 20
-149.67799952
 30
0.0
 11
-36.52257186
 21
-149.67799952
 31
0.0
  0
LINE
  8
0
  6
CONTINUOUS
 62
       7
  5
34
 10
-42.18923853
 20
-155.67799952
 30
0.0
 11
-42.18923853
 21
-149.91133285
 31
0.0
  0
LINE
  8
0
  6
CONTINUOUS
 62
       7
  5
35
 10
-40.18923853
 20
-157.77799952
 30
0.0
 11
-34.18923853
 21
-157.77799952
 31
0.0
  0
LINE
  8
0
  6
CONTINUOUS
 62
       7
  5
36
 10
-12.17445286
 20
-145.67799952
 30
0.0
 11
-32.1559052
 21
-145.67799952
 31
0.0
  0
ARC
  8
0
  6
CONTINUOUS
 62
       7
  5
37
 10
-132.19181448
 20
-81.69381014
 30
0.0
 40
6.00259677
 50
177.62119643
 51
0.15091512
  0
ARC
  8
0
  6
CONTINUOUS
 62
       7
  5
38
 10
-48.20331653
 20
-81.69409433
 30
0.0
 40
5.98594363
 50
179.84594484
 51
2.38814786
  0
ARC
  8
0
  6
CONTINUOUS
 62
       7
  5
39
 10
-168.18180497
 20
-87.68543308
 30
0.0
 40
2.00744732
 50
90.21216622
 51
179.78783378
  0
ARC
  8
0
  6
CONTINUOUS
 62
       7
  5
3A
 10
-146.18179978
 20
-75.68543827
 30
0.0
 40
2.00745253
 50
90.21231391
 51
179.78768609
  0
ARC
  8
0
  6
CONTINUOUS
 62
       7
  5
3B
 10
-140.19769505
 20
-75.68645604
 30
0.0
 40
2.00847432
 50
0.24124002
 51
89.75875998
  0
ARC
  8
0
  6
CONTINUOUS
 62
       7
  5
3C
 10
-124.18179281
 20
-75.68544524
 30
0.0
 40
2.00745952
 50
90.21251193
 51
179.78748807
  0
ARC
  8
0
  6
CONTINUOUS
 62
       7
  5
3D
 10
-56.19771279
 20
-75.68647378
 30
0.0
 40
2.00849213
 50
0.24174383
 51
89.75825617
  0
ARC
  8
0
  6
CONTINUOUS
 62
       7
  5
3E
 10
-40.18182004
 20
-75.68541802
 30
0.0
 40
2.0074322
 50
90.21173783
 51
179.78826217
  0
ARC
  8
0
  6
CONTINUOUS
 62
       7
  5
3F
 10
-34.19770265
 20
-75.68646364
 30
0.0
 40
2.00848196
 50
0.24145594
 51
89.75854406
  0
ARC
  8
0
  6
CONTINUOUS
 62
       7
  5
40
 10
-12.19769747
 20
-87.68645846
 30
0.0
 40
2.00847675
 50
0.24130878
 51
89.75869122
  0
ARC
  8
0
  6
CONTINUOUS
 62
       7
  5
41
 10
-168.19766491
 20
-143.6864259
 30
0.0
 40
1.99159145
 50
179.75758214
 51
270.24241786
  0
ARC
  8
0
  6
CONTINUOUS
 62
       7
  5
42
 10
-146.19768525
 20
-155.68644624
 30
0.0
 40
1.99157119
 50
179.75699436
 51
270.24300564
  0
ARC
  8
0
  6
CONTINUOUS
 62
       7
  5
43
 10
-140.18181769
 20
-155.68542036
 30
0.0
 40
1.99259298
 50
269.78661783
 51
0.21338217
  0
ARC
  8
0
  6
CONTINUOUS
 62
       7
  5
44
 10
-132.19119809
 20
-149.69388876
 30
0.0
 40
6.00198059
 50
0.15168112
 51
182.07620733
  0
ARC
  8
0
  6
CONTINUOUS
 62
       7
  5
45
 10
-124.19767823
 20
-155.68643923
 30
0.0
 40
1.99157818
 50
179.75719716
 51
270.24280284
  0
ARC
  8
0
  6
CONTINUOUS
 62
       7
  5
46
 10
-56.18183557
 20
-155.68540248
 30
0.0
 40
1.99261079
 50
269.78713378
 51
0.21286622
  0
ARC
  8
0
  6
CONTINUOUS
 62
       7
  5
47
 10
-48.20393464
 20
-149.69360455
 30
0.0
 40
5.98532424
 50
357.91528988
 51
179.85061741
  0
ARC
  8
0
  6
CONTINUOUS
 62
       7
  5
48
 10
-40.19770567
 20
-155.68646667
 30
0.0
 40
1.99155086
 50
179.75640439
 51
270.24359561
  0
ARC
  8
0
  6
CONTINUOUS
 62
       7
  5
49
 10
-34.18182535
 20
-155.6854127
 30
0.0
 40
1.99260061
 50
269.78683895
 51
0.21316105
  0
ARC
  8
0
  6
CONTINUOUS
 62
       7
  5
4A
 10
-12.1818457
 20
-143.68539236
 30
0.0
 40
1.99262088
 50
269.78742613
 51
0.21257387
  0
CIRCLE
  8
0
  6
CONTINUOUS
 62
       7
  5
4B
 10
-90.19026799
 20
-115.69388087
 30
0.0
 40
34.60000038
  0
ARC
  8
0
  6
CONTINUOUS
 62
       7
  5
4C
 10
-79.93395993
 20
-148.05501484
 30
0.0
 40
2.99582842
 50
50.64823308
 51
207.70808554
  0
ARC
  8
0
  6
CONTINUOUS
 62
       7
  5
4D
 10
-79.93887828
 20
-148.05700261
 30
0.0
 40
1.2548637
 50
347.1694983
 51
227.98289157
  0
CIRCLE
  8
0
  6
CONTINUOUS
 62
       7
  5
4E
 10
-90.19026799
 20
-115.69388087
 30
0.0
 40
16.00000064
  0
LINE
  8
0
  6
CONTINUOUS
 62
       7
  5
4F
 10
-10.18923853
 20
-143.67799952
 30
0.0
 11
-10.18923853
 21
-87.67799952
 31
0.0
  0
LINE
  8
0
  6
CONTINUOUS
 62
       7
  5
50
 10
-32.18923853
 20
-155.67799952
 30
0.0
 11
-32.18923853
 21
-75.67799952
 31
0.0
  0
LINE
  8
0
  6
CONTINUOUS
 62
       2
  5
51
 10
-48.18923853
 20
-163.97799952
 30
0.0
 11
-48.18923853
 21
-66.07799952
 31
0.0
  0
LINE
  8
0
  6
CONTINUOUS
 62
       2
  5
52
 10
-132.18923853
 20
-166.31133285
 30
0.0
 11
-132.18923853
 21
-65.54466619
 31
0.0
  0
LINE
  8
0
  6
CONTINUOUS
 62
       7
  5
53
 10
-148.18923853
 20
-155.67799952
 30
0.0
 11
-148.18923853
 21
-75.67799952
 31
0.0
  0
LINE
  8
0
  6
CONTINUOUS
 62
       7
  5
54
 10
-170.18923853
 20
-143.67799952
 30
0.0
 11
-170.18923853
 21
-87.67799952
 31
0.0
  0
ARC
  8
0
  6
CONTINUOUS
 62
       7
  5
55
 10
-90.18923853
 20
-116.67799952
 30
0.0
 40
31.5
 50
292.69769811
 51
247.30230189
  0
ARC
  8
0
  6
CONTINUOUS
 62
       7
  5
56
 10
-100.44451713
 20
-148.05501484
 30
0.0
 40
2.99582842
 50
332.29191446
 51
129.35176692
  0
ARC
  8
0
  6
CONTINUOUS
 62
       7
  5
57
 10
-100.43959878
 20
-148.05700261
 30
0.0
 40
1.2548637
 50
312.01710843
 51
192.8305017
  0
LINE
  8
0
  6
CONTINUOUS
 62
       2
  5
58
 10
-90.18923853
 20
170.6220327
 30
0.0
 11
-90.18923853
 21
-18.74466619
 31
0.0
  0
LINE
  8
0
  6
CONTINUOUS
 62
       7
  5
59
 10
-125.68923853
 20
-2.3381756
 30
0.0
 11
-125.68923853
 21
-13.47799952
 31
0.0
  0
LINE
  8
0
  6
CONTINUOUS
 62
       7
  5
5A
 10
-54.68923853
 20
-2.34466619
 30
0.0
 11
-54.68923853
 21
-13.34466619
 31
0.0
  0
LINE
  8
0
  6
CONTINUOUS
 62
       7
  5
5B
 10
-138.68923853
 20
-1.87799952
 30
0.0
 11
-138.68923853
 21
-13.61133285
 31
0.0
  0
LINE
  8
0
  6
CONTINUOUS
 62
       7
  5
5C
 10
-42.18923853
 20
127.65533381
 30
0.0
 11
-42.18923853
 21
106.65796024
 31
0.0
  0
LINE
  8
0
  6
CONTINUOUS
 62
       7
  5
5D
 10
-148.18923853
 20
51.92200048
 30
0.0
 11
-148.18923853
 21
-15.34466619
 31
0.0
  0
LINE
  8
0
  6
CONTINUOUS
 62
       7
  5
5E
 10
-32.18923853
 20
37.65533381
 30
0.0
 11
-32.18923853
 21
-15.34466619
 31
0.0
  0
LINE
  8
0
  6
CONTINUOUS
 62
       2
  5
5F
 10
-132.18923853
 20
0.65533381
 30
0.0
 11
-132.18923853
 21
-18.97799952
 31
0.0
  0
LINE
  8
0
  6
CONTINUOUS
 62
       2
  5
60
 10
-48.18923853
 20
1.15533381
 30
0.0
 11
-48.18923853
 21
-18.24466619
 31
0.0
  0
LINE
  8
0
  6
CONTINUOUS
 62
       7
  5
61
 10
-129.68923853
 20
2.65533381
 30
0.0
 11
-129.68923853
 21
-0.34466619
 31
0.0
  0
LINE
  8
0
  6
CONTINUOUS
 62
       7
  5
62
 10
-50.68923853
 20
2.65533381
 30
0.0
 11
-50.68923853
 21
-0.34466619
 31
0.0
  0
LINE
  8
0
  6
CONTINUOUS
 62
       7
  5
63
 10
-170.18923853
 20
52.65533381
 30
0.0
 11
-170.18923853
 21
-3.41133285
 31
0.0
  0
LINE
  8
0
  6
CONTINUOUS
 62
       7
  5
64
 10
-168.18923853
 20
54.65533381
 30
0.0
 11
-163.02257186
 21
54.65533381
 31
0.0
  0
LINE
  8
0
  6
CONTINUOUS
 62
       7
  5
65
 10
-168.18923853
 20
-5.34466619
 30
0.0
 11
-149.1559052
 21
-5.34466619
 31
0.0
  0
LINE
  8
0
  6
CONTINUOUS
 62
       7
  5
66
 10
-127.88510548
 20
4.65533381
 30
0.0
 11
-52.68923853
 21
4.65533381
 31
0.0
  0
LINE
  8
0
  6
CONTINUOUS
 62
       7
  5
67
 10
-111.8559052
 20
49.65533381
 30
0.0
 11
-69.42257186
 21
49.65533381
 31
0.0
  0
LINE
  8
0
  6
CONTINUOUS
 62
       2
  5
68
 10
-159.98923853
 20
69.65533381
 30
0.0
 11
-139.6559052
 21
69.65533381
 31
0.0
  0
LINE
  8
0
  6
CONTINUOUS
 62
       7
  5
69
 10
-163.1559052
 20
81.65533381
 30
0.0
 11
-163.1559052
 21
55.65533381
 31
0.0
  0
LINE
  8
0
  6
CONTINUOUS
 62
       2
  5
6A
 10
-180.9559052
 20
112.65533381
 30
0.0
 11
-138.65226418
 21
112.65533381
 31
0.0
  0
LINE
  8
0
  6
CONTINUOUS
 62
       7
  5
6B
 10
-168.22921583
 20
142.65533381
 30
0.0
 11
-150.1559052
 21
142.65533381
 31
0.0
  0
LINE
  8
0
  6
CONTINUOUS
 62
       7
  5
6C
 10
-168.18847417
 20
82.65533381
 30
0.0
 11
-162.92257186
 21
82.65533381
 31
0.0
  0
LINE
  8
0
  6
CONTINUOUS
 62
       7
  5
6D
 10
-170.18923853
 20
140.65533381
 30
0.0
 11
-170.18923853
 21
84.65533381
 31
0.0
  0
LINE
  8
0
  6
CONTINUOUS
 62
       7
  5
6E
 10
-161.1559052
 20
83.65533381
 30
0.0
 11
-150.1559052
 21
83.65533381
 31
0.0
  0
LINE
  8
0
  6
CONTINUOUS
 62
       2
  5
6F
 10
-51.18923853
 20
89.65533381
 30
0.0
 11
-28.49846723
 21
89.65533381
 31
0.0
  0
LINE
  8
0
  6
CONTINUOUS
 62
       7
  5
70
 10
-148.18923853
 20
140.65533381
 30
0.0
 11
-148.18923853
 21
85.65533381
 31
0.0
  0
LINE
  8
0
  6
CONTINUOUS
 62
       7
  5
71
 10
-112.5559052
 20
71.65533381
 30
0.0
 11
-66.2559052
 21
71.65533381
 31
0.0
  0
LINE
  8
0
  6
CONTINUOUS
 62
       7
  5
72
 10
-130.68923853
 20
124.65533381
 30
0.0
 11
-53.18923853
 21
124.65533381
 31
0.0
  0
LINE
  8
0
  6
CONTINUOUS
 62
       7
  5
73
 10
-112.18923853
 20
124.45533381
 30
0.0
 11
-112.18923853
 21
71.98866715
 31
0.0
  0
LINE
  8
0
  6
CONTINUOUS
 62
       7
  5
74
 10
-10.18923853
 20
52.65533381
 30
0.0
 11
-10.18923853
 21
-3.34466619
 31
0.0
  0
LINE
  8
0
  6
CONTINUOUS
 62
       7
  5
75
 10
-28.12257186
 20
54.65533381
 30
0.0
 11
-12.18923853
 21
54.65533381
 31
0.0
  0
LINE
  8
0
  6
CONTINUOUS
 62
       7
  5
76
 10
-32.18923853
 20
-5.34466619
 30
0.0
 11
-12.18923853
 21
-5.34466619
 31
0.0
  0
LINE
  8
0
  6
CONTINUOUS
 62
       7
  5
77
 10
-30.19576631
 20
39.65533381
 30
0.0
 11
-28.92257186
 21
39.65533381
 31
0.0
  0
LINE
  8
0
  6
CONTINUOUS
 62
       7
  5
78
 10
-41.68923853
 20
-2.34466619
 30
0.0
 11
-41.68923853
 21
-13.34466619
 31
0.0
  0
LINE
  8
0
  6
CONTINUOUS
 62
       7
  5
79
 10
-132.68923853
 20
134.65533381
 30
0.0
 11
-51.22257186
 21
134.65533381
 31
0.0
  0
LINE
  8
0
  6
CONTINUOUS
 62
       7
  5
7A
 10
-132.42257186
 20
143.65533381
 30
0.0
 11
-51.22257186
 21
143.65533381
 31
0.0
  0
LINE
  8
0
  6
CONTINUOUS
 62
       7
  5
7B
 10
-148.18923853
 20
138.65533381
 30
0.0
 11
-132.98923853
 21
138.65533381
 31
0.0
  0
LINE
  8
0
  6
CONTINUOUS
 62
       7
  5
7C
 10
-51.18923853
 20
152.68996773
 30
0.0
 11
-51.18923853
 21
126.65533381
 31
0.0
  0
LINE
  8
0
  6
CONTINUOUS
 62
       7
  5
7D
 10
-130.68923853
 20
154.65533381
 30
0.0
 11
-53.18923853
 21
154.65533381
 31
0.0
  0
LINE
  8
0
  6
CONTINUOUS
 62
       7
  5
7E
 10
-51.18923853
 20
129.65533381
 30
0.0
 11
-44.18923853
 21
129.65533381
 31
0.0
  0
LINE
  8
0
  6
CONTINUOUS
 62
       7
  5
7F
 10
-55.18923853
 20
105.65533381
 30
0.0
 11
-42.32257186
 21
105.65533381
 31
0.0
  0
LINE
  8
0
  6
CONTINUOUS
 62
       2
  5
80
 10
-40.18923853
 20
99.98866715
 30
0.0
 11
-40.18923853
 21
79.75533381
 31
0.0
  0
LINE
  8
0
  6
CONTINUOUS
 62
       2
  5
81
 10
-64.6559052
 20
117.65533381
 30
0.0
 11
-36.8559052
 21
117.65533381
 31
0.0
  0
LINE
  8
0
  6
CONTINUOUS
 62
       7
  5
82
 10
-60.18923853
 20
124.65533381
 30
0.0
 11
-57.3559052
 21
118.02200048
 31
0.0
  0
LINE
  8
0
  6
CONTINUOUS
 62
       7
  5
83
 10
-57.18923853
 20
117.25533381
 30
0.0
 11
-57.18923853
 21
107.65533381
 31
0.0
  0
LINE
  8
0
  6
CONTINUOUS
 62
       7
  5
84
 10
-42.18923853
 20
73.69078839
 30
0.0
 11
-42.18923853
 21
72.88337935
 31
0.0
  0
LINE
  8
0
  6
CONTINUOUS
 62
       7
  5
85
 10
-64.2559052
 20
75.45533381
 30
0.0
 11
-64.2559052
 21
73.65533381
 31
0.0
  0
LINE
  8
0
  6
CONTINUOUS
 62
       7
  5
86
 10
-132.68923853
 20
152.66185465
 30
0.0
 11
-132.68923853
 21
126.65533381
 31
0.0
  0
LINE
  8
0
  6
CONTINUOUS
 62
       7
  5
87
 10
-112.18923853
 20
162.65533381
 30
0.0
 11
-112.18923853
 21
154.82200048
 31
0.0
  0
LINE
  8
0
  6
CONTINUOUS
 62
       7
  5
88
 10
-110.18923853
 20
164.65533381
 30
0.0
 11
-70.18923853
 21
164.65533381
 31
0.0
  0
LINE
  8
0
  6
CONTINUOUS
 62
       7
  5
89
 10
-68.18923853
 20
162.65533381
 30
0.0
 11
-68.18923853
 21
154.82200048
 31
0.0
  0
LINE
  8
0
  6
CONTINUOUS
 62
       7
  5
8A
 10
-146.19571758
 20
-0.34466619
 30
0.0
 11
-34.15465546
 21
-0.34466619
 31
0.0
  0
LINE
  8
0
  6
CONTINUOUS
 62
       7
  5
8B
 10
-113.8559052
 20
72.22200048
 30
0.0
 11
-113.8559052
 21
51.65533381
 31
0.0
  0
LINE
  8
0
  6
CONTINUOUS
 62
       7
  5
8C
 10
200.01076147
 20
-15.41133285
 30
0.0
 11
116.01076147
 21
-15.41133285
 31
0.0
  0
LINE
  8
0
  6
CONTINUOUS
 62
       7
  5
8D
 10
198.01076147
 20
-0.41133285
 30
0.0
 11
174.9440948
 21
-0.41133285
 31
0.0
  0
LINE
  8
0
  6
CONTINUOUS
 62
       7
  5
8E
 10
195.51076147
 20
4.58866715
 30
0.0
 11
180.37377649
 21
4.58866715
 31
0.0
  0
LINE
  8
0
  6
CONTINUOUS
 62
       2
  5
8F
 10
203.01076147
 20
24.58866715
 30
0.0
 11
111.61076147
 21
24.58866715
 31
0.0
  0
LINE
  8
0
  6
CONTINUOUS
 62
       7
  5
90
 10
135.69127672
 20
4.58866715
 30
0.0
 11
120.51076147
 21
4.58866715
 31
0.0
  0
LINE
  8
0
  6
CONTINUOUS
 62
       7
  5
91
 10
141.48216632
 20
-0.41133285
 30
0.0
 11
118.01076147
 21
-0.41133285
 31
0.0
  0
LINE
  8
0
  6
CONTINUOUS
 62
       2
  5
92
 10
183.91076147
 20
117.58866715
 30
0.0
 11
129.4440948
 21
117.58866715
 31
0.0
  0
LINE
  8
0
  6
CONTINUOUS
 62
       7
  5
93
 10
192.41076147
 20
54.58866715
 30
0.0
 11
188.51076147
 21
54.58866715
 31
0.0
  0
LINE
  8
0
  6
CONTINUOUS
 62
       7
  5
94
 10
200.01076147
 20
-2.41133285
 30
0.0
 11
200.01076147
 21
-15.41133285
 31
0.0
  0
LINE
  8
0
  6
CONTINUOUS
 62
       7
  5
95
 10
116.01076147
 20
-2.41133285
 30
0.0
 11
116.01076147
 21
-15.31133285
 31
0.0
  0
LINE
  8
0
  6
CONTINUOUS
 62
       7
  5
96
 10
121.61076147
 20
132.58866715
 30
0.0
 11
121.61076147
 21
76.62200048
 31
0.0
  0
LINE
  8
0
  6
CONTINUOUS
 62
       7
  5
97
 10
194.41076147
 20
132.58866715
 30
0.0
 11
194.41076147
 21
76.62200048
 31
0.0
  0
LINE
  8
0
  6
CONTINUOUS
 62
       7
  5
98
 10
118.51076147
 20
2.58866715
 30
0.0
 11
118.51076147
 21
-0.47799952
 31
0.0
  0
LINE
  8
0
  6
CONTINUOUS
 62
       7
  5
99
 10
197.51076147
 20
2.58866715
 30
0.0
 11
197.51076147
 21
-0.11133285
 31
0.0
  0
LINE
  8
0
  6
CONTINUOUS
 62
       7
  5
9A
 10
121.61076147
 20
52.58866715
 30
0.0
 11
121.61076147
 21
4.58866715
 31
0.0
  0
LINE
  8
0
  6
CONTINUOUS
 62
       7
  5
9B
 10
194.41076147
 20
52.58866715
 30
0.0
 11
194.41076147
 21
4.58866715
 31
0.0
  0
LINE
  8
0
  6
CONTINUOUS
 62
       7
  5
9C
 10
186.51076147
 20
82.65533381
 30
0.0
 11
186.51076147
 21
56.58866715
 31
0.0
  0
LINE
  8
0
  6
CONTINUOUS
 62
       7
  5
9D
 10
129.51076147
 20
82.58866715
 30
0.0
 11
129.51076147
 21
56.58866715
 31
0.0
  0
LINE
  8
0
  6
CONTINUOUS
 62
       7
  5
9E
 10
184.51076147
 20
84.58866715
 30
0.0
 11
166.01076147
 21
84.58866715
 31
0.0
  0
LINE
  8
0
  6
CONTINUOUS
 62
       7
  5
9F
 10
127.51076147
 20
54.58866715
 30
0.0
 11
123.61076147
 21
54.58866715
 31
0.0
  0
LINE
  8
0
  6
CONTINUOUS
 62
       7
  5
A0
 10
150.01076147
 20
100.28866715
 30
0.0
 11
150.01076147
 21
77.32200048
 31
0.0
  0
LINE
  8
0
  6
CONTINUOUS
 62
       7
  5
A1
 10
166.01076147
 20
100.28866715
 30
0.0
 11
166.01076147
 21
77.32200048
 31
0.0
  0
LINE
  8
0
  6
CONTINUOUS
 62
       7
  5
A2
 10
150.01076147
 20
84.58866715
 30
0.0
 11
131.51076147
 21
84.58866715
 31
0.0
  0
LINE
  8
0
  6
CONTINUOUS
 62
       7
  5
A3
 10
123.61076147
 20
74.62200048
 30
0.0
 11
127.51076147
 21
74.62200048
 31
0.0
  0
LINE
  8
0
  6
CONTINUOUS
 62
       7
  5
A4
 10
188.51076147
 20
74.62200048
 30
0.0
 11
192.41076147
 21
74.62200048
 31
0.0
  0
LINE
  8
0
  6
CONTINUOUS
 62
       7
  5
A5
 10
194.27742814
 20
124.58866715
 30
0.0
 11
174.59862758
 21
124.58866715
 31
0.0
  0
LINE
  8
0
  6
CONTINUOUS
 62
       7
  5
A6
 10
198.01076147
 20
134.58866715
 30
0.0
 11
196.41076147
 21
134.58866715
 31
0.0
  0
LINE
  8
0
  6
CONTINUOUS
 62
       7
  5
A7
 10
200.01076147
 20
143.58866715
 30
0.0
 11
116.01076147
 21
143.58866715
 31
0.0
  0
LINE
  8
0
  6
CONTINUOUS
 62
       7
  5
A8
 10
198.01076147
 20
154.58866715
 30
0.0
 11
118.01076147
 21
154.58866715
 31
0.0
  0
LINE
  8
0
  6
CONTINUOUS
 62
       7
  5
A9
 10
141.4338136
 20
124.58866715
 30
0.0
 11
121.47742814
 21
124.58866715
 31
0.0
  0
LINE
  8
0
  6
CONTINUOUS
 62
       7
  5
AA
 10
119.61076147
 20
134.58866715
 30
0.0
 11
118.01076147
 21
134.58866715
 31
0.0
  0
LINE
  8
0
  6
CONTINUOUS
 62
       7
  5
AB
 10
200.01076147
 20
152.58866715
 30
0.0
 11
200.01076147
 21
136.58866715
 31
0.0
  0
LINE
  8
0
  6
CONTINUOUS
 62
       7
  5
AC
 10
116.01076147
 20
152.58866715
 30
0.0
 11
116.01076147
 21
136.58866715
 31
0.0
  0
LINE
  8
0
  6
CONTINUOUS
 62
       7
  5
AD
 10
136.01076147
 20
162.58866715
 30
0.0
 11
136.01076147
 21
154.75533381
 31
0.0
  0
LINE
  8
0
  6
CONTINUOUS
 62
       7
  5
AE
 10
125.51076147
 20
159.58866715
 30
0.0
 11
125.51076147
 21
154.65533381
 31
0.0
  0
LINE
  8
0
  6
CONTINUOUS
 62
       7
  5
AF
 10
135.51076147
 20
159.58866715
 30
0.0
 11
135.51076147
 21
154.65533381
 31
0.0
  0
LINE
  8
0
  6
CONTINUOUS
 62
       7
  5
B0
 10
126.51076147
 20
160.58866715
 30
0.0
 11
134.51076147
 21
160.58866715
 31
0.0
  0
LINE
  8
0
  6
CONTINUOUS
 62
       7
  5
B1
 10
125.51076147
 20
159.58866715
 30
0.0
 11
135.51076147
 21
159.58866715
 31
0.0
  0
LINE
  8
0
  6
CONTINUOUS
 62
       2
  5
B2
 10
130.51076147
 20
162.48866715
 30
0.0
 11
130.51076147
 21
153.25533381
 31
0.0
  0
LINE
  8
0
  6
CONTINUOUS
 62
       7
  5
B3
 10
138.01076147
 20
164.58866715
 30
0.0
 11
178.01076147
 21
164.58866715
 31
0.0
  0
LINE
  8
0
  6
CONTINUOUS
 62
       7
  5
B4
 10
180.01076147
 20
162.58866715
 30
0.0
 11
180.01076147
 21
154.75533381
 31
0.0
  0
LINE
  8
0
  6
CONTINUOUS
 62
       7
  5
B5
 10
180.51076147
 20
159.58866715
 30
0.0
 11
180.51076147
 21
154.65533381
 31
0.0
  0
LINE
  8
0
  6
CONTINUOUS
 62
       7
  5
B6
 10
190.51076147
 20
159.58866715
 30
0.0
 11
180.51076147
 21
159.58866715
 31
0.0
  0
LINE
  8
0
  6
CONTINUOUS
 62
       7
  5
B7
 10
189.51076147
 20
160.58866715
 30
0.0
 11
181.51076147
 21
160.58866715
 31
0.0
  0
LINE
  8
0
  6
CONTINUOUS
 62
       2
  5
B8
 10
185.51076147
 20
162.48866715
 30
0.0
 11
185.51076147
 21
153.25533381
 31
0.0
  0
LINE
  8
0
  6
CONTINUOUS
 62
       7
  5
B9
 10
190.51076147
 20
159.58866715
 30
0.0
 11
190.51076147
 21
154.65533381
 31
0.0
  0
LINE
  8
0
  6
DASHED
 62
       7
  5
BB
 10
152.51076147
 20
164.52200048
 30
0.0
 11
152.51076147
 21
156.09337431
 31
0.0
  0
LINE
  8
0
  6
DASHED
 62
       7
  5
BC
 10
163.51076147
 20
164.62200048
 30
0.0
 11
163.51076147
 21
156.09337431
 31
0.0
  0
CIRCLE
  8
0
  6
CONTINUOUS
 62
       7
  5
BD
 10
-150.20857294
 20
69.67598201
 30
0.0
 40
5.99999746
  0
CIRCLE
  8
0
  6
CONTINUOUS
 62
       7
  5
BE
 10
-40.17524724
 20
89.46195206
 30
0.0
 40
5.99999746
  0
ARC
  8
0
  6
CONTINUOUS
 62
       7
  5
BF
 10
-37.12095882
 20
33.50187618
 30
0.0
 40
33.26606228
 50
156.33340608
 51
240.12869414
  0
ARC
  8
0
  6
CONTINUOUS
 62
       7
  5
C0
 10
-105.5124597
 20
129.36416666
 30
0.0
 40
58.09379282
 50
222.72500466
 51
263.40035363
  0
ARC
  8
0
  6
CONTINUOUS
 62
       7
  5
C1
 10
-40.17334965
 20
89.67384512
 30
0.0
 40
14.98412255
 50
359.92921708
 51
90.05360101
  0
ARC
  8
0
  6
CONTINUOUS
 62
       7
  5
C2
 10
-40.18999178
 20
89.66031051
 30
0.0
 40
15.00075408
 50
266.41954993
 51
359.98099135
  0
ARC
  8
0
  6
CONTINUOUS
 62
       7
  5
C3
 10
-59.07214218
 20
45.24970342
 30
0.0
 40
32.38290414
 50
0.00996197
 51
95.99791459
  0
ARC
  8
0
  6
CONTINUOUS
 62
       7
  5
C4
 10
-59.0793569
 20
45.30313812
 30
0.0
 40
32.39015365
 50
353.11801937
 51
359.9154377
  0
ARC
  8
0
  6
CONTINUOUS
 62
       7
  5
C5
 10
-168.20921192
 20
52.67530721
 30
0.0
 40
1.98012734
 50
89.42205204
 51
180.57794796
  0
ARC
  8
0
  6
CONTINUOUS
 62
       7
  5
C6
 10
-168.18848958
 20
-3.34391724
 30
0.0
 40
2.00074909
 50
180.02144783
 51
269.97855217
  0
ARC
  8
0
  6
CONTINUOUS
 62
       7
  5
C7
 10
-150.17193163
 20
51.67263004
 30
0.0
 40
1.98276854
 50
359.500187
 51
89.53688139
  0
ARC
  8
0
  6
CONTINUOUS
 62
       7
  5
C8
 10
-146.19247805
 20
-2.34142667
 30
0.0
 40
1.99676311
 50
89.90704403
 51
180.09295597
  0
ARC
  8
0
  6
CONTINUOUS
 62
       7
  5
C9
 10
-150.17195194
 20
-7.32738993
 30
0.0
 40
1.98278867
 50
359.50076913
 51
89.53629926
  0
ARC
  8
0
  6
CONTINUOUS
 62
       7
  5
CA
 10
-161.1551357
 20
55.65610331
 30
0.0
 40
2.00076965
 50
180.02203605
 51
269.97796395
  0
ARC
  8
0
  6
CONTINUOUS
 62
       7
  5
CB
 10
-161.17589893
 20
81.67532754
 30
0.0
 40
1.98010721
 50
89.42145763
 51
180.57854237
  0
ARC
  8
0
  6
CONTINUOUS
 62
       7
  5
CC
 10
-168.18847417
 20
84.65609817
 30
0.0
 40
2.00076451
 50
180.02188899
 51
269.97811101
  0
ARC
  8
0
  6
CONTINUOUS
 62
       7
  5
CD
 10
-150.19266712
 20
85.65842748
 30
0.0
 40
2.00343097
 50
271.05140686
 51
359.91152475
  0
ARC
  8
0
  6
CONTINUOUS
 62
       7
  5
CE
 10
-168.20922718
 20
140.67532246
 30
0.0
 40
1.98011225
 50
89.42160623
 51
180.57839377
  0
ARC
  8
0
  6
CONTINUOUS
 62
       7
  5
CF
 10
-150.17193671
 20
140.67262505
 30
0.0
 40
1.98277357
 50
359.50033253
 51
89.53673586
  0
ARC
  8
0
  6
CONTINUOUS
 62
       7
  5
D0
 10
-130.67190773
 20
126.67266461
 30
0.0
 40
2.01740524
 50
180.49221333
 51
269.50778667
  0
ARC
  8
0
  6
CONTINUOUS
 62
       7
  5
D1
 10
-130.69249895
 20
152.65859423
 30
0.0
 40
1.99674224
 50
89.90644339
 51
180.09355661
  0
ARC
  8
0
  6
CONTINUOUS
 62
       7
  5
D2
 10
-110.19248356
 20
162.65857884
 30
0.0
 40
1.99675761
 50
89.90688575
 51
180.09311425
  0
ARC
  8
0
  6
CONTINUOUS
 62
       7
  5
D3
 10
-70.17190629
 20
162.67266605
 30
0.0
 40
1.98274352
 50
359.49914001
 51
90.50085999
  0
ARC
  8
0
  6
CONTINUOUS
 62
       7
  5
D4
 10
-53.17192157
 20
152.67265077
 30
0.0
 40
1.98275867
 50
359.49958552
 51
90.50041448
  0
ARC
  8
0
  6
CONTINUOUS
 62
       7
  5
D5
 10
-53.19265728
 20
126.65875256
 30
0.0
 40
2.00342167
 50
270.09777272
 51
359.90222728
  0
ARC
  8
0
  6
CONTINUOUS
 62
       7
  5
D6
 10
-44.1719419
 20
127.67263044
 30
0.0
 40
1.98277882
 50
359.50017804
 51
90.49982196
  0
ARC
  8
0
  6
CONTINUOUS
 62
       7
  5
D7
 10
-59.1672564
 20
117.2267792
 30
0.0
 40
1.97822397
 50
0.82706281
 51
23.70248465
  0
ARC
  8
0
  6
CONTINUOUS
 62
       7
  5
D8
 10
-55.17194144
 20
107.6726309
 30
0.0
 40
2.01737124
 50
180.49126424
 51
269.50873576
  0
ARC
  8
0
  6
CONTINUOUS
 62
       7
  5
D9
 10
-41.18982173
 20
73.69143369
 30
0.0
 40
0.99942063
 50
93.79126464
 51
180.15860339
  0
ARC
  8
0
  6
CONTINUOUS
 62
       7
  5
DA
 10
-66.25344011
 20
73.65286873
 30
0.0
 40
1.99753643
 50
269.92929336
 51
0.07070664
  0
ARC
  8
0
  6
CONTINUOUS
 62
       7
  5
DB
 10
-62.2520211
 20
75.46183812
 30
0.0
 40
2.00389466
 50
95.83960212
 51
180.18597289
  0
ARC
  8
0
  6
CONTINUOUS
 62
       7
  5
DC
 10
-12.1719419
 20
52.67263044
 30
0.0
 40
1.98277882
 50
359.50017804
 51
90.49982196
  0
ARC
  8
0
  6
CONTINUOUS
 62
       7
  5
DD
 10
-12.19263667
 20
-3.34126805
 30
0.0
 40
2.00340102
 50
270.09718432
 51
359.90281568
  0
ARC
  8
0
  6
CONTINUOUS
 62
       7
  5
DE
 10
-34.171947
 20
-2.32737465
 30
0.0
 40
1.98278387
 50
359.50032654
 51
90.49967346
  0
ARC
  8
0
  6
CONTINUOUS
 62
       7
  5
DF
 10
-39.69249729
 20
-2.34140743
 30
0.0
 40
1.9967439
 50
89.90649109
 51
180.09350891
  0
ARC
  8
0
  6
CONTINUOUS
 62
       7
  5
E0
 10
-39.67194654
 20
-13.32737419
 30
0.0
 40
2.01736611
 50
180.49112079
 51
269.50887921
  0
ARC
  8
0
  6
CONTINUOUS
 62
       7
  5
E1
 10
-140.6926228
 20
-13.34128191
 30
0.0
 40
2.00338713
 50
270.09678843
 51
359.90321157
  0
ARC
  8
0
  6
CONTINUOUS
 62
       7
  5
E2
 10
-140.67192789
 20
-2.32735555
 30
0.0
 40
1.98276493
 50
359.49976967
 51
90.50023033
  0
ARC
  8
0
  6
CONTINUOUS
 62
       7
  5
E3
 10
-56.67193171
 20
-2.32735937
 30
0.0
 40
1.98276872
 50
359.49988104
 51
90.50011896
  0
ARC
  8
0
  6
CONTINUOUS
 62
       7
  5
E4
 10
-56.69262659
 20
-13.34127813
 30
0.0
 40
2.00339092
 50
270.0968964
 51
359.9031036
  0
ARC
  8
0
  6
CONTINUOUS
 62
       7
  5
E5
 10
-123.69248383
 20
-2.34142089
 30
0.0
 40
1.99675734
 50
89.90687815
 51
180.09312185
  0
ARC
  8
0
  6
CONTINUOUS
 62
       7
  5
E6
 10
-123.67193321
 20
-13.32736086
 30
0.0
 40
2.01737955
 50
180.4914961
 51
269.5085039
  0
ARC
  8
0
  6
CONTINUOUS
 62
       7
  5
E7
 10
-127.6825366
 20
2.65887919
 30
0.0
 40
2.00670506
 50
84.20635114
 51
180.1012283
  0
ARC
  8
0
  6
CONTINUOUS
 62
       7
  5
E8
 10
-52.671947
 20
2.67262535
 30
0.0
 40
1.98278387
 50
359.50032654
 51
90.49967346
  0
ARC
  8
0
  6
CONTINUOUS
 62
       7
  5
E9
 10
-111.83845761
 20
51.6727814
 30
0.0
 40
2.01752303
 50
180.49550151
 51
269.50449849
  0
ARC
  8
0
  6
CONTINUOUS
 62
       7
  5
EA
 10
-69.39596965
 20
47.67255352
 30
0.0
 40
1.98295874
 50
335.66183328
 51
90.76866971
  0
ARC
  8
0
  6
CONTINUOUS
 62
       7
  5
EB
 10
-30.19250242
 20
37.6585977
 30
0.0
 40
1.99673878
 50
89.90634364
 51
180.09365636
  0
ARC
  8
0
  6
CONTINUOUS
 62
       7
  5
EC
 10
-28.91642282
 20
41.66378144
 30
0.0
 40
2.00845704
 50
269.8245844
 51
353.08588269
  0
CIRCLE
  8
0
  6
CONTINUOUS
 62
       7
  5
ED
 10
158.03252661
 20
24.61036921
 30
0.0
 40
30.0
  0
ARC
  8
0
  6
CONTINUOUS
 62
       7
  5
EE
 10
158.01622059
 20
117.60100429
 30
0.0
 40
17.99454511
 50
359.96071775
 51
239.96989637
  0
ARC
  8
0
  6
CONTINUOUS
 62
       7
  5
EF
 10
158.0271032
 20
117.60102489
 30
0.0
 40
17.98366252
 50
299.96993723
 51
359.96062834
  0
ARC
  8
0
  6
CONTINUOUS
 62
       7
  5
F0
 10
118.01089601
 20
-2.41146739
 30
0.0
 40
2.00013454
 50
90.00385392
 51
179.99614608
  0
ARC
  8
0
  6
CONTINUOUS
 62
       7
  5
F1
 10
120.51089601
 20
2.58853261
 30
0.0
 40
2.00013454
 50
90.00385392
 51
179.99614608
  0
ARC
  8
0
  6
CONTINUOUS
 62
       7
  5
F2
 10
123.61090937
 20
52.58851924
 30
0.0
 40
2.00014791
 50
90.00423684
 51
179.99576316
  0
ARC
  8
0
  6
CONTINUOUS
 62
       7
  5
F3
 10
127.51067469
 20
56.58875393
 30
0.0
 40
2.00008678
 50
270.00248598
 51
359.99751402
  0
ARC
  8
0
  6
CONTINUOUS
 62
       7
  5
F4
 10
127.52259392
 20
72.63383293
 30
0.0
 40
1.98820276
 50
359.65901178
 51
90.34098822
  0
ARC
  8
0
  6
CONTINUOUS
 62
       7
  5
F5
 10
131.51090115
 20
82.58852747
 30
0.0
 40
2.00013968
 50
90.0040012
 51
179.9959988
  0
ARC
  8
0
  6
CONTINUOUS
 62
       7
  5
F6
 10
123.62264121
 20
76.63388022
 30
0.0
 40
2.01191482
 50
180.33831609
 51
269.66168391
  0
ARC
  8
0
  6
CONTINUOUS
 62
       7
  5
F7
 10
119.63252864
 20
132.61043432
 30
0.0
 40
1.97835258
 50
359.36958043
 51
90.63041957
  0
ARC
  8
0
  6
CONTINUOUS
 62
       7
  5
F8
 10
118.03250524
 20
136.61041092
 30
0.0
 40
2.0218607
 50
180.61619009
 51
269.38380991
  0
ARC
  8
0
  6
CONTINUOUS
 62
       7
  5
F9
 10
118.01088091
 20
152.5885477
 30
0.0
 40
2.00011945
 50
90.0034216
 51
179.9965784
  0
ARC
  8
0
  6
CONTINUOUS
 62
       7
  5
FA
 10
198.03252559
 20
152.61043126
 30
0.0
 40
1.9783556
 50
359.36966977
 51
90.63033023
  0
ARC
  8
0
  6
CONTINUOUS
 62
       7
  5
FB
 10
198.01066463
 20
136.58876399
 30
0.0
 40
2.00009684
 50
270.0027742
 51
359.9972258
  0
ARC
  8
0
  6
CONTINUOUS
 62
       7
  5
FC
 10
196.4109032
 20
132.58852541
 30
0.0
 40
2.00014174
 50
90.00406011
 51
179.99593989
  0
ARC
  8
0
  6
CONTINUOUS
 62
       7
  5
FD
 10
192.42066185
 20
76.6121001
 30
0.0
 40
1.99012425
 50
269.71496644
 51
0.28503356
  0
ARC
  8
0
  6
CONTINUOUS
 62
       7
  5
FE
 10
184.53253067
 20
82.61043635
 30
0.0
 40
1.97835057
 50
359.36952086
 51
90.63047914
  0
ARC
  8
0
  6
CONTINUOUS
 62
       7
  5
FF
 10
188.52073012
 20
72.61203183
 30
0.0
 40
2.00999337
 50
90.28416204
 51
179.71583796
  0
ARC
  8
0
  6
CONTINUOUS
 62
       7
  5
100
 10
188.5325205
 20
56.61042618
 30
0.0
 40
2.02187612
 50
180.61661782
 51
269.38338218
  0
ARC
  8
0
  6
CONTINUOUS
 62
       7
  5
101
 10
192.43252254
 20
52.61042821
 30
0.0
 40
1.97835862
 50
359.36975912
 51
90.63024088
  0
ARC
  8
0
  6
CONTINUOUS
 62
       7
  5
102
 10
195.53251033
 20
2.61041601
 30
0.0
 40
1.97837069
 50
359.37011652
 51
90.62988348
  0
ARC
  8
0
  6
CONTINUOUS
 62
       7
  5
103
 10
198.03251033
 20
-2.38958399
 30
0.0
 40
1.97837069
 50
359.37011652
 51
90.62988348
  0
ARC
  8
0
  6
CONTINUOUS
 62
       7
  5
104
 10
168.02713714
 20
100.28050169
 30
0.0
 40
2.0163922
 50
120.26874317
 51
179.76797809
  0
ARC
  8
0
  6
CONTINUOUS
 62
       7
  5
105
 10
148.02704495
 20
100.29934351
 30
0.0
 40
1.98374525
 50
359.69163695
 51
60.27164179
  0
ARC
  8
0
  6
CONTINUOUS
 62
       7
  5
106
 10
138.01090662
 20
162.58852199
 30
0.0
 40
2.00014516
 50
90.00415799
 51
179.99584201
  0
ARC
  8
0
  6
CONTINUOUS
 62
       7
  5
107
 10
178.03255102
 20
162.6104567
 30
0.0
 40
1.97833045
 50
359.36892518
 51
90.63107482
  0
ARC
  8
0
  6
CONTINUOUS
 62
       7
  5
108
 10
168.03535365
 20
77.34183637
 30
0.0
 40
2.02468935
 50
180.56133597
 51
231.5893752
  0
ARC
  8
0
  6
CONTINUOUS
 62
       7
  5
109
 10
148.01714281
 20
77.31280551
 30
0.0
 40
1.99363986
 50
313.02461243
 51
0.26425785
  0
LINE
  8
0
  6
CONTINUOUS
 62
       2
  5
10A
 10
-150.18923853
 20
79.19690246
 30
0.0
 11
-150.18923853
 21
60.3311294
 31
0.0
  0
LINE
  8
0
  6
CONTINUOUS
 62
       7
  5
10B
 10
-148.18923853
 20
-15.34466619
 30
0.0
 11
-32.18923853
 21
-15.34466619
 31
0.0
  0
LINE
  8
0
  6
CONTINUOUS
 62
       2
  5
10C
 10
-180.9559052
 20
24.65533381
 30
0.0
 11
1.27742814
 21
24.65533381
 31
0.0
  0
ARC
  8
0
  6
CONTINUOUS
 62
       7
  5
10D
 10
-40.18923853
 20
106.65796024
 30
0.0
 40
2.0
 50
180.0
 51
270.05360101
  0
ARC
  8
0
  6
CONTINUOUS
 62
       7
  5
10E
 10
-41.18923853
 20
73.69078839
 30
0.0
 40
1.0
 50
86.41954993
 51
180.0
  0
LINE
  8
0
  6
CONTINUOUS
 62
       7
  5
10F
 10
-161.88923853
 20
53.65533381
 30
0.0
 11
-113.8559052
 21
53.65533381
 31
0.0
  0
ARC
  8
0
  6
CONTINUOUS
 62
       7
  5
110
 10
-144.50004753
 20
32.75862278
 30
0.0
 40
33.26606228
 50
302.37130586
 51
32.40040391
  0
ARC
  8
0
  6
CONTINUOUS
 62
       7
  5
111
 10
-114.72405954
 20
51.65533381
 30
0.0
 40
2.0
 50
90.0
 51
212.40040391
  0
LINE
  8
0
  6
CONTINUOUS
 62
       7
  5
112
 10
189.51076147
 20
160.58866715
 30
0.0
 11
190.51076147
 21
159.58866715
 31
0.0
  0
LINE
  8
0
  6
CONTINUOUS
 62
       7
  5
113
 10
181.51076147
 20
160.58866715
 30
0.0
 11
180.51076147
 21
159.58866715
 31
0.0
  0
LINE
  8
0
  6
DASHED
 62
       2
  5
114
 10
164.51076147
 20
164.52200048
 30
0.0
 11
164.21642736
 21
156.09337431
 31
0.0
  0
LINE
  8
0
  6
DASHED
 62
       2
  5
115
 10
151.51076147
 20
164.52200048
 30
0.0
 11
151.80595506
 21
156.06876193
 31
0.0
  0
LINE
  8
0
  6
CONTINUOUS
 62
       7
  5
116
 10
134.51076147
 20
160.58866715
 30
0.0
 11
135.51076147
 21
159.58866715
 31
0.0
  0
LINE
  8
0
  6
CONTINUOUS
 62
       7
  5
117
 10
126.51076147
 20
160.58866715
 30
0.0
 11
125.51076147
 21
159.58866715
 31
0.0
  0
LINE
  8
0
  6
CONTINUOUS
 62
       7
  5
118
 10
-67.68923853
 20
159.65533381
 30
0.0
 11
-67.68923853
 21
154.72200048
 31
0.0
  0
LINE
  8
0
  6
CONTINUOUS
 62
       2
  5
119
 10
-62.68923853
 20
162.55533381
 30
0.0
 11
-62.68923853
 21
153.32200048
 31
0.0
  0
LINE
  8
0
  6
CONTINUOUS
 62
       7
  5
11A
 10
-57.68923853
 20
159.65533381
 30
0.0
 11
-57.68923853
 21
154.72200048
 31
0.0
  0
LINE
  8
0
  6
CONTINUOUS
 62
       7
  5
11B
 10
-66.68923853
 20
160.65533381
 30
0.0
 11
-67.68923853
 21
159.65533381
 31
0.0
  0
LINE
  8
0
  6
CONTINUOUS
 62
       7
  5
11C
 10
-58.68923853
 20
160.65533381
 30
0.0
 11
-57.68923853
 21
159.65533381
 31
0.0
  0
LINE
  8
0
  6
CONTINUOUS
 62
       7
  5
11D
 10
-58.68923853
 20
160.65533381
 30
0.0
 11
-66.68923853
 21
160.65533381
 31
0.0
  0
LINE
  8
0
  6
CONTINUOUS
 62
       7
  5
11E
 10
-57.68923853
 20
159.65533381
 30
0.0
 11
-67.68923853
 21
159.65533381
 31
0.0
  0
LINE
  8
0
  6
CONTINUOUS
 62
       7
  5
11F
 10
-122.68923853
 20
159.65533381
 30
0.0
 11
-122.68923853
 21
154.72200048
 31
0.0
  0
LINE
  8
0
  6
CONTINUOUS
 62
       7
  5
120
 10
-122.68923853
 20
159.65533381
 30
0.0
 11
-112.68923853
 21
159.65533381
 31
0.0
  0
LINE
  8
0
  6
CONTINUOUS
 62
       2
  5
121
 10
-117.68923853
 20
162.55533381
 30
0.0
 11
-117.68923853
 21
153.32200048
 31
0.0
  0
LINE
  8
0
  6
CONTINUOUS
 62
       7
  5
122
 10
-113.68923853
 20
160.65533381
 30
0.0
 11
-112.68923853
 21
159.65533381
 31
0.0
  0
LINE
  8
0
  6
CONTINUOUS
 62
       7
  5
123
 10
-121.68923853
 20
160.65533381
 30
0.0
 11
-122.68923853
 21
159.65533381
 31
0.0
  0
LINE
  8
0
  6
CONTINUOUS
 62
       7
  5
124
 10
-121.68923853
 20
160.65533381
 30
0.0
 11
-113.68923853
 21
160.65533381
 31
0.0
  0
LINE
  8
0
  6
CONTINUOUS
 62
       7
  5
125
 10
-112.68923853
 20
159.65533381
 30
0.0
 11
-112.68923853
 21
154.72200048
 31
0.0
  0
LINE
  8
0
  6
DASHED
 62
       7
  5
126
 10
-95.68923853
 20
164.58866715
 30
0.0
 11
-95.68923853
 21
156.16004098
 31
0.0
  0
LINE
  8
0
  6
DASHED
 62
       2
  5
127
 10
-96.68923853
 20
164.58866715
 30
0.0
 11
-96.39404494
 21
156.13542859
 31
0.0
  0
LINE
  8
0
  6
DASHED
 62
       7
  5
128
 10
-84.68923853
 20
164.68866715
 30
0.0
 11
-84.68923853
 21
156.16004098
 31
0.0
  0
LINE
  8
0
  6
DASHED
 62
       2
  5
129
 10
-83.68923853
 20
164.58866715
 30
0.0
 11
-83.98357264
 21
156.16004098
 31
0.0
  0
CIRCLE
  8
0
  6
CONTINUOUS
 62
       7
  5
12A
 10
158.01076147
 20
117.58866715
 30
0.0
 40
8.0
  0
CIRCLE
  8
0
  6
CONTINUOUS
 62
       7
  5
12B
 10
158.01076147
 20
117.58866715
 30
0.0
 40
4.95
  0
LINE
  8
0
  6
CONTINUOUS
 62
       7
  5
12C
 10
150.75913123
 20
120.96710744
 30
0.0
 11
152.06433404
 21
120.21354825
 31
0.0
  0
ARC
  8
0
  6
CONTINUOUS
 62
       7
  5
12D
 10
158.01076147
 20
117.58866715
 30
0.0
 40
6.5
 50
96.18230424
 51
143.81769576
  0
ARC
  8
0
  6
CONTINUOUS
 62
       7
  5
12E
 10
158.01076147
 20
117.58866715
 30
0.0
 40
6.5
 50
156.18230424
 51
203.81769576
  0
LINE
  8
0
  6
CONTINUOUS
 62
       7
  5
12F
 10
151.45913123
 20
122.17954301
 30
0.0
 11
152.76433404
 21
121.42598381
 31
0.0
  0
ARC
  8
0
  6
CONTINUOUS
 62
       7
  5
130
 10
158.01076147
 20
117.58866715
 30
0.0
 40
6.5
 50
336.18230424
 51
23.81769576
  0
LINE
  8
0
  6
CONTINUOUS
 62
       7
  5
131
 10
158.71076147
 20
124.05086491
 30
0.0
 11
158.71076147
 21
125.5579833
 31
0.0
  0
LINE
  8
0
  6
CONTINUOUS
 62
       7
  5
132
 10
163.9571889
 20
120.21354825
 30
0.0
 11
165.26239171
 21
120.96710744
 31
0.0
  0
LINE
  8
0
  6
CONTINUOUS
 62
       7
  5
133
 10
163.2571889
 20
121.42598381
 30
0.0
 11
164.56239171
 21
122.17954301
 31
0.0
  0
ARC
  8
0
  6
CONTINUOUS
 62
       7
  5
134
 10
158.01076147
 20
117.58866715
 30
0.0
 40
6.5
 50
36.18230424
 51
83.81769576
  0
LINE
  8
0
  6
CONTINUOUS
 62
       7
  5
135
 10
157.31076147
 20
124.05086491
 30
0.0
 11
157.31076147
 21
125.5579833
 31
0.0
  0
LINE
  8
0
  6
CONTINUOUS
 62
       7
  5
136
 10
150.75913123
 20
114.21022685
 30
0.0
 11
152.06433404
 21
114.96378604
 31
0.0
  0
LINE
  8
0
  6
CONTINUOUS
 62
       7
  5
137
 10
151.45913123
 20
112.99779128
 30
0.0
 11
152.76433404
 21
113.75135048
 31
0.0
  0
ARC
  8
0
  6
CONTINUOUS
 62
       7
  5
138
 10
158.01076147
 20
117.58866715
 30
0.0
 40
6.5
 50
216.18230424
 51
263.81769576
  0
LINE
  8
0
  6
CONTINUOUS
 62
       7
  5
139
 10
157.31076147
 20
109.61935099
 30
0.0
 11
157.31076147
 21
111.12646938
 31
0.0
  0
LINE
  8
0
  6
CONTINUOUS
 62
       7
  5
13A
 10
158.71076147
 20
109.61935099
 30
0.0
 11
158.71076147
 21
111.12646938
 31
0.0
  0
ARC
  8
0
  6
CONTINUOUS
 62
       7
  5
13B
 10
158.01076147
 20
117.58866715
 30
0.0
 40
6.5
 50
276.18230424
 51
323.81769576
  0
LINE
  8
0
  6
CONTINUOUS
 62
       7
  5
13C
 10
163.2571889
 20
113.75135048
 30
0.0
 11
164.56239171
 21
112.99779128
 31
0.0
  0
LINE
  8
0
  6
CONTINUOUS
 62
       7
  5
13D
 10
163.9571889
 20
114.96378604
 30
0.0
 11
165.26239171
 21
114.21022685
 31
0.0
  0
CIRCLE
  8
0
  6
CONTINUOUS
 62
       2
  5
13E
 10
158.01076147
 20
24.58866715
 30
0.0
 40
16.5
  0
LINE
  8
0
  6
DASHED
 62
       2
  5
13F
 10
-30.18923831
 20
40.39025177
 30
0.0
 11
-10.18923866
 21
41.08866714
 31
0.0
  0
LINE
  8
0
  6
DASHED
 62
       2
  5
140
 10
-30.18923831
 20
8.92041586
 30
0.0
 11
-10.18923866
 21
8.22200048
 31
0.0
  0
LINE
  8
0
  6
DASHED
 62
       2
  5
141
 10
-150.18923876
 20
40.39025177
 30
0.0
 11
-170.1892384
 21
41.08866714
 31
0.0
  0
LINE
  8
0
  6
DASHED
 62
       2
  5
142
 10
-150.18923876
 20
8.92041586
 30
0.0
 11
-170.1892384
 21
8.22200048
 31
0.0
  0
LINE
  8
0
  6
DASHED
 62
       2
  5
143
 10
-150.18923876
 20
128.39025177
 30
0.0
 11
-170.1892384
 21
129.08866714
 31
0.0
  0
LINE
  8
0
  6
DASHED
 62
       2
  5
144
 10
-150.18923876
 20
96.92041586
 30
0.0
 11
-170.1892384
 21
96.22200048
 31
0.0
  0
LINE
  8
0
  6
DASHED
 62
       7
  5
145
 10
-150.18923852
 20
126.58866715
 30
0.0
 11
-170.18923852
 21
126.58866715
 31
0.0
  0
LINE
  8
0
  6
DASHED
 62
       7
  5
146
 10
-150.18923852
 20
98.72200048
 30
0.0
 11
-170.18923852
 21
98.72200048
 31
0.0
  0
LINE
  8
0
  6
DASHED
 62
       7
  5
147
 10
-150.18923852
 20
38.58866715
 30
0.0
 11
-170.18923852
 21
38.58866715
 31
0.0
  0
LINE
  8
0
  6
DASHED
 62
       7
  5
148
 10
-150.18923852
 20
10.72200048
 30
0.0
 11
-170.18923852
 21
10.72200048
 31
0.0
  0
LINE
  8
0
  6
DASHED
 62
       7
  5
149
 10
-30.18923855
 20
38.58866715
 30
0.0
 11
-10.18923855
 21
38.58866715
 31
0.0
  0
LINE
  8
0
  6
DASHED
 62
       7
  5
14A
 10
-30.18923855
 20
10.72200048
 30
0.0
 11
-10.18923855
 21
10.72200048
 31
0.0
  0
CIRCLE
  8
0
  6
CONTINUOUS
 62
       7
  5
14B
 10
158.01076147
 20
24.58866715
 30
0.0
 40
14.0
  0
LINE
  8
0
  6
CONTINUOUS
 62
       7
  5
14C
 10
-108.18923853
 20
165.65533381
 30
0.0
 11
-72.18923853
 21
165.65533381
 31
0.0
  0
LINE
  8
0
  6
CONTINUOUS
 62
       7
  5
14D
 10
-72.18923853
 20
165.65533381
 30
0.0
 11
-72.18923853
 21
164.65533381
 31
0.0
  0
LINE
  8
0
  6
CONTINUOUS
 62
       7
  5
14E
 10
-108.18923853
 20
165.65533381
 30
0.0
 11
-108.18923853
 21
164.65533381
 31
0.0
  0
LINE
  8
0
  6
CONTINUOUS
 62
       2
  5
14F
 10
-76.68923853
 20
169.59899248
 30
0.0
 11
-76.68923853
 21
161.78668536
 31
0.0
  0
ARC
  8
0
  6
CONTINUOUS
 62
       7
  5
150
 10
-76.68923853
 20
164.67755603
 30
0.0
 40
2.77777778
 50
20.60969294
 51
159.39030706
  0
LINE
  8
0
  6
CONTINUOUS
 62
       2
  5
151
 10
-103.68923853
 20
169.59899248
 30
0.0
 11
-103.68923853
 21
161.78668536
 31
0.0
  0
ARC
  8
0
  6
CONTINUOUS
 62
       7
  5
152
 10
-103.68923853
 20
164.67755603
 30
0.0
 40
2.77777778
 50
20.60969294
 51
159.39030706
  0
LINE
  8
0
  6
CONTINUOUS
 62
       7
  5
153
 10
140.01076147
 20
165.58866715
 30
0.0
 11
176.01076147
 21
165.58866715
 31
0.0
  0
LINE
  8
0
  6
CONTINUOUS
 62
       7
  5
154
 10
140.01076147
 20
165.58866715
 30
0.0
 11
140.01076147
 21
164.58866715
 31
0.0
  0
LINE
  8
0
  6
CONTINUOUS
 62
       7
  5
155
 10
176.01076147
 20
165.58866715
 30
0.0
 11
176.01076147
 21
164.58866715
 31
0.0
  0
ARC
  8
0
  6
CONTINUOUS
 62
       7
  5
156
 10
158.01076147
 20
164.61088937
 30
0.0
 40
2.77777778
 50
20.60969294
 51
159.39030706
  0
LINE
  8
0
  6
CONTINUOUS
 62
       2
  5
157
 10
158.01076147
 20
170.79586926
 30
0.0
 11
158.01076147
 21
-30.74466619
 31
0.0
  0
LINE
  8
0
  6
CONTINUOUS
 62
       7
  5
158
 10
282.09985352
 20
195.5
 30
0.0
 11
282.09985352
 21
-195.0
 31
0.0
  0
LINE
  8
0
  6
CONTINUOUS
 62
       7
  5
159
 10
-281.25
 20
195.5
 30
0.0
 11
282.09985352
 21
195.5
 31
0.0
  0
LINE
  8
0
  6
CONTINUOUS
 62
       7
  5
15A
 10
-281.25
 20
195.5
 30
0.0
 11
-281.25
 21
-195.0
 31
0.0
  0
LINE
  8
0
  6
CONTINUOUS
 62
       7
  5
15B
 10
-281.25
 20
-195.0
 30
0.0
 11
282.09985352
 21
-195.0
 31
0.0
  0
TEXT
  8
0
  6
CONTINUOUS
 62
       7
  5
15C
 10
-268.18421058
 20
177.3499999
 30
0.0
 40
6.30000019
  1
MODEL:1000A
 41
1.15789474
  7
MX_NOTE_STANDARD
 11
-268.18421058
 21
180.5
 31
0.0
 73
       2
  0
ENDSEC
  0
EOF
