  0
SECTION
  2
HEADER
  9
$ACADVER
  1
AC1002
  9
$INSBASE
 10
0.0
 20
0.0
  9
$EXTMIN
 10
-370.8736
 20
-254.5585
  9
$EXTMAX
 10
370.8736
 20
254.5585
  9
$LIMMIN
 10
0.0
 20
0.0
  9
$LIMMAX
 10
12.0
 20
9.0
  9
$VIEWCTR
 10
28.6093211
 20
0.0
  9
$VIEWSIZE
 40
509.117
  9
$SNAPMODE
 70
     0
  9
$SNAPUNIT
 10
1.0
 20
1.0
  9
$SNAPBASE
 10
0.0
 20
0.0
  9
$SNAPANG
 50
0.0
  9
$SNAPSTYLE
 70
     0
  9
$SNAPISOPAIR
 70
     0
  9
$GRIDMODE
 70
     0
  9
$GRIDUNIT
 10
0.0
 20
0.0
  9
$ORTHOMODE
 70
     0
  9
$REGENMODE
 70
     1
  9
$FILLMODE
 70
     1
  9
$QTEXTMODE
 70
     0
  9
$DRAGMODE
 70
     2
  9
$LTSCALE
 40
1.0
  9
$OSMODE
 70
     0
  9
$ATTMODE
 70
     1
  9
$TEXTSIZE
 40
0.2
  9
$TRACEWID
 40
0.05
  9
$TEXTSTYLE
  7
AAA
  9
$CLAYER
  8
0
  9
$CELTYPE
  6
BYLAYER
  9
$CECOLOR
 62
   256
  9
$DIMSCALE
 40
1.0
  9
$DIMASZ
 40
0.18
  9
$DIMEXO
 40
0.0625
  9
$DIMDLI
 40
0.38
  9
$DIMRND
 40
0.0
  9
$DIMDLE
 40
0.0
  9
$DIMEXE
 40
0.18
  9
$DIMTP
 40
0.0
  9
$DIMTM
 40
0.0
  9
$DIMTXT
 40
0.18
  9
$DIMCEN
 40
0.09
  9
$DIMTSZ
 40
0.0
  9
$DIMTOL
 70
     0
  9
$DIMLIM
 70
     0
  9
$DIMTIH
 70
     1
  9
$DIMTOH
 70
     1
  9
$DIMSE1
 70
     0
  9
$DIMSE2
 70
     0
  9
$DIMTAD
 70
     0
  9
$DIMZIN
 70
     0
  9
$DIMBLK
  1

  9
$LUNITS
 70
     2
  9
$LUPREC
 70
     4
  9
$AXISMODE
 70
     0
  9
$AXISUNIT
 10
0.0
 20
0.0
  9
$SKETCHINC
 40
0.1
  9
$FILLETRAD
 40
0.0
  9
$AUNITS
 70
     0
  9
$AUPREC
 70
     0
  9
$MENU
  1
ACAD
  9
$ELEVATION
 40
0.0
  9
$THICKNESS
 40
0.0
  9
$VIEWDIR
 10
0.0
 20
0.0
 30
1.0
  9
$LIMCHECK
 70
     0
  9
$BLIPMODE
 70
     1
  9
$CHAMFERA
 40
0.0
  9
$CHAMFERB
 40
0.0
  9
$FASTZOOM
 70
     1
  9
$SKPOLY
 70
     0
  9
$TDCREATE
 40
2447869.3948380123
  9
$TDUPDATE
 40
2447869.3948380123
  9
$TDINDWG
 40
0.0092939815
  9
$TDUSRTIMER
 40
0.0092939815
  9
$USRTIMER
 70
     1
  9
$ANGBASE
 50
0.0
  9
$ANGDIR
 70
     0
  9
$PDMODE
 70
     0
  9
$PDSIZE
 40
0.0
  9
$PLINEWID
 40
0.0
  9
$COORDS
 70
     0
  9
$USERI1
 70
     0
  9
$USERI2
 70
     0
  9
$USERI3
 70
     0
  9
$USERI4
 70
     0
  9
$USERI5
 70
     0
  9
$USERR1
 40
0.0
  9
$USERR2
 40
0.0
  9
$USERR3
 40
0.0
  9
$USERR4
 40
0.0
  9
$USERR5
 40
0.0
  0
ENDSEC
  0
SECTION
  2
TABLES
  0
TABLE
  2
LTYPE
 70
     2
  0
LTYPE
  2
CONTINUOUS
 70
    64
  3
SOLID
 72
    65
 73
     0
 40
0.0
  0
LTYPE
  2
CENTER
 70
    64
  3
CENTER
 72
    65
 73
     4
 40
2.0
 49
1.25
 49
-0.25
 49
0.25
 49
-0.25
  0
ENDTAB
  0
TABLE
  2
LAYER
 70
     1
  0
LAYER
  2
0
 70
    64
 62
     7
  6
CONTINUOUS
  0
ENDTAB
  0
TABLE
  2
STYLE
 70
     2
  0
STYLE
  2
AAA
 70
     0
 40
0.0
 41
1.0
 50
0.0
 71
     0
 42
0.2
  3
TXT
  4

  0
STYLE
  2
STANDARD
 70
    64
 40
0.0
 41
1.0
 50
0.0
 71
     0
 42
0.2
  3
TXT
  4
BIGFONT
  0
ENDTAB
  0
TABLE
  2
VIEW
 70
     0
  0
ENDTAB
  0
ENDSEC
  0
SECTION
  2
BLOCKS
  0
ENDSEC
  0
SECTION
  2
ENTITIES
  0
POINT
  8
0
  6
CONTINUOUS
 62
     7
 10
-206.4367
 20
120.0
  0
POINT
  8
0
  6
CONTINUOUS
 62
     7
 10
-182.4367
 20
120.0
  0
POINT
  8
0
  6
CONTINUOUS
 62
     7
 10
-185.4368
 20
121.0
  0
POINT
  8
0
  6
CONTINUOUS
 62
     7
 10
-206.4368
 20
0.0
  0
POINT
  8
0
  6
CONTINUOUS
 62
     7
 10
-182.4368
 20
0.0
  0
POINT
  8
0
  6
CONTINUOUS
 62
     7
 10
-185.4368
 20
-30.5
  0
POINT
  8
0
  6
CONTINUOUS
 62
     7
 10
-182.4368
 20
18.50002
  0
POINT
  8
0
  6
CONTINUOUS
 62
     7
 10
-56.43671
 20
-0.00003
  0
POINT
  8
0
  6
CONTINUOUS
 62
     7
 10
-43.43671
 20
-0.00003
  0
POINT
  8
0
  6
CONTINUOUS
 62
     7
 10
-55.43671
 20
-30.50003
  0
POINT
  8
0
  6
CONTINUOUS
 62
     7
 10
-47.93671
 20
-4.00003
  0
POINT
  8
0
  6
CONTINUOUS
 62
     7
 10
-53.93671
 20
-14.00003
  0
POINT
  8
0
  6
CONTINUOUS
 62
     7
 10
-50.93671
 20
18.49998
  0
POINT
  8
0
  6
CONTINUOUS
 62
     7
 10
-301.4368
 20
-0.00008
  0
POINT
  8
0
  6
CONTINUOUS
 62
     7
 10
-309.9368
 20
0.99992
  0
POINT
  8
0
  6
CONTINUOUS
 62
     7
 10
-306.9368
 20
-9.00008
  0
POINT
  8
0
  6
CONTINUOUS
 62
     7
 10
-303.9368
 20
-19.00008
  0
POINT
  8
0
  6
CONTINUOUS
 62
     7
 10
-302.4368
 20
-30.50008
  0
POINT
  8
0
  6
CONTINUOUS
 62
     7
 10
-206.4368
 20
-110.0001
  0
POINT
  8
0
  6
CONTINUOUS
 62
     7
 10
-182.4368
 20
-110.0001
  0
POINT
  8
0
  6
CONTINUOUS
 62
     7
 10
-185.4368
 20
-111.0001
  0
POINT
  8
0
  6
CONTINUOUS
 62
     7
 10
-182.4368
 20
-115.5001
  0
POINT
  8
0
  6
CONTINUOUS
 62
     7
 10
172.4368
 20
172.1
  0
POINT
  8
0
  6
CONTINUOUS
 62
     7
 10
185.4368
 20
172.1
  0
POINT
  8
0
  6
CONTINUOUS
 62
     7
 10
172.4368
 20
0.0
  0
POINT
  8
0
  6
CONTINUOUS
 62
     7
 10
185.4368
 20
0.0
  0
POINT
  8
0
  6
CONTINUOUS
 62
     7
 10
177.9368
 20
18.5
  0
POINT
  8
0
  6
CONTINUOUS
 62
     7
 10
332.4367
 20
0.0
  0
POINT
  8
0
  6
CONTINUOUS
 62
     7
 10
308.4367
 20
18.5
  0
POINT
  8
0
  6
CONTINUOUS
 62
     7
 10
46.4368
 20
0.0
  0
POINT
  8
0
  6
CONTINUOUS
 62
     7
 10
22.4368
 20
0.0
  0
POINT
  8
0
  6
CONTINUOUS
 62
     7
 10
46.4368
 20
18.5
  0
POINT
  8
0
  6
CONTINUOUS
 62
     7
 10
172.4368
 20
-162.1001
  0
POINT
  8
0
  6
CONTINUOUS
 62
     7
 10
185.4368
 20
-162.1001
  0
POINT
  8
0
  6
CONTINUOUS
 62
     7
 10
177.9368
 20
-138.1001
  0
POINT
  8
0
  6
CONTINUOUS
 62
     7
 10
177.9368
 20
172.5999
  0
POINT
  8
0
  6
CONTINUOUS
 62
     7
 10
177.9368
 20
125.5
  0
LINE
  8
0
  6
CONTINUOUS
 62
     7
 10
218.3292
 20
-225.9564
 11
370.8736
 21
-225.9564
  0
LINE
  8
0
  6
CONTINUOUS
 62
     7
 10
-218.3292
 20
225.9564
 11
-218.3292
 21
254.5585
  0
LINE
  8
0
  6
CONTINUOUS
 62
     7
 10
-370.8736
 20
225.9564
 11
-218.3292
 21
225.9564
  0
LINE
  8
0
  6
CONTINUOUS
 62
     7
 10
-370.8736
 20
254.5585
 11
370.8736
 21
254.5585
  0
LINE
  8
0
  6
CONTINUOUS
 62
     7
 10
-370.8736
 20
-254.5585
 11
370.8736
 21
-254.5585
  0
LINE
  8
0
  6
CONTINUOUS
 62
     7
 10
370.8736
 20
254.5585
 11
370.8736
 21
-254.5585
  0
LINE
  8
0
  6
CONTINUOUS
 62
     7
 10
-370.8736
 20
-254.5585
 11
-370.8736
 21
254.5585
  0
LINE
  8
0
  6
CONTINUOUS
 62
     7
 10
218.3292
 20
-225.9564
 11
218.3292
 21
-254.5585
  0
LINE
  8
0
  6
CONTINUOUS
 62
     7
 10
218.3292
 20
254.5585
 11
218.3292
 21
225.9564
  0
LINE
  8
0
  6
CONTINUOUS
 62
     7
 10
218.3292
 20
225.9564
 11
370.8736
 21
225.9564
  0
LINE
  8
0
  6
CONTINUOUS
 62
     7
 10
258.3816
 20
-232.8337
 11
258.3816
 21
-236.1516
  0
LINE
  8
0
  6
CONTINUOUS
 62
     7
 10
258.3816
 20
-236.1516
 11
270.8235
 21
-236.1516
  0
LINE
  8
0
  6
CONTINUOUS
 62
     7
 10
258.3816
 20
-249.1465
 11
275.2473
 21
-249.1465
  0
LINE
  8
0
  6
CONTINUOUS
 62
     7
 10
258.3816
 20
-245.8286
 11
270.8235
 21
-245.8286
  0
LINE
  8
0
  6
CONTINUOUS
 62
     7
 10
258.3816
 20
-232.8337
 11
273.0354
 21
-232.8337
  0
LINE
  8
0
  6
CONTINUOUS
 62
     7
 10
270.8235
 20
-236.1516
 11
270.8235
 21
-245.8286
  0
LINE
  8
0
  6
CONTINUOUS
 62
     7
 10
275.2473
 20
-235.0457
 11
275.2473
 21
-249.1465
  0
LINE
  8
0
  6
CONTINUOUS
 62
     7
 10
258.3816
 20
-245.8286
 11
258.3816
 21
-249.1465
  0
LINE
  8
0
  6
CONTINUOUS
 62
     7
 10
293.4954
 20
-236.1516
 11
293.4954
 21
-246.9346
  0
LINE
  8
0
  6
CONTINUOUS
 62
     7
 10
277.7357
 20
-232.8337
 11
277.7357
 21
-236.1516
  0
LINE
  8
0
  6
CONTINUOUS
 62
     7
 10
293.9378
 20
-232.585
 11
295.5138
 21
-232.585
  0
LINE
  8
0
  6
CONTINUOUS
 62
     7
 10
293.9378
 20
-230.373
 11
295.5138
 21
-230.373
  0
LINE
  8
0
  6
CONTINUOUS
 62
     7
 10
295.5138
 20
-230.373
 11
295.5138
 21
-232.585
  0
LINE
  8
0
  6
CONTINUOUS
 62
     7
 10
293.9378
 20
-230.373
 11
293.9378
 21
-232.585
  0
LINE
  8
0
  6
CONTINUOUS
 62
     7
 10
293.1083
 20
-230.373
 11
293.1083
 21
-232.585
  0
LINE
  8
0
  6
CONTINUOUS
 62
     7
 10
282.7661
 20
-230.373
 11
286.2009
 21
-230.373
  0
LINE
  8
0
  6
CONTINUOUS
 62
     7
 10
285.5413
 20
-232.8335
 11
286.2006
 21
-230.3727
  0
LINE
  8
0
  6
CONTINUOUS
 62
     7
 10
282.1067
 20
-232.8337
 11
282.766
 21
-230.373
  0
LINE
  8
0
  6
CONTINUOUS
 62
     7
 10
285.5416
 20
-232.8337
 11
290.1776
 21
-232.8337
  0
LINE
  8
0
  6
CONTINUOUS
 62
     7
 10
284.6526
 20
-236.1516
 11
289.0716
 21
-236.1516
  0
LINE
  8
0
  6
CONTINUOUS
 62
     7
 10
286.6429
 20
-249.1465
 11
291.2836
 21
-249.1465
  0
LINE
  8
0
  6
CONTINUOUS
 62
     7
 10
285.7537
 20
-245.8286
 11
286.6427
 21
-249.1463
  0
LINE
  8
0
  6
CONTINUOUS
 62
     7
 10
285.7538
 20
-245.8286
 11
289.0716
 21
-245.8286
  0
LINE
  8
0
  6
CONTINUOUS
 62
     7
 10
281.1707
 20
-249.1466
 11
284.6527
 21
-236.1517
  0
LINE
  8
0
  6
CONTINUOUS
 62
     7
 10
277.7357
 20
-236.1516
 11
281.2177
 21
-236.1516
  0
LINE
  8
0
  6
CONTINUOUS
 62
     7
 10
277.7354
 20
-249.1462
 11
281.2175
 21
-236.1513
  0
LINE
  8
0
  6
CONTINUOUS
 62
     7
 10
277.7357
 20
-249.1465
 11
281.1706
 21
-249.1465
  0
LINE
  8
0
  6
CONTINUOUS
 62
     7
 10
277.7357
 20
-232.8337
 11
282.1067
 21
-232.8337
  0
LINE
  8
0
  6
CONTINUOUS
 62
     7
 10
289.0716
 20
-236.1516
 11
289.0716
 21
-245.8286
  0
LINE
  8
0
  6
CONTINUOUS
 62
     7
 10
291.5323
 20
-230.373
 11
293.1083
 21
-230.373
  0
LINE
  8
0
  6
CONTINUOUS
 62
     7
 10
291.5323
 20
-232.585
 11
293.1083
 21
-232.585
  0
LINE
  8
0
  6
CONTINUOUS
 62
     7
 10
291.5323
 20
-230.373
 11
291.5323
 21
-232.585
  0
LINE
  8
0
  6
CONTINUOUS
 62
     7
 10
301.5135
 20
-230.373
 11
305.9373
 21
-230.373
  0
LINE
  8
0
  6
CONTINUOUS
 62
     7
 10
308.3423
 20
-240.1951
 11
311.2962
 21
-238.8176
  0
LINE
  8
0
  6
CONTINUOUS
 62
     7
 10
305.9373
 20
-242.7344
 11
305.9373
 21
-249.1465
  0
LINE
  8
0
  6
CONTINUOUS
 62
     7
 10
301.5135
 20
-243.379
 11
301.5135
 21
-249.1465
  0
LINE
  8
0
  6
CONTINUOUS
 62
     7
 10
305.9373
 20
-232.8337
 11
310.3611
 21
-232.8337
  0
LINE
  8
0
  6
CONTINUOUS
 62
     7
 10
305.9373
 20
-230.373
 11
305.9373
 21
-232.8337
  0
LINE
  8
0
  6
CONTINUOUS
 62
     7
 10
301.5135
 20
-230.373
 11
301.5135
 21
-232.8337
  0
LINE
  8
0
  6
CONTINUOUS
 62
     7
 10
312.573
 20
-235.0457
 11
312.573
 21
-236.8128
  0
LINE
  8
0
  6
CONTINUOUS
 62
     7
 10
308.3424
 20
-240.195
 11
312.5734
 21
-242.168
  0
LINE
  8
0
  6
CONTINUOUS
 62
     7
 10
305.9373
 20
-242.7343
 11
312.5731
 21
-245.8286
  0
LINE
  8
0
  6
CONTINUOUS
 62
     7
 10
296.2603
 20
-242.1678
 11
296.2603
 21
-245.8286
  0
LINE
  8
0
  6
CONTINUOUS
 62
     7
 10
296.2607
 20
-242.1682
 11
309.1626
 21
-236.1519
  0
LINE
  8
0
  6
CONTINUOUS
 62
     7
 10
296.2603
 20
-245.8286
 11
301.5136
 21
-243.3789
  0
LINE
  8
0
  6
CONTINUOUS
 62
     7
 10
312.573
 20
-242.1678
 11
312.573
 21
-245.8286
  0
LINE
  8
0
  6
CONTINUOUS
 62
     7
 10
296.2603
 20
-232.8337
 11
296.2603
 21
-236.1516
  0
LINE
  8
0
  6
CONTINUOUS
 62
     7
 10
301.5135
 20
-249.1465
 11
305.9373
 21
-249.1465
  0
LINE
  8
0
  6
CONTINUOUS
 62
     7
 10
296.2603
 20
-236.1516
 11
309.1621
 21
-236.1516
  0
LINE
  8
0
  6
CONTINUOUS
 62
     7
 10
296.2603
 20
-232.8337
 11
301.5135
 21
-232.8337
  0
LINE
  8
0
  6
CONTINUOUS
 62
     7
 10
327.504
 20
-236.4047
 11
328.73
 21
-235.9171
  0
LINE
  8
0
  6
CONTINUOUS
 62
     7
 10
327.5034
 20
-236.4044
 11
327.5034
 21
-249.1465
  0
LINE
  8
0
  6
CONTINUOUS
 62
     7
 10
323.0795
 20
-249.1465
 11
327.5034
 21
-249.1465
  0
LINE
  8
0
  6
CONTINUOUS
 62
     7
 10
313.9553
 20
-241.7925
 11
323.0794
 21
-238.1637
  0
LINE
  8
0
  6
CONTINUOUS
 62
     7
 10
313.9555
 20
-238.222
 11
326.8062
 21
-233.1111
  0
LINE
  8
0
  6
CONTINUOUS
 62
     7
 10
323.0795
 20
-238.1638
 11
323.0795
 21
-249.1465
  0
LINE
  8
0
  6
CONTINUOUS
 62
     7
 10
327.5034
 20
-231.3684
 11
327.5034
 21
-232.0834
  0
LINE
  8
0
  6
CONTINUOUS
 62
     7
 10
330.8211
 20
-231.3684
 11
330.8211
 21
-232.8338
  0
LINE
  8
0
  6
CONTINUOUS
 62
     7
 10
313.9554
 20
-238.2219
 11
313.9554
 21
-241.7925
  0
LINE
  8
0
  6
CONTINUOUS
 62
     7
 10
327.5034
 20
-231.3684
 11
330.8211
 21
-231.3684
  0
LINE
  8
0
  6
CONTINUOUS
 62
     7
 10
0.0
 20
254.5585
 11
0.0
 21
-254.5585
  0
LINE
  8
0
  6
CONTINUOUS
 62
     7
 10
-206.4368
 20
22.00002
 11
-206.4368
 21
-30.0
  0
LINE
  8
0
  6
CONTINUOUS
 62
     7
 10
-206.4368
 20
5.0
 11
-182.4368
 21
5.0
  0
LINE
  8
0
  6
CONTINUOUS
 62
     7
 10
-206.4368
 20
-23.0
 11
-182.4368
 21
-23.0
  0
LINE
  8
0
  6
CONTINUOUS
 62
     7
 10
-205.9368
 20
-30.5
 11
-188.1868
 21
-30.5
  0
LINE
  8
0
  6
CENTER
 62
     2
 10
-194.4368
 20
53.00002
 11
-194.4368
 21
-34.53334
  0
LINE
  8
0
  6
CENTER
 62
     2
 10
-201.4368
 20
0.0
 11
-201.4368
 21
-17.33333
  0
LINE
  8
0
  6
CENTER
 62
     2
 10
-204.6034
 20
-14.0
 11
-197.9368
 21
-14.0
  0
LINE
  8
0
  6
CENTER
 62
     2
 10
-204.9368
 20
-4.0
 11
-198.2701
 21
-4.0
  0
LINE
  8
0
  6
CENTER
 62
     2
 10
-185.4368
 20
-24.54131
 11
-185.4368
 21
-31.4705
  0
LINE
  8
0
  6
CONTINUOUS
 62
     7
 10
-188.6368
 20
-26.0
 11
-188.6368
 21
-30.0
  0
LINE
  8
0
  6
CONTINUOUS
 62
     7
 10
-188.1868
 20
-25.5
 11
-182.6868
 21
-25.5
  0
LINE
  8
0
  6
CONTINUOUS
 62
     7
 10
-188.1868
 20
-25.5
 11
-188.1868
 21
-30.7
  0
LINE
  8
0
  6
CONTINUOUS
 62
     7
 10
-182.6868
 20
-25.5
 11
-182.6868
 21
-30.7
  0
LINE
  8
0
  6
CONTINUOUS
 62
     7
 10
-188.1868
 20
-30.7
 11
-182.6868
 21
-30.7
  0
LINE
  8
0
  6
CENTER
 62
     2
 10
-186.4795
 20
0.0
 11
-181.4473
 21
0.0
  0
LINE
  8
0
  6
CONTINUOUS
 62
     7
 10
-182.4368
 20
22.00002
 11
-182.4368
 21
-30.0
  0
LINE
  8
0
  6
CONTINUOUS
 62
     7
 10
-185.4368
 20
1.81383
 11
-182.4368
 21
1.81383
  0
LINE
  8
0
  6
CONTINUOUS
 62
     7
 10
-185.4368
 20
-1.81383
 11
-182.4368
 21
-1.81383
  0
LINE
  8
0
  6
CONTINUOUS
 62
     7
 10
-185.4368
 20
1.81383
 11
-185.4368
 21
-1.81383
  0
LINE
  8
0
  6
CONTINUOUS
 62
     7
 10
-183.9633
 20
-29.7
 11
-183.9633
 21
-30.7
  0
LINE
  8
0
  6
CONTINUOUS
 62
     7
 10
-183.1148
 20
-29.7
 11
-183.1148
 21
-30.7
  0
LINE
  8
0
  6
CONTINUOUS
 62
     7
 10
-183.9633
 20
-29.7
 11
-183.1148
 21
-29.7
  0
LINE
  8
0
  6
CONTINUOUS
 62
     7
 10
-206.4368
 20
47.2
 11
-179.4368
 21
47.2
  0
LINE
  8
0
  6
CONTINUOUS
 62
     7
 10
-206.4368
 20
22.00002
 11
-175.4368
 21
22.00002
  0
LINE
  8
0
  6
CONTINUOUS
 62
     7
 10
-206.4368
 20
48.2
 11
-206.4368
 21
21.99998
  0
LINE
  8
0
  6
CONTINUOUS
 62
     7
 10
-182.4368
 20
48.2
 11
-182.4368
 21
47.2
  0
LINE
  8
0
  6
CONTINUOUS
 62
     7
 10
-205.4368
 20
50.2
 11
-187.2625
 21
50.2
  0
LINE
  8
0
  6
CONTINUOUS
 62
     7
 10
-206.4368
 20
48.2
 11
-182.4368
 21
48.2
  0
LINE
  8
0
  6
CONTINUOUS
 62
     7
 10
-206.4368
 20
48.2
 11
-205.4368
 21
50.20002
  0
LINE
  8
0
  6
CONTINUOUS
 62
     7
 10
-182.4368
 20
48.2
 11
-183.4368
 21
50.2
  0
LINE
  8
0
  6
CONTINUOUS
 62
     7
 10
-188.4368
 20
50.2
 11
-188.4368
 21
48.2
  0
LINE
  8
0
  6
CENTER
 62
     2
 10
-185.4368
 20
53.2
 11
-185.4368
 21
44.2
  0
LINE
  8
0
  6
CONTINUOUS
 62
     7
 10
-182.8868
 20
48.8
 11
-187.9868
 21
48.8
  0
LINE
  8
0
  6
CONTINUOUS
 62
     7
 10
-185.7368
 20
48.2
 11
-185.8976
 21
48.8
  0
LINE
  8
0
  6
CONTINUOUS
 62
     7
 10
-185.1366
 20
48.80007
 11
-184.9758
 21
48.20007
  0
LINE
  8
0
  6
CONTINUOUS
 62
     7
 10
-182.8868
 20
48.8
 11
-182.8868
 21
48.2
  0
LINE
  8
0
  6
CONTINUOUS
 62
     7
 10
-187.9868
 20
48.8
 11
-187.9868
 21
48.2
  0
LINE
  8
0
  6
CONTINUOUS
 62
     7
 10
-183.1868
 20
49.49376
 11
-183.1868
 21
48.8
  0
LINE
  8
0
  6
CONTINUOUS
 62
     7
 10
-187.6868
 20
49.49376
 11
-187.6868
 21
48.8
  0
LINE
  8
0
  6
CONTINUOUS
 62
     7
 10
-183.611
 20
50.2
 11
-183.4368
 21
50.2
  0
LINE
  8
0
  6
CENTER
 62
     2
 10
-203.4368
 20
53.2
 11
-203.4368
 21
44.2
  0
LINE
  8
0
  6
CONTINUOUS
 62
     7
 10
-179.4368
 20
47.2
 11
-179.4368
 21
22.00002
  0
LINE
  8
0
  6
CONTINUOUS
 62
     7
 10
-175.4368
 20
47.00002
 11
-175.4368
 21
46.40001
  0
LINE
  8
0
  6
CONTINUOUS
 62
     7
 10
-179.4368
 20
47.00002
 11
-175.4368
 21
47.00002
  0
LINE
  8
0
  6
CENTER
 62
     2
 10
-182.4368
 20
39.00002
 11
-147.0368
 21
39.00002
  0
LINE
  8
0
  6
CONTINUOUS
 62
     7
 10
-152.4368
 20
65.17622
 11
-152.4368
 21
58.7
  0
LINE
  8
0
  6
CONTINUOUS
 62
     7
 10
-174.9368
 20
31.59999
 11
-152.9368
 21
31.59999
  0
LINE
  8
0
  6
CONTINUOUS
 62
     7
 10
-174.9368
 20
46.40001
 11
-152.9368
 21
46.40001
  0
LINE
  8
0
  6
CONTINUOUS
 62
     7
 10
-167.2368
 20
65.17625
 11
-167.2368
 21
58.7
  0
LINE
  8
0
  6
CONTINUOUS
 62
     7
 10
-165.6368
 20
66.10002
 11
-154.0368
 21
66.10002
  0
LINE
  8
0
  6
CONTINUOUS
 62
     7
 10
-151.265
 20
36.20003
 11
-151.9368
 21
36.20003
  0
LINE
  8
0
  6
CONTINUOUS
 62
     7
 10
-151.265
 20
41.80003
 11
-151.9368
 21
41.80003
  0
LINE
  8
0
  6
CONTINUOUS
 62
     7
 10
-151.9368
 20
35.75002
 11
-151.9368
 21
42.25002
  0
LINE
  8
0
  6
CONTINUOUS
 62
     7
 10
-151.9368
 20
35.75002
 11
-152.4368
 21
35.75002
  0
LINE
  8
0
  6
CONTINUOUS
 62
     7
 10
-151.9368
 20
42.25002
 11
-152.4368
 21
42.25002
  0
LINE
  8
0
  6
CONTINUOUS
 62
     7
 10
-167.2368
 20
58.7
 11
-152.4368
 21
58.7
  0
LINE
  8
0
  6
CONTINUOUS
 62
     7
 10
-167.2368
 20
59.7
 11
-152.4368
 21
59.7
  0
LINE
  8
0
  6
CONTINUOUS
 62
     7
 10
-164.8368
 20
44.00002
 11
-154.8368
 21
44.00002
  0
LINE
  8
0
  6
CONTINUOUS
 62
     7
 10
-164.8368
 20
34.00002
 11
-154.8368
 21
34.00002
  0
LINE
  8
0
  6
CONTINUOUS
 62
     7
 10
-164.8368
 20
44.00002
 11
-164.8368
 21
34.00002
  0
LINE
  8
0
  6
CONTINUOUS
 62
     7
 10
-154.8368
 20
44.00002
 11
-154.8368
 21
34.00002
  0
LINE
  8
0
  6
CONTINUOUS
 62
     7
 10
-163.8368
 20
44.00002
 11
-163.8368
 21
34.00002
  0
LINE
  8
0
  6
CONTINUOUS
 62
     7
 10
-162.8368
 20
44.00002
 11
-162.8368
 21
34.00002
  0
LINE
  8
0
  6
CONTINUOUS
 62
     7
 10
-161.8368
 20
44.00002
 11
-161.8368
 21
34.00002
  0
LINE
  8
0
  6
CONTINUOUS
 62
     7
 10
-160.8368
 20
44.00002
 11
-160.8368
 21
34.00002
  0
LINE
  8
0
  6
CONTINUOUS
 62
     7
 10
-159.8368
 20
44.00002
 11
-159.8368
 21
34.00002
  0
LINE
  8
0
  6
CONTINUOUS
 62
     7
 10
-158.8368
 20
44.00002
 11
-158.8368
 21
34.00002
  0
LINE
  8
0
  6
CONTINUOUS
 62
     7
 10
-157.8368
 20
44.00002
 11
-157.8368
 21
34.00002
  0
LINE
  8
0
  6
CONTINUOUS
 62
     7
 10
-156.8368
 20
44.00002
 11
-156.8368
 21
34.00002
  0
LINE
  8
0
  6
CONTINUOUS
 62
     7
 10
-155.8368
 20
44.00002
 11
-155.8368
 21
34.00002
  0
LINE
  8
0
  6
CONTINUOUS
 62
     7
 10
-154.0368
 20
66.09996
 11
-152.4368
 21
65.1762
  0
LINE
  8
0
  6
CONTINUOUS
 62
     7
 10
-165.6367
 20
66.10002
 11
-167.2368
 21
65.17625
  0
LINE
  8
0
  6
CONTINUOUS
 62
     7
 10
-163.6974
 20
65.17625
 11
-163.6974
 21
59.7
  0
LINE
  8
0
  6
CONTINUOUS
 62
     7
 10
-163.3737
 20
65.17625
 11
-163.3737
 21
59.7
  0
LINE
  8
0
  6
CONTINUOUS
 62
     7
 10
-156.2998
 20
65.17625
 11
-156.2998
 21
59.7
  0
LINE
  8
0
  6
CONTINUOUS
 62
     7
 10
-155.9761
 20
65.17625
 11
-155.9761
 21
59.7
  0
LINE
  8
0
  6
CONTINUOUS
 62
     7
 10
-163.6974
 20
65.17625
 11
-163.3737
 21
65.17625
  0
LINE
  8
0
  6
CONTINUOUS
 62
     7
 10
-156.2998
 20
65.17625
 11
-155.9761
 21
65.17625
  0
LINE
  8
0
  6
CENTER
 62
     2
 10
-159.8368
 20
69.10002
 11
-159.8368
 21
28.60002
  0
LINE
  8
0
  6
CONTINUOUS
 62
     7
 10
-175.4368
 20
31.60002
 11
-175.4368
 21
22.00002
  0
LINE
  8
0
  6
CONTINUOUS
 62
     7
 10
-167.2368
 20
56.7
 11
-152.4368
 21
56.7
  0
LINE
  8
0
  6
CONTINUOUS
 62
     7
 10
-167.2368
 20
56.7
 11
-167.2368
 21
46.40001
  0
LINE
  8
0
  6
CONTINUOUS
 62
     7
 10
-152.4368
 20
56.7
 11
-152.4368
 21
32.10002
  0
LINE
  8
0
  6
CONTINUOUS
 62
     7
 10
-153.8368
 20
58.7
 11
-153.8368
 21
56.7
  0
LINE
  8
0
  6
CONTINUOUS
 62
     7
 10
-165.8368
 20
58.7
 11
-165.8368
 21
56.7
  0
LINE
  8
0
  6
CONTINUOUS
 62
     7
 10
-154.5133
 20
58.7
 11
-154.5133
 21
56.7
  0
LINE
  8
0
  6
CONTINUOUS
 62
     7
 10
-165.1603
 20
58.7
 11
-165.1603
 21
56.7
  0
LINE
  8
0
  6
CONTINUOUS
 62
     7
 10
-175.4368
 20
46.40001
 11
-175.4368
 21
31.60002
  0
LINE
  8
0
  6
CONTINUOUS
 62
     7
 10
-174.9368
 20
46.40001
 11
-174.9368
 21
31.60002
  0
LINE
  8
0
  6
CONTINUOUS
 62
     7
 10
-175.4368
 20
46.40001
 11
-174.9368
 21
46.40001
  0
LINE
  8
0
  6
CONTINUOUS
 62
     7
 10
-175.4368
 20
31.59999
 11
-174.9368
 21
31.59999
  0
LINE
  8
0
  6
CENTER
 62
     2
 10
-148.067
 20
125.5
 11
-208.4367
 21
125.5
  0
LINE
  8
0
  6
CENTER
 62
     2
 10
-194.4368
 20
115.5516
 11
-194.4368
 21
135.4877
  0
LINE
  8
0
  6
CONTINUOUS
 62
     7
 10
-182.4368
 20
133.0
 11
-182.4368
 21
118.0
  0
LINE
  8
0
  6
CONTINUOUS
 62
     7
 10
-185.4368
 20
124.0
 11
-182.4368
 21
124.0
  0
LINE
  8
0
  6
CONTINUOUS
 62
     7
 10
-203.4368
 20
127.0
 11
-206.4368
 21
127.0
  0
LINE
  8
0
  6
CONTINUOUS
 62
     7
 10
-200.4368
 20
130.0
 11
-200.4368
 21
133.0
  0
LINE
  8
0
  6
CONTINUOUS
 62
     7
 10
-188.4368
 20
121.0
 11
-188.4368
 21
118.0
  0
LINE
  8
0
  6
CONTINUOUS
 62
     7
 10
-205.4368
 20
127.0
 11
-205.4368
 21
119.0
  0
LINE
  8
0
  6
CONTINUOUS
 62
     7
 10
-183.4368
 20
132.0
 11
-183.4368
 21
124.0
  0
LINE
  8
0
  6
CONTINUOUS
 62
     7
 10
-200.4368
 20
132.0
 11
-183.4368
 21
132.0
  0
LINE
  8
0
  6
CONTINUOUS
 62
     7
 10
-205.4368
 20
119.0
 11
-188.4368
 21
119.0
  0
LINE
  8
0
  6
CONTINUOUS
 62
     7
 10
-185.1367
 20
118.77
 11
-185.1367
 21
118.4677
  0
LINE
  8
0
  6
CONTINUOUS
 62
     7
 10
-185.7368
 20
118.77
 11
-185.7368
 21
118.4677
  0
LINE
  8
0
  6
CONTINUOUS
 62
     7
 10
-185.8975
 20
118.4919
 11
-185.8975
 21
118.7977
  0
LINE
  8
0
  6
CONTINUOUS
 62
     7
 10
-203.7368
 20
132.2299
 11
-203.7368
 21
132.5322
  0
LINE
  8
0
  6
CONTINUOUS
 62
     7
 10
-203.1367
 20
132.2299
 11
-203.1367
 21
132.5322
  0
LINE
  8
0
  6
CONTINUOUS
 62
     7
 10
-202.976
 20
132.508
 11
-202.976
 21
132.2023
  0
LINE
  8
0
  6
CONTINUOUS
 62
     7
 10
-186.5399
 20
120.2646
 11
-186.1722
 21
120.6323
  0
LINE
  8
0
  6
CONTINUOUS
 62
     7
 10
-186.1721
 20
119.8969
 11
-185.8045
 21
120.2645
  0
LINE
  8
0
  6
CONTINUOUS
 62
     7
 10
-186.5398
 20
120.2646
 11
-186.1721
 21
119.8969
  0
LINE
  8
0
  6
CONTINUOUS
 62
     7
 10
-184.7014
 20
122.1031
 11
-184.3337
 21
121.7354
  0
LINE
  8
0
  6
CONTINUOUS
 62
     7
 10
-187.2009
 20
122.3965
 11
-186.1721
 21
121.3677
  0
LINE
  8
0
  6
CONTINUOUS
 62
     7
 10
-186.8332
 20
122.7642
 11
-185.8045
 21
121.7354
  0
LINE
  8
0
  6
CONTINUOUS
 62
     7
 10
-185.0691
 20
121.7353
 11
-184.7014
 21
122.1031
  0
LINE
  8
0
  6
CONTINUOUS
 62
     7
 10
-184.7014
 20
121.3676
 11
-184.3337
 21
121.7353
  0
LINE
  8
0
  6
CONTINUOUS
 62
     7
 10
-185.0691
 20
120.2646
 11
-184.0403
 21
119.2358
  0
LINE
  8
0
  6
CONTINUOUS
 62
     7
 10
-184.7014
 20
120.6323
 11
-183.6726
 21
119.6035
  0
LINE
  8
0
  6
CONTINUOUS
 62
     7
 10
-204.5399
 20
129.2645
 11
-204.1722
 21
129.6322
  0
LINE
  8
0
  6
CONTINUOUS
 62
     7
 10
-204.1722
 20
128.8969
 11
-203.8045
 21
129.2646
  0
LINE
  8
0
  6
CONTINUOUS
 62
     7
 10
-204.5398
 20
129.2646
 11
-204.1721
 21
128.8969
  0
LINE
  8
0
  6
CONTINUOUS
 62
     7
 10
-202.7014
 20
131.1031
 11
-202.3337
 21
130.7354
  0
LINE
  8
0
  6
CONTINUOUS
 62
     7
 10
-205.2009
 20
131.3965
 11
-204.1722
 21
130.3677
  0
LINE
  8
0
  6
CONTINUOUS
 62
     7
 10
-204.8332
 20
131.7641
 11
-203.8044
 21
130.7354
  0
LINE
  8
0
  6
CONTINUOUS
 62
     7
 10
-203.0691
 20
130.7353
 11
-202.7014
 21
131.103
  0
LINE
  8
0
  6
CONTINUOUS
 62
     7
 10
-202.7014
 20
130.3677
 11
-202.3337
 21
130.7354
  0
LINE
  8
0
  6
CONTINUOUS
 62
     7
 10
-203.0691
 20
129.2646
 11
-202.0403
 21
128.2358
  0
LINE
  8
0
  6
CONTINUOUS
 62
     7
 10
-202.7013
 20
129.6323
 11
-201.6725
 21
128.6035
  0
LINE
  8
0
  6
CENTER
 62
     2
 10
-185.4368
 20
125.0
 11
-185.4368
 21
117.0
  0
LINE
  8
0
  6
CENTER
 62
     2
 10
-203.4368
 20
134.0
 11
-203.4368
 21
126.0
  0
LINE
  8
0
  6
CENTER
 62
     2
 10
-207.4368
 20
130.0
 11
-199.4368
 21
130.0
  0
LINE
  8
0
  6
CENTER
 62
     2
 10
-189.4368
 20
121.0
 11
-181.4368
 21
121.0
  0
LINE
  8
0
  6
CONTINUOUS
 62
     7
 10
-205.9368
 20
133.0
 11
-175.4368
 21
133.0
  0
LINE
  8
0
  6
CONTINUOUS
 62
     7
 10
-206.4368
 20
132.5
 11
-206.4368
 21
118.5
  0
LINE
  8
0
  6
CONTINUOUS
 62
     7
 10
-205.9368
 20
118.0
 11
-175.4368
 21
118.0
  0
LINE
  8
0
  6
CONTINUOUS
 62
     7
 10
-179.4368
 20
133.0
 11
-179.4368
 21
118.0
  0
LINE
  8
0
  6
CONTINUOUS
 62
     7
 10
-175.4368
 20
133.0
 11
-175.4368
 21
132.8999
  0
LINE
  8
0
  6
CENTER
 62
     2
 10
-159.8368
 20
135.8999
 11
-159.8368
 21
115.1
  0
LINE
  8
0
  6
CONTINUOUS
 62
     7
 10
-163.3737
 20
132.0
 11
-156.2998
 21
132.0
  0
LINE
  8
0
  6
CONTINUOUS
 62
     7
 10
-163.3737
 20
119.0
 11
-156.2998
 21
119.0
  0
LINE
  8
0
  6
CONTINUOUS
 62
     7
 10
-155.976
 20
131.8131
 11
-152.439
 21
125.6869
  0
LINE
  8
0
  6
CONTINUOUS
 62
     7
 10
-167.2344
 20
125.313
 11
-163.6974
 21
119.1868
  0
LINE
  8
0
  6
CONTINUOUS
 62
     7
 10
-152.4391
 20
125.313
 11
-155.9761
 21
119.1868
  0
LINE
  8
0
  6
CONTINUOUS
 62
     7
 10
-163.6974
 20
131.813
 11
-167.2344
 21
125.6868
  0
LINE
  8
0
  6
CONTINUOUS
 62
     7
 10
-152.4368
 20
132.3999
 11
-152.4368
 21
118.6
  0
LINE
  8
0
  6
CONTINUOUS
 62
     7
 10
-151.2649
 20
122.7
 11
-151.9367
 21
122.7
  0
LINE
  8
0
  6
CONTINUOUS
 62
     7
 10
-151.2649
 20
128.3
 11
-151.9368
 21
128.3
  0
LINE
  8
0
  6
CONTINUOUS
 62
     7
 10
-151.9368
 20
128.75
 11
-152.4368
 21
128.75
  0
LINE
  8
0
  6
CONTINUOUS
 62
     7
 10
-151.9368
 20
122.25
 11
-151.9368
 21
128.75
  0
LINE
  8
0
  6
CONTINUOUS
 62
     7
 10
-151.9367
 20
122.25
 11
-152.4367
 21
122.25
  0
LINE
  8
0
  6
CONTINUOUS
 62
     7
 10
-175.4368
 20
118.1
 11
-175.4368
 21
118.0
  0
LINE
  8
0
  6
CONTINUOUS
 62
     7
 10
-174.9368
 20
118.1
 11
-152.9368
 21
118.1
  0
LINE
  8
0
  6
CONTINUOUS
 62
     7
 10
-174.9368
 20
132.8999
 11
-152.9368
 21
132.8999
  0
LINE
  8
0
  6
CONTINUOUS
 62
     7
 10
-175.4368
 20
118.1
 11
-175.4368
 21
132.8999
  0
LINE
  8
0
  6
CONTINUOUS
 62
     7
 10
-174.9368
 20
118.1
 11
-174.9368
 21
132.8999
  0
LINE
  8
0
  6
CONTINUOUS
 62
     7
 10
-175.4367
 20
118.1
 11
-174.9367
 21
118.1
  0
LINE
  8
0
  6
CONTINUOUS
 62
     7
 10
-175.4368
 20
132.8999
 11
-174.9368
 21
132.8999
  0
LINE
  8
0
  6
CONTINUOUS
 62
     7
 10
-314.4368
 20
21.99992
 11
-314.4368
 21
-30.00008
  0
LINE
  8
0
  6
CONTINUOUS
 62
     7
 10
-299.4368
 20
21.99992
 11
-299.4368
 21
-30.00008
  0
LINE
  8
0
  6
CONTINUOUS
 62
     7
 10
-314.4368
 20
4.99992
 11
-299.4368
 21
4.99992
  0
LINE
  8
0
  6
CONTINUOUS
 62
     7
 10
-314.4368
 20
-23.00008
 11
-299.4368
 21
-23.00008
  0
LINE
  8
0
  6
CONTINUOUS
 62
     7
 10
-308.6868
 20
-30.50008
 11
-299.9368
 21
-30.50008
  0
LINE
  8
0
  6
CENTER
 62
     2
 10
-306.9368
 20
60.70543
 11
-306.9368
 21
-35.20007
  0
LINE
  8
0
  6
CENTER
 62
     2
 10
-311.6816
 20
13.69994
 11
-301.9604
 21
13.69994
  0
LINE
  8
0
  6
CENTER
 62
     2
 10
-313.7236
 20
0.99992
 11
-306.1035
 21
0.99992
  0
LINE
  8
0
  6
CENTER
 62
     2
 10
-311.1035
 20
-9.00008
 11
-302.7701
 21
-9.00008
  0
LINE
  8
0
  6
CENTER
 62
     2
 10
-307.4368
 20
-19.00008
 11
-300.321
 21
-19.00008
  0
LINE
  8
0
  6
CENTER
 62
     2
 10
-303.9368
 20
-15.3688
 11
-303.9368
 21
-22.50156
  0
LINE
  8
0
  6
CENTER
 62
     2
 10
-309.9368
 20
4.47633
 11
-309.9368
 21
-2.61955
  0
LINE
  8
0
  6
CENTER
 62
     2
 10
-304.1035
 20
-0.00008
 11
-299.4368
 21
-0.00008
  0
LINE
  8
0
  6
CENTER
 62
     2
 10
-314.4368
 20
-18.00008
 11
-310.0422
 21
-18.00008
  0
LINE
  8
0
  6
CENTER
 62
     2
 10
-301.4368
 20
2.34801
 11
-301.4368
 21
-2.42633
  0
LINE
  8
0
  6
CENTER
 62
     2
 10
-312.4368
 20
-15.59889
 11
-312.4368
 21
-20.48828
  0
LINE
  8
0
  6
CENTER
 62
     2
 10
-311.4368
 20
-24.37398
 11
-311.4368
 21
-31.8076
  0
LINE
  8
0
  6
CONTINUOUS
 62
     7
 10
-314.1868
 20
-25.50008
 11
-308.7368
 21
-25.50008
  0
LINE
  8
0
  6
CONTINUOUS
 62
     7
 10
-308.2368
 20
-26.00008
 11
-308.2368
 21
-30.00008
  0
LINE
  8
0
  6
CONTINUOUS
 62
     7
 10
-314.1868
 20
-25.50008
 11
-314.1868
 21
-30.70007
  0
LINE
  8
0
  6
CONTINUOUS
 62
     7
 10
-308.6868
 20
-25.50008
 11
-308.6868
 21
-30.70007
  0
LINE
  8
0
  6
CONTINUOUS
 62
     7
 10
-314.1868
 20
-30.70007
 11
-308.6868
 21
-30.70007
  0
LINE
  8
0
  6
CONTINUOUS
 62
     7
 10
-308.351
 20
12.28572
 11
-305.5226
 21
15.11415
  0
LINE
  8
0
  6
CONTINUOUS
 62
     7
 10
-307.4545
 20
11.7681
 11
-305.005
 21
14.2176
  0
LINE
  8
0
  6
CONTINUOUS
 62
     7
 10
-308.8687
 20
13.18232
 11
-306.4192
 21
15.63181
  0
LINE
  8
0
  6
CONTINUOUS
 62
     7
 10
-308.351
 20
15.1141
 11
-305.5226
 21
12.28568
  0
LINE
  8
0
  6
CONTINUOUS
 62
     7
 10
-308.8686
 20
14.21757
 11
-306.4191
 21
11.76808
  0
LINE
  8
0
  6
CONTINUOUS
 62
     7
 10
-307.4545
 20
15.63179
 11
-305.005
 21
13.18229
  0
LINE
  8
0
  6
CONTINUOUS
 62
     7
 10
-312.9102
 20
-29.70007
 11
-312.9102
 21
-30.70007
  0
LINE
  8
0
  6
CONTINUOUS
 62
     7
 10
-313.7587
 20
-29.70007
 11
-313.7587
 21
-30.70007
  0
LINE
  8
0
  6
CONTINUOUS
 62
     7
 10
-313.7587
 20
-29.70007
 11
-312.9102
 21
-29.70007
  0
LINE
  8
0
  6
CONTINUOUS
 62
     7
 10
-314.4368
 20
48.19991
 11
-314.4368
 21
21.99992
  0
LINE
  8
0
  6
CONTINUOUS
 62
     7
 10
-314.4368
 20
21.99992
 11
-299.4368
 21
21.99992
  0
LINE
  8
0
  6
CONTINUOUS
 62
     7
 10
-299.4368
 20
48.19991
 11
-299.4368
 21
21.99992
  0
LINE
  8
0
  6
CONTINUOUS
 62
     7
 10
-308.4368
 20
50.19994
 11
-308.4368
 21
48.19991
  0
LINE
  8
0
  6
CONTINUOUS
 62
     7
 10
-313.4368
 20
44.19994
 11
-300.4368
 21
44.19994
  0
LINE
  8
0
  6
CONTINUOUS
 62
     7
 10
-313.4368
 20
40.19994
 11
-300.4368
 21
40.19994
  0
LINE
  8
0
  6
CONTINUOUS
 62
     7
 10
-300.4368
 20
44.19994
 11
-300.4368
 21
40.19994
  0
LINE
  8
0
  6
CONTINUOUS
 62
     7
 10
-313.4368
 20
44.19994
 11
-313.4368
 21
40.19994
  0
LINE
  8
0
  6
CONTINUOUS
 62
     7
 10
-312.7247
 20
43.30669
 11
-310.383
 21
43.30669
  0
LINE
  8
0
  6
CONTINUOUS
 62
     7
 10
-312.7247
 20
41.23012
 11
-310.7365
 21
41.23012
  0
LINE
  8
0
  6
CONTINUOUS
 62
     7
 10
-312.7247
 20
40.69994
 11
-310.0295
 21
40.69994
  0
LINE
  8
0
  6
CONTINUOUS
 62
     7
 10
-312.7247
 20
42.7765
 11
-310.7365
 21
42.7765
  0
LINE
  8
0
  6
CONTINUOUS
 62
     7
 10
-312.7247
 20
43.30669
 11
-312.7247
 21
42.7765
  0
LINE
  8
0
  6
CONTINUOUS
 62
     7
 10
-310.0295
 20
42.95323
 11
-310.0295
 21
40.69994
  0
LINE
  8
0
  6
CONTINUOUS
 62
     7
 10
-310.7365
 20
42.7765
 11
-310.7365
 21
41.23012
  0
LINE
  8
0
  6
CONTINUOUS
 62
     7
 10
-309.6319
 20
43.30669
 11
-309.6319
 21
42.7765
  0
LINE
  8
0
  6
CONTINUOUS
 62
     7
 10
-307.1135
 20
42.7765
 11
-307.1135
 21
41.05339
  0
LINE
  8
0
  6
CONTINUOUS
 62
     7
 10
-307.8204
 20
42.7765
 11
-307.8204
 21
41.23012
  0
LINE
  8
0
  6
CONTINUOUS
 62
     7
 10
-312.7247
 20
41.23012
 11
-312.7247
 21
40.69994
  0
LINE
  8
0
  6
CONTINUOUS
 62
     7
 10
-309.6319
 20
43.30669
 11
-308.9334
 21
43.30669
  0
LINE
  8
0
  6
CONTINUOUS
 62
     7
 10
-309.6319
 20
40.69994
 11
-309.083
 21
40.69994
  0
LINE
  8
0
  6
CONTINUOUS
 62
     7
 10
-309.6318
 20
40.69989
 11
-309.0754
 21
42.77647
  0
LINE
  8
0
  6
CONTINUOUS
 62
     7
 10
-309.6319
 20
42.7765
 11
-309.0755
 21
42.7765
  0
LINE
  8
0
  6
CONTINUOUS
 62
     7
 10
-309.083
 20
40.69987
 11
-308.5266
 21
42.77646
  0
LINE
  8
0
  6
CONTINUOUS
 62
     7
 10
-308.3506
 20
41.23012
 11
-307.8204
 21
41.23012
  0
LINE
  8
0
  6
CONTINUOUS
 62
     7
 10
-308.3506
 20
41.23012
 11
-308.2086
 21
40.69992
  0
LINE
  8
0
  6
CONTINUOUS
 62
     7
 10
-308.2086
 20
40.69994
 11
-307.4669
 21
40.69994
  0
LINE
  8
0
  6
CONTINUOUS
 62
     7
 10
-308.5266
 20
42.7765
 11
-307.8204
 21
42.7765
  0
LINE
  8
0
  6
CONTINUOUS
 62
     7
 10
-308.3845
 20
43.30669
 11
-307.6437
 21
43.30669
  0
LINE
  8
0
  6
CONTINUOUS
 62
     7
 10
-308.9334
 20
43.30668
 11
-308.828
 21
43.69992
  0
LINE
  8
0
  6
CONTINUOUS
 62
     7
 10
-308.3845
 20
43.30668
 11
-308.2791
 21
43.69992
  0
LINE
  8
0
  6
CONTINUOUS
 62
     7
 10
-306.6717
 20
43.30669
 11
-305.8322
 21
43.30669
  0
LINE
  8
0
  6
CONTINUOUS
 62
     7
 10
-306.6717
 20
42.7765
 11
-304.61
 21
42.7765
  0
LINE
  8
0
  6
CONTINUOUS
 62
     7
 10
-305.8322
 20
40.69994
 11
-305.1253
 21
40.69994
  0
LINE
  8
0
  6
CONTINUOUS
 62
     7
 10
-306.6717
 20
43.30669
 11
-306.6717
 21
42.7765
  0
LINE
  8
0
  6
CONTINUOUS
 62
     7
 10
-304.0649
 20
41.81511
 11
-304.0649
 21
41.23012
  0
LINE
  8
0
  6
CONTINUOUS
 62
     7
 10
-306.6716
 20
41.23006
 11
-305.8322
 21
41.62153
  0
LINE
  8
0
  6
CONTINUOUS
 62
     7
 10
-306.6716
 20
41.81509
 11
-304.6099
 21
42.77648
  0
LINE
  8
0
  6
CONTINUOUS
 62
     7
 10
-306.6717
 20
41.81511
 11
-306.6717
 21
41.23012
  0
LINE
  8
0
  6
CONTINUOUS
 62
     7
 10
-305.1253
 20
41.72457
 11
-304.0649
 21
41.23012
  0
LINE
  8
0
  6
CONTINUOUS
 62
     7
 10
-304.741
 20
42.13036
 11
-304.0648
 21
41.81508
  0
LINE
  8
0
  6
CONTINUOUS
 62
     7
 10
-304.0649
 20
42.95323
 11
-304.0649
 21
42.67085
  0
LINE
  8
0
  6
CONTINUOUS
 62
     7
 10
-305.8322
 20
43.69994
 11
-305.8322
 21
43.30669
  0
LINE
  8
0
  6
CONTINUOUS
 62
     7
 10
-305.1253
 20
43.69994
 11
-305.1253
 21
43.30669
  0
LINE
  8
0
  6
CONTINUOUS
 62
     7
 10
-305.1253
 20
43.30669
 11
-304.4184
 21
43.30669
  0
LINE
  8
0
  6
CONTINUOUS
 62
     7
 10
-305.8322
 20
41.62157
 11
-305.8322
 21
40.69994
  0
LINE
  8
0
  6
CONTINUOUS
 62
     7
 10
-305.1253
 20
41.72456
 11
-305.1253
 21
40.69994
  0
LINE
  8
0
  6
CONTINUOUS
 62
     7
 10
-304.7409
 20
42.13028
 11
-304.2689
 21
42.3504
  0
LINE
  8
0
  6
CONTINUOUS
 62
     7
 10
-301.679
 20
43.54088
 11
-301.1488
 21
43.54088
  0
LINE
  8
0
  6
CONTINUOUS
 62
     7
 10
-303.844
 20
42.44566
 11
-303.844
 21
41.87511
  0
LINE
  8
0
  6
CONTINUOUS
 62
     7
 10
-301.1488
 20
43.54088
 11
-301.1488
 21
43.30669
  0
LINE
  8
0
  6
CONTINUOUS
 62
     7
 10
-301.679
 20
43.54088
 11
-301.679
 21
43.42662
  0
LINE
  8
0
  6
CONTINUOUS
 62
     7
 10
-302.386
 20
42.45497
 11
-302.386
 21
40.69994
  0
LINE
  8
0
  6
CONTINUOUS
 62
     7
 10
-303.844
 20
42.44564
 11
-301.7904
 21
43.26237
  0
LINE
  8
0
  6
CONTINUOUS
 62
     7
 10
-303.844
 20
41.87513
 11
-302.386
 21
42.45502
  0
LINE
  8
0
  6
CONTINUOUS
 62
     7
 10
-302.386
 20
40.69994
 11
-301.679
 21
40.69994
  0
LINE
  8
0
  6
CONTINUOUS
 62
     7
 10
-301.679
 20
42.73613
 11
-301.679
 21
40.69994
  0
LINE
  8
0
  6
CONTINUOUS
 62
     7
 10
-301.6789
 20
42.736
 11
-301.483
 21
42.81394
  0
LINE
  8
0
  6
CONTINUOUS
 62
     7
 10
-308.8281
 20
43.69994
 11
-308.2792
 21
43.69994
  0
LINE
  8
0
  6
CONTINUOUS
 62
     7
 10
-307.4007
 20
43.69994
 11
-307.1747
 21
43.69994
  0
LINE
  8
0
  6
CONTINUOUS
 62
     7
 10
-305.8322
 20
43.69994
 11
-305.1253
 21
43.69994
  0
LINE
  8
0
  6
CONTINUOUS
 62
     7
 10
-307.4007
 20
43.34645
 11
-307.1747
 21
43.34645
  0
LINE
  8
0
  6
CONTINUOUS
 62
     7
 10
-307.4007
 20
43.69994
 11
-307.4007
 21
43.34645
  0
LINE
  8
0
  6
CONTINUOUS
 62
     7
 10
-307.1747
 20
43.69994
 11
-307.1747
 21
43.34645
  0
LINE
  8
0
  6
CONTINUOUS
 62
     7
 10
-307.017
 20
43.69994
 11
-307.017
 21
43.34645
  0
LINE
  8
0
  6
CONTINUOUS
 62
     7
 10
-306.791
 20
43.69994
 11
-306.791
 21
43.34645
  0
LINE
  8
0
  6
CONTINUOUS
 62
     7
 10
-307.017
 20
43.69994
 11
-306.791
 21
43.69994
  0
LINE
  8
0
  6
CONTINUOUS
 62
     7
 10
-307.017
 20
43.34645
 11
-306.791
 21
43.34645
  0
LINE
  8
0
  6
CONTINUOUS
 62
     7
 10
-314.4367
 20
48.19994
 11
-313.4367
 21
50.19996
  0
LINE
  8
0
  6
CONTINUOUS
 62
     7
 10
-313.6868
 20
49.49364
 11
-313.6868
 21
48.79991
  0
LINE
  8
0
  6
CENTER
 62
     2
 10
-311.4368
 20
53.19994
 11
-311.4368
 21
45.19994
  0
LINE
  8
0
  6
CONTINUOUS
 62
     7
 10
-313.4368
 20
50.19994
 11
-313.2625
 21
50.19994
  0
LINE
  8
0
  6
CONTINUOUS
 62
     7
 10
-309.1868
 20
49.49367
 11
-309.1868
 21
48.79991
  0
LINE
  8
0
  6
CONTINUOUS
 62
     7
 10
-309.611
 20
50.19994
 11
-300.4368
 21
50.19994
  0
LINE
  8
0
  6
CENTER
 62
     2
 10
-302.4368
 20
53.19994
 11
-302.4368
 21
45.19994
  0
LINE
  8
0
  6
CONTINUOUS
 62
     7
 10
-299.4368
 20
48.19992
 11
-300.4368
 21
50.19994
  0
LINE
  8
0
  6
CONTINUOUS
 62
     7
 10
-314.4368
 20
48.19991
 11
-299.4368
 21
48.19991
  0
LINE
  8
0
  6
CONTINUOUS
 62
     7
 10
-314.4368
 20
47.19994
 11
-299.4368
 21
47.19994
  0
LINE
  8
0
  6
CONTINUOUS
 62
     7
 10
-308.8868
 20
48.79991
 11
-313.9868
 21
48.79991
  0
LINE
  8
0
  6
CONTINUOUS
 62
     7
 10
-308.8868
 20
48.79991
 11
-308.8868
 21
48.19991
  0
LINE
  8
0
  6
CONTINUOUS
 62
     7
 10
-313.9868
 20
48.79991
 11
-313.9868
 21
48.19991
  0
LINE
  8
0
  6
CONTINUOUS
 62
     7
 10
-314.3368
 20
58.69994
 11
-299.5368
 21
58.69994
  0
LINE
  8
0
  6
CONTINUOUS
 62
     7
 10
-312.7368
 20
66.09993
 11
-301.1368
 21
66.09993
  0
LINE
  8
0
  6
CONTINUOUS
 62
     7
 10
-314.3368
 20
59.69994
 11
-299.5368
 21
59.69994
  0
LINE
  8
0
  6
CONTINUOUS
 62
     7
 10
-299.5367
 20
59.69994
 11
-299.5367
 21
58.69994
  0
LINE
  8
0
  6
CONTINUOUS
 62
     7
 10
-314.3368
 20
59.69994
 11
-314.3368
 21
58.69994
  0
LINE
  8
0
  6
CONTINUOUS
 62
     7
 10
-313.4368
 20
65.69579
 11
-313.4368
 21
59.69994
  0
LINE
  8
0
  6
CONTINUOUS
 62
     7
 10
-300.4368
 20
65.69579
 11
-300.4368
 21
59.69994
  0
LINE
  8
0
  6
CONTINUOUS
 62
     7
 10
-301.1368
 20
66.09998
 11
-300.4368
 21
65.69584
  0
LINE
  8
0
  6
CONTINUOUS
 62
     7
 10
-312.7368
 20
66.10003
 11
-313.4369
 21
65.69588
  0
LINE
  8
0
  6
CONTINUOUS
 62
     7
 10
-307.1237
 20
65.17616
 11
-306.7499
 21
65.17616
  0
LINE
  8
0
  6
CONTINUOUS
 62
     7
 10
-307.1237
 20
65.17616
 11
-307.1237
 21
59.69994
  0
LINE
  8
0
  6
CONTINUOUS
 62
     7
 10
-306.7498
 20
65.17616
 11
-306.7498
 21
59.69994
  0
LINE
  8
0
  6
CONTINUOUS
 62
     7
 10
-314.3368
 20
56.69994
 11
-299.5368
 21
56.69994
  0
LINE
  8
0
  6
CONTINUOUS
 62
     7
 10
-314.3368
 20
56.69994
 11
-314.3368
 21
48.39989
  0
LINE
  8
0
  6
CONTINUOUS
 62
     7
 10
-299.5367
 20
56.69994
 11
-299.5367
 21
48.39992
  0
LINE
  8
0
  6
CONTINUOUS
 62
     7
 10
-312.9368
 20
58.69994
 11
-312.9368
 21
56.69994
  0
LINE
  8
0
  6
CONTINUOUS
 62
     7
 10
-300.9368
 20
58.69994
 11
-300.9368
 21
56.69994
  0
LINE
  8
0
  6
CONTINUOUS
 62
     7
 10
-301.6133
 20
58.69994
 11
-301.6133
 21
56.69994
  0
LINE
  8
0
  6
CONTINUOUS
 62
     7
 10
-312.2603
 20
58.69994
 11
-312.2603
 21
56.69994
  0
LINE
  8
0
  6
CONTINUOUS
 62
     7
 10
-58.43671
 20
21.99998
 11
-58.43671
 21
-30.00003
  0
LINE
  8
0
  6
CONTINUOUS
 62
     7
 10
-43.43671
 20
21.99998
 11
-43.43671
 21
-30.00003
  0
LINE
  8
0
  6
CONTINUOUS
 62
     7
 10
-58.43671
 20
4.99997
 11
-43.43671
 21
4.99997
  0
LINE
  8
0
  6
CONTINUOUS
 62
     7
 10
-58.43671
 20
-23.00003
 11
-43.43671
 21
-23.00003
  0
LINE
  8
0
  6
CONTINUOUS
 62
     7
 10
-52.68671
 20
-30.50003
 11
-43.93671
 21
-30.50003
  0
LINE
  8
0
  6
CENTER
 62
     2
 10
-51.40131
 20
-4.00003
 11
-44.45148
 21
-4.00003
  0
LINE
  8
0
  6
CENTER
 62
     2
 10
-57.25378
 20
-14.00003
 11
-50.30396
 21
-14.00003
  0
LINE
  8
0
  6
CENTER
 62
     2
 10
-47.93671
 20
-0.40121
 11
-47.93671
 21
-8.17407
  0
LINE
  8
0
  6
CENTER
 62
     2
 10
-53.93671
 20
-10.55165
 11
-53.93671
 21
-17.50151
  0
LINE
  8
0
  6
CENTER
 62
     2
 10
-49.02374
 20
-18.00003
 11
-42.80542
 21
-18.00003
  0
LINE
  8
0
  6
CENTER
 62
     2
 10
-45.43671
 20
-14.48381
 11
-45.43671
 21
-21.43365
  0
LINE
  8
0
  6
CENTER
 62
     2
 10
-56.43671
 20
3.62239
 11
-56.43671
 21
-3.69325
  0
LINE
  8
0
  6
CENTER
 62
     2
 10
-53.32166
 20
18.49998
 11
-48.47504
 21
18.49998
  0
LINE
  8
0
  6
CENTER
 62
     2
 10
-55.43671
 20
-23.99521
 11
-55.43671
 21
-31.47243
  0
LINE
  8
0
  6
CONTINUOUS
 62
     7
 10
-52.23669
 20
-26.00003
 11
-52.23669
 21
-30.00003
  0
LINE
  8
0
  6
CONTINUOUS
 62
     7
 10
-58.18671
 20
-25.50003
 11
-52.68671
 21
-25.50003
  0
LINE
  8
0
  6
CONTINUOUS
 62
     7
 10
-52.68671
 20
-25.50003
 11
-52.68671
 21
-30.70003
  0
LINE
  8
0
  6
CONTINUOUS
 62
     7
 10
-58.18671
 20
-25.50003
 11
-58.18671
 21
-30.70003
  0
LINE
  8
0
  6
CONTINUOUS
 62
     7
 10
-58.18671
 20
-30.70003
 11
-52.68671
 21
-30.70003
  0
LINE
  8
0
  6
CENTER
 62
     2
 10
-59.06335
 20
-0.00003
 11
-52.77301
 21
-0.00003
  0
LINE
  8
0
  6
CONTINUOUS
 62
     7
 10
-56.91016
 20
-29.70003
 11
-56.91016
 21
-30.70003
  0
LINE
  8
0
  6
CONTINUOUS
 62
     7
 10
-57.75867
 20
-29.70003
 11
-57.75867
 21
-30.70003
  0
LINE
  8
0
  6
CONTINUOUS
 62
     7
 10
-57.75867
 20
-29.70003
 11
-56.91016
 21
-29.70003
  0
LINE
  8
0
  6
CENTER
 62
     2
 10
-50.93671
 20
68.46211
 11
-50.93671
 21
-33.36482
  0
LINE
  8
0
  6
CONTINUOUS
 62
     7
 10
-58.43671
 20
48.19997
 11
-58.43671
 21
21.99995
  0
LINE
  8
0
  6
CONTINUOUS
 62
     7
 10
-58.43671
 20
47.19997
 11
-58.33673
 21
47.19997
  0
LINE
  8
0
  6
CONTINUOUS
 62
     7
 10
-43.43671
 20
48.19997
 11
-43.43671
 21
21.99998
  0
LINE
  8
0
  6
CONTINUOUS
 62
     7
 10
-58.43671
 20
21.99998
 11
-43.43671
 21
21.99998
  0
LINE
  8
0
  6
CONTINUOUS
 62
     7
 10
-58.43671
 20
48.19997
 11
-58.33673
 21
48.19997
  0
LINE
  8
0
  6
CONTINUOUS
 62
     7
 10
-43.4367
 20
48.2
 11
-43.5367
 21
48.4
  0
LINE
  8
0
  6
CONTINUOUS
 62
     7
 10
-58.43673
 20
48.19997
 11
-58.33675
 21
48.39994
  0
LINE
  8
0
  6
CONTINUOUS
 62
     7
 10
-57.83673
 20
46.39998
 11
-44.03668
 21
46.39998
  0
LINE
  8
0
  6
CONTINUOUS
 62
     7
 10
-57.83673
 20
31.59996
 11
-44.03668
 21
31.59996
  0
LINE
  8
0
  6
CENTER
 62
     2
 10
-61.43671
 20
38.99998
 11
-40.43671
 21
38.99998
  0
LINE
  8
0
  6
CONTINUOUS
 62
     7
 10
-52.20946
 20
38.15137
 11
-51.78522
 21
38.57561
  0
LINE
  8
0
  6
CONTINUOUS
 62
     7
 10
-51.78522
 20
37.72712
 11
-51.36097
 21
38.15137
  0
LINE
  8
0
  6
CONTINUOUS
 62
     7
 10
-52.20949
 20
38.15145
 11
-51.78523
 21
37.7272
  0
LINE
  8
0
  6
CONTINUOUS
 62
     7
 10
-50.0881
 20
40.27286
 11
-49.66385
 21
39.84861
  0
LINE
  8
0
  6
CONTINUOUS
 62
     7
 10
-53.11729
 20
40.7564
 11
-51.78519
 21
39.42429
  0
LINE
  8
0
  6
CONTINUOUS
 62
     7
 10
-52.693
 20
41.18069
 11
-51.3609
 21
39.84859
  0
LINE
  8
0
  6
CONTINUOUS
 62
     7
 10
-50.51239
 20
39.84844
 11
-50.08814
 21
40.27269
  0
LINE
  8
0
  6
CONTINUOUS
 62
     7
 10
-50.08814
 20
39.42419
 11
-49.66389
 21
39.84844
  0
LINE
  8
0
  6
CONTINUOUS
 62
     7
 10
-50.51239
 20
38.15149
 11
-49.18028
 21
36.81938
  0
LINE
  8
0
  6
CONTINUOUS
 62
     7
 10
-50.0881
 20
38.57579
 11
-48.756
 21
37.24369
  0
LINE
  8
0
  6
CONTINUOUS
 62
     7
 10
-58.33673
 20
58.69997
 11
-43.53674
 21
58.69997
  0
LINE
  8
0
  6
CONTINUOUS
 62
     7
 10
-56.73669
 20
66.09996
 11
-45.13672
 21
66.09996
  0
LINE
  8
0
  6
CONTINUOUS
 62
     7
 10
-58.33673
 20
59.69997
 11
-43.53674
 21
59.69997
  0
LINE
  8
0
  6
CONTINUOUS
 62
     7
 10
-43.53668
 20
59.69997
 11
-43.53668
 21
58.69997
  0
LINE
  8
0
  6
CONTINUOUS
 62
     7
 10
-58.33673
 20
59.69997
 11
-58.33673
 21
58.69997
  0
LINE
  8
0
  6
CONTINUOUS
 62
     7
 10
-57.43671
 20
65.69582
 11
-57.43671
 21
59.69997
  0
LINE
  8
0
  6
CONTINUOUS
 62
     7
 10
-44.43671
 20
65.69585
 11
-44.43671
 21
59.69997
  0
LINE
  8
0
  6
CONTINUOUS
 62
     7
 10
-45.13669
 20
66.10002
 11
-44.43669
 21
65.69588
  0
LINE
  8
0
  6
CONTINUOUS
 62
     7
 10
-56.73679
 20
66.09995
 11
-57.43679
 21
65.6958
  0
LINE
  8
0
  6
CONTINUOUS
 62
     7
 10
-51.12366
 20
65.17619
 11
-50.74982
 21
65.17619
  0
LINE
  8
0
  6
CONTINUOUS
 62
     7
 10
-43.53668
 20
48.19997
 11
-43.43671
 21
48.19997
  0
LINE
  8
0
  6
CONTINUOUS
 62
     7
 10
-43.53668
 20
47.19997
 11
-43.43671
 21
47.19997
  0
LINE
  8
0
  6
CONTINUOUS
 62
     7
 10
-50.74982
 20
65.17619
 11
-50.74982
 21
59.69997
  0
LINE
  8
0
  6
CONTINUOUS
 62
     7
 10
-51.1236
 20
65.17619
 11
-51.1236
 21
59.69997
  0
LINE
  8
0
  6
CONTINUOUS
 62
     7
 10
-58.33673
 20
56.69997
 11
-43.53674
 21
56.69997
  0
LINE
  8
0
  6
CONTINUOUS
 62
     7
 10
-58.33673
 20
56.69997
 11
-58.33673
 21
32.09996
  0
LINE
  8
0
  6
CONTINUOUS
 62
     7
 10
-43.53668
 20
56.69997
 11
-43.53668
 21
32.09996
  0
LINE
  8
0
  6
CONTINUOUS
 62
     7
 10
-44.93671
 20
58.69997
 11
-44.93671
 21
56.69997
  0
LINE
  8
0
  6
CONTINUOUS
 62
     7
 10
-56.93671
 20
58.69997
 11
-56.93671
 21
56.69997
  0
LINE
  8
0
  6
CONTINUOUS
 62
     7
 10
-45.61322
 20
58.69997
 11
-45.61322
 21
56.69997
  0
LINE
  8
0
  6
CONTINUOUS
 62
     7
 10
-56.26019
 20
58.69997
 11
-56.26019
 21
56.69997
  0
LINE
  8
0
  6
CONTINUOUS
 62
     7
 10
-205.9368
 20
-123.0001
 11
-175.4368
 21
-123.0001
  0
LINE
  8
0
  6
CONTINUOUS
 62
     7
 10
-205.9368
 20
-108.0001
 11
-175.4368
 21
-108.0001
  0
LINE
  8
0
  6
CONTINUOUS
 62
     7
 10
-206.4368
 20
-108.5001
 11
-206.4368
 21
-122.5001
  0
LINE
  8
0
  6
CONTINUOUS
 62
     7
 10
-182.4368
 20
-108.0001
 11
-182.4368
 21
-112.5001
  0
LINE
  8
0
  6
CENTER
 62
     2
 10
-194.4368
 20
-106.8495
 11
-194.4368
 21
-124.0108
  0
LINE
  8
0
  6
CENTER
 62
     2
 10
-207.4207
 20
-115.5001
 11
-149.3086
 21
-115.5001
  0
LINE
  8
0
  6
CENTER
 62
     2
 10
-189.1626
 20
-111.0001
 11
-181.9045
 21
-111.0001
  0
LINE
  8
0
  6
CENTER
 62
     2
 10
-206.9045
 20
-120.0001
 11
-199.8077
 21
-120.0001
  0
LINE
  8
0
  6
CENTER
 62
     2
 10
-185.4368
 20
-107.3657
 11
-185.4368
 21
-114.6237
  0
LINE
  8
0
  6
CENTER
 62
     2
 10
-203.4368
 20
-116.2366
 11
-203.4368
 21
-123.4624
  0
LINE
  8
0
  6
CONTINUOUS
 62
     7
 10
-205.9368
 20
-116.8001
 11
-203.4368
 21
-116.8001
  0
LINE
  8
0
  6
CONTINUOUS
 62
     7
 10
-200.2368
 20
-120.0001
 11
-200.2368
 21
-122.5001
  0
LINE
  8
0
  6
CONTINUOUS
 62
     7
 10
-185.4368
 20
-114.2001
 11
-182.9368
 21
-114.2001
  0
LINE
  8
0
  6
CONTINUOUS
 62
     7
 10
-188.6368
 20
-108.5001
 11
-188.6368
 21
-111.0001
  0
LINE
  8
0
  6
CONTINUOUS
 62
     7
 10
-204.9102
 20
-122.3221
 11
-203.828
 21
-121.2399
  0
LINE
  8
0
  6
CONTINUOUS
 62
     7
 10
-205.7588
 20
-121.4735
 11
-204.6765
 21
-120.3912
  0
LINE
  8
0
  6
CONTINUOUS
 62
     7
 10
-186.9102
 20
-113.322
 11
-185.828
 21
-112.2398
  0
LINE
  8
0
  6
CONTINUOUS
 62
     7
 10
-187.7587
 20
-112.4735
 11
-186.6765
 21
-111.3913
  0
LINE
  8
0
  6
CONTINUOUS
 62
     7
 10
-203.0455
 20
-118.7604
 11
-201.9633
 21
-117.6782
  0
LINE
  8
0
  6
CONTINUOUS
 62
     7
 10
-202.1971
 20
-119.6088
 11
-201.1148
 21
-118.5266
  0
LINE
  8
0
  6
CONTINUOUS
 62
     7
 10
-185.0456
 20
-109.7603
 11
-183.9634
 21
-108.6781
  0
LINE
  8
0
  6
CONTINUOUS
 62
     7
 10
-184.197
 20
-110.609
 11
-183.1148
 21
-109.5267
  0
LINE
  8
0
  6
CONTINUOUS
 62
     7
 10
-182.4368
 20
-118.5001
 11
-182.4368
 21
-123.0001
  0
LINE
  8
0
  6
CONTINUOUS
 62
     7
 10
-192.4368
 20
-109.0001
 11
-192.4368
 21
-122.0001
  0
LINE
  8
0
  6
CONTINUOUS
 62
     7
 10
-196.4368
 20
-109.0001
 11
-196.4368
 21
-122.0001
  0
LINE
  8
0
  6
CONTINUOUS
 62
     7
 10
-192.4368
 20
-122.0001
 11
-196.4368
 21
-122.0001
  0
LINE
  8
0
  6
CONTINUOUS
 62
     7
 10
-192.4368
 20
-109.0001
 11
-196.4368
 21
-109.0001
  0
LINE
  8
0
  6
CONTINUOUS
 62
     7
 10
-193.33
 20
-109.7121
 11
-193.33
 21
-112.0538
  0
LINE
  8
0
  6
CONTINUOUS
 62
     7
 10
-195.4066
 20
-109.7121
 11
-195.4066
 21
-111.7004
  0
LINE
  8
0
  6
CONTINUOUS
 62
     7
 10
-195.9368
 20
-109.7121
 11
-195.9368
 21
-112.4073
  0
LINE
  8
0
  6
CONTINUOUS
 62
     7
 10
-193.8602
 20
-109.7121
 11
-193.8602
 21
-111.7004
  0
LINE
  8
0
  6
CONTINUOUS
 62
     7
 10
-193.33
 20
-109.7121
 11
-193.8602
 21
-109.7121
  0
LINE
  8
0
  6
CONTINUOUS
 62
     7
 10
-193.6835
 20
-112.4073
 11
-195.9368
 21
-112.4073
  0
LINE
  8
0
  6
CONTINUOUS
 62
     7
 10
-193.8602
 20
-111.7004
 11
-195.4066
 21
-111.7004
  0
LINE
  8
0
  6
CONTINUOUS
 62
     7
 10
-193.33
 20
-112.8049
 11
-193.8602
 21
-112.8049
  0
LINE
  8
0
  6
CONTINUOUS
 62
     7
 10
-193.8602
 20
-115.3233
 11
-195.5833
 21
-115.3233
  0
LINE
  8
0
  6
CONTINUOUS
 62
     7
 10
-193.8602
 20
-114.6164
 11
-195.4066
 21
-114.6164
  0
LINE
  8
0
  6
CONTINUOUS
 62
     7
 10
-195.4066
 20
-109.7121
 11
-195.9368
 21
-109.7121
  0
LINE
  8
0
  6
CONTINUOUS
 62
     7
 10
-193.33
 20
-112.8049
 11
-193.33
 21
-113.5034
  0
LINE
  8
0
  6
CONTINUOUS
 62
     7
 10
-195.9368
 20
-112.8049
 11
-195.9368
 21
-113.3538
  0
LINE
  8
0
  6
CONTINUOUS
 62
     7
 10
-195.9368
 20
-112.805
 11
-193.8602
 21
-113.3614
  0
LINE
  8
0
  6
CONTINUOUS
 62
     7
 10
-193.8602
 20
-112.8049
 11
-193.8602
 21
-113.3614
  0
LINE
  8
0
  6
CONTINUOUS
 62
     7
 10
-195.9368
 20
-113.3538
 11
-193.8602
 21
-113.9102
  0
LINE
  8
0
  6
CONTINUOUS
 62
     7
 10
-195.4066
 20
-114.0862
 11
-195.4066
 21
-114.6164
  0
LINE
  8
0
  6
CONTINUOUS
 62
     7
 10
-195.4066
 20
-114.0861
 11
-195.9368
 21
-114.2281
  0
LINE
  8
0
  6
CONTINUOUS
 62
     7
 10
-195.9368
 20
-114.2283
 11
-195.9368
 21
-114.9699
  0
LINE
  8
0
  6
CONTINUOUS
 62
     7
 10
-193.8602
 20
-113.9102
 11
-193.8602
 21
-114.6164
  0
LINE
  8
0
  6
CONTINUOUS
 62
     7
 10
-193.33
 20
-114.0523
 11
-193.33
 21
-114.7931
  0
LINE
  8
0
  6
CONTINUOUS
 62
     7
 10
-193.33
 20
-113.5034
 11
-192.9368
 21
-113.6088
  0
LINE
  8
0
  6
CONTINUOUS
 62
     7
 10
-193.33
 20
-114.0524
 11
-192.9368
 21
-114.1578
  0
LINE
  8
0
  6
CONTINUOUS
 62
     7
 10
-193.33
 20
-115.7652
 11
-193.33
 21
-116.6046
  0
LINE
  8
0
  6
CONTINUOUS
 62
     7
 10
-193.8602
 20
-115.7652
 11
-193.8602
 21
-117.8269
  0
LINE
  8
0
  6
CONTINUOUS
 62
     7
 10
-195.9368
 20
-116.6046
 11
-195.9368
 21
-117.3116
  0
LINE
  8
0
  6
CONTINUOUS
 62
     7
 10
-193.33
 20
-115.7652
 11
-193.8602
 21
-115.7652
  0
LINE
  8
0
  6
CONTINUOUS
 62
     7
 10
-194.8216
 20
-118.3719
 11
-195.4066
 21
-118.3719
  0
LINE
  8
0
  6
CONTINUOUS
 62
     7
 10
-195.4066
 20
-115.7652
 11
-195.0151
 21
-116.6046
  0
LINE
  8
0
  6
CONTINUOUS
 62
     7
 10
-194.8215
 20
-115.7652
 11
-193.8602
 21
-117.8269
  0
LINE
  8
0
  6
CONTINUOUS
 62
     7
 10
-194.8216
 20
-115.7652
 11
-195.4066
 21
-115.7652
  0
LINE
  8
0
  6
CONTINUOUS
 62
     7
 10
-194.9121
 20
-117.3116
 11
-195.4065
 21
-118.372
  0
LINE
  8
0
  6
CONTINUOUS
 62
     7
 10
-194.5063
 20
-117.6959
 11
-194.8216
 21
-118.372
  0
LINE
  8
0
  6
CONTINUOUS
 62
     7
 10
-193.6835
 20
-118.3719
 11
-193.9659
 21
-118.3719
  0
LINE
  8
0
  6
CONTINUOUS
 62
     7
 10
-192.9368
 20
-116.6046
 11
-193.33
 21
-116.6046
  0
LINE
  8
0
  6
CONTINUOUS
 62
     7
 10
-192.9368
 20
-117.3116
 11
-193.33
 21
-117.3116
  0
LINE
  8
0
  6
CONTINUOUS
 62
     7
 10
-193.33
 20
-117.3116
 11
-193.33
 21
-118.0185
  0
LINE
  8
0
  6
CONTINUOUS
 62
     7
 10
-195.0151
 20
-116.6046
 11
-195.9368
 21
-116.6046
  0
LINE
  8
0
  6
CONTINUOUS
 62
     7
 10
-194.9121
 20
-117.3116
 11
-195.9368
 21
-117.3116
  0
LINE
  8
0
  6
CONTINUOUS
 62
     7
 10
-194.5063
 20
-117.6959
 11
-194.2862
 21
-118.1679
  0
LINE
  8
0
  6
CONTINUOUS
 62
     7
 10
-193.0958
 20
-120.7578
 11
-193.0958
 21
-121.288
  0
LINE
  8
0
  6
CONTINUOUS
 62
     7
 10
-194.191
 20
-118.5929
 11
-194.7616
 21
-118.5929
  0
LINE
  8
0
  6
CONTINUOUS
 62
     7
 10
-193.0958
 20
-121.288
 11
-193.33
 21
-121.288
  0
LINE
  8
0
  6
CONTINUOUS
 62
     7
 10
-193.0958
 20
-120.7578
 11
-193.2101
 21
-120.7578
  0
LINE
  8
0
  6
CONTINUOUS
 62
     7
 10
-194.1817
 20
-120.0509
 11
-195.9368
 21
-120.0509
  0
LINE
  8
0
  6
CONTINUOUS
 62
     7
 10
-194.1911
 20
-118.5929
 11
-193.3743
 21
-120.6464
  0
LINE
  8
0
  6
CONTINUOUS
 62
     7
 10
-194.7616
 20
-118.5929
 11
-194.1817
 21
-120.0509
  0
LINE
  8
0
  6
CONTINUOUS
 62
     7
 10
-195.9368
 20
-120.0509
 11
-195.9368
 21
-120.7578
  0
LINE
  8
0
  6
CONTINUOUS
 62
     7
 10
-193.9006
 20
-120.7578
 11
-195.9368
 21
-120.7578
  0
LINE
  8
0
  6
CONTINUOUS
 62
     7
 10
-193.9007
 20
-120.7579
 11
-193.8227
 21
-120.9538
  0
LINE
  8
0
  6
CONTINUOUS
 62
     7
 10
-192.9368
 20
-113.6088
 11
-192.9368
 21
-114.1577
  0
LINE
  8
0
  6
CONTINUOUS
 62
     7
 10
-192.9368
 20
-115.0362
 11
-192.9368
 21
-115.2622
  0
LINE
  8
0
  6
CONTINUOUS
 62
     7
 10
-192.9368
 20
-116.6046
 11
-192.9368
 21
-117.3116
  0
LINE
  8
0
  6
CONTINUOUS
 62
     7
 10
-193.2902
 20
-115.0362
 11
-193.2902
 21
-115.2622
  0
LINE
  8
0
  6
CONTINUOUS
 62
     7
 10
-192.9368
 20
-115.0362
 11
-193.2902
 21
-115.0362
  0
LINE
  8
0
  6
CONTINUOUS
 62
     7
 10
-192.9368
 20
-115.2622
 11
-193.2902
 21
-115.2622
  0
LINE
  8
0
  6
CONTINUOUS
 62
     7
 10
-192.9368
 20
-115.4199
 11
-193.2902
 21
-115.4199
  0
LINE
  8
0
  6
CONTINUOUS
 62
     7
 10
-192.9368
 20
-115.6459
 11
-193.2902
 21
-115.6459
  0
LINE
  8
0
  6
CONTINUOUS
 62
     7
 10
-192.9368
 20
-115.4199
 11
-192.9368
 21
-115.6459
  0
LINE
  8
0
  6
CONTINUOUS
 62
     7
 10
-193.2902
 20
-115.4199
 11
-193.2902
 21
-115.6459
  0
LINE
  8
0
  6
CONTINUOUS
 62
     7
 10
-182.4368
 20
-112.5001
 11
-182.4368
 21
-118.5001
  0
LINE
  8
0
  6
CONTINUOUS
 62
     7
 10
-179.4368
 20
-108.0001
 11
-179.4368
 21
-123.0001
  0
LINE
  8
0
  6
CONTINUOUS
 62
     7
 10
-175.4368
 20
-108.0001
 11
-175.4368
 21
-108.1001
  0
LINE
  8
0
  6
CONTINUOUS
 62
     7
 10
-174.9368
 20
-122.9001
 11
-152.9368
 21
-122.9001
  0
LINE
  8
0
  6
CONTINUOUS
 62
     7
 10
-174.9368
 20
-108.1001
 11
-152.9368
 21
-108.1001
  0
LINE
  8
0
  6
CONTINUOUS
 62
     7
 10
-152.4368
 20
-108.6001
 11
-152.4368
 21
-122.4001
  0
LINE
  8
0
  6
CONTINUOUS
 62
     7
 10
-151.265
 20
-118.3001
 11
-151.9368
 21
-118.3001
  0
LINE
  8
0
  6
CONTINUOUS
 62
     7
 10
-151.265
 20
-112.7001
 11
-151.9368
 21
-112.7001
  0
LINE
  8
0
  6
CONTINUOUS
 62
     7
 10
-151.9368
 20
-118.7501
 11
-151.9368
 21
-112.2501
  0
LINE
  8
0
  6
CONTINUOUS
 62
     7
 10
-151.9368
 20
-118.7501
 11
-152.4368
 21
-118.7501
  0
LINE
  8
0
  6
CONTINUOUS
 62
     7
 10
-151.9368
 20
-112.2501
 11
-152.4368
 21
-112.2501
  0
LINE
  8
0
  6
CENTER
 62
     2
 10
-159.8368
 20
-105.1001
 11
-159.8368
 21
-125.9001
  0
LINE
  8
0
  6
CONTINUOUS
 62
     7
 10
-175.4368
 20
-122.9001
 11
-175.4368
 21
-123.0001
  0
LINE
  8
0
  6
CONTINUOUS
 62
     7
 10
-175.4368
 20
-122.9001
 11
-175.4368
 21
-108.1001
  0
LINE
  8
0
  6
CONTINUOUS
 62
     7
 10
-174.9368
 20
-122.9001
 11
-174.9368
 21
-108.1001
  0
LINE
  8
0
  6
CONTINUOUS
 62
     7
 10
-175.4368
 20
-122.9001
 11
-174.9368
 21
-122.9001
  0
LINE
  8
0
  6
CONTINUOUS
 62
     7
 10
-175.4368
 20
-108.1001
 11
-174.9368
 21
-108.1001
  0
LINE
  8
0
  6
CENTER
 62
     2
 10
172.4368
 20
3.43936
 11
172.4368
 21
-3.3425
  0
LINE
  8
0
  6
CENTER
 62
     2
 10
183.4368
 20
-14.47302
 11
183.4368
 21
-21.41019
  0
LINE
  8
0
  6
CENTER
 62
     2
 10
180.1682
 20
-18.0
 11
186.545
 21
-18.0
  0
LINE
  8
0
  6
CENTER
 62
     2
 10
169.866
 20
0.0
 11
175.9748
 21
0.0
  0
LINE
  8
0
  6
CONTINUOUS
 62
     7
 10
170.4368
 20
5.0
 11
185.4368
 21
5.0
  0
LINE
  8
0
  6
CENTER
 62
     2
 10
177.9368
 20
69.0
 11
177.9368
 21
-33.82301
  0
LINE
  8
0
  6
CENTER
 62
     2
 10
175.5518
 20
18.5
 11
180.3984
 21
18.5
  0
LINE
  8
0
  6
CONTINUOUS
 62
     7
 10
170.4368
 20
48.19998
 11
170.4368
 21
-30.0
  0
LINE
  8
0
  6
CONTINUOUS
 62
     7
 10
185.4368
 20
48.19998
 11
185.4368
 21
-30.0
  0
LINE
  8
0
  6
CONTINUOUS
 62
     7
 10
170.4368
 20
-23.0
 11
185.4368
 21
-23.0
  0
LINE
  8
0
  6
CONTINUOUS
 62
     7
 10
170.9368
 20
-30.5
 11
184.9368
 21
-30.5
  0
LINE
  8
0
  6
CONTINUOUS
 62
     7
 10
170.9368
 20
-25.5
 11
176.1368
 21
-25.5
  0
LINE
  8
0
  6
CENTER
 62
     2
 10
173.4368
 20
-24.15001
 11
173.4368
 21
-31.05286
  0
LINE
  8
0
  6
CONTINUOUS
 62
     7
 10
176.6368
 20
-26.0
 11
176.6368
 21
-30.0
  0
LINE
  8
0
  6
CONTINUOUS
 62
     7
 10
170.6368
 20
-26.67183
 11
170.6368
 21
-25.5
  0
LINE
  8
0
  6
CONTINUOUS
 62
     7
 10
176.2368
 20
-26.67184
 11
176.2368
 21
-25.50002
  0
LINE
  8
0
  6
CONTINUOUS
 62
     7
 10
170.4368
 20
22.0
 11
185.4368
 21
22.0
  0
LINE
  8
0
  6
CONTINUOUS
 62
     7
 10
170.4368
 20
47.20001
 11
170.5368
 21
47.20001
  0
LINE
  8
0
  6
CONTINUOUS
 62
     7
 10
170.4368
 20
48.19998
 11
170.5368
 21
48.19998
  0
LINE
  8
0
  6
CONTINUOUS
 62
     7
 10
185.4368
 20
48.19999
 11
185.3368
 21
48.4
  0
LINE
  8
0
  6
CONTINUOUS
 62
     7
 10
170.4368
 20
48.19999
 11
170.5368
 21
48.39997
  0
LINE
  8
0
  6
CONTINUOUS
 62
     7
 10
171.0368
 20
46.39999
 11
184.8368
 21
46.39999
  0
LINE
  8
0
  6
CONTINUOUS
 62
     7
 10
171.0368
 20
31.60001
 11
184.8368
 21
31.60001
  0
LINE
  8
0
  6
CENTER
 62
     2
 10
167.4368
 20
39.0
 11
188.4368
 21
39.0
  0
LINE
  8
0
  6
CONTINUOUS
 62
     7
 10
176.664
 20
38.15148
 11
177.0883
 21
38.57574
  0
LINE
  8
0
  6
CONTINUOUS
 62
     7
 10
177.0882
 20
37.72725
 11
177.5125
 21
38.1515
  0
LINE
  8
0
  6
CONTINUOUS
 62
     7
 10
176.664
 20
38.15151
 11
177.0883
 21
37.72724
  0
LINE
  8
0
  6
CONTINUOUS
 62
     7
 10
178.7854
 20
40.2728
 11
179.2096
 21
39.84854
  0
LINE
  8
0
  6
CONTINUOUS
 62
     7
 10
175.7562
 20
40.7564
 11
177.0883
 21
39.42429
  0
LINE
  8
0
  6
CONTINUOUS
 62
     7
 10
176.1805
 20
41.18066
 11
177.5126
 21
39.84855
  0
LINE
  8
0
  6
CONTINUOUS
 62
     7
 10
178.3611
 20
39.84854
 11
178.7853
 21
40.2728
  0
LINE
  8
0
  6
CONTINUOUS
 62
     7
 10
178.7853
 20
39.42431
 11
179.2096
 21
39.84857
  0
LINE
  8
0
  6
CONTINUOUS
 62
     7
 10
178.3611
 20
38.1515
 11
179.6932
 21
36.81939
  0
LINE
  8
0
  6
CONTINUOUS
 62
     7
 10
178.7853
 20
38.57576
 11
180.1174
 21
37.24365
  0
LINE
  8
0
  6
CONTINUOUS
 62
     7
 10
170.5368
 20
58.70001
 11
185.3368
 21
58.70001
  0
LINE
  8
0
  6
CONTINUOUS
 62
     7
 10
172.1368
 20
66.10001
 11
183.7368
 21
66.10001
  0
LINE
  8
0
  6
CONTINUOUS
 62
     7
 10
170.5368
 20
59.70001
 11
185.3368
 21
59.70001
  0
LINE
  8
0
  6
CONTINUOUS
 62
     7
 10
185.3368
 20
59.70001
 11
185.3368
 21
58.70001
  0
LINE
  8
0
  6
CONTINUOUS
 62
     7
 10
170.5368
 20
59.70001
 11
170.5368
 21
58.70001
  0
LINE
  8
0
  6
CONTINUOUS
 62
     7
 10
171.4368
 20
65.69586
 11
171.4368
 21
59.70001
  0
LINE
  8
0
  6
CONTINUOUS
 62
     7
 10
184.4368
 20
65.69586
 11
184.4368
 21
59.70001
  0
LINE
  8
0
  6
CONTINUOUS
 62
     7
 10
183.7368
 20
66.10002
 11
184.4368
 21
65.69588
  0
LINE
  8
0
  6
CONTINUOUS
 62
     7
 10
172.1367
 20
66.10006
 11
171.4368
 21
65.69592
  0
LINE
  8
0
  6
CONTINUOUS
 62
     7
 10
177.7499
 20
65.17624
 11
178.1237
 21
65.17624
  0
LINE
  8
0
  6
CONTINUOUS
 62
     7
 10
185.3368
 20
48.19998
 11
185.4368
 21
48.19998
  0
LINE
  8
0
  6
CONTINUOUS
 62
     7
 10
185.3368
 20
47.20001
 11
185.4368
 21
47.20001
  0
LINE
  8
0
  6
CONTINUOUS
 62
     7
 10
178.1237
 20
65.17624
 11
178.1237
 21
59.70001
  0
LINE
  8
0
  6
CONTINUOUS
 62
     7
 10
177.7499
 20
65.17624
 11
177.7499
 21
59.70001
  0
LINE
  8
0
  6
CONTINUOUS
 62
     7
 10
170.5368
 20
56.70001
 11
185.3368
 21
56.70001
  0
LINE
  8
0
  6
CONTINUOUS
 62
     7
 10
170.5368
 20
56.70001
 11
170.5368
 21
32.10001
  0
LINE
  8
0
  6
CONTINUOUS
 62
     7
 10
185.3368
 20
56.70001
 11
185.3368
 21
32.10001
  0
LINE
  8
0
  6
CONTINUOUS
 62
     7
 10
183.9368
 20
58.70001
 11
183.9368
 21
56.70001
  0
LINE
  8
0
  6
CONTINUOUS
 62
     7
 10
171.9368
 20
58.70001
 11
171.9368
 21
56.70001
  0
LINE
  8
0
  6
CONTINUOUS
 62
     7
 10
183.2603
 20
58.70001
 11
183.2603
 21
56.70001
  0
LINE
  8
0
  6
CONTINUOUS
 62
     7
 10
172.6133
 20
58.70001
 11
172.6133
 21
56.70001
  0
LINE
  8
0
  6
CENTER
 62
     2
 10
167.9884
 20
160.1
 11
187.9245
 21
160.1
  0
LINE
  8
0
  6
CONTINUOUS
 62
     7
 10
185.4368
 20
148.1
 11
170.4368
 21
148.1
  0
LINE
  8
0
  6
CONTINUOUS
 62
     7
 10
176.4368
 20
151.1
 11
176.4368
 21
148.1
  0
LINE
  8
0
  6
CONTINUOUS
 62
     7
 10
179.4368
 20
169.1
 11
179.4368
 21
172.1
  0
LINE
  8
0
  6
CONTINUOUS
 62
     7
 10
182.4368
 20
166.1
 11
185.4368
 21
166.1
  0
LINE
  8
0
  6
CONTINUOUS
 62
     7
 10
173.4368
 20
154.1
 11
170.4368
 21
154.1
  0
LINE
  8
0
  6
CONTINUOUS
 62
     7
 10
179.4368
 20
171.1
 11
171.4368
 21
171.1
  0
LINE
  8
0
  6
CONTINUOUS
 62
     7
 10
184.4368
 20
149.1
 11
176.4368
 21
149.1
  0
LINE
  8
0
  6
CONTINUOUS
 62
     7
 10
184.4368
 20
166.1
 11
184.4368
 21
149.1
  0
LINE
  8
0
  6
CONTINUOUS
 62
     7
 10
171.4368
 20
171.1
 11
171.4368
 21
154.1
  0
LINE
  8
0
  6
CONTINUOUS
 62
     7
 10
171.2068
 20
150.8
 11
170.9045
 21
150.8
  0
LINE
  8
0
  6
CONTINUOUS
 62
     7
 10
171.2068
 20
151.3999
 11
170.9045
 21
151.3999
  0
LINE
  8
0
  6
CONTINUOUS
 62
     7
 10
170.9287
 20
151.5607
 11
171.2345
 21
151.5607
  0
LINE
  8
0
  6
CONTINUOUS
 62
     7
 10
184.6667
 20
169.3999
 11
184.9691
 21
169.3999
  0
LINE
  8
0
  6
CONTINUOUS
 62
     7
 10
184.6667
 20
168.8
 11
184.9691
 21
168.8
  0
LINE
  8
0
  6
CONTINUOUS
 62
     7
 10
184.9448
 20
168.6392
 11
184.6391
 21
168.6392
  0
LINE
  8
0
  6
CONTINUOUS
 62
     7
 10
172.7014
 20
152.2031
 11
173.0691
 21
151.8354
  0
LINE
  8
0
  6
CONTINUOUS
 62
     7
 10
172.3337
 20
151.8354
 11
172.7014
 21
151.4677
  0
LINE
  8
0
  6
CONTINUOUS
 62
     7
 10
172.7014
 20
152.2031
 11
172.3337
 21
151.8354
  0
LINE
  8
0
  6
CONTINUOUS
 62
     7
 10
174.5399
 20
150.3646
 11
174.1722
 21
149.9969
  0
LINE
  8
0
  6
CONTINUOUS
 62
     7
 10
174.8332
 20
152.8642
 11
173.8044
 21
151.8354
  0
LINE
  8
0
  6
CONTINUOUS
 62
     7
 10
175.201
 20
152.4965
 11
174.1722
 21
151.4677
  0
LINE
  8
0
  6
CONTINUOUS
 62
     7
 10
174.1722
 20
150.7323
 11
174.5399
 21
150.3646
  0
LINE
  8
0
  6
CONTINUOUS
 62
     7
 10
173.8045
 20
150.3646
 11
174.1722
 21
149.9969
  0
LINE
  8
0
  6
CONTINUOUS
 62
     7
 10
172.7013
 20
150.7323
 11
171.6726
 21
149.7035
  0
LINE
  8
0
  6
CONTINUOUS
 62
     7
 10
173.0691
 20
150.3646
 11
172.0403
 21
149.3358
  0
LINE
  8
0
  6
CONTINUOUS
 62
     7
 10
181.7014
 20
170.2031
 11
182.0691
 21
169.8354
  0
LINE
  8
0
  6
CONTINUOUS
 62
     7
 10
181.3337
 20
169.8354
 11
181.7014
 21
169.4677
  0
LINE
  8
0
  6
CONTINUOUS
 62
     7
 10
181.7014
 20
170.2031
 11
181.3337
 21
169.8354
  0
LINE
  8
0
  6
CONTINUOUS
 62
     7
 10
183.5399
 20
168.3646
 11
183.1722
 21
167.9969
  0
LINE
  8
0
  6
CONTINUOUS
 62
     7
 10
183.8332
 20
170.8642
 11
182.8044
 21
169.8354
  0
LINE
  8
0
  6
CONTINUOUS
 62
     7
 10
184.201
 20
170.4964
 11
183.1722
 21
169.4676
  0
LINE
  8
0
  6
CONTINUOUS
 62
     7
 10
183.1722
 20
168.7323
 11
183.5399
 21
168.3646
  0
LINE
  8
0
  6
CONTINUOUS
 62
     7
 10
182.8045
 20
168.3646
 11
183.1722
 21
167.9969
  0
LINE
  8
0
  6
CONTINUOUS
 62
     7
 10
181.7013
 20
168.7323
 11
180.6726
 21
167.7035
  0
LINE
  8
0
  6
CONTINUOUS
 62
     7
 10
182.0691
 20
168.3645
 11
181.0403
 21
167.3358
  0
LINE
  8
0
  6
CENTER
 62
     2
 10
177.4368
 20
151.1
 11
169.4368
 21
151.1
  0
LINE
  8
0
  6
CENTER
 62
     2
 10
186.4368
 20
169.1
 11
178.4368
 21
169.1
  0
LINE
  8
0
  6
CENTER
 62
     2
 10
182.4368
 20
173.1
 11
182.4368
 21
165.1
  0
LINE
  8
0
  6
CENTER
 62
     2
 10
173.4368
 20
155.1
 11
173.4368
 21
147.1
  0
LINE
  8
0
  6
CONTINUOUS
 62
     7
 10
185.4368
 20
171.6
 11
185.4368
 21
141.1
  0
LINE
  8
0
  6
CONTINUOUS
 62
     7
 10
184.9368
 20
172.1
 11
170.9368
 21
172.1
  0
LINE
  8
0
  6
CONTINUOUS
 62
     7
 10
170.4368
 20
171.6
 11
170.4368
 21
141.1
  0
LINE
  8
0
  6
CONTINUOUS
 62
     7
 10
185.4368
 20
145.1
 11
170.4368
 21
145.1
  0
LINE
  8
0
  6
CONTINUOUS
 62
     7
 10
185.4368
 20
141.1
 11
170.4368
 21
141.1
  0
LINE
  8
0
  6
CENTER
 62
     2
 10
188.3368
 20
125.5
 11
167.5368
 21
125.5
  0
LINE
  8
0
  6
CONTINUOUS
 62
     7
 10
184.4368
 20
129.0369
 11
184.4368
 21
121.963
  0
LINE
  8
0
  6
CONTINUOUS
 62
     7
 10
171.4368
 20
129.0369
 11
171.4368
 21
121.963
  0
LINE
  8
0
  6
CONTINUOUS
 62
     7
 10
184.2499
 20
121.6393
 11
178.1237
 21
118.1023
  0
LINE
  8
0
  6
CONTINUOUS
 62
     7
 10
177.7498
 20
132.8976
 11
171.6237
 21
129.3607
  0
LINE
  8
0
  6
CONTINUOUS
 62
     7
 10
177.7498
 20
118.1023
 11
171.6237
 21
121.6393
  0
LINE
  8
0
  6
CONTINUOUS
 62
     7
 10
184.2499
 20
129.3607
 11
178.1237
 21
132.8976
  0
LINE
  8
0
  6
CONTINUOUS
 62
     7
 10
184.8368
 20
118.1
 11
171.0368
 21
118.1
  0
LINE
  8
0
  6
CONTINUOUS
 62
     7
 10
175.1368
 20
116.9281
 11
175.1368
 21
117.6
  0
LINE
  8
0
  6
CONTINUOUS
 62
     7
 10
180.7368
 20
116.9281
 11
180.7368
 21
117.6
  0
LINE
  8
0
  6
CONTINUOUS
 62
     7
 10
181.1868
 20
117.6
 11
181.1868
 21
118.1
  0
LINE
  8
0
  6
CONTINUOUS
 62
     7
 10
174.6868
 20
117.6
 11
181.1868
 21
117.6
  0
LINE
  8
0
  6
CONTINUOUS
 62
     7
 10
174.6868
 20
117.6
 11
174.6868
 21
118.1
  0
LINE
  8
0
  6
CONTINUOUS
 62
     7
 10
170.5368
 20
141.1
 11
170.5368
 21
118.6
  0
LINE
  8
0
  6
CONTINUOUS
 62
     7
 10
185.3368
 20
141.1
 11
185.3368
 21
118.6
  0
LINE
  8
0
  6
CONTINUOUS
 62
     7
 10
185.3368
 20
140.6
 11
170.5368
 21
140.6
  0
LINE
  8
0
  6
CENTER
 62
     2
 10
177.9368
 20
173.8183
 11
177.9368
 21
113.1486
  0
LINE
  8
0
  6
CONTINUOUS
 62
     7
 10
22.4368
 20
5.0
 11
46.4368
 21
5.0
  0
LINE
  8
0
  6
CENTER
 62
     2
 10
34.4368
 20
53.19998
 11
34.4368
 21
-32.56096
  0
LINE
  8
0
  6
CENTER
 62
     2
 10
42.03232
 20
0.0
 11
47.26236
 21
0.0
  0
LINE
  8
0
  6
CONTINUOUS
 62
     7
 10
43.4368
 20
1.81381
 11
43.4368
 21
-1.81384
  0
LINE
  8
0
  6
CONTINUOUS
 62
     7
 10
43.4368
 20
1.81384
 11
46.4368
 21
1.81384
  0
LINE
  8
0
  6
CONTINUOUS
 62
     7
 10
43.4368
 20
-1.81384
 11
46.4368
 21
-1.81384
  0
LINE
  8
0
  6
CONTINUOUS
 62
     7
 10
22.4368
 20
48.20001
 11
22.4368
 21
-30.0
  0
LINE
  8
0
  6
CONTINUOUS
 62
     7
 10
46.4368
 20
22.0
 11
46.4368
 21
-30.0
  0
LINE
  8
0
  6
CONTINUOUS
 62
     7
 10
22.4368
 20
-23.0
 11
46.4368
 21
-23.0
  0
LINE
  8
0
  6
CONTINUOUS
 62
     7
 10
22.9368
 20
-30.5
 11
45.9368
 21
-30.5
  0
LINE
  8
0
  6
CONTINUOUS
 62
     7
 10
40.73679
 20
-25.5
 11
45.9368
 21
-25.5
  0
LINE
  8
0
  6
CENTER
 62
     2
 10
43.4368
 20
-23.70001
 11
43.4368
 21
-33.15001
  0
LINE
  8
0
  6
CONTINUOUS
 62
     7
 10
40.23679
 20
-26.0
 11
40.23679
 21
-30.0
  0
LINE
  8
0
  6
CONTINUOUS
 62
     7
 10
40.63678
 20
-26.67183
 11
40.63678
 21
-25.5
  0
LINE
  8
0
  6
CONTINUOUS
 62
     7
 10
46.23677
 20
-26.67183
 11
46.23677
 21
-25.5
  0
LINE
  8
0
  6
CONTINUOUS
 62
     7
 10
22.4368
 20
22.0
 11
53.4368
 21
22.0
  0
LINE
  8
0
  6
CONTINUOUS
 62
     7
 10
22.4368
 20
47.20001
 11
49.4368
 21
47.20001
  0
LINE
  8
0
  6
CONTINUOUS
 62
     7
 10
46.4368
 20
48.19998
 11
46.4368
 21
47.20001
  0
LINE
  8
0
  6
CONTINUOUS
 62
     7
 10
23.4368
 20
50.20001
 11
41.61102
 21
50.20001
  0
LINE
  8
0
  6
CONTINUOUS
 62
     7
 10
22.4368
 20
48.20001
 11
46.4368
 21
48.20001
  0
LINE
  8
0
  6
CONTINUOUS
 62
     7
 10
22.4368
 20
48.19998
 11
23.4368
 21
50.19998
  0
LINE
  8
0
  6
CONTINUOUS
 62
     7
 10
46.43678
 20
48.19999
 11
45.43678
 21
50.2
  0
LINE
  8
0
  6
CONTINUOUS
 62
     7
 10
40.4368
 20
50.20001
 11
40.4368
 21
48.20001
  0
LINE
  8
0
  6
CENTER
 62
     2
 10
43.4368
 20
53.20001
 11
43.4368
 21
44.20001
  0
LINE
  8
0
  6
CONTINUOUS
 62
     7
 10
45.98679
 20
48.79999
 11
40.8868
 21
48.79999
  0
LINE
  8
0
  6
CONTINUOUS
 62
     7
 10
43.1368
 20
48.2
 11
42.97603
 21
48.79999
  0
LINE
  8
0
  6
CONTINUOUS
 62
     7
 10
43.73681
 20
48.80001
 11
43.89758
 21
48.20003
  0
LINE
  8
0
  6
CONTINUOUS
 62
     7
 10
45.98679
 20
48.79999
 11
45.98679
 21
48.20001
  0
LINE
  8
0
  6
CONTINUOUS
 62
     7
 10
40.8868
 20
48.79999
 11
40.8868
 21
48.20001
  0
LINE
  8
0
  6
CONTINUOUS
 62
     7
 10
45.68681
 20
49.49374
 11
45.68681
 21
48.79999
  0
LINE
  8
0
  6
CONTINUOUS
 62
     7
 10
41.18681
 20
49.49374
 11
41.18681
 21
48.79999
  0
LINE
  8
0
  6
CONTINUOUS
 62
     7
 10
45.26257
 20
50.20001
 11
45.4368
 21
50.20001
  0
LINE
  8
0
  6
CENTER
 62
     2
 10
25.4368
 20
53.20001
 11
25.4368
 21
44.20001
  0
LINE
  8
0
  6
CONTINUOUS
 62
     7
 10
49.4368
 20
47.20001
 11
49.4368
 21
22.0
  0
LINE
  8
0
  6
CONTINUOUS
 62
     7
 10
49.4368
 20
47.0
 11
53.4368
 21
47.0
  0
LINE
  8
0
  6
CENTER
 62
     2
 10
46.4368
 20
39.0
 11
81.83679
 21
39.0
  0
LINE
  8
0
  6
CONTINUOUS
 62
     7
 10
76.43679
 20
65.17621
 11
76.43679
 21
58.70001
  0
LINE
  8
0
  6
CONTINUOUS
 62
     7
 10
53.4368
 20
31.60001
 11
75.93679
 21
31.60001
  0
LINE
  8
0
  6
CONTINUOUS
 62
     7
 10
53.4368
 20
46.39999
 11
75.93679
 21
46.39999
  0
LINE
  8
0
  6
CONTINUOUS
 62
     7
 10
61.6368
 20
65.17624
 11
61.6368
 21
58.70001
  0
LINE
  8
0
  6
CONTINUOUS
 62
     7
 10
63.23679
 20
66.10001
 11
74.83678
 21
66.10001
  0
LINE
  8
0
  6
CONTINUOUS
 62
     7
 10
77.60861
 20
36.20001
 11
76.93679
 21
36.20001
  0
LINE
  8
0
  6
CONTINUOUS
 62
     7
 10
77.60861
 20
41.80002
 11
76.93679
 21
41.80002
  0
LINE
  8
0
  6
CONTINUOUS
 62
     7
 10
76.93678
 20
35.75
 11
76.93678
 21
42.25
  0
LINE
  8
0
  6
CONTINUOUS
 62
     7
 10
76.93679
 20
35.75
 11
76.43679
 21
35.75
  0
LINE
  8
0
  6
CONTINUOUS
 62
     7
 10
76.93679
 20
42.25
 11
76.43679
 21
42.25
  0
LINE
  8
0
  6
CONTINUOUS
 62
     7
 10
61.6368
 20
58.70001
 11
76.43679
 21
58.70001
  0
LINE
  8
0
  6
CONTINUOUS
 62
     7
 10
61.6368
 20
59.70001
 11
76.43679
 21
59.70001
  0
LINE
  8
0
  6
CONTINUOUS
 62
     7
 10
64.03679
 20
44.0
 11
74.03679
 21
44.0
  0
LINE
  8
0
  6
CONTINUOUS
 62
     7
 10
64.03679
 20
34.0
 11
74.03679
 21
34.0
  0
LINE
  8
0
  6
CONTINUOUS
 62
     7
 10
64.03679
 20
44.0
 11
64.03679
 21
34.0
  0
LINE
  8
0
  6
CONTINUOUS
 62
     7
 10
74.03679
 20
44.0
 11
74.03679
 21
34.0
  0
LINE
  8
0
  6
CONTINUOUS
 62
     7
 10
65.03679
 20
44.0
 11
65.03679
 21
34.0
  0
LINE
  8
0
  6
CONTINUOUS
 62
     7
 10
66.03679
 20
44.0
 11
66.03679
 21
34.0
  0
LINE
  8
0
  6
CONTINUOUS
 62
     7
 10
67.03679
 20
44.0
 11
67.03679
 21
34.0
  0
LINE
  8
0
  6
CONTINUOUS
 62
     7
 10
68.03679
 20
44.0
 11
68.03679
 21
34.0
  0
LINE
  8
0
  6
CONTINUOUS
 62
     7
 10
69.03679
 20
44.0
 11
69.03679
 21
34.0
  0
LINE
  8
0
  6
CONTINUOUS
 62
     7
 10
70.03679
 20
44.0
 11
70.03679
 21
34.0
  0
LINE
  8
0
  6
CONTINUOUS
 62
     7
 10
71.03679
 20
44.0
 11
71.03679
 21
34.0
  0
LINE
  8
0
  6
CONTINUOUS
 62
     7
 10
72.03679
 20
44.0
 11
72.03679
 21
34.0
  0
LINE
  8
0
  6
CONTINUOUS
 62
     7
 10
73.03679
 20
44.0
 11
73.03679
 21
34.0
  0
LINE
  8
0
  6
CONTINUOUS
 62
     7
 10
74.83675
 20
66.09996
 11
76.43675
 21
65.17619
  0
LINE
  8
0
  6
CONTINUOUS
 62
     7
 10
63.23677
 20
66.10001
 11
61.63678
 21
65.17625
  0
LINE
  8
0
  6
CONTINUOUS
 62
     7
 10
65.1761
 20
65.17624
 11
65.1761
 21
59.70001
  0
LINE
  8
0
  6
CONTINUOUS
 62
     7
 10
65.49984
 20
65.17624
 11
65.49984
 21
59.70001
  0
LINE
  8
0
  6
CONTINUOUS
 62
     7
 10
72.57374
 20
65.17624
 11
72.57374
 21
59.70001
  0
LINE
  8
0
  6
CONTINUOUS
 62
     7
 10
72.89748
 20
65.17624
 11
72.89748
 21
59.70001
  0
LINE
  8
0
  6
CONTINUOUS
 62
     7
 10
65.1761
 20
65.17624
 11
65.49984
 21
65.17624
  0
LINE
  8
0
  6
CONTINUOUS
 62
     7
 10
72.57374
 20
65.17624
 11
72.89748
 21
65.17624
  0
LINE
  8
0
  6
CENTER
 62
     2
 10
69.03679
 20
69.10001
 11
69.03679
 21
28.60001
  0
LINE
  8
0
  6
CONTINUOUS
 62
     7
 10
53.4368
 20
47.0
 11
53.4368
 21
22.0
  0
LINE
  8
0
  6
CONTINUOUS
 62
     7
 10
61.6368
 20
56.70001
 11
76.43679
 21
56.70001
  0
LINE
  8
0
  6
CONTINUOUS
 62
     7
 10
61.6368
 20
56.70001
 11
61.6368
 21
46.39999
  0
LINE
  8
0
  6
CONTINUOUS
 62
     7
 10
76.43679
 20
56.70001
 11
76.43679
 21
32.10001
  0
LINE
  8
0
  6
CONTINUOUS
 62
     7
 10
75.03679
 20
58.70001
 11
75.03679
 21
56.70001
  0
LINE
  8
0
  6
CONTINUOUS
 62
     7
 10
63.03679
 20
58.70001
 11
63.03679
 21
56.70001
  0
LINE
  8
0
  6
CONTINUOUS
 62
     7
 10
74.36029
 20
58.70001
 11
74.36029
 21
56.70001
  0
LINE
  8
0
  6
CONTINUOUS
 62
     7
 10
63.71329
 20
58.70001
 11
63.71329
 21
56.70001
  0
LINE
  8
0
  6
CONTINUOUS
 62
     7
 10
53.9368
 20
31.60001
 11
53.9368
 21
46.39999
  0
LINE
  8
0
  6
CONTINUOUS
 62
     7
 10
332.4367
 20
5.0
 11
308.4367
 21
5.0
  0
LINE
  8
0
  6
CENTER
 62
     2
 10
320.4367
 20
53.19998
 11
320.4367
 21
-35.94983
  0
LINE
  8
0
  6
CENTER
 62
     2
 10
312.8412
 20
-18.0
 11
307.6112
 21
-18.0
  0
LINE
  8
0
  6
CONTINUOUS
 62
     7
 10
311.4367
 20
-16.18617
 11
311.4367
 21
-19.81384
  0
LINE
  8
0
  6
CONTINUOUS
 62
     7
 10
311.4367
 20
-16.18616
 11
308.4367
 21
-16.18616
  0
LINE
  8
0
  6
CONTINUOUS
 62
     7
 10
311.4367
 20
-19.81384
 11
308.4367
 21
-19.81384
  0
LINE
  8
0
  6
CONTINUOUS
 62
     7
 10
308.4367
 20
22.0
 11
308.4367
 21
-30.0
  0
LINE
  8
0
  6
CONTINUOUS
 62
     7
 10
332.4367
 20
48.20001
 11
332.4367
 21
-30.0
  0
LINE
  8
0
  6
CONTINUOUS
 62
     7
 10
308.9367
 20
-30.5
 11
331.9367
 21
-30.5
  0
LINE
  8
0
  6
CONTINUOUS
 62
     7
 10
326.7367
 20
-25.5
 11
331.9367
 21
-25.5
  0
LINE
  8
0
  6
CENTER
 62
     2
 10
329.4367
 20
-23.70001
 11
329.4367
 21
-33.15001
  0
LINE
  8
0
  6
CONTINUOUS
 62
     7
 10
326.2367
 20
-26.0
 11
326.2367
 21
-30.0
  0
LINE
  8
0
  6
CONTINUOUS
 62
     7
 10
326.6367
 20
-26.67183
 11
326.6367
 21
-25.5
  0
LINE
  8
0
  6
CONTINUOUS
 62
     7
 10
332.2367
 20
-26.67183
 11
332.2367
 21
-25.5
  0
LINE
  8
0
  6
CONTINUOUS
 62
     7
 10
332.4367
 20
22.0
 11
301.4367
 21
22.0
  0
LINE
  8
0
  6
CONTINUOUS
 62
     7
 10
332.4367
 20
47.20001
 11
305.4367
 21
47.20001
  0
LINE
  8
0
  6
CONTINUOUS
 62
     7
 10
308.4367
 20
48.20001
 11
308.4367
 21
47.20001
  0
LINE
  8
0
  6
CONTINUOUS
 62
     7
 10
309.4367
 20
50.20001
 11
327.611
 21
50.20001
  0
LINE
  8
0
  6
CONTINUOUS
 62
     7
 10
332.4367
 20
48.20001
 11
308.4367
 21
48.20001
  0
LINE
  8
0
  6
CONTINUOUS
 62
     7
 10
308.4367
 20
48.20001
 11
309.4367
 21
50.2
  0
LINE
  8
0
  6
CONTINUOUS
 62
     7
 10
332.4366
 20
48.19996
 11
331.4366
 21
50.19995
  0
LINE
  8
0
  6
CONTINUOUS
 62
     7
 10
326.4367
 20
50.20001
 11
326.4367
 21
48.20001
  0
LINE
  8
0
  6
CENTER
 62
     2
 10
329.4367
 20
53.20001
 11
329.4367
 21
44.20001
  0
LINE
  8
0
  6
CONTINUOUS
 62
     7
 10
331.9867
 20
48.79999
 11
326.8867
 21
48.79999
  0
LINE
  8
0
  6
CONTINUOUS
 62
     7
 10
329.1367
 20
48.19998
 11
328.9759
 21
48.79998
  0
LINE
  8
0
  6
CONTINUOUS
 62
     7
 10
329.7367
 20
48.79998
 11
329.8974
 21
48.19998
  0
LINE
  8
0
  6
CONTINUOUS
 62
     7
 10
331.9867
 20
48.79999
 11
331.9867
 21
48.20001
  0
LINE
  8
0
  6
CONTINUOUS
 62
     7
 10
326.8867
 20
48.79999
 11
326.8867
 21
48.20001
  0
LINE
  8
0
  6
CONTINUOUS
 62
     7
 10
331.6867
 20
49.49374
 11
331.6867
 21
48.79999
  0
LINE
  8
0
  6
CONTINUOUS
 62
     7
 10
327.1867
 20
49.49374
 11
327.1867
 21
48.79999
  0
LINE
  8
0
  6
CONTINUOUS
 62
     7
 10
331.2625
 20
50.20001
 11
331.4367
 21
50.20001
  0
LINE
  8
0
  6
CENTER
 62
     2
 10
311.4367
 20
53.20001
 11
311.4367
 21
44.20001
  0
LINE
  8
0
  6
CONTINUOUS
 62
     7
 10
305.4367
 20
47.20001
 11
305.4367
 21
22.0
  0
LINE
  8
0
  6
CONTINUOUS
 62
     7
 10
305.4367
 20
47.0
 11
301.4367
 21
47.0
  0
LINE
  8
0
  6
CENTER
 62
     2
 10
308.4367
 20
39.0
 11
273.0367
 21
39.0
  0
LINE
  8
0
  6
CONTINUOUS
 62
     7
 10
278.4367
 20
65.17621
 11
278.4367
 21
58.70001
  0
LINE
  8
0
  6
CONTINUOUS
 62
     7
 10
293.2368
 20
65.17624
 11
293.2368
 21
58.70001
  0
LINE
  8
0
  6
CONTINUOUS
 62
     7
 10
291.6367
 20
66.10001
 11
280.0367
 21
66.10001
  0
LINE
  8
0
  6
CONTINUOUS
 62
     7
 10
277.2649
 20
36.20001
 11
277.9367
 21
36.20001
  0
LINE
  8
0
  6
CONTINUOUS
 62
     7
 10
277.2649
 20
41.79999
 11
277.9367
 21
41.79999
  0
LINE
  8
0
  6
CONTINUOUS
 62
     7
 10
277.9367
 20
35.75
 11
277.9367
 21
42.25
  0
LINE
  8
0
  6
CONTINUOUS
 62
     7
 10
277.9367
 20
35.75012
 11
278.4367
 21
35.75012
  0
LINE
  8
0
  6
CONTINUOUS
 62
     7
 10
277.9367
 20
42.25
 11
278.4367
 21
42.25
  0
LINE
  8
0
  6
CONTINUOUS
 62
     7
 10
293.2368
 20
58.70001
 11
278.4367
 21
58.70001
  0
LINE
  8
0
  6
CONTINUOUS
 62
     7
 10
293.2368
 20
59.70001
 11
278.4367
 21
59.70001
  0
LINE
  8
0
  6
CENTER
 62
     2
 10
285.8367
 20
69.10001
 11
285.8367
 21
28.60001
  0
LINE
  8
0
  6
CONTINUOUS
 62
     7
 10
290.8367
 20
44.0
 11
280.8367
 21
44.0
  0
LINE
  8
0
  6
CONTINUOUS
 62
     7
 10
290.8367
 20
34.0
 11
280.8367
 21
34.0
  0
LINE
  8
0
  6
CONTINUOUS
 62
     7
 10
290.8367
 20
44.0
 11
290.8367
 21
34.0
  0
LINE
  8
0
  6
CONTINUOUS
 62
     7
 10
280.8367
 20
44.0
 11
280.8367
 21
34.0
  0
LINE
  8
0
  6
CONTINUOUS
 62
     7
 10
289.8367
 20
44.0
 11
289.8367
 21
34.0
  0
LINE
  8
0
  6
CONTINUOUS
 62
     7
 10
288.8367
 20
44.0
 11
288.8367
 21
34.0
  0
LINE
  8
0
  6
CONTINUOUS
 62
     7
 10
287.8367
 20
44.0
 11
287.8367
 21
34.0
  0
LINE
  8
0
  6
CONTINUOUS
 62
     7
 10
286.8367
 20
44.0
 11
286.8367
 21
34.0
  0
LINE
  8
0
  6
CONTINUOUS
 62
     7
 10
285.8367
 20
44.0
 11
285.8367
 21
34.0
  0
LINE
  8
0
  6
CONTINUOUS
 62
     7
 10
284.8367
 20
44.0
 11
284.8367
 21
34.0
  0
LINE
  8
0
  6
CONTINUOUS
 62
     7
 10
283.8367
 20
44.0
 11
283.8367
 21
34.0
  0
LINE
  8
0
  6
CONTINUOUS
 62
     7
 10
282.8367
 20
44.0
 11
282.8367
 21
34.0
  0
LINE
  8
0
  6
CONTINUOUS
 62
     7
 10
281.8367
 20
44.0
 11
281.8367
 21
34.0
  0
LINE
  8
0
  6
CONTINUOUS
 62
     7
 10
280.0368
 20
66.09998
 11
278.4367
 21
65.17622
  0
LINE
  8
0
  6
CONTINUOUS
 62
     7
 10
291.6368
 20
66.10008
 11
293.2368
 21
65.17633
  0
LINE
  8
0
  6
CONTINUOUS
 62
     7
 10
289.6974
 20
65.17624
 11
289.6974
 21
59.70001
  0
LINE
  8
0
  6
CONTINUOUS
 62
     7
 10
289.3737
 20
65.17624
 11
289.3737
 21
59.70001
  0
LINE
  8
0
  6
CONTINUOUS
 62
     7
 10
282.2998
 20
65.17624
 11
282.2998
 21
59.70001
  0
LINE
  8
0
  6
CONTINUOUS
 62
     7
 10
281.976
 20
65.17624
 11
281.976
 21
59.70001
  0
LINE
  8
0
  6
CONTINUOUS
 62
     7
 10
289.6974
 20
65.17624
 11
289.3737
 21
65.17624
  0
LINE
  8
0
  6
CONTINUOUS
 62
     7
 10
282.2998
 20
65.17624
 11
281.976
 21
65.17624
  0
LINE
  8
0
  6
CONTINUOUS
 62
     7
 10
301.4367
 20
46.39999
 11
278.9367
 21
46.39999
  0
LINE
  8
0
  6
CONTINUOUS
 62
     7
 10
301.4367
 20
31.60001
 11
278.9367
 21
31.60001
  0
LINE
  8
0
  6
CONTINUOUS
 62
     7
 10
301.4367
 20
47.0
 11
301.4367
 21
22.0
  0
LINE
  8
0
  6
CONTINUOUS
 62
     7
 10
293.2368
 20
56.70001
 11
278.4367
 21
56.70001
  0
LINE
  8
0
  6
CONTINUOUS
 62
     7
 10
278.4367
 20
56.70001
 11
278.4367
 21
32.10001
  0
LINE
  8
0
  6
CONTINUOUS
 62
     7
 10
293.2368
 20
56.70001
 11
293.2368
 21
46.39999
  0
LINE
  8
0
  6
CONTINUOUS
 62
     7
 10
291.8367
 20
58.70001
 11
291.8367
 21
56.70001
  0
LINE
  8
0
  6
CONTINUOUS
 62
     7
 10
279.8367
 20
58.70001
 11
279.8367
 21
56.70001
  0
LINE
  8
0
  6
CONTINUOUS
 62
     7
 10
280.5132
 20
58.70001
 11
280.5132
 21
56.70001
  0
LINE
  8
0
  6
CONTINUOUS
 62
     7
 10
291.1602
 20
58.70001
 11
291.1602
 21
56.70001
  0
LINE
  8
0
  6
CONTINUOUS
 62
     7
 10
300.9368
 20
31.60001
 11
300.9368
 21
46.39999
  0
LINE
  8
0
  6
CONTINUOUS
 62
     7
 10
170.4368
 20
-144.3001
 11
173.4368
 21
-144.3001
  0
LINE
  8
0
  6
CONTINUOUS
 62
     7
 10
182.4368
 20
-155.9001
 11
185.4368
 21
-155.9001
  0
LINE
  8
0
  6
CONTINUOUS
 62
     7
 10
176.6368
 20
-141.1001
 11
176.6368
 21
-138.1001
  0
LINE
  8
0
  6
CONTINUOUS
 62
     7
 10
179.2368
 20
-159.1001
 11
179.2368
 21
-162.1001
  0
LINE
  8
0
  6
CENTER
 62
     2
 10
168.9368
 20
-150.1001
 11
186.9368
 21
-150.1001
  0
LINE
  8
0
  6
CENTER
 62
     2
 10
177.9368
 20
-103.9245
 11
177.9368
 21
-164.1001
  0
LINE
  8
0
  6
CONTINUOUS
 62
     7
 10
171.4368
 20
-148.1001
 11
184.4368
 21
-148.1001
  0
LINE
  8
0
  6
CONTINUOUS
 62
     7
 10
171.4368
 20
-152.1001
 11
184.4368
 21
-152.1001
  0
LINE
  8
0
  6
CONTINUOUS
 62
     7
 10
184.4368
 20
-148.1001
 11
184.4368
 21
-152.1001
  0
LINE
  8
0
  6
CONTINUOUS
 62
     7
 10
171.4368
 20
-148.1001
 11
171.4368
 21
-152.1001
  0
LINE
  8
0
  6
CONTINUOUS
 62
     7
 10
172.1488
 20
-151.0699
 11
174.1371
 21
-151.0699
  0
LINE
  8
0
  6
CONTINUOUS
 62
     7
 10
172.1488
 20
-151.6001
 11
174.844
 21
-151.6001
  0
LINE
  8
0
  6
CONTINUOUS
 62
     7
 10
172.1488
 20
-149.5235
 11
174.1371
 21
-149.5235
  0
LINE
  8
0
  6
CONTINUOUS
 62
     7
 10
172.1489
 20
-148.9933
 11
172.1489
 21
-149.5235
  0
LINE
  8
0
  6
CONTINUOUS
 62
     7
 10
174.844
 20
-149.3467
 11
174.844
 21
-151.6001
  0
LINE
  8
0
  6
CONTINUOUS
 62
     7
 10
174.1371
 20
-149.5235
 11
174.1371
 21
-151.0699
  0
LINE
  8
0
  6
CONTINUOUS
 62
     7
 10
175.2416
 20
-148.9933
 11
175.2416
 21
-149.5235
  0
LINE
  8
0
  6
CONTINUOUS
 62
     7
 10
177.7601
 20
-149.5235
 11
177.7601
 21
-151.2466
  0
LINE
  8
0
  6
CONTINUOUS
 62
     7
 10
177.0531
 20
-149.5235
 11
177.0531
 21
-151.0699
  0
LINE
  8
0
  6
CONTINUOUS
 62
     7
 10
172.1489
 20
-151.0699
 11
172.1489
 21
-151.6001
  0
LINE
  8
0
  6
CONTINUOUS
 62
     7
 10
175.2416
 20
-148.9933
 11
175.9401
 21
-148.9933
  0
LINE
  8
0
  6
CONTINUOUS
 62
     7
 10
175.2416
 20
-151.6001
 11
175.7905
 21
-151.6001
  0
LINE
  8
0
  6
CONTINUOUS
 62
     7
 10
175.2417
 20
-151.6001
 11
175.7981
 21
-149.5235
  0
LINE
  8
0
  6
CONTINUOUS
 62
     7
 10
175.2416
 20
-149.5235
 11
175.7981
 21
-149.5235
  0
LINE
  8
0
  6
CONTINUOUS
 62
     7
 10
175.7906
 20
-151.6001
 11
176.347
 21
-149.5235
  0
LINE
  8
0
  6
CONTINUOUS
 62
     7
 10
176.5229
 20
-151.0699
 11
177.0531
 21
-151.0699
  0
LINE
  8
0
  6
CONTINUOUS
 62
     7
 10
176.5229
 20
-151.0699
 11
176.665
 21
-151.6001
  0
LINE
  8
0
  6
CONTINUOUS
 62
     7
 10
176.665
 20
-151.6001
 11
177.4066
 21
-151.6001
  0
LINE
  8
0
  6
CONTINUOUS
 62
     7
 10
176.347
 20
-149.5235
 11
177.0531
 21
-149.5235
  0
LINE
  8
0
  6
CONTINUOUS
 62
     7
 10
176.489
 20
-148.9933
 11
177.2298
 21
-148.9933
  0
LINE
  8
0
  6
CONTINUOUS
 62
     7
 10
175.9403
 20
-148.9933
 11
176.0457
 21
-148.6001
  0
LINE
  8
0
  6
CONTINUOUS
 62
     7
 10
176.489
 20
-148.9933
 11
176.5944
 21
-148.6
  0
LINE
  8
0
  6
CONTINUOUS
 62
     7
 10
178.2019
 20
-148.9933
 11
179.0414
 21
-148.9933
  0
LINE
  8
0
  6
CONTINUOUS
 62
     7
 10
178.2019
 20
-149.5235
 11
180.2636
 21
-149.5235
  0
LINE
  8
0
  6
CONTINUOUS
 62
     7
 10
179.0414
 20
-151.6001
 11
179.7483
 21
-151.6001
  0
LINE
  8
0
  6
CONTINUOUS
 62
     7
 10
178.2019
 20
-148.9933
 11
178.2019
 21
-149.5235
  0
LINE
  8
0
  6
CONTINUOUS
 62
     7
 10
180.8087
 20
-150.4849
 11
180.8087
 21
-151.0699
  0
LINE
  8
0
  6
CONTINUOUS
 62
     7
 10
178.2019
 20
-151.07
 11
179.0414
 21
-150.6785
  0
LINE
  8
0
  6
CONTINUOUS
 62
     7
 10
178.2019
 20
-150.4849
 11
180.2636
 21
-149.5235
  0
LINE
  8
0
  6
CONTINUOUS
 62
     7
 10
178.2019
 20
-150.4849
 11
178.2019
 21
-151.0699
  0
LINE
  8
0
  6
CONTINUOUS
 62
     7
 10
179.7482
 20
-150.5754
 11
180.8087
 21
-151.0698
  0
LINE
  8
0
  6
CONTINUOUS
 62
     7
 10
180.1326
 20
-150.1696
 11
180.8087
 21
-150.4849
  0
LINE
  8
0
  6
CONTINUOUS
 62
     7
 10
180.8087
 20
-149.3467
 11
180.8087
 21
-149.6291
  0
LINE
  8
0
  6
CONTINUOUS
 62
     7
 10
179.0414
 20
-148.6001
 11
179.0414
 21
-148.9933
  0
LINE
  8
0
  6
CONTINUOUS
 62
     7
 10
179.7483
 20
-148.6001
 11
179.7483
 21
-148.9933
  0
LINE
  8
0
  6
CONTINUOUS
 62
     7
 10
179.7483
 20
-148.9933
 11
180.4552
 21
-148.9933
  0
LINE
  8
0
  6
CONTINUOUS
 62
     7
 10
179.0414
 20
-150.6784
 11
179.0414
 21
-151.6001
  0
LINE
  8
0
  6
CONTINUOUS
 62
     7
 10
179.7483
 20
-150.5754
 11
179.7483
 21
-151.6001
  0
LINE
  8
0
  6
CONTINUOUS
 62
     7
 10
180.1326
 20
-150.1697
 11
180.6046
 21
-149.9496
  0
LINE
  8
0
  6
CONTINUOUS
 62
     7
 10
183.1945
 20
-148.7591
 11
183.7247
 21
-148.7591
  0
LINE
  8
0
  6
CONTINUOUS
 62
     7
 10
181.0296
 20
-149.8543
 11
181.0296
 21
-150.4249
  0
LINE
  8
0
  6
CONTINUOUS
 62
     7
 10
183.7247
 20
-148.7591
 11
183.7247
 21
-148.9933
  0
LINE
  8
0
  6
CONTINUOUS
 62
     7
 10
183.1945
 20
-148.7591
 11
183.1945
 21
-148.8734
  0
LINE
  8
0
  6
CONTINUOUS
 62
     7
 10
182.4876
 20
-149.845
 11
182.4876
 21
-151.6001
  0
LINE
  8
0
  6
CONTINUOUS
 62
     7
 10
181.0296
 20
-149.8543
 11
183.0832
 21
-149.0376
  0
LINE
  8
0
  6
CONTINUOUS
 62
     7
 10
181.0296
 20
-150.4249
 11
182.4876
 21
-149.845
  0
LINE
  8
0
  6
CONTINUOUS
 62
     7
 10
182.4876
 20
-151.6001
 11
183.1945
 21
-151.6001
  0
LINE
  8
0
  6
CONTINUOUS
 62
     7
 10
183.1945
 20
-149.5639
 11
183.1945
 21
-151.6001
  0
LINE
  8
0
  6
CONTINUOUS
 62
     7
 10
183.1945
 20
-149.5639
 11
183.3905
 21
-149.4859
  0
LINE
  8
0
  6
CONTINUOUS
 62
     7
 10
176.0455
 20
-148.6001
 11
176.5944
 21
-148.6001
  0
LINE
  8
0
  6
CONTINUOUS
 62
     7
 10
177.4729
 20
-148.6001
 11
177.6989
 21
-148.6001
  0
LINE
  8
0
  6
CONTINUOUS
 62
     7
 10
179.0414
 20
-148.6001
 11
179.7483
 21
-148.6001
  0
LINE
  8
0
  6
CONTINUOUS
 62
     7
 10
177.4729
 20
-148.9535
 11
177.6989
 21
-148.9535
  0
LINE
  8
0
  6
CONTINUOUS
 62
     7
 10
177.4729
 20
-148.6001
 11
177.4729
 21
-148.9535
  0
LINE
  8
0
  6
CONTINUOUS
 62
     7
 10
177.6989
 20
-148.6001
 11
177.6989
 21
-148.9535
  0
LINE
  8
0
  6
CONTINUOUS
 62
     7
 10
177.8566
 20
-148.6001
 11
177.8566
 21
-148.9535
  0
LINE
  8
0
  6
CONTINUOUS
 62
     7
 10
178.0826
 20
-148.6001
 11
178.0826
 21
-148.9535
  0
LINE
  8
0
  6
CONTINUOUS
 62
     7
 10
177.8566
 20
-148.6001
 11
178.0826
 21
-148.6001
  0
LINE
  8
0
  6
CONTINUOUS
 62
     7
 10
177.8566
 20
-148.9535
 11
178.0826
 21
-148.9535
  0
LINE
  8
0
  6
CONTINUOUS
 62
     7
 10
185.4368
 20
-161.6001
 11
185.4368
 21
-131.1001
  0
LINE
  8
0
  6
CONTINUOUS
 62
     7
 10
170.4368
 20
-161.6001
 11
170.4368
 21
-131.1001
  0
LINE
  8
0
  6
CONTINUOUS
 62
     7
 10
170.9368
 20
-162.1001
 11
184.9368
 21
-162.1001
  0
LINE
  8
0
  6
CONTINUOUS
 62
     7
 10
170.4368
 20
-138.1001
 11
185.4368
 21
-138.1001
  0
LINE
  8
0
  6
CONTINUOUS
 62
     7
 10
172.1488
 20
-148.9933
 11
174.4905
 21
-148.9933
  0
LINE
  8
0
  6
CONTINUOUS
 62
     7
 10
177.7601
 20
-149.5235
 11
177.7601
 21
-151.2466
  0
LINE
  8
0
  6
CONTINUOUS
 62
     7
 10
176.665
 20
-151.6001
 11
177.4066
 21
-151.6001
  0
LINE
  8
0
  6
CONTINUOUS
 62
     7
 10
176.489
 20
-148.9933
 11
177.2298
 21
-148.9933
  0
LINE
  8
0
  6
CONTINUOUS
 62
     7
 10
180.8087
 20
-149.3467
 11
180.8087
 21
-149.6291
  0
LINE
  8
0
  6
CONTINUOUS
 62
     7
 10
183.1945
 20
-148.7591
 11
183.7247
 21
-148.7591
  0
LINE
  8
0
  6
CONTINUOUS
 62
     7
 10
183.7247
 20
-148.7591
 11
183.7247
 21
-148.9933
  0
LINE
  8
0
  6
CONTINUOUS
 62
     7
 10
183.1945
 20
-148.7591
 11
183.1945
 21
-148.8734
  0
LINE
  8
0
  6
CONTINUOUS
 62
     7
 10
181.0296
 20
-149.8543
 11
183.0832
 21
-149.0376
  0
LINE
  8
0
  6
CONTINUOUS
 62
     7
 10
183.1945
 20
-149.5639
 11
183.1945
 21
-151.6001
  0
LINE
  8
0
  6
CONTINUOUS
 62
     7
 10
183.1945
 20
-149.5637
 11
183.3904
 21
-149.4858
  0
LINE
  8
0
  6
CENTER
 62
     2
 10
173.4368
 20
-145.279
 11
173.4368
 21
-136.9321
  0
LINE
  8
0
  6
CENTER
 62
     2
 10
169.4045
 20
-141.1001
 11
177.3465
 21
-141.1001
  0
LINE
  8
0
  6
CONTINUOUS
 62
     7
 10
172.5883
 20
-142.3729
 11
172.164
 21
-141.9486
  0
LINE
  8
0
  6
CONTINUOUS
 62
     7
 10
174.7096
 20
-140.2515
 11
174.2854
 21
-139.8273
  0
LINE
  8
0
  6
CONTINUOUS
 62
     7
 10
174.2854
 20
-142.3729
 11
173.8611
 21
-141.9486
  0
LINE
  8
0
  6
CONTINUOUS
 62
     7
 10
174.7096
 20
-141.9486
 11
174.2854
 21
-141.5243
  0
LINE
  8
0
  6
CONTINUOUS
 62
     7
 10
174.2854
 20
-142.3729
 11
174.7096
 21
-141.9486
  0
LINE
  8
0
  6
CONTINUOUS
 62
     7
 10
172.164
 20
-140.2516
 11
172.5883
 21
-139.8273
  0
LINE
  8
0
  6
CONTINUOUS
 62
     7
 10
172.5883
 20
-142.3729
 11
173.0126
 21
-141.9487
  0
LINE
  8
0
  6
CONTINUOUS
 62
     7
 10
172.1641
 20
-141.9487
 11
172.5883
 21
-141.5244
  0
LINE
  8
0
  6
CONTINUOUS
 62
     7
 10
172.5883
 20
-140.6758
 11
172.1641
 21
-140.2515
  0
LINE
  8
0
  6
CONTINUOUS
 62
     7
 10
173.0126
 20
-140.2515
 11
172.5883
 21
-139.8273
  0
LINE
  8
0
  6
CONTINUOUS
 62
     7
 10
174.2854
 20
-140.6759
 11
174.7096
 21
-140.2516
  0
LINE
  8
0
  6
CONTINUOUS
 62
     7
 10
173.8611
 20
-140.2516
 11
174.2854
 21
-139.8273
  0
LINE
  8
0
  6
CENTER
 62
     2
 10
182.4368
 20
-163.2791
 11
182.4368
 21
-154.9321
  0
LINE
  8
0
  6
CENTER
 62
     2
 10
178.4045
 20
-159.1001
 11
186.3465
 21
-159.1001
  0
LINE
  8
0
  6
CONTINUOUS
 62
     7
 10
181.5883
 20
-160.3728
 11
181.164
 21
-159.9486
  0
LINE
  8
0
  6
CONTINUOUS
 62
     7
 10
183.7096
 20
-158.2516
 11
183.2854
 21
-157.8273
  0
LINE
  8
0
  6
CONTINUOUS
 62
     7
 10
183.2854
 20
-160.3729
 11
182.8611
 21
-159.9486
  0
LINE
  8
0
  6
CONTINUOUS
 62
     7
 10
183.7096
 20
-159.9486
 11
183.2854
 21
-159.5243
  0
LINE
  8
0
  6
CONTINUOUS
 62
     7
 10
183.2854
 20
-160.3729
 11
183.7096
 21
-159.9486
  0
LINE
  8
0
  6
CONTINUOUS
 62
     7
 10
181.1641
 20
-158.2516
 11
181.5883
 21
-157.8273
  0
LINE
  8
0
  6
CONTINUOUS
 62
     7
 10
181.5883
 20
-160.3729
 11
182.0126
 21
-159.9487
  0
LINE
  8
0
  6
CONTINUOUS
 62
     7
 10
181.1641
 20
-159.9487
 11
181.5883
 21
-159.5244
  0
LINE
  8
0
  6
CONTINUOUS
 62
     7
 10
181.5883
 20
-158.6758
 11
181.164
 21
-158.2515
  0
LINE
  8
0
  6
CONTINUOUS
 62
     7
 10
182.0126
 20
-158.2515
 11
181.5883
 21
-157.8273
  0
LINE
  8
0
  6
CONTINUOUS
 62
     7
 10
183.2854
 20
-158.6759
 11
183.7097
 21
-158.2516
  0
LINE
  8
0
  6
CONTINUOUS
 62
     7
 10
182.8611
 20
-158.2516
 11
183.2854
 21
-157.8274
  0
LINE
  8
0
  6
CONTINUOUS
 62
     7
 10
170.4368
 20
-135.1001
 11
185.4368
 21
-135.1001
  0
LINE
  8
0
  6
CONTINUOUS
 62
     7
 10
170.4368
 20
-131.1001
 11
185.4368
 21
-131.1001
  0
LINE
  8
0
  6
CONTINUOUS
 62
     7
 10
185.3368
 20
-131.1001
 11
185.3368
 21
-108.6001
  0
LINE
  8
0
  6
CONTINUOUS
 62
     7
 10
170.5368
 20
-131.1001
 11
170.5368
 21
-108.6001
  0
LINE
  8
0
  6
CONTINUOUS
 62
     7
 10
171.0368
 20
-108.1001
 11
184.8368
 21
-108.1001
  0
LINE
  8
0
  6
CONTINUOUS
 62
     7
 10
180.7368
 20
-106.9282
 11
180.7368
 21
-107.6001
  0
LINE
  8
0
  6
CONTINUOUS
 62
     7
 10
175.1368
 20
-106.9283
 11
175.1368
 21
-107.6001
  0
LINE
  8
0
  6
CONTINUOUS
 62
     7
 10
181.1868
 20
-107.6001
 11
174.6868
 21
-107.6001
  0
LINE
  8
0
  6
CONTINUOUS
 62
     7
 10
181.1868
 20
-107.6001
 11
181.1868
 21
-108.1001
  0
LINE
  8
0
  6
CONTINUOUS
 62
     7
 10
174.6868
 20
-107.6001
 11
174.6868
 21
-108.1001
  0
LINE
  8
0
  6
CENTER
 62
     2
 10
167.5368
 20
-115.5001
 11
188.3368
 21
-115.5001
  0
LINE
  8
0
  6
CONTINUOUS
 62
     7
 10
170.5368
 20
-130.6001
 11
185.3368
 21
-130.6001
  0
ARC
  8
0
  6
CONTINUOUS
 62
     7
 10
273.0354
 20
-235.0457
 40
2.21188
 50
0.0
 51
89.99999
  0
ARC
  8
0
  6
CONTINUOUS
 62
     7
 10
291.2836
 20
-246.9346
 40
2.2119
 50
270.0
 51
0.0
  0
ARC
  8
0
  6
CONTINUOUS
 62
     7
 10
290.1776
 20
-236.1516
 40
3.31784
 50
0.0
 51
89.99999
  0
ARC
  8
0
  6
CONTINUOUS
 62
     7
 10
310.3611
 20
-236.8128
 40
2.21189
 50
295.0
 51
0.0
  0
ARC
  8
0
  6
CONTINUOUS
 62
     7
 10
310.3611
 20
-235.0457
 40
2.21188
 50
0.0
 51
89.99999
  0
ARC
  8
0
  6
CONTINUOUS
 62
     7
 10
327.5034
 20
-232.8338
 40
3.31784
 50
291.6884
 51
0.0
  0
ARC
  8
0
  6
CONTINUOUS
 62
     7
 10
326.3973
 20
-232.0834
 40
1.10595
 50
291.689
 51
0.0
  0
ARC
  8
0
  6
CONTINUOUS
 62
     7
 10
-205.9368
 20
-30.0
 40
0.5
 50
180.0
 51
270.0
  0
ARC
  8
0
  6
CONTINUOUS
 62
     7
 10
-182.9368
 20
-30.0
 40
0.5
 50
299.9999
 51
0.0
  0
CIRCLE
  8
0
  6
CONTINUOUS
 62
     7
 10
-201.4368
 20
-4.0
 40
1.6
  0
CIRCLE
  8
0
  6
CONTINUOUS
 62
     7
 10
-201.4368
 20
-14.0
 40
1.6
  0
ARC
  8
0
  6
CONTINUOUS
 62
     7
 10
-188.1368
 20
-26.0
 40
0.5
 50
95.73952
 51
180.0
  0
ARC
  8
0
  6
CONTINUOUS
 62
     7
 10
-189.1368
 20
-30.0
 40
0.5
 50
270.0
 51
0.0
  0
ARC
  8
0
  6
CONTINUOUS
 62
     7
 10
-182.9368
 20
-25.0
 40
0.5
 50
270.0
 51
0.0
  0
ARC
  8
0
  6
CONTINUOUS
 62
     7
 10
-185.4368
 20
44.50002
 40
6.0
 50
73.80862
 51
106.1914
  0
ARC
  8
0
  6
CONTINUOUS
 62
     7
 10
-183.9868
 20
49.49376
 40
0.8
 50
0.0
 51
73.8082
  0
ARC
  8
0
  6
CONTINUOUS
 62
     7
 10
-186.8868
 20
49.49376
 40
0.8
 50
106.1918
 51
180.0
  0
ARC
  8
0
  6
CONTINUOUS
 62
     7
 10
-203.4368
 20
44.49998
 40
6.0
 50
73.80862
 51
106.1914
  0
ARC
  8
0
  6
CONTINUOUS
 62
     7
 10
-204.8868
 20
49.49373
 40
0.8
 50
106.1918
 51
118.0138
  0
ARC
  8
0
  6
CONTINUOUS
 62
     7
 10
-201.9868
 20
49.49373
 40
0.8
 50
61.98621
 51
73.8082
  0
ARC
  8
0
  6
CONTINUOUS
 62
     7
 10
-152.9368
 20
32.10002
 40
0.5
 50
270.0
 51
0.0
  0
ARC
  8
0
  6
CONTINUOUS
 62
     7
 10
-152.9368
 20
45.90001
 40
0.5
 50
0.0
 51
89.99999
  0
ARC
  8
0
  6
CONTINUOUS
 62
     7
 10
-155.0368
 20
39.00002
 40
5.0
 50
330.5077
 51
29.49232
  0
ARC
  8
0
  6
CONTINUOUS
 62
     7
 10
-151.265
 20
36.86668
 40
0.66667
 50
270.0
 51
330.5074
  0
ARC
  8
0
  6
CONTINUOUS
 62
     7
 10
-151.265
 20
41.13335
 40
0.66666
 50
29.49256
 51
89.99999
  0
ARC
  8
0
  6
CONTINUOUS
 62
     7
 10
-154.2064
 20
62.42262
 40
3.27324
 50
62.72894
 51
122.7273
  0
ARC
  8
0
  6
CONTINUOUS
 62
     7
 10
-159.8368
 20
53.39839
 40
12.29748
 50
73.28477
 51
106.7153
  0
ARC
  8
0
  6
CONTINUOUS
 62
     7
 10
-165.4671
 20
62.42259
 40
3.27326
 50
57.27284
 51
117.273
  0
ARC
  8
0
  6
CONTINUOUS
 62
     7
 10
-185.4368
 20
121.0
 40
3.0
 50
89.99999
 51
180.0
  0
ARC
  8
0
  6
CONTINUOUS
 62
     7
 10
-203.4368
 20
130.0
 40
3.0
 50
270.0
 51
0.0
  0
ARC
  8
0
  6
CONTINUOUS
 62
     7
 10
-185.4368
 20
121.0
 40
2.55
 50
276.7564
 51
263.2436
  0
ARC
  8
0
  6
CONTINUOUS
 62
     7
 10
-203.4368
 20
130.0
 40
2.55
 50
96.7564
 51
83.24359
  0
CIRCLE
  8
0
  6
CONTINUOUS
 62
     7
 10
-185.4368
 20
121.0
 40
2.25
  0
ARC
  8
0
  6
CONTINUOUS
 62
     7
 10
-185.4368
 20
122.103
 40
0.52
 50
225.0006
 51
314.9994
  0
ARC
  8
0
  6
CONTINUOUS
 62
     7
 10
-186.5399
 20
121.0
 40
0.52
 50
314.9994
 51
45.0006
  0
ARC
  8
0
  6
CONTINUOUS
 62
     7
 10
-184.3337
 20
121.0
 40
0.52
 50
134.9994
 51
225.0006
  0
ARC
  8
0
  6
CONTINUOUS
 62
     7
 10
-185.4368
 20
119.8969
 40
0.52
 50
45.0006
 51
134.9994
  0
CIRCLE
  8
0
  6
CONTINUOUS
 62
     7
 10
-203.4368
 20
130.0
 40
2.25
  0
ARC
  8
0
  6
CONTINUOUS
 62
     7
 10
-203.4368
 20
131.103
 40
0.51999
 50
225.0
 51
315.0
  0
ARC
  8
0
  6
CONTINUOUS
 62
     7
 10
-204.5398
 20
130.0
 40
0.51999
 50
315.0
 51
45.0
  0
ARC
  8
0
  6
CONTINUOUS
 62
     7
 10
-202.3337
 20
130.0
 40
0.51999
 50
135.0
 51
225.0
  0
ARC
  8
0
  6
CONTINUOUS
 62
     7
 10
-203.4368
 20
128.8969
 40
0.51999
 50
45.0
 51
135.0
  0
ARC
  8
0
  6
CONTINUOUS
 62
     7
 10
-205.9368
 20
132.5
 40
0.5
 50
89.99999
 51
180.0
  0
ARC
  8
0
  6
CONTINUOUS
 62
     7
 10
-205.9368
 20
118.5
 40
0.5
 50
180.0
 51
270.0
  0
CIRCLE
  8
0
  6
CONTINUOUS
 62
     7
 10
-159.8368
 20
125.5
 40
7.4
  0
CIRCLE
  8
0
  6
CONTINUOUS
 62
     7
 10
-159.8368
 20
125.5
 40
3.8
  0
CIRCLE
  8
0
  6
CONTINUOUS
 62
     7
 10
-159.8368
 20
125.5
 40
5.8
  0
ARC
  8
0
  6
CONTINUOUS
 62
     7
 10
-152.9368
 20
118.6
 40
0.5
 50
270.0
 51
0.0
  0
ARC
  8
0
  6
CONTINUOUS
 62
     7
 10
-155.0367
 20
125.5
 40
5.0
 50
330.5077
 51
29.49236
  0
ARC
  8
0
  6
CONTINUOUS
 62
     7
 10
-151.2649
 20
127.6333
 40
0.66666
 50
29.49227
 51
89.99999
  0
ARC
  8
0
  6
CONTINUOUS
 62
     7
 10
-151.2649
 20
123.3666
 40
0.66666
 50
270.0
 51
330.5077
  0
ARC
  8
0
  6
CONTINUOUS
 62
     7
 10
-152.9368
 20
132.3999
 40
0.5
 50
0.0
 51
89.99999
  0
ARC
  8
0
  6
CONTINUOUS
 62
     7
 10
-313.9368
 20
-30.00008
 40
0.5
 50
180.0
 51
240.0
  0
ARC
  8
0
  6
CONTINUOUS
 62
     7
 10
-299.9368
 20
-30.00008
 40
0.5
 50
270.0
 51
0.0
  0
CIRCLE
  8
0
  6
CONTINUOUS
 62
     7
 10
-309.9368
 20
0.99992
 40
1.75
  0
CIRCLE
  8
0
  6
CONTINUOUS
 62
     7
 10
-306.9368
 20
-9.00008
 40
1.75
  0
CIRCLE
  8
0
  6
CONTINUOUS
 62
     7
 10
-303.9368
 20
-19.00008
 40
1.75
  0
CIRCLE
  8
0
  6
CONTINUOUS
 62
     7
 10
-309.9368
 20
0.99992
 40
2.5
  0
CIRCLE
  8
0
  6
CONTINUOUS
 62
     7
 10
-306.9368
 20
-9.00008
 40
2.5
  0
CIRCLE
  8
0
  6
CONTINUOUS
 62
     7
 10
-303.9368
 20
-19.00008
 40
2.5
  0
CIRCLE
  8
0
  6
CONTINUOUS
 62
     7
 10
-312.4368
 20
-18.00008
 40
1.4
  0
CIRCLE
  8
0
  6
CONTINUOUS
 62
     7
 10
-301.4368
 20
-0.00008
 40
1.4
  0
ARC
  8
0
  6
CONTINUOUS
 62
     7
 10
-308.7368
 20
-26.00008
 40
0.5
 50
0.0
 51
89.99999
  0
ARC
  8
0
  6
CONTINUOUS
 62
     7
 10
-307.7368
 20
-30.00008
 40
0.5
 50
180.0
 51
270.0
  0
ARC
  8
0
  6
CONTINUOUS
 62
     7
 10
-313.9368
 20
-25.00008
 40
0.5
 50
180.0
 51
270.0
  0
CIRCLE
  8
0
  6
CONTINUOUS
 62
     7
 10
-306.9368
 20
13.69994
 40
2.0
  0
CIRCLE
  8
0
  6
CONTINUOUS
 62
     7
 10
-306.9368
 20
13.69994
 40
2.65
  0
ARC
  8
0
  6
CONTINUOUS
 62
     7
 10
-310.383
 20
42.95323
 40
0.35345
 50
0.0
 51
89.99999
  0
ARC
  8
0
  6
CONTINUOUS
 62
     7
 10
-307.4669
 20
41.05339
 40
0.35346
 50
270.0
 51
0.0
  0
ARC
  8
0
  6
CONTINUOUS
 62
     7
 10
-307.6437
 20
42.7765
 40
0.53018
 50
0.0
 51
89.99999
  0
ARC
  8
0
  6
CONTINUOUS
 62
     7
 10
-304.4184
 20
42.95323
 40
0.35345
 50
0.0
 51
89.99999
  0
ARC
  8
0
  6
CONTINUOUS
 62
     7
 10
-304.4184
 20
42.67085
 40
0.35347
 50
295.0005
 51
0.0
  0
ARC
  8
0
  6
CONTINUOUS
 62
     7
 10
-301.679
 20
43.30669
 40
0.53019
 50
291.6869
 51
0.0
  0
ARC
  8
0
  6
CONTINUOUS
 62
     7
 10
-301.8558
 20
43.42662
 40
0.17673
 50
291.687
 51
0.0
  0
ARC
  8
0
  6
CONTINUOUS
 62
     7
 10
-312.8868
 20
49.49364
 40
0.8
 50
106.1918
 51
180.0
  0
ARC
  8
0
  6
CONTINUOUS
 62
     7
 10
-311.4368
 20
44.49992
 40
6.0
 50
73.80876
 51
106.1912
  0
ARC
  8
0
  6
CONTINUOUS
 62
     7
 10
-309.9868
 20
49.49367
 40
0.79999
 50
0.0
 51
73.8082
  0
ARC
  8
0
  6
CONTINUOUS
 62
     7
 10
-302.4368
 20
44.49992
 40
6.0
 50
73.80876
 51
106.1912
  0
ARC
  8
0
  6
CONTINUOUS
 62
     7
 10
-303.8868
 20
49.49367
 40
0.8
 50
106.1918
 51
118.0148
  0
ARC
  8
0
  6
CONTINUOUS
 62
     7
 10
-300.9868
 20
49.49367
 40
0.80001
 50
61.98524
 51
73.8082
  0
ARC
  8
0
  6
CONTINUOUS
 62
     7
 10
-303.5933
 20
55.8484
 40
9.84738
 50
71.30395
 51
108.696
  0
ARC
  8
0
  6
CONTINUOUS
 62
     7
 10
-310.2802
 20
55.8484
 40
9.84738
 50
71.30395
 51
108.696
  0
ARC
  8
0
  6
CONTINUOUS
 62
     7
 10
-57.93671
 20
-30.00003
 40
0.5
 50
180.0
 51
240.0
  0
ARC
  8
0
  6
CONTINUOUS
 62
     7
 10
-43.93671
 20
-30.00003
 40
0.5
 50
270.0
 51
0.0
  0
CIRCLE
  8
0
  6
CONTINUOUS
 62
     7
 10
-53.93671
 20
-14.00003
 40
1.75
  0
CIRCLE
  8
0
  6
CONTINUOUS
 62
     7
 10
-47.93671
 20
-4.00003
 40
1.75
  0
CIRCLE
  8
0
  6
CONTINUOUS
 62
     7
 10
-47.93671
 20
-4.00003
 40
2.5
  0
CIRCLE
  8
0
  6
CONTINUOUS
 62
     7
 10
-53.93671
 20
-14.00003
 40
2.5
  0
CIRCLE
  8
0
  6
CONTINUOUS
 62
     7
 10
-56.43671
 20
-0.00003
 40
1.4
  0
CIRCLE
  8
0
  6
CONTINUOUS
 62
     7
 10
-45.43671
 20
-18.00003
 40
1.4
  0
ARC
  8
0
  6
CONTINUOUS
 62
     7
 10
-45.43671
 20
-18.00003
 40
2.7
 50
42.20544
 51
317.7946
  0
ARC
  8
0
  6
CONTINUOUS
 62
     7
 10
-56.43671
 20
-0.00003
 40
2.7
 50
0.0
 51
137.7946
  0
ARC
  8
0
  6
CONTINUOUS
 62
     7
 10
-56.43671
 20
-0.00003
 40
2.7
 50
222.2054
 51
0.0
  0
CIRCLE
  8
0
  6
CONTINUOUS
 62
     7
 10
-50.93671
 20
18.49998
 40
1.65
  0
ARC
  8
0
  6
CONTINUOUS
 62
     7
 10
-52.73669
 20
-26.00003
 40
0.5
 50
0.0
 51
84.26092
  0
ARC
  8
0
  6
CONTINUOUS
 62
     7
 10
-57.93671
 20
-25.00003
 40
0.5
 50
180.0
 51
270.0
  0
ARC
  8
0
  6
CONTINUOUS
 62
     7
 10
-51.73669
 20
-30.00003
 40
0.5
 50
180.0
 51
270.0
  0
ARC
  8
0
  6
CONTINUOUS
 62
     7
 10
-57.83673
 20
32.09996
 40
0.5
 50
180.0
 51
270.0
  0
ARC
  8
0
  6
CONTINUOUS
 62
     7
 10
-44.03668
 20
32.09996
 40
0.5
 50
270.0
 51
0.0
  0
ARC
  8
0
  6
CONTINUOUS
 62
     7
 10
-57.83673
 20
45.89998
 40
0.5
 50
89.99999
 51
180.0
  0
ARC
  8
0
  6
CONTINUOUS
 62
     7
 10
-44.03668
 20
45.89998
 40
0.5
 50
0.0
 51
89.99999
  0
CIRCLE
  8
0
  6
CONTINUOUS
 62
     7
 10
-50.93671
 20
38.99998
 40
2.8
  0
ARC
  8
0
  6
CONTINUOUS
 62
     7
 10
-50.93671
 20
40.27275
 40
0.6
 50
225.0
 51
315.0
  0
ARC
  8
0
  6
CONTINUOUS
 62
     7
 10
-52.20947
 20
38.99998
 40
0.6
 50
315.0
 51
45.0
  0
ARC
  8
0
  6
CONTINUOUS
 62
     7
 10
-49.66394
 20
38.99998
 40
0.6
 50
135.0
 51
225.0
  0
ARC
  8
0
  6
CONTINUOUS
 62
     7
 10
-50.93671
 20
37.72719
 40
0.6
 50
45.0
 51
135.0
  0
CIRCLE
  8
0
  6
CONTINUOUS
 62
     7
 10
-50.93671
 20
38.99998
 40
3.25
  0
ARC
  8
0
  6
CONTINUOUS
 62
     7
 10
-47.59326
 20
55.84843
 40
9.84738
 50
71.30401
 51
108.696
  0
ARC
  8
0
  6
CONTINUOUS
 62
     7
 10
-54.28015
 20
55.84843
 40
9.84738
 50
71.30401
 51
108.696
  0
ARC
  8
0
  6
CONTINUOUS
 62
     7
 10
-205.9368
 20
-108.5001
 40
0.5
 50
89.99999
 51
180.0
  0
ARC
  8
0
  6
CONTINUOUS
 62
     7
 10
-205.9368
 20
-122.5001
 40
0.5
 50
180.0
 51
270.0
  0
ARC
  8
0
  6
CONTINUOUS
 62
     7
 10
-182.9368
 20
-108.5001
 40
0.5
 50
0.0
 51
89.99999
  0
ARC
  8
0
  6
CONTINUOUS
 62
     7
 10
-182.9368
 20
-122.5001
 40
0.5
 50
270.0
 51
0.0
  0
ARC
  8
0
  6
CONTINUOUS
 62
     7
 10
-203.4368
 20
-120.0001
 40
3.2
 50
0.0
 51
89.99999
  0
ARC
  8
0
  6
CONTINUOUS
 62
     7
 10
-185.4368
 20
-111.0001
 40
3.2
 50
180.0
 51
270.0
  0
ARC
  8
0
  6
CONTINUOUS
 62
     7
 10
-199.7368
 20
-122.5001
 40
0.5
 50
180.0
 51
270.0
  0
ARC
  8
0
  6
CONTINUOUS
 62
     7
 10
-205.9368
 20
-116.3001
 40
0.5
 50
180.0
 51
270.0
  0
ARC
  8
0
  6
CONTINUOUS
 62
     7
 10
-189.1368
 20
-108.5001
 40
0.5
 50
0.0
 51
89.99999
  0
ARC
  8
0
  6
CONTINUOUS
 62
     7
 10
-182.9368
 20
-114.7001
 40
0.5
 50
0.0
 51
89.99999
  0
CIRCLE
  8
0
  6
CONTINUOUS
 62
     7
 10
-203.4368
 20
-120.0001
 40
2.75
  0
CIRCLE
  8
0
  6
CONTINUOUS
 62
     7
 10
-185.4368
 20
-111.0001
 40
2.75
  0
CIRCLE
  8
0
  6
CONTINUOUS
 62
     7
 10
-203.4368
 20
-120.0001
 40
1.3
  0
CIRCLE
  8
0
  6
CONTINUOUS
 62
     7
 10
-185.4368
 20
-111.0001
 40
1.3
  0
CIRCLE
  8
0
  6
CONTINUOUS
 62
     7
 10
-203.4368
 20
-120.0001
 40
1.0
  0
CIRCLE
  8
0
  6
CONTINUOUS
 62
     7
 10
-185.4368
 20
-111.0001
 40
1.0
  0
ARC
  8
0
  6
CONTINUOUS
 62
     7
 10
-193.2101
 20
-120.5811
 40
0.17673
 50
201.6898
 51
270.0
  0
ARC
  8
0
  6
CONTINUOUS
 62
     7
 10
-193.6835
 20
-112.0538
 40
0.35346
 50
270.0
 51
0.0
  0
ARC
  8
0
  6
CONTINUOUS
 62
     7
 10
-195.5833
 20
-114.9699
 40
0.35345
 50
180.0
 51
270.0
  0
ARC
  8
0
  6
CONTINUOUS
 62
     7
 10
-193.8602
 20
-114.7931
 40
0.53019
 50
270.0
 51
0.0
  0
ARC
  8
0
  6
CONTINUOUS
 62
     7
 10
-193.6835
 20
-118.0185
 40
0.35346
 50
270.0
 51
0.0
  0
ARC
  8
0
  6
CONTINUOUS
 62
     7
 10
-193.9659
 20
-118.0185
 40
0.35346
 50
204.9996
 51
270.0
  0
ARC
  8
0
  6
CONTINUOUS
 62
     7
 10
-193.33
 20
-120.7578
 40
0.53019
 50
201.6884
 51
270.0
  0
ARC
  8
0
  6
CONTINUOUS
 62
     7
 10
-205.9368
 20
-108.5001
 40
0.5
 50
89.99999
 51
180.0
  0
ARC
  8
0
  6
CONTINUOUS
 62
     7
 10
-205.9368
 20
-122.5001
 40
0.5
 50
180.0
 51
270.0
  0
ARC
  8
0
  6
CONTINUOUS
 62
     7
 10
-152.9368
 20
-108.6001
 40
0.5
 50
0.0
 51
89.99999
  0
ARC
  8
0
  6
CONTINUOUS
 62
     7
 10
-152.9368
 20
-122.4001
 40
0.5
 50
270.0
 51
0.0
  0
ARC
  8
0
  6
CONTINUOUS
 62
     7
 10
-155.0368
 20
-115.5001
 40
5.0
 50
330.5077
 51
29.49236
  0
ARC
  8
0
  6
CONTINUOUS
 62
     7
 10
-151.265
 20
-117.6334
 40
0.66666
 50
270.0
 51
330.5077
  0
ARC
  8
0
  6
CONTINUOUS
 62
     7
 10
-151.265
 20
-113.3667
 40
0.66666
 50
29.49227
 51
89.99999
  0
ARC
  8
0
  6
CONTINUOUS
 62
     7
 10
172.4368
 20
0.0
 40
2.7
 50
222.2054
 51
0.0
  0
ARC
  8
0
  6
CONTINUOUS
 62
     7
 10
172.4368
 20
0.0
 40
2.7
 50
0.0
 51
137.7946
  0
ARC
  8
0
  6
CONTINUOUS
 62
     7
 10
183.4368
 20
-18.0
 40
2.7
 50
42.20544
 51
317.7946
  0
CIRCLE
  8
0
  6
CONTINUOUS
 62
     7
 10
183.4368
 20
-18.0
 40
1.4
  0
CIRCLE
  8
0
  6
CONTINUOUS
 62
     7
 10
172.4368
 20
0.0
 40
1.4
  0
CIRCLE
  8
0
  6
CONTINUOUS
 62
     7
 10
177.9368
 20
18.5
 40
1.65
  0
ARC
  8
0
  6
CONTINUOUS
 62
     7
 10
170.9368
 20
-30.0
 40
0.5
 50
180.0
 51
270.0
  0
ARC
  8
0
  6
CONTINUOUS
 62
     7
 10
184.9368
 20
-30.0
 40
0.5
 50
270.0
 51
0.0
  0
ARC
  8
0
  6
CONTINUOUS
 62
     7
 10
176.1368
 20
-26.00002
 40
0.5
 50
0.0
 51
89.99999
  0
ARC
  8
0
  6
CONTINUOUS
 62
     7
 10
170.9368
 20
-25.0
 40
0.5
 50
180.0
 51
270.0
  0
ARC
  8
0
  6
CONTINUOUS
 62
     7
 10
177.1368
 20
-30.0
 40
0.5
 50
180.0
 51
270.0
  0
ARC
  8
0
  6
CONTINUOUS
 62
     7
 10
173.4368
 20
-22.89999
 40
5.0
 50
240.5077
 51
299.4923
  0
ARC
  8
0
  6
CONTINUOUS
 62
     7
 10
171.3034
 20
-26.67183
 40
0.66667
 50
180.0
 51
240.5079
  0
ARC
  8
0
  6
CONTINUOUS
 62
     7
 10
175.5701
 20
-26.67183
 40
0.66666
 50
299.4921
 51
0.0
  0
CIRCLE
  8
0
  6
CONTINUOUS
 62
     7
 10
177.9368
 20
39.0
 40
3.25
  0
ARC
  8
0
  6
CONTINUOUS
 62
     7
 10
174.5933
 20
55.84848
 40
9.84738
 50
71.30403
 51
108.696
  0
ARC
  8
0
  6
CONTINUOUS
 62
     7
 10
177.9368
 20
37.7272
 40
0.6
 50
44.99949
 51
135.0005
  0
ARC
  8
0
  6
CONTINUOUS
 62
     7
 10
181.2802
 20
55.84848
 40
9.84738
 50
71.30403
 51
108.696
  0
ARC
  8
0
  6
CONTINUOUS
 62
     7
 10
171.0368
 20
32.10001
 40
0.5
 50
180.0
 51
270.0
  0
ARC
  8
0
  6
CONTINUOUS
 62
     7
 10
184.8368
 20
32.10001
 40
0.5
 50
270.0
 51
0.0
  0
ARC
  8
0
  6
CONTINUOUS
 62
     7
 10
171.0368
 20
45.89999
 40
0.5
 50
89.99999
 51
180.0
  0
ARC
  8
0
  6
CONTINUOUS
 62
     7
 10
184.8368
 20
45.89999
 40
0.5
 50
0.0
 51
89.99999
  0
CIRCLE
  8
0
  6
CONTINUOUS
 62
     7
 10
177.9368
 20
39.0
 40
2.8
  0
ARC
  8
0
  6
CONTINUOUS
 62
     7
 10
177.9368
 20
40.2728
 40
0.6
 50
224.9995
 51
315.0005
  0
ARC
  8
0
  6
CONTINUOUS
 62
     7
 10
176.664
 20
39.0
 40
0.6
 50
315.0005
 51
44.99949
  0
ARC
  8
0
  6
CONTINUOUS
 62
     7
 10
179.2096
 20
39.0
 40
0.6
 50
135.0005
 51
224.9995
  0
ARC
  8
0
  6
CONTINUOUS
 62
     7
 10
173.4368
 20
151.1
 40
3.0
 50
0.0
 51
89.99999
  0
ARC
  8
0
  6
CONTINUOUS
 62
     7
 10
182.4368
 20
169.1
 40
3.0
 50
180.0
 51
270.0
  0
ARC
  8
0
  6
CONTINUOUS
 62
     7
 10
173.4368
 20
151.1
 40
2.55
 50
186.7564
 51
173.2436
  0
ARC
  8
0
  6
CONTINUOUS
 62
     7
 10
182.4368
 20
169.1
 40
2.55
 50
6.75641
 51
353.2436
  0
CIRCLE
  8
0
  6
CONTINUOUS
 62
     7
 10
173.4368
 20
151.1
 40
2.25
  0
ARC
  8
0
  6
CONTINUOUS
 62
     7
 10
174.5399
 20
151.1
 40
0.51999
 50
135.0
 51
225.0
  0
ARC
  8
0
  6
CONTINUOUS
 62
     7
 10
173.4368
 20
152.203
 40
0.51999
 50
225.0
 51
315.0
  0
ARC
  8
0
  6
CONTINUOUS
 62
     7
 10
173.4368
 20
149.9969
 40
0.51999
 50
45.0
 51
135.0
  0
ARC
  8
0
  6
CONTINUOUS
 62
     7
 10
172.3337
 20
151.1
 40
0.51999
 50
315.0
 51
45.0
  0
CIRCLE
  8
0
  6
CONTINUOUS
 62
     7
 10
182.4368
 20
169.1
 40
2.25
  0
ARC
  8
0
  6
CONTINUOUS
 62
     7
 10
183.5399
 20
169.1
 40
0.51999
 50
135.0
 51
225.0
  0
ARC
  8
0
  6
CONTINUOUS
 62
     7
 10
182.4368
 20
170.203
 40
0.51999
 50
225.0
 51
315.0
  0
ARC
  8
0
  6
CONTINUOUS
 62
     7
 10
182.4368
 20
167.9969
 40
0.51999
 50
45.0
 51
135.0
  0
ARC
  8
0
  6
CONTINUOUS
 62
     7
 10
181.3337
 20
169.1
 40
0.51999
 50
315.0
 51
45.0
  0
ARC
  8
0
  6
CONTINUOUS
 62
     7
 10
184.9368
 20
171.6
 40
0.5
 50
0.0
 51
89.99999
  0
ARC
  8
0
  6
CONTINUOUS
 62
     7
 10
170.9368
 20
171.6
 40
0.5
 50
89.99999
 51
180.0
  0
CIRCLE
  8
0
  6
CONTINUOUS
 62
     7
 10
177.9368
 20
125.5
 40
7.4
  0
CIRCLE
  8
0
  6
CONTINUOUS
 62
     7
 10
177.9368
 20
125.5
 40
3.8
  0
CIRCLE
  8
0
  6
CONTINUOUS
 62
     7
 10
177.9368
 20
125.5
 40
5.8
  0
ARC
  8
0
  6
CONTINUOUS
 62
     7
 10
171.0368
 20
118.6
 40
0.5
 50
180.0
 51
270.0
  0
ARC
  8
0
  6
CONTINUOUS
 62
     7
 10
177.9368
 20
120.7
 40
5.0
 50
240.5077
 51
299.4923
  0
ARC
  8
0
  6
CONTINUOUS
 62
     7
 10
180.0701
 20
116.9281
 40
0.66667
 50
299.4919
 51
0.0
  0
ARC
  8
0
  6
CONTINUOUS
 62
     7
 10
175.8034
 20
116.9281
 40
0.66667
 50
180.0
 51
240.508
  0
ARC
  8
0
  6
CONTINUOUS
 62
     7
 10
184.8368
 20
118.6
 40
0.5
 50
270.0
 51
0.0
  0
ARC
  8
0
  6
CONTINUOUS
 62
     7
 10
22.9368
 20
-30.0
 40
0.5
 50
180.0
 51
270.0
  0
ARC
  8
0
  6
CONTINUOUS
 62
     7
 10
45.9368
 20
-30.0
 40
0.5
 50
270.0
 51
0.0
  0
ARC
  8
0
  6
CONTINUOUS
 62
     7
 10
40.73679
 20
-26.00002
 40
0.5
 50
89.99999
 51
180.0
  0
ARC
  8
0
  6
CONTINUOUS
 62
     7
 10
39.73679
 20
-30.0
 40
0.5
 50
270.0
 51
0.0
  0
ARC
  8
0
  6
CONTINUOUS
 62
     7
 10
45.9368
 20
-25.0
 40
0.5
 50
270.0
 51
0.0
  0
ARC
  8
0
  6
CONTINUOUS
 62
     7
 10
43.4368
 20
-22.89999
 40
5.0
 50
240.5076
 51
299.4923
  0
ARC
  8
0
  6
CONTINUOUS
 62
     7
 10
41.30347
 20
-26.67183
 40
0.66667
 50
180.0
 51
240.5076
  0
ARC
  8
0
  6
CONTINUOUS
 62
     7
 10
45.57013
 20
-26.67183
 40
0.66667
 50
299.4924
 51
0.0
  0
ARC
  8
0
  6
CONTINUOUS
 62
     7
 10
77.60861
 20
41.13333
 40
0.66667
 50
29.49223
 51
89.99999
  0
ARC
  8
0
  6
CONTINUOUS
 62
     7
 10
69.03679
 20
53.39838
 40
12.29748
 50
73.28473
 51
106.7153
  0
ARC
  8
0
  6
CONTINUOUS
 62
     7
 10
74.66714
 20
62.42261
 40
3.27324
 50
62.72881
 51
122.7273
  0
ARC
  8
0
  6
CONTINUOUS
 62
     7
 10
63.40645
 20
62.42258
 40
3.27327
 50
57.27274
 51
117.2729
  0
ARC
  8
0
  6
CONTINUOUS
 62
     7
 10
43.4368
 20
44.5
 40
6.0
 50
73.80869
 51
106.1913
  0
ARC
  8
0
  6
CONTINUOUS
 62
     7
 10
44.8868
 20
49.49374
 40
0.8
 50
0.0
 51
73.80872
  0
ARC
  8
0
  6
CONTINUOUS
 62
     7
 10
41.98679
 20
49.49374
 40
0.8
 50
106.1913
 51
180.0
  0
ARC
  8
0
  6
CONTINUOUS
 62
     7
 10
25.4368
 20
44.5
 40
6.0
 50
73.80865
 51
106.1913
  0
ARC
  8
0
  6
CONTINUOUS
 62
     7
 10
23.98679
 20
49.49374
 40
0.8
 50
106.1914
 51
118.0138
  0
ARC
  8
0
  6
CONTINUOUS
 62
     7
 10
26.8868
 20
49.49374
 40
0.8
 50
61.98621
 51
73.80872
  0
ARC
  8
0
  6
CONTINUOUS
 62
     7
 10
75.93679
 20
32.10001
 40
0.5
 50
270.0
 51
0.0
  0
ARC
  8
0
  6
CONTINUOUS
 62
     7
 10
75.93679
 20
45.89999
 40
0.5
 50
0.0
 51
89.99999
  0
ARC
  8
0
  6
CONTINUOUS
 62
     7
 10
73.83679
 20
39.0
 40
5.0
 50
330.5076
 51
29.49236
  0
ARC
  8
0
  6
CONTINUOUS
 62
     7
 10
77.60861
 20
36.86667
 40
0.66667
 50
270.0
 51
330.5078
  0
ARC
  8
0
  6
CONTINUOUS
 62
     7
 10
308.9367
 20
-30.0
 40
0.5
 50
180.0
 51
270.0
  0
ARC
  8
0
  6
CONTINUOUS
 62
     7
 10
331.9367
 20
-30.0
 40
0.5
 50
270.0
 51
0.0
  0
ARC
  8
0
  6
CONTINUOUS
 62
     7
 10
326.7368
 20
-26.00002
 40
0.5
 50
89.99999
 51
180.0
  0
ARC
  8
0
  6
CONTINUOUS
 62
     7
 10
325.7367
 20
-30.0
 40
0.5
 50
270.0
 51
0.0
  0
ARC
  8
0
  6
CONTINUOUS
 62
     7
 10
331.9367
 20
-25.0
 40
0.5
 50
270.0
 51
0.0
  0
ARC
  8
0
  6
CONTINUOUS
 62
     7
 10
329.4367
 20
-22.89999
 40
5.0
 50
240.5075
 51
299.4925
  0
ARC
  8
0
  6
CONTINUOUS
 62
     7
 10
327.3034
 20
-26.67183
 40
0.66666
 50
180.0
 51
240.5067
  0
ARC
  8
0
  6
CONTINUOUS
 62
     7
 10
331.5701
 20
-26.67183
 40
0.66667
 50
299.4933
 51
0.0
  0
ARC
  8
0
  6
CONTINUOUS
 62
     7
 10
280.2064
 20
62.42261
 40
3.27324
 50
57.27263
 51
117.2712
  0
ARC
  8
0
  6
CONTINUOUS
 62
     7
 10
277.2649
 20
41.13333
 40
0.66667
 50
89.99999
 51
150.5081
  0
ARC
  8
0
  6
CONTINUOUS
 62
     7
 10
277.2649
 20
36.86667
 40
0.66668
 50
209.4919
 51
270.0
  0
ARC
  8
0
  6
CONTINUOUS
 62
     7
 10
285.8367
 20
53.39838
 40
12.29748
 50
73.2847
 51
106.7152
  0
ARC
  8
0
  6
CONTINUOUS
 62
     7
 10
291.4671
 20
62.42258
 40
3.27326
 50
62.72702
 51
122.7271
  0
ARC
  8
0
  6
CONTINUOUS
 62
     7
 10
329.4367
 20
44.5
 40
6.0
 50
73.80876
 51
106.1912
  0
ARC
  8
0
  6
CONTINUOUS
 62
     7
 10
330.8867
 20
49.49374
 40
0.79999
 50
0.0
 51
73.8082
  0
ARC
  8
0
  6
CONTINUOUS
 62
     7
 10
327.9867
 20
49.49374
 40
0.8
 50
106.1918
 51
180.0
  0
ARC
  8
0
  6
CONTINUOUS
 62
     7
 10
311.4367
 20
44.5
 40
6.0
 50
73.80876
 51
106.1912
  0
ARC
  8
0
  6
CONTINUOUS
 62
     7
 10
309.9867
 20
49.49374
 40
0.8
 50
106.1918
 51
118.0148
  0
ARC
  8
0
  6
CONTINUOUS
 62
     7
 10
312.8867
 20
49.49374
 40
0.80001
 50
61.98524
 51
73.8082
  0
ARC
  8
0
  6
CONTINUOUS
 62
     7
 10
278.9367
 20
32.10001
 40
0.5
 50
180.0
 51
270.0
  0
ARC
  8
0
  6
CONTINUOUS
 62
     7
 10
278.9367
 20
45.89999
 40
0.5
 50
89.99999
 51
180.0
  0
ARC
  8
0
  6
CONTINUOUS
 62
     7
 10
278.9367
 20
32.10001
 40
0.5
 50
180.0
 51
270.0
  0
ARC
  8
0
  6
CONTINUOUS
 62
     7
 10
278.9367
 20
45.89999
 40
0.5
 50
89.99999
 51
180.0
  0
ARC
  8
0
  6
CONTINUOUS
 62
     7
 10
281.0367
 20
39.0
 40
5.00001
 50
150.5076
 51
209.4923
  0
ARC
  8
0
  6
CONTINUOUS
 62
     7
 10
173.4368
 20
-141.1001
 40
3.2
 50
270.0
 51
0.0
  0
ARC
  8
0
  6
CONTINUOUS
 62
     7
 10
182.4368
 20
-159.1001
 40
3.2
 50
89.99999
 51
180.0
  0
ARC
  8
0
  6
CONTINUOUS
 62
     7
 10
174.4905
 20
-149.3467
 40
0.35345
 50
0.0
 51
89.99999
  0
ARC
  8
0
  6
CONTINUOUS
 62
     7
 10
177.4066
 20
-151.2466
 40
0.35345
 50
270.0
 51
0.0
  0
ARC
  8
0
  6
CONTINUOUS
 62
     7
 10
177.2298
 20
-149.5235
 40
0.5302
 50
0.0
 51
89.99999
  0
ARC
  8
0
  6
CONTINUOUS
 62
     7
 10
180.4552
 20
-149.3468
 40
0.35345
 50
0.0
 51
89.99999
  0
ARC
  8
0
  6
CONTINUOUS
 62
     7
 10
180.4552
 20
-149.6292
 40
0.35346
 50
295.0008
 51
0.0
  0
ARC
  8
0
  6
CONTINUOUS
 62
     7
 10
183.1945
 20
-148.9933
 40
0.53019
 50
291.6884
 51
0.0
  0
ARC
  8
0
  6
CONTINUOUS
 62
     7
 10
183.0178
 20
-148.8734
 40
0.17672
 50
291.6875
 51
0.0
  0
ARC
  8
0
  6
CONTINUOUS
 62
     7
 10
170.9368
 20
-161.6001
 40
0.5
 50
180.0
 51
270.0
  0
ARC
  8
0
  6
CONTINUOUS
 62
     7
 10
184.9368
 20
-161.6001
 40
0.5
 50
270.0
 51
0.0
  0
CIRCLE
  8
0
  6
CONTINUOUS
 62
     7
 10
173.4368
 20
-141.1001
 40
2.8
  0
ARC
  8
0
  6
CONTINUOUS
 62
     7
 10
172.164
 20
-141.1001
 40
0.60001
 50
315.0
 51
45.0
  0
ARC
  8
0
  6
CONTINUOUS
 62
     7
 10
173.4368
 20
-142.3728
 40
0.60001
 50
45.0
 51
135.0
  0
ARC
  8
0
  6
CONTINUOUS
 62
     7
 10
173.4368
 20
-139.8273
 40
0.60001
 50
225.0
 51
315.0
  0
ARC
  8
0
  6
CONTINUOUS
 62
     7
 10
174.7096
 20
-141.1001
 40
0.60001
 50
135.0
 51
225.0
  0
CIRCLE
  8
0
  6
CONTINUOUS
 62
     7
 10
182.4368
 20
-159.1001
 40
2.8
  0
ARC
  8
0
  6
CONTINUOUS
 62
     7
 10
181.164
 20
-159.1001
 40
0.60001
 50
315.0
 51
45.0
  0
ARC
  8
0
  6
CONTINUOUS
 62
     7
 10
182.4368
 20
-160.3729
 40
0.60001
 50
45.0
 51
135.0
  0
ARC
  8
0
  6
CONTINUOUS
 62
     7
 10
182.4368
 20
-157.8273
 40
0.60001
 50
225.0
 51
315.0
  0
ARC
  8
0
  6
CONTINUOUS
 62
     7
 10
183.7096
 20
-159.1001
 40
0.60001
 50
135.0
 51
225.0
  0
ARC
  8
0
  6
CONTINUOUS
 62
     7
 10
171.0368
 20
-108.6001
 40
0.5
 50
89.99999
 51
180.0
  0
ARC
  8
0
  6
CONTINUOUS
 62
     7
 10
184.8368
 20
-108.6001
 40
0.5
 50
0.0
 51
89.99999
  0
ARC
  8
0
  6
CONTINUOUS
 62
     7
 10
177.9368
 20
-110.7001
 40
5.0
 50
60.50768
 51
119.4923
  0
ARC
  8
0
  6
CONTINUOUS
 62
     7
 10
180.0701
 20
-106.9282
 40
0.66667
 50
0.0
 51
60.50805
  0
ARC
  8
0
  6
CONTINUOUS
 62
     7
 10
175.8035
 20
-106.9282
 40
0.66667
 50
119.4919
 51
180.0
  0
TEXT
  8
0
  6
CONTINUOUS
 62
     7
 10
-350.9787
 20
200.5946
 40
8.5
  1
MODEL : 110-4E1-39
 41
0.8
  7
STANDARD
  0
TEXT
  8
0
  6
CONTINUOUS
 62
     7
 10
229.0661
 20
236.2625
 40
8.5
  1
DATE : NOV ,1989
 41
0.8
  7
STANDARD
  0
TEXT
  8
0
  6
CONTINUOUS
 62
     7
 10
-370.6519
 20
235.5575
 40
10.0
  1
110 CONNECTOR -39
 41
0.73013
  7
STANDARD
  0
TEXT
  8
0
  6
CONTINUOUS
 62
     7
 10
19.88928
 20
200.5946
 40
8.5
  1
MODEL : A110-4E1-39
 41
0.8
  7
STANDARD
  0
TEXT
  8
0
  6
CONTINUOUS
 62
     7
 10
-313.2774
 20
-3.59199
 40
2.0
  1
R1
 41
0.8
  7
STANDARD
  0
TEXT
  8
0
  6
CONTINUOUS
 62
     7
 10
-303.9738
 20
-8.16328
 40
2.0
  1
P
 41
0.8
  7
STANDARD
  0
TEXT
  8
0
  6
CONTINUOUS
 62
     7
 10
-303.2266
 20
-16.38354
 40
2.0
  1
R2
 41
0.8
  7
STANDARD
  0
TEXT
  8
0
  6
CONTINUOUS
 62
     7
 10
-46.50082
 20
-1.24289
 40
2.0
  1
A
 41
0.8
  7
STANDARD
  0
TEXT
  8
0
  6
CONTINUOUS
 62
     7
 10
-57.37106
 20
-17.89972
 40
2.0
  1
B
 41
0.8
  7
STANDARD
  0
ENDSEC
  0
EOF
