  0
SECTION
  2
HEADER
  9
$ACADVER
  1
AC1002
  9
$INSBASE
 10
0.0
 20
0.0
  9
$EXTMIN
 10
-370.8736
 20
-254.5585
  9
$EXTMAX
 10
370.8736
 20
254.5585
  9
$LIMMIN
 10
0.0
 20
0.0
  9
$LIMMAX
 10
12.0
 20
9.0
  9
$VIEWCTR
 10
28.6093211
 20
0.0
  9
$VIEWSIZE
 40
509.117
  9
$SNAPMODE
 70
     0
  9
$SNAPUNIT
 10
1.0
 20
1.0
  9
$SNAPBASE
 10
0.0
 20
0.0
  9
$SNAPANG
 50
0.0
  9
$SNAPSTYLE
 70
     0
  9
$SNAPISOPAIR
 70
     0
  9
$GRIDMODE
 70
     0
  9
$GRIDUNIT
 10
0.0
 20
0.0
  9
$ORTHOMODE
 70
     0
  9
$REGENMODE
 70
     1
  9
$FILLMODE
 70
     1
  9
$QTEXTMODE
 70
     0
  9
$DRAGMODE
 70
     2
  9
$LTSCALE
 40
1.0
  9
$OSMODE
 70
     0
  9
$ATTMODE
 70
     1
  9
$TEXTSIZE
 40
0.2
  9
$TRACEWID
 40
0.05
  9
$TEXTSTYLE
  7
AAA
  9
$CLAYER
  8
0
  9
$CELTYPE
  6
BYLAYER
  9
$CECOLOR
 62
   256
  9
$DIMSCALE
 40
1.0
  9
$DIMASZ
 40
0.18
  9
$DIMEXO
 40
0.0625
  9
$DIMDLI
 40
0.38
  9
$DIMRND
 40
0.0
  9
$DIMDLE
 40
0.0
  9
$DIMEXE
 40
0.18
  9
$DIMTP
 40
0.0
  9
$DIMTM
 40
0.0
  9
$DIMTXT
 40
0.18
  9
$DIMCEN
 40
0.09
  9
$DIMTSZ
 40
0.0
  9
$DIMTOL
 70
     0
  9
$DIMLIM
 70
     0
  9
$DIMTIH
 70
     1
  9
$DIMTOH
 70
     1
  9
$DIMSE1
 70
     0
  9
$DIMSE2
 70
     0
  9
$DIMTAD
 70
     0
  9
$DIMZIN
 70
     0
  9
$DIMBLK
  1

  9
$LUNITS
 70
     2
  9
$LUPREC
 70
     4
  9
$AXISMODE
 70
     0
  9
$AXISUNIT
 10
0.0
 20
0.0
  9
$SKETCHINC
 40
0.1
  9
$FILLETRAD
 40
0.0
  9
$AUNITS
 70
     0
  9
$AUPREC
 70
     0
  9
$MENU
  1
ACAD
  9
$ELEVATION
 40
0.0
  9
$THICKNESS
 40
0.0
  9
$VIEWDIR
 10
0.0
 20
0.0
 30
1.0
  9
$LIMCHECK
 70
     0
  9
$BLIPMODE
 70
     1
  9
$CHAMFERA
 40
0.0
  9
$CHAMFERB
 40
0.0
  9
$FASTZOOM
 70
     1
  9
$SKPOLY
 70
     0
  9
$TDCREATE
 40
2447869.4625116235
  9
$TDUPDATE
 40
2447869.4625116235
  9
$TDINDWG
 40
0.0042129630
  9
$TDUSRTIMER
 40
0.0042129630
  9
$USRTIMER
 70
     1
  9
$ANGBASE
 50
0.0
  9
$ANGDIR
 70
     0
  9
$PDMODE
 70
     0
  9
$PDSIZE
 40
0.0
  9
$PLINEWID
 40
0.0
  9
$COORDS
 70
     0
  9
$USERI1
 70
     0
  9
$USERI2
 70
     0
  9
$USERI3
 70
     0
  9
$USERI4
 70
     0
  9
$USERI5
 70
     0
  9
$USERR1
 40
0.0
  9
$USERR2
 40
0.0
  9
$USERR3
 40
0.0
  9
$USERR4
 40
0.0
  9
$USERR5
 40
0.0
  0
ENDSEC
  0
SECTION
  2
TABLES
  0
TABLE
  2
LTYPE
 70
     2
  0
LTYPE
  2
CONTINUOUS
 70
    64
  3
SOLID
 72
    65
 73
     0
 40
0.0
  0
LTYPE
  2
CENTER
 70
    64
  3
CENTER
 72
    65
 73
     4
 40
2.0
 49
1.25
 49
-0.25
 49
0.25
 49
-0.25
  0
ENDTAB
  0
TABLE
  2
LAYER
 70
     1
  0
LAYER
  2
0
 70
    64
 62
     7
  6
CONTINUOUS
  0
ENDTAB
  0
TABLE
  2
STYLE
 70
     2
  0
STYLE
  2
AAA
 70
     0
 40
0.0
 41
1.0
 50
0.0
 71
     0
 42
0.2
  3
TXT
  4

  0
STYLE
  2
STANDARD
 70
    64
 40
0.0
 41
1.0
 50
0.0
 71
     0
 42
0.2
  3
TXT
  4
BIGFONT
  0
ENDTAB
  0
TABLE
  2
VIEW
 70
     0
  0
ENDTAB
  0
ENDSEC
  0
SECTION
  2
BLOCKS
  0
ENDSEC
  0
SECTION
  2
ENTITIES
  0
POINT
  8
0
  6
CONTINUOUS
 62
     7
 10
-206.4367
 20
139.9999
  0
POINT
  8
0
  6
CONTINUOUS
 62
     7
 10
-182.4367
 20
139.9999
  0
POINT
  8
0
  6
CONTINUOUS
 62
     7
 10
-206.4368
 20
0.0
  0
POINT
  8
0
  6
CONTINUOUS
 62
     7
 10
-182.4368
 20
0.0
  0
POINT
  8
0
  6
CONTINUOUS
 62
     7
 10
-182.4368
 20
18.5
  0
POINT
  8
0
  6
CONTINUOUS
 62
     7
 10
-182.4368
 20
-36.5
  0
POINT
  8
0
  6
CONTINUOUS
 62
     7
 10
-56.43674
 20
-0.00009
  0
POINT
  8
0
  6
CONTINUOUS
 62
     7
 10
-43.43674
 20
-0.00009
  0
POINT
  8
0
  6
CONTINUOUS
 62
     7
 10
-47.93674
 20
-4.00009
  0
POINT
  8
0
  6
CONTINUOUS
 62
     7
 10
-53.93674
 20
-14.00009
  0
POINT
  8
0
  6
CONTINUOUS
 62
     7
 10
-50.93674
 20
18.49991
  0
POINT
  8
0
  6
CONTINUOUS
 62
     7
 10
-50.93674
 20
-36.50009
  0
POINT
  8
0
  6
CONTINUOUS
 62
     7
 10
-206.4367
 20
-163.5
  0
POINT
  8
0
  6
CONTINUOUS
 62
     7
 10
-182.4367
 20
-163.5
  0
POINT
  8
0
  6
CONTINUOUS
 62
     7
 10
-301.4367
 20
0.00006
  0
POINT
  8
0
  6
CONTINUOUS
 62
     7
 10
-309.9367
 20
1.00006
  0
POINT
  8
0
  6
CONTINUOUS
 62
     7
 10
-306.9367
 20
-8.99994
  0
POINT
  8
0
  6
CONTINUOUS
 62
     7
 10
-303.9367
 20
-18.99994
  0
POINT
  8
0
  6
CONTINUOUS
 62
     7
 10
172.4368
 20
157.4999
  0
POINT
  8
0
  6
CONTINUOUS
 62
     7
 10
185.4368
 20
157.4999
  0
POINT
  8
0
  6
CONTINUOUS
 62
     7
 10
172.4368
 20
0.0
  0
POINT
  8
0
  6
CONTINUOUS
 62
     7
 10
185.4368
 20
0.0
  0
POINT
  8
0
  6
CONTINUOUS
 62
     7
 10
177.9368
 20
-36.5
  0
POINT
  8
0
  6
CONTINUOUS
 62
     7
 10
177.9368
 20
18.5
  0
POINT
  8
0
  6
CONTINUOUS
 62
     7
 10
332.4368
 20
-0.00009
  0
POINT
  8
0
  6
CONTINUOUS
 62
     7
 10
308.4368
 20
18.49991
  0
POINT
  8
0
  6
CONTINUOUS
 62
     7
 10
308.4368
 20
-36.50009
  0
POINT
  8
0
  6
CONTINUOUS
 62
     7
 10
46.43677
 20
0.00002
  0
POINT
  8
0
  6
CONTINUOUS
 62
     7
 10
22.43677
 20
0.00002
  0
POINT
  8
0
  6
CONTINUOUS
 62
     7
 10
46.43677
 20
-36.49998
  0
POINT
  8
0
  6
CONTINUOUS
 62
     7
 10
46.43677
 20
18.50002
  0
POINT
  8
0
  6
CONTINUOUS
 62
     7
 10
172.4368
 20
-181.0
  0
POINT
  8
0
  6
CONTINUOUS
 62
     7
 10
185.4368
 20
-181.0
  0
LINE
  8
0
  6
CONTINUOUS
 62
     7
 10
218.3292
 20
-225.9564
 11
370.8736
 21
-225.9564
  0
LINE
  8
0
  6
CONTINUOUS
 62
     7
 10
-218.3292
 20
225.9564
 11
-218.3292
 21
254.5585
  0
LINE
  8
0
  6
CONTINUOUS
 62
     7
 10
-370.8736
 20
225.9564
 11
-218.3292
 21
225.9564
  0
LINE
  8
0
  6
CONTINUOUS
 62
     7
 10
-370.8736
 20
254.5585
 11
370.8736
 21
254.5585
  0
LINE
  8
0
  6
CONTINUOUS
 62
     7
 10
-370.8736
 20
-254.5585
 11
370.8736
 21
-254.5585
  0
LINE
  8
0
  6
CONTINUOUS
 62
     7
 10
370.8736
 20
254.5585
 11
370.8736
 21
-254.5585
  0
LINE
  8
0
  6
CONTINUOUS
 62
     7
 10
-370.8736
 20
-254.5585
 11
-370.8736
 21
254.5585
  0
LINE
  8
0
  6
CONTINUOUS
 62
     7
 10
218.3292
 20
-225.9564
 11
218.3292
 21
-254.5585
  0
LINE
  8
0
  6
CONTINUOUS
 62
     7
 10
218.3292
 20
254.5585
 11
218.3292
 21
225.9564
  0
LINE
  8
0
  6
CONTINUOUS
 62
     7
 10
218.3292
 20
225.9564
 11
370.8736
 21
225.9564
  0
LINE
  8
0
  6
CONTINUOUS
 62
     7
 10
258.3816
 20
-232.8337
 11
258.3816
 21
-236.1516
  0
LINE
  8
0
  6
CONTINUOUS
 62
     7
 10
258.3816
 20
-236.1516
 11
270.8235
 21
-236.1516
  0
LINE
  8
0
  6
CONTINUOUS
 62
     7
 10
258.3816
 20
-249.1465
 11
275.2473
 21
-249.1465
  0
LINE
  8
0
  6
CONTINUOUS
 62
     7
 10
258.3816
 20
-245.8286
 11
270.8235
 21
-245.8286
  0
LINE
  8
0
  6
CONTINUOUS
 62
     7
 10
258.3816
 20
-232.8337
 11
273.0354
 21
-232.8337
  0
LINE
  8
0
  6
CONTINUOUS
 62
     7
 10
270.8235
 20
-236.1516
 11
270.8235
 21
-245.8286
  0
LINE
  8
0
  6
CONTINUOUS
 62
     7
 10
275.2473
 20
-235.0457
 11
275.2473
 21
-249.1465
  0
LINE
  8
0
  6
CONTINUOUS
 62
     7
 10
258.3816
 20
-245.8286
 11
258.3816
 21
-249.1465
  0
LINE
  8
0
  6
CONTINUOUS
 62
     7
 10
293.4954
 20
-236.1516
 11
293.4954
 21
-246.9346
  0
LINE
  8
0
  6
CONTINUOUS
 62
     7
 10
277.7357
 20
-232.8337
 11
277.7357
 21
-236.1516
  0
LINE
  8
0
  6
CONTINUOUS
 62
     7
 10
293.9378
 20
-232.585
 11
295.5138
 21
-232.585
  0
LINE
  8
0
  6
CONTINUOUS
 62
     7
 10
293.9378
 20
-230.373
 11
295.5138
 21
-230.373
  0
LINE
  8
0
  6
CONTINUOUS
 62
     7
 10
295.5138
 20
-230.373
 11
295.5138
 21
-232.585
  0
LINE
  8
0
  6
CONTINUOUS
 62
     7
 10
293.9378
 20
-230.373
 11
293.9378
 21
-232.585
  0
LINE
  8
0
  6
CONTINUOUS
 62
     7
 10
293.1083
 20
-230.373
 11
293.1083
 21
-232.585
  0
LINE
  8
0
  6
CONTINUOUS
 62
     7
 10
282.7661
 20
-230.373
 11
286.2009
 21
-230.373
  0
LINE
  8
0
  6
CONTINUOUS
 62
     7
 10
285.5413
 20
-232.8335
 11
286.2006
 21
-230.3727
  0
LINE
  8
0
  6
CONTINUOUS
 62
     7
 10
282.1067
 20
-232.8337
 11
282.766
 21
-230.373
  0
LINE
  8
0
  6
CONTINUOUS
 62
     7
 10
285.5416
 20
-232.8337
 11
290.1776
 21
-232.8337
  0
LINE
  8
0
  6
CONTINUOUS
 62
     7
 10
284.6526
 20
-236.1516
 11
289.0716
 21
-236.1516
  0
LINE
  8
0
  6
CONTINUOUS
 62
     7
 10
286.6429
 20
-249.1465
 11
291.2836
 21
-249.1465
  0
LINE
  8
0
  6
CONTINUOUS
 62
     7
 10
285.7537
 20
-245.8286
 11
286.6427
 21
-249.1463
  0
LINE
  8
0
  6
CONTINUOUS
 62
     7
 10
285.7538
 20
-245.8286
 11
289.0716
 21
-245.8286
  0
LINE
  8
0
  6
CONTINUOUS
 62
     7
 10
281.1707
 20
-249.1466
 11
284.6527
 21
-236.1517
  0
LINE
  8
0
  6
CONTINUOUS
 62
     7
 10
277.7357
 20
-236.1516
 11
281.2177
 21
-236.1516
  0
LINE
  8
0
  6
CONTINUOUS
 62
     7
 10
277.7354
 20
-249.1462
 11
281.2175
 21
-236.1513
  0
LINE
  8
0
  6
CONTINUOUS
 62
     7
 10
277.7357
 20
-249.1465
 11
281.1706
 21
-249.1465
  0
LINE
  8
0
  6
CONTINUOUS
 62
     7
 10
277.7357
 20
-232.8337
 11
282.1067
 21
-232.8337
  0
LINE
  8
0
  6
CONTINUOUS
 62
     7
 10
289.0716
 20
-236.1516
 11
289.0716
 21
-245.8286
  0
LINE
  8
0
  6
CONTINUOUS
 62
     7
 10
291.5323
 20
-230.373
 11
293.1083
 21
-230.373
  0
LINE
  8
0
  6
CONTINUOUS
 62
     7
 10
291.5323
 20
-232.585
 11
293.1083
 21
-232.585
  0
LINE
  8
0
  6
CONTINUOUS
 62
     7
 10
291.5323
 20
-230.373
 11
291.5323
 21
-232.585
  0
LINE
  8
0
  6
CONTINUOUS
 62
     7
 10
301.5135
 20
-230.373
 11
305.9373
 21
-230.373
  0
LINE
  8
0
  6
CONTINUOUS
 62
     7
 10
308.3423
 20
-240.1951
 11
311.2962
 21
-238.8176
  0
LINE
  8
0
  6
CONTINUOUS
 62
     7
 10
305.9373
 20
-242.7344
 11
305.9373
 21
-249.1465
  0
LINE
  8
0
  6
CONTINUOUS
 62
     7
 10
301.5135
 20
-243.379
 11
301.5135
 21
-249.1465
  0
LINE
  8
0
  6
CONTINUOUS
 62
     7
 10
305.9373
 20
-232.8337
 11
310.3611
 21
-232.8337
  0
LINE
  8
0
  6
CONTINUOUS
 62
     7
 10
305.9373
 20
-230.373
 11
305.9373
 21
-232.8337
  0
LINE
  8
0
  6
CONTINUOUS
 62
     7
 10
301.5135
 20
-230.373
 11
301.5135
 21
-232.8337
  0
LINE
  8
0
  6
CONTINUOUS
 62
     7
 10
312.573
 20
-235.0457
 11
312.573
 21
-236.8128
  0
LINE
  8
0
  6
CONTINUOUS
 62
     7
 10
308.3424
 20
-240.195
 11
312.5734
 21
-242.168
  0
LINE
  8
0
  6
CONTINUOUS
 62
     7
 10
305.9373
 20
-242.7343
 11
312.5731
 21
-245.8286
  0
LINE
  8
0
  6
CONTINUOUS
 62
     7
 10
296.2603
 20
-242.1678
 11
296.2603
 21
-245.8286
  0
LINE
  8
0
  6
CONTINUOUS
 62
     7
 10
296.2607
 20
-242.1682
 11
309.1626
 21
-236.1519
  0
LINE
  8
0
  6
CONTINUOUS
 62
     7
 10
296.2603
 20
-245.8286
 11
301.5136
 21
-243.3789
  0
LINE
  8
0
  6
CONTINUOUS
 62
     7
 10
312.573
 20
-242.1678
 11
312.573
 21
-245.8286
  0
LINE
  8
0
  6
CONTINUOUS
 62
     7
 10
296.2603
 20
-232.8337
 11
296.2603
 21
-236.1516
  0
LINE
  8
0
  6
CONTINUOUS
 62
     7
 10
301.5135
 20
-249.1465
 11
305.9373
 21
-249.1465
  0
LINE
  8
0
  6
CONTINUOUS
 62
     7
 10
296.2603
 20
-236.1516
 11
309.1621
 21
-236.1516
  0
LINE
  8
0
  6
CONTINUOUS
 62
     7
 10
296.2603
 20
-232.8337
 11
301.5135
 21
-232.8337
  0
LINE
  8
0
  6
CONTINUOUS
 62
     7
 10
327.504
 20
-236.4047
 11
328.73
 21
-235.9171
  0
LINE
  8
0
  6
CONTINUOUS
 62
     7
 10
327.5034
 20
-236.4044
 11
327.5034
 21
-249.1465
  0
LINE
  8
0
  6
CONTINUOUS
 62
     7
 10
323.0795
 20
-249.1465
 11
327.5034
 21
-249.1465
  0
LINE
  8
0
  6
CONTINUOUS
 62
     7
 10
313.9553
 20
-241.7925
 11
323.0794
 21
-238.1637
  0
LINE
  8
0
  6
CONTINUOUS
 62
     7
 10
313.9555
 20
-238.222
 11
326.8062
 21
-233.1111
  0
LINE
  8
0
  6
CONTINUOUS
 62
     7
 10
323.0795
 20
-238.1638
 11
323.0795
 21
-249.1465
  0
LINE
  8
0
  6
CONTINUOUS
 62
     7
 10
327.5034
 20
-231.3684
 11
327.5034
 21
-232.0834
  0
LINE
  8
0
  6
CONTINUOUS
 62
     7
 10
330.8211
 20
-231.3684
 11
330.8211
 21
-232.8338
  0
LINE
  8
0
  6
CONTINUOUS
 62
     7
 10
313.9554
 20
-238.2219
 11
313.9554
 21
-241.7925
  0
LINE
  8
0
  6
CONTINUOUS
 62
     7
 10
327.5034
 20
-231.3684
 11
330.8211
 21
-231.3684
  0
LINE
  8
0
  6
CONTINUOUS
 62
     7
 10
0.0
 20
254.5585
 11
0.0
 21
-254.5585
  0
LINE
  8
0
  6
CONTINUOUS
 62
     7
 10
-206.4368
 20
22.0
 11
-206.4368
 21
5.0
  0
LINE
  8
0
  6
CONTINUOUS
 62
     7
 10
-206.4368
 20
5.0
 11
-182.4368
 21
5.0
  0
LINE
  8
0
  6
CENTER
 62
     2
 10
-194.4368
 20
53.0
 11
-194.4368
 21
-72.34012
  0
LINE
  8
0
  6
CENTER
 62
     2
 10
-201.4368
 20
0.0
 11
-201.4368
 21
-17.33334
  0
LINE
  8
0
  6
CENTER
 62
     2
 10
-204.6034
 20
-14.0
 11
-197.9368
 21
-14.0
  0
LINE
  8
0
  6
CENTER
 62
     2
 10
-204.9368
 20
-4.0
 11
-198.2701
 21
-4.0
  0
LINE
  8
0
  6
CENTER
 62
     2
 10
-186.4795
 20
0.0
 11
-181.4472
 21
0.0
  0
LINE
  8
0
  6
CONTINUOUS
 62
     7
 10
-182.4368
 20
22.0
 11
-182.4368
 21
5.0
  0
LINE
  8
0
  6
CONTINUOUS
 62
     7
 10
-185.4368
 20
1.81384
 11
-182.4368
 21
1.81384
  0
LINE
  8
0
  6
CONTINUOUS
 62
     7
 10
-185.4368
 20
-1.81384
 11
-182.4368
 21
-1.81384
  0
LINE
  8
0
  6
CONTINUOUS
 62
     7
 10
-185.4368
 20
1.81384
 11
-185.4368
 21
-1.81384
  0
LINE
  8
0
  6
CONTINUOUS
 62
     7
 10
-206.4368
 20
-40.0
 11
-206.4368
 21
5.0
  0
LINE
  8
0
  6
CONTINUOUS
 62
     7
 10
-206.4368
 20
-23.0
 11
-182.4368
 21
-23.0
  0
LINE
  8
0
  6
CONTINUOUS
 62
     7
 10
-182.4368
 20
-40.0
 11
-182.4368
 21
5.0
  0
LINE
  8
0
  6
CONTINUOUS
 62
     7
 10
-206.4368
 20
47.20001
 11
-179.4368
 21
47.20001
  0
LINE
  8
0
  6
CONTINUOUS
 62
     7
 10
-206.4368
 20
22.0
 11
-175.4368
 21
22.0
  0
LINE
  8
0
  6
CONTINUOUS
 62
     7
 10
-206.4368
 20
48.2
 11
-206.4368
 21
22.0
  0
LINE
  8
0
  6
CONTINUOUS
 62
     7
 10
-182.4368
 20
48.19998
 11
-182.4368
 21
47.20001
  0
LINE
  8
0
  6
CONTINUOUS
 62
     7
 10
-205.4368
 20
50.20001
 11
-187.2625
 21
50.20001
  0
LINE
  8
0
  6
CONTINUOUS
 62
     7
 10
-206.4368
 20
48.20001
 11
-182.4368
 21
48.20001
  0
LINE
  8
0
  6
CONTINUOUS
 62
     7
 10
-206.4368
 20
48.2
 11
-205.4368
 21
50.19999
  0
LINE
  8
0
  6
CONTINUOUS
 62
     7
 10
-182.4368
 20
48.2
 11
-183.4368
 21
50.2
  0
LINE
  8
0
  6
CONTINUOUS
 62
     7
 10
-188.4368
 20
50.20001
 11
-188.4368
 21
48.20001
  0
LINE
  8
0
  6
CENTER
 62
     2
 10
-185.4368
 20
53.20001
 11
-185.4368
 21
44.20001
  0
LINE
  8
0
  6
CONTINUOUS
 62
     7
 10
-182.8868
 20
48.8
 11
-187.9868
 21
48.8
  0
LINE
  8
0
  6
CONTINUOUS
 62
     7
 10
-185.7368
 20
48.2
 11
-185.8975
 21
48.8
  0
LINE
  8
0
  6
CONTINUOUS
 62
     7
 10
-185.1368
 20
48.80001
 11
-184.976
 21
48.20002
  0
LINE
  8
0
  6
CONTINUOUS
 62
     7
 10
-182.8868
 20
48.8
 11
-182.8868
 21
48.20001
  0
LINE
  8
0
  6
CONTINUOUS
 62
     7
 10
-187.9868
 20
48.8
 11
-187.9868
 21
48.20001
  0
LINE
  8
0
  6
CONTINUOUS
 62
     7
 10
-183.1868
 20
49.49374
 11
-183.1868
 21
48.8
  0
LINE
  8
0
  6
CONTINUOUS
 62
     7
 10
-187.6868
 20
49.49374
 11
-187.6868
 21
48.8
  0
LINE
  8
0
  6
CONTINUOUS
 62
     7
 10
-183.611
 20
50.20001
 11
-183.4368
 21
50.20001
  0
LINE
  8
0
  6
CENTER
 62
     2
 10
-203.4368
 20
53.20001
 11
-203.4368
 21
44.20001
  0
LINE
  8
0
  6
CONTINUOUS
 62
     7
 10
-179.4368
 20
47.20001
 11
-179.4368
 21
22.0
  0
LINE
  8
0
  6
CONTINUOUS
 62
     7
 10
-175.4368
 20
47.0
 11
-175.4368
 21
46.40001
  0
LINE
  8
0
  6
CONTINUOUS
 62
     7
 10
-179.4368
 20
47.0
 11
-175.4368
 21
47.0
  0
LINE
  8
0
  6
CENTER
 62
     2
 10
-182.4368
 20
39.0
 11
-147.0368
 21
39.0
  0
LINE
  8
0
  6
CONTINUOUS
 62
     7
 10
-152.4368
 20
65.17624
 11
-152.4368
 21
58.70001
  0
LINE
  8
0
  6
CONTINUOUS
 62
     7
 10
-174.9368
 20
31.60001
 11
-152.9368
 21
31.60001
  0
LINE
  8
0
  6
CONTINUOUS
 62
     7
 10
-174.9368
 20
46.39999
 11
-152.9368
 21
46.39999
  0
LINE
  8
0
  6
CONTINUOUS
 62
     7
 10
-167.2368
 20
65.17625
 11
-167.2368
 21
58.70001
  0
LINE
  8
0
  6
CONTINUOUS
 62
     7
 10
-165.6368
 20
66.10001
 11
-154.0368
 21
66.10001
  0
LINE
  8
0
  6
CONTINUOUS
 62
     7
 10
-151.265
 20
36.20001
 11
-151.9368
 21
36.20001
  0
LINE
  8
0
  6
CONTINUOUS
 62
     7
 10
-151.265
 20
41.80002
 11
-151.9368
 21
41.80002
  0
LINE
  8
0
  6
CONTINUOUS
 62
     7
 10
-151.9368
 20
35.75002
 11
-151.9368
 21
42.25002
  0
LINE
  8
0
  6
CONTINUOUS
 62
     7
 10
-151.9368
 20
35.75002
 11
-152.4368
 21
35.75002
  0
LINE
  8
0
  6
CONTINUOUS
 62
     7
 10
-151.9368
 20
42.25002
 11
-152.4368
 21
42.25002
  0
LINE
  8
0
  6
CONTINUOUS
 62
     7
 10
-167.2368
 20
58.7
 11
-152.4368
 21
58.7
  0
LINE
  8
0
  6
CONTINUOUS
 62
     7
 10
-167.2368
 20
59.7
 11
-152.4368
 21
59.7
  0
LINE
  8
0
  6
CONTINUOUS
 62
     7
 10
-164.8368
 20
44.0
 11
-154.8368
 21
44.0
  0
LINE
  8
0
  6
CONTINUOUS
 62
     7
 10
-164.8368
 20
34.0
 11
-154.8368
 21
34.0
  0
LINE
  8
0
  6
CONTINUOUS
 62
     7
 10
-164.8368
 20
44.00002
 11
-164.8368
 21
34.00002
  0
LINE
  8
0
  6
CONTINUOUS
 62
     7
 10
-154.8368
 20
44.00002
 11
-154.8368
 21
34.00002
  0
LINE
  8
0
  6
CONTINUOUS
 62
     7
 10
-163.8368
 20
44.00002
 11
-163.8368
 21
34.00002
  0
LINE
  8
0
  6
CONTINUOUS
 62
     7
 10
-162.8368
 20
44.00002
 11
-162.8368
 21
34.00002
  0
LINE
  8
0
  6
CONTINUOUS
 62
     7
 10
-161.8368
 20
44.00002
 11
-161.8368
 21
34.00002
  0
LINE
  8
0
  6
CONTINUOUS
 62
     7
 10
-160.8368
 20
44.00002
 11
-160.8368
 21
34.00002
  0
LINE
  8
0
  6
CONTINUOUS
 62
     7
 10
-159.8368
 20
44.00002
 11
-159.8368
 21
34.00002
  0
LINE
  8
0
  6
CONTINUOUS
 62
     7
 10
-158.8368
 20
44.00002
 11
-158.8368
 21
34.00002
  0
LINE
  8
0
  6
CONTINUOUS
 62
     7
 10
-157.8368
 20
44.00002
 11
-157.8368
 21
34.00002
  0
LINE
  8
0
  6
CONTINUOUS
 62
     7
 10
-156.8368
 20
44.00002
 11
-156.8368
 21
34.00002
  0
LINE
  8
0
  6
CONTINUOUS
 62
     7
 10
-155.8368
 20
44.00002
 11
-155.8368
 21
34.00002
  0
LINE
  8
0
  6
CONTINUOUS
 62
     7
 10
-154.0368
 20
66.09999
 11
-152.4368
 21
65.17622
  0
LINE
  8
0
  6
CONTINUOUS
 62
     7
 10
-165.6368
 20
66.1
 11
-167.2368
 21
65.17625
  0
LINE
  8
0
  6
CONTINUOUS
 62
     7
 10
-163.6974
 20
65.17625
 11
-163.6974
 21
59.70001
  0
LINE
  8
0
  6
CONTINUOUS
 62
     7
 10
-163.3737
 20
65.17625
 11
-163.3737
 21
59.70001
  0
LINE
  8
0
  6
CONTINUOUS
 62
     7
 10
-156.2998
 20
65.17625
 11
-156.2998
 21
59.70001
  0
LINE
  8
0
  6
CONTINUOUS
 62
     7
 10
-155.9761
 20
65.17625
 11
-155.9761
 21
59.70001
  0
LINE
  8
0
  6
CONTINUOUS
 62
     7
 10
-163.6975
 20
65.17624
 11
-163.3737
 21
65.17624
  0
LINE
  8
0
  6
CONTINUOUS
 62
     7
 10
-156.2998
 20
65.17624
 11
-155.9761
 21
65.17624
  0
LINE
  8
0
  6
CENTER
 62
     2
 10
-159.8368
 20
69.10001
 11
-159.8368
 21
28.60001
  0
LINE
  8
0
  6
CONTINUOUS
 62
     7
 10
-175.4368
 20
31.60001
 11
-175.4368
 21
22.0
  0
LINE
  8
0
  6
CONTINUOUS
 62
     7
 10
-167.2368
 20
56.7
 11
-152.4368
 21
56.7
  0
LINE
  8
0
  6
CONTINUOUS
 62
     7
 10
-167.2368
 20
56.70001
 11
-167.2368
 21
46.40001
  0
LINE
  8
0
  6
CONTINUOUS
 62
     7
 10
-152.4368
 20
56.70001
 11
-152.4368
 21
32.10001
  0
LINE
  8
0
  6
CONTINUOUS
 62
     7
 10
-153.8368
 20
58.70001
 11
-153.8368
 21
56.70001
  0
LINE
  8
0
  6
CONTINUOUS
 62
     7
 10
-165.8368
 20
58.70001
 11
-165.8368
 21
56.70001
  0
LINE
  8
0
  6
CONTINUOUS
 62
     7
 10
-154.5133
 20
58.70001
 11
-154.5133
 21
56.70001
  0
LINE
  8
0
  6
CONTINUOUS
 62
     7
 10
-165.1603
 20
58.70001
 11
-165.1603
 21
56.70001
  0
LINE
  8
0
  6
CONTINUOUS
 62
     7
 10
-175.4368
 20
46.40001
 11
-175.4368
 21
31.60001
  0
LINE
  8
0
  6
CONTINUOUS
 62
     7
 10
-174.9368
 20
46.40001
 11
-174.9368
 21
31.60001
  0
LINE
  8
0
  6
CONTINUOUS
 62
     7
 10
-175.4368
 20
46.40001
 11
-174.9368
 21
46.40001
  0
LINE
  8
0
  6
CONTINUOUS
 62
     7
 10
-175.4368
 20
31.60001
 11
-174.9368
 21
31.60001
  0
LINE
  8
0
  6
CONTINUOUS
 62
     7
 10
-206.4368
 20
-65.19998
 11
-179.4368
 21
-65.19998
  0
LINE
  8
0
  6
CONTINUOUS
 62
     7
 10
-206.4368
 20
-40.0
 11
-175.4368
 21
-40.0
  0
LINE
  8
0
  6
CONTINUOUS
 62
     7
 10
-206.4368
 20
-66.20001
 11
-206.4368
 21
-40.0
  0
LINE
  8
0
  6
CONTINUOUS
 62
     7
 10
-182.4368
 20
-66.19998
 11
-182.4368
 21
-65.19998
  0
LINE
  8
0
  6
CONTINUOUS
 62
     7
 10
-183.4368
 20
-68.19998
 11
-201.611
 21
-68.19998
  0
LINE
  8
0
  6
CONTINUOUS
 62
     7
 10
-206.4368
 20
-66.19998
 11
-182.4368
 21
-66.19998
  0
LINE
  8
0
  6
CONTINUOUS
 62
     7
 10
-182.4368
 20
-66.20002
 11
-183.4367
 21
-68.20001
  0
LINE
  8
0
  6
CONTINUOUS
 62
     7
 10
-206.4367
 20
-66.19997
 11
-205.4367
 21
-68.19997
  0
LINE
  8
0
  6
CONTINUOUS
 62
     7
 10
-200.4368
 20
-68.20001
 11
-200.4368
 21
-66.20001
  0
LINE
  8
0
  6
CENTER
 62
     2
 10
-203.4368
 20
-71.20001
 11
-203.4368
 21
-62.20001
  0
LINE
  8
0
  6
CONTINUOUS
 62
     7
 10
-205.9868
 20
-66.80002
 11
-200.8867
 21
-66.80002
  0
LINE
  8
0
  6
CONTINUOUS
 62
     7
 10
-203.1367
 20
-66.19997
 11
-202.9759
 21
-66.79996
  0
LINE
  8
0
  6
CONTINUOUS
 62
     7
 10
-203.7366
 20
-66.79996
 11
-203.8974
 21
-66.19995
  0
LINE
  8
0
  6
CONTINUOUS
 62
     7
 10
-205.9868
 20
-66.80002
 11
-205.9868
 21
-66.20001
  0
LINE
  8
0
  6
CONTINUOUS
 62
     7
 10
-200.8868
 20
-66.80002
 11
-200.8868
 21
-66.20001
  0
LINE
  8
0
  6
CONTINUOUS
 62
     7
 10
-205.6868
 20
-67.49374
 11
-205.6868
 21
-66.80002
  0
LINE
  8
0
  6
CONTINUOUS
 62
     7
 10
-201.1868
 20
-67.49374
 11
-201.1868
 21
-66.80002
  0
LINE
  8
0
  6
CONTINUOUS
 62
     7
 10
-205.2625
 20
-68.19998
 11
-205.4367
 21
-68.19998
  0
LINE
  8
0
  6
CENTER
 62
     2
 10
-185.4368
 20
-71.19998
 11
-185.4368
 21
-62.19998
  0
LINE
  8
0
  6
CONTINUOUS
 62
     7
 10
-179.4368
 20
-65.19998
 11
-179.4368
 21
-40.0
  0
LINE
  8
0
  6
CONTINUOUS
 62
     7
 10
-175.4368
 20
-65.0
 11
-175.4368
 21
-64.39999
  0
LINE
  8
0
  6
CONTINUOUS
 62
     7
 10
-179.4368
 20
-65.0
 11
-175.4368
 21
-65.0
  0
LINE
  8
0
  6
CENTER
 62
     2
 10
-182.4368
 20
-57.0
 11
-147.0368
 21
-57.0
  0
LINE
  8
0
  6
CONTINUOUS
 62
     7
 10
-152.4368
 20
-83.17621
 11
-152.4368
 21
-76.69998
  0
LINE
  8
0
  6
CONTINUOUS
 62
     7
 10
-167.2368
 20
-83.17624
 11
-167.2368
 21
-76.69998
  0
LINE
  8
0
  6
CONTINUOUS
 62
     7
 10
-165.6367
 20
-84.10001
 11
-154.0368
 21
-84.10001
  0
LINE
  8
0
  6
CONTINUOUS
 62
     7
 10
-151.2649
 20
-54.19998
 11
-151.9368
 21
-54.19998
  0
LINE
  8
0
  6
CONTINUOUS
 62
     7
 10
-151.2649
 20
-59.79999
 11
-151.9368
 21
-59.79999
  0
LINE
  8
0
  6
CONTINUOUS
 62
     7
 10
-151.9368
 20
-53.74997
 11
-151.9368
 21
-60.24997
  0
LINE
  8
0
  6
CONTINUOUS
 62
     7
 10
-151.9368
 20
-53.75009
 11
-152.4368
 21
-53.75009
  0
LINE
  8
0
  6
CONTINUOUS
 62
     7
 10
-151.9368
 20
-60.25
 11
-152.4368
 21
-60.25
  0
LINE
  8
0
  6
CONTINUOUS
 62
     7
 10
-167.2368
 20
-76.69998
 11
-152.4368
 21
-76.69998
  0
LINE
  8
0
  6
CONTINUOUS
 62
     7
 10
-167.2368
 20
-77.69998
 11
-152.4368
 21
-77.69998
  0
LINE
  8
0
  6
CENTER
 62
     2
 10
-159.8368
 20
-87.09998
 11
-159.8368
 21
-46.59998
  0
LINE
  8
0
  6
CONTINUOUS
 62
     7
 10
-164.8368
 20
-62.0
 11
-154.8368
 21
-62.0
  0
LINE
  8
0
  6
CONTINUOUS
 62
     7
 10
-164.8368
 20
-52.0
 11
-154.8368
 21
-52.0
  0
LINE
  8
0
  6
CONTINUOUS
 62
     7
 10
-164.8368
 20
-62.0
 11
-164.8368
 21
-52.0
  0
LINE
  8
0
  6
CONTINUOUS
 62
     7
 10
-154.8368
 20
-61.99997
 11
-154.8368
 21
-51.99997
  0
LINE
  8
0
  6
CONTINUOUS
 62
     7
 10
-163.8368
 20
-62.0
 11
-163.8368
 21
-52.0
  0
LINE
  8
0
  6
CONTINUOUS
 62
     7
 10
-162.8368
 20
-62.0
 11
-162.8368
 21
-52.0
  0
LINE
  8
0
  6
CONTINUOUS
 62
     7
 10
-161.8368
 20
-62.0
 11
-161.8368
 21
-52.0
  0
LINE
  8
0
  6
CONTINUOUS
 62
     7
 10
-160.8368
 20
-62.0
 11
-160.8368
 21
-52.0
  0
LINE
  8
0
  6
CONTINUOUS
 62
     7
 10
-159.8368
 20
-61.99997
 11
-159.8368
 21
-51.99997
  0
LINE
  8
0
  6
CONTINUOUS
 62
     7
 10
-158.8368
 20
-61.99997
 11
-158.8368
 21
-51.99997
  0
LINE
  8
0
  6
CONTINUOUS
 62
     7
 10
-157.8368
 20
-61.99997
 11
-157.8368
 21
-51.99997
  0
LINE
  8
0
  6
CONTINUOUS
 62
     7
 10
-156.8368
 20
-61.99997
 11
-156.8368
 21
-51.99997
  0
LINE
  8
0
  6
CONTINUOUS
 62
     7
 10
-155.8368
 20
-61.99997
 11
-155.8368
 21
-51.99997
  0
LINE
  8
0
  6
CONTINUOUS
 62
     7
 10
-154.0368
 20
-84.10001
 11
-152.4368
 21
-83.17625
  0
LINE
  8
0
  6
CONTINUOUS
 62
     7
 10
-165.6368
 20
-84.10001
 11
-167.2368
 21
-83.17625
  0
LINE
  8
0
  6
CONTINUOUS
 62
     7
 10
-163.6974
 20
-83.17624
 11
-163.6974
 21
-77.69998
  0
LINE
  8
0
  6
CONTINUOUS
 62
     7
 10
-163.3737
 20
-83.17624
 11
-163.3737
 21
-77.69998
  0
LINE
  8
0
  6
CONTINUOUS
 62
     7
 10
-156.2998
 20
-83.17624
 11
-156.2998
 21
-77.69998
  0
LINE
  8
0
  6
CONTINUOUS
 62
     7
 10
-155.9761
 20
-83.17624
 11
-155.9761
 21
-77.69998
  0
LINE
  8
0
  6
CONTINUOUS
 62
     7
 10
-163.6974
 20
-83.17624
 11
-163.3737
 21
-83.17624
  0
LINE
  8
0
  6
CONTINUOUS
 62
     7
 10
-156.2998
 20
-83.17624
 11
-155.9761
 21
-83.17624
  0
LINE
  8
0
  6
CONTINUOUS
 62
     7
 10
-174.9368
 20
-64.39999
 11
-152.9368
 21
-64.39999
  0
LINE
  8
0
  6
CONTINUOUS
 62
     7
 10
-174.9368
 20
-49.60001
 11
-152.9368
 21
-49.60001
  0
LINE
  8
0
  6
CONTINUOUS
 62
     7
 10
-175.4368
 20
-49.60001
 11
-175.4368
 21
-40.0
  0
LINE
  8
0
  6
CONTINUOUS
 62
     7
 10
-167.2368
 20
-74.69998
 11
-152.4368
 21
-74.69998
  0
LINE
  8
0
  6
CONTINUOUS
 62
     7
 10
-152.4368
 20
-74.69998
 11
-152.4368
 21
-50.09998
  0
LINE
  8
0
  6
CONTINUOUS
 62
     7
 10
-167.2368
 20
-74.69998
 11
-167.2368
 21
-64.39999
  0
LINE
  8
0
  6
CONTINUOUS
 62
     7
 10
-165.8368
 20
-76.69998
 11
-165.8368
 21
-74.69998
  0
LINE
  8
0
  6
CONTINUOUS
 62
     7
 10
-153.8368
 20
-76.69998
 11
-153.8368
 21
-74.69998
  0
LINE
  8
0
  6
CONTINUOUS
 62
     7
 10
-154.5133
 20
-76.69998
 11
-154.5133
 21
-74.69998
  0
LINE
  8
0
  6
CONTINUOUS
 62
     7
 10
-165.1603
 20
-76.69998
 11
-165.1603
 21
-74.69998
  0
LINE
  8
0
  6
CONTINUOUS
 62
     7
 10
-174.9368
 20
-49.60001
 11
-174.9368
 21
-64.39999
  0
LINE
  8
0
  6
CONTINUOUS
 62
     7
 10
-175.4368
 20
-49.60001
 11
-175.4368
 21
-64.39999
  0
LINE
  8
0
  6
CONTINUOUS
 62
     7
 10
-174.9368
 20
-49.60001
 11
-175.4368
 21
-49.60001
  0
LINE
  8
0
  6
CONTINUOUS
 62
     7
 10
-174.9368
 20
-64.39999
 11
-175.4368
 21
-64.39999
  0
LINE
  8
0
  6
CENTER
 62
     2
 10
-148.6034
 20
145.4999
 11
-208.4367
 21
145.4999
  0
LINE
  8
0
  6
CENTER
 62
     2
 10
-194.4367
 20
135.5516
 11
-194.4367
 21
155.4877
  0
LINE
  8
0
  6
CONTINUOUS
 62
     7
 10
-182.4367
 20
152.9999
 11
-182.4367
 21
137.9999
  0
LINE
  8
0
  6
CONTINUOUS
 62
     7
 10
-185.4367
 20
143.9999
 11
-182.4367
 21
143.9999
  0
LINE
  8
0
  6
CONTINUOUS
 62
     7
 10
-203.4367
 20
146.9999
 11
-206.4367
 21
146.9999
  0
LINE
  8
0
  6
CONTINUOUS
 62
     7
 10
-200.4367
 20
149.9999
 11
-200.4367
 21
152.9999
  0
LINE
  8
0
  6
CONTINUOUS
 62
     7
 10
-188.4367
 20
140.9999
 11
-188.4367
 21
137.9999
  0
LINE
  8
0
  6
CONTINUOUS
 62
     7
 10
-205.4367
 20
146.9999
 11
-205.4367
 21
138.9999
  0
LINE
  8
0
  6
CONTINUOUS
 62
     7
 10
-183.4367
 20
151.9999
 11
-183.4367
 21
143.9999
  0
LINE
  8
0
  6
CONTINUOUS
 62
     7
 10
-200.4367
 20
151.9999
 11
-183.4367
 21
151.9999
  0
LINE
  8
0
  6
CONTINUOUS
 62
     7
 10
-205.4367
 20
138.9999
 11
-188.4367
 21
138.9999
  0
LINE
  8
0
  6
CONTINUOUS
 62
     7
 10
-185.1367
 20
138.77
 11
-185.1367
 21
138.4676
  0
LINE
  8
0
  6
CONTINUOUS
 62
     7
 10
-185.7368
 20
138.77
 11
-185.7368
 21
138.4676
  0
LINE
  8
0
  6
CONTINUOUS
 62
     7
 10
-185.8975
 20
138.4919
 11
-185.8975
 21
138.7976
  0
LINE
  8
0
  6
CONTINUOUS
 62
     7
 10
-203.7368
 20
152.2298
 11
-203.7368
 21
152.5322
  0
LINE
  8
0
  6
CONTINUOUS
 62
     7
 10
-203.1367
 20
152.2298
 11
-203.1367
 21
152.5322
  0
LINE
  8
0
  6
CONTINUOUS
 62
     7
 10
-202.976
 20
152.5079
 11
-202.976
 21
152.2022
  0
LINE
  8
0
  6
CONTINUOUS
 62
     7
 10
-186.5399
 20
140.2645
 11
-186.1722
 21
140.6322
  0
LINE
  8
0
  6
CONTINUOUS
 62
     7
 10
-186.1722
 20
139.8968
 11
-185.8045
 21
140.2645
  0
LINE
  8
0
  6
CONTINUOUS
 62
     7
 10
-186.5398
 20
140.2645
 11
-186.1721
 21
139.8968
  0
LINE
  8
0
  6
CONTINUOUS
 62
     7
 10
-184.7014
 20
142.103
 11
-184.3337
 21
141.7353
  0
LINE
  8
0
  6
CONTINUOUS
 62
     7
 10
-187.201
 20
142.3964
 11
-186.1722
 21
141.3676
  0
LINE
  8
0
  6
CONTINUOUS
 62
     7
 10
-186.8333
 20
142.7641
 11
-185.8045
 21
141.7353
  0
LINE
  8
0
  6
CONTINUOUS
 62
     7
 10
-185.0691
 20
141.7353
 11
-184.7014
 21
142.103
  0
LINE
  8
0
  6
CONTINUOUS
 62
     7
 10
-184.7014
 20
141.3676
 11
-184.3337
 21
141.7353
  0
LINE
  8
0
  6
CONTINUOUS
 62
     7
 10
-185.0691
 20
140.2645
 11
-184.0403
 21
139.2357
  0
LINE
  8
0
  6
CONTINUOUS
 62
     7
 10
-184.7014
 20
140.6322
 11
-183.6726
 21
139.6034
  0
LINE
  8
0
  6
CONTINUOUS
 62
     7
 10
-204.5398
 20
149.2646
 11
-204.1721
 21
149.6323
  0
LINE
  8
0
  6
CONTINUOUS
 62
     7
 10
-204.1722
 20
148.8969
 11
-203.8045
 21
149.2645
  0
LINE
  8
0
  6
CONTINUOUS
 62
     7
 10
-204.5398
 20
149.2645
 11
-204.1721
 21
148.8968
  0
LINE
  8
0
  6
CONTINUOUS
 62
     7
 10
-202.7014
 20
151.103
 11
-202.3337
 21
150.7353
  0
LINE
  8
0
  6
CONTINUOUS
 62
     7
 10
-205.2009
 20
151.3964
 11
-204.1721
 21
150.3676
  0
LINE
  8
0
  6
CONTINUOUS
 62
     7
 10
-204.8332
 20
151.7641
 11
-203.8044
 21
150.7353
  0
LINE
  8
0
  6
CONTINUOUS
 62
     7
 10
-203.0691
 20
150.7354
 11
-202.7013
 21
151.1031
  0
LINE
  8
0
  6
CONTINUOUS
 62
     7
 10
-202.7014
 20
150.3676
 11
-202.3337
 21
150.7353
  0
LINE
  8
0
  6
CONTINUOUS
 62
     7
 10
-203.0691
 20
149.2645
 11
-202.0403
 21
148.2357
  0
LINE
  8
0
  6
CONTINUOUS
 62
     7
 10
-202.7014
 20
149.6322
 11
-201.6726
 21
148.6035
  0
LINE
  8
0
  6
CENTER
 62
     2
 10
-185.4367
 20
144.9999
 11
-185.4367
 21
136.9999
  0
LINE
  8
0
  6
CENTER
 62
     2
 10
-203.4367
 20
153.9999
 11
-203.4367
 21
145.9999
  0
LINE
  8
0
  6
CENTER
 62
     2
 10
-207.4367
 20
149.9999
 11
-199.4367
 21
149.9999
  0
LINE
  8
0
  6
CENTER
 62
     2
 10
-189.4367
 20
140.9999
 11
-181.4367
 21
140.9999
  0
LINE
  8
0
  6
CONTINUOUS
 62
     7
 10
-205.9367
 20
152.9999
 11
-175.4367
 21
152.9999
  0
LINE
  8
0
  6
CONTINUOUS
 62
     7
 10
-206.4367
 20
152.4999
 11
-206.4367
 21
138.4999
  0
LINE
  8
0
  6
CONTINUOUS
 62
     7
 10
-205.9367
 20
137.9999
 11
-175.4367
 21
137.9999
  0
LINE
  8
0
  6
CONTINUOUS
 62
     7
 10
-179.4367
 20
152.9999
 11
-179.4367
 21
137.9999
  0
LINE
  8
0
  6
CONTINUOUS
 62
     7
 10
-175.4367
 20
152.9999
 11
-175.4367
 21
152.8999
  0
LINE
  8
0
  6
CENTER
 62
     2
 10
-159.8368
 20
155.8999
 11
-159.8368
 21
135.0999
  0
LINE
  8
0
  6
CONTINUOUS
 62
     7
 10
-163.3737
 20
151.9999
 11
-156.2998
 21
151.9999
  0
LINE
  8
0
  6
CONTINUOUS
 62
     7
 10
-163.3737
 20
138.9999
 11
-156.2998
 21
138.9999
  0
LINE
  8
0
  6
CONTINUOUS
 62
     7
 10
-155.9761
 20
151.813
 11
-152.4391
 21
145.6868
  0
LINE
  8
0
  6
CONTINUOUS
 62
     7
 10
-167.2345
 20
145.313
 11
-163.6975
 21
139.1868
  0
LINE
  8
0
  6
CONTINUOUS
 62
     7
 10
-152.4391
 20
145.313
 11
-155.9761
 21
139.1869
  0
LINE
  8
0
  6
CONTINUOUS
 62
     7
 10
-163.6974
 20
151.813
 11
-167.2344
 21
145.6868
  0
LINE
  8
0
  6
CONTINUOUS
 62
     7
 10
-152.4367
 20
152.3999
 11
-152.4367
 21
138.5999
  0
LINE
  8
0
  6
CONTINUOUS
 62
     7
 10
-151.2649
 20
142.6999
 11
-151.9367
 21
142.6999
  0
LINE
  8
0
  6
CONTINUOUS
 62
     7
 10
-151.2649
 20
148.2999
 11
-151.9367
 21
148.2999
  0
LINE
  8
0
  6
CONTINUOUS
 62
     7
 10
-151.9367
 20
148.7499
 11
-152.4367
 21
148.7499
  0
LINE
  8
0
  6
CONTINUOUS
 62
     7
 10
-151.9367
 20
142.2499
 11
-151.9367
 21
148.7499
  0
LINE
  8
0
  6
CONTINUOUS
 62
     7
 10
-151.9367
 20
142.2499
 11
-152.4367
 21
142.2499
  0
LINE
  8
0
  6
CONTINUOUS
 62
     7
 10
-175.4367
 20
138.0999
 11
-175.4367
 21
137.9999
  0
LINE
  8
0
  6
CONTINUOUS
 62
     7
 10
-174.9367
 20
138.0999
 11
-152.9367
 21
138.0999
  0
LINE
  8
0
  6
CONTINUOUS
 62
     7
 10
-174.9367
 20
152.8999
 11
-152.9367
 21
152.8999
  0
LINE
  8
0
  6
CONTINUOUS
 62
     7
 10
-175.4367
 20
138.0999
 11
-175.4367
 21
152.8999
  0
LINE
  8
0
  6
CONTINUOUS
 62
     7
 10
-174.9367
 20
138.0999
 11
-174.9367
 21
152.8999
  0
LINE
  8
0
  6
CONTINUOUS
 62
     7
 10
-175.4367
 20
138.0999
 11
-174.9367
 21
138.0999
  0
LINE
  8
0
  6
CONTINUOUS
 62
     7
 10
-175.4368
 20
152.8999
 11
-174.9368
 21
152.8999
  0
LINE
  8
0
  6
CONTINUOUS
 62
     7
 10
-314.4367
 20
22.00006
 11
-314.4367
 21
5.00006
  0
LINE
  8
0
  6
CONTINUOUS
 62
     7
 10
-299.4367
 20
22.00006
 11
-299.4367
 21
5.00006
  0
LINE
  8
0
  6
CONTINUOUS
 62
     7
 10
-314.4367
 20
5.00006
 11
-299.4367
 21
5.00006
  0
LINE
  8
0
  6
CONTINUOUS
 62
     7
 10
-314.4367
 20
-22.99994
 11
-299.4367
 21
-22.99994
  0
LINE
  8
0
  6
CENTER
 62
     2
 10
-306.9367
 20
69.66672
 11
-306.9367
 21
-87.99994
  0
LINE
  8
0
  6
CENTER
 62
     2
 10
-311.6815
 20
13.70006
 11
-301.9603
 21
13.70006
  0
LINE
  8
0
  6
CENTER
 62
     2
 10
-313.7235
 20
1.00006
 11
-306.1034
 21
1.00006
  0
LINE
  8
0
  6
CENTER
 62
     2
 10
-311.1034
 20
-8.99994
 11
-302.77
 21
-8.99994
  0
LINE
  8
0
  6
CENTER
 62
     2
 10
-307.4367
 20
-18.99994
 11
-300.3209
 21
-18.99994
  0
LINE
  8
0
  6
CENTER
 62
     2
 10
-303.9367
 20
-15.36865
 11
-303.9367
 21
-22.50143
  0
LINE
  8
0
  6
CENTER
 62
     2
 10
-309.9367
 20
4.47647
 11
-309.9367
 21
-2.44684
  0
LINE
  8
0
  6
CENTER
 62
     2
 10
-304.1034
 20
0.00006
 11
-299.4367
 21
0.00006
  0
LINE
  8
0
  6
CENTER
 62
     2
 10
-314.4367
 20
-17.99994
 11
-310.0421
 21
-17.99994
  0
LINE
  8
0
  6
CENTER
 62
     2
 10
-301.4367
 20
2.34814
 11
-301.4367
 21
-2.42618
  0
LINE
  8
0
  6
CENTER
 62
     2
 10
-312.4367
 20
-15.59875
 11
-312.4367
 21
-20.48813
  0
LINE
  8
0
  6
CONTINUOUS
 62
     7
 10
-308.3509
 20
12.28591
 11
-305.5225
 21
15.11433
  0
LINE
  8
0
  6
CONTINUOUS
 62
     7
 10
-307.4543
 20
11.76826
 11
-305.0048
 21
14.21775
  0
LINE
  8
0
  6
CONTINUOUS
 62
     7
 10
-308.8686
 20
13.1825
 11
-306.4191
 21
15.632
  0
LINE
  8
0
  6
CONTINUOUS
 62
     7
 10
-308.351
 20
15.11418
 11
-305.5226
 21
12.28575
  0
LINE
  8
0
  6
CONTINUOUS
 62
     7
 10
-308.8686
 20
14.21766
 11
-306.4191
 21
11.76816
  0
LINE
  8
0
  6
CONTINUOUS
 62
     7
 10
-307.4544
 20
15.63189
 11
-305.0049
 21
13.18239
  0
LINE
  8
0
  6
CONTINUOUS
 62
     7
 10
-314.4367
 20
-39.99994
 11
-314.4367
 21
5.00006
  0
LINE
  8
0
  6
CONTINUOUS
 62
     7
 10
-299.4367
 20
-39.99994
 11
-299.4367
 21
5.00006
  0
LINE
  8
0
  6
CENTER
 62
     2
 10
-311.6815
 20
-31.69995
 11
-301.9603
 21
-31.69995
  0
LINE
  8
0
  6
CONTINUOUS
 62
     7
 10
-308.3508
 20
-30.2857
 11
-305.5223
 21
-33.11412
  0
LINE
  8
0
  6
CONTINUOUS
 62
     7
 10
-307.4543
 20
-29.76818
 11
-305.0049
 21
-32.21768
  0
LINE
  8
0
  6
CONTINUOUS
 62
     7
 10
-308.8686
 20
-31.18237
 11
-306.4191
 21
-33.63187
  0
LINE
  8
0
  6
CONTINUOUS
 62
     7
 10
-308.3509
 20
-33.11422
 11
-305.5225
 21
-30.28579
  0
LINE
  8
0
  6
CONTINUOUS
 62
     7
 10
-308.8685
 20
-32.21767
 11
-306.419
 21
-29.76817
  0
LINE
  8
0
  6
CONTINUOUS
 62
     7
 10
-307.4544
 20
-33.63184
 11
-305.0049
 21
-31.18234
  0
LINE
  8
0
  6
CONTINUOUS
 62
     7
 10
-314.4367
 20
48.20004
 11
-314.4367
 21
22.00006
  0
LINE
  8
0
  6
CONTINUOUS
 62
     7
 10
-314.4367
 20
22.00006
 11
-299.4367
 21
22.00006
  0
LINE
  8
0
  6
CONTINUOUS
 62
     7
 10
-299.4367
 20
48.20004
 11
-299.4367
 21
22.00006
  0
LINE
  8
0
  6
CONTINUOUS
 62
     7
 10
-308.4367
 20
50.20006
 11
-308.4367
 21
48.20004
  0
LINE
  8
0
  6
CONTINUOUS
 62
     7
 10
-313.4367
 20
44.20006
 11
-300.4367
 21
44.20006
  0
LINE
  8
0
  6
CONTINUOUS
 62
     7
 10
-313.4367
 20
40.20006
 11
-300.4367
 21
40.20006
  0
LINE
  8
0
  6
CONTINUOUS
 62
     7
 10
-300.4367
 20
44.20007
 11
-300.4367
 21
40.20007
  0
LINE
  8
0
  6
CONTINUOUS
 62
     7
 10
-313.4367
 20
44.20006
 11
-313.4367
 21
40.20006
  0
LINE
  8
0
  6
CONTINUOUS
 62
     7
 10
-312.7246
 20
43.30684
 11
-310.3829
 21
43.30684
  0
LINE
  8
0
  6
CONTINUOUS
 62
     7
 10
-312.7246
 20
41.23026
 11
-310.7364
 21
41.23026
  0
LINE
  8
0
  6
CONTINUOUS
 62
     7
 10
-312.7246
 20
40.70006
 11
-310.0294
 21
40.70006
  0
LINE
  8
0
  6
CONTINUOUS
 62
     7
 10
-312.7246
 20
42.77664
 11
-310.7364
 21
42.77664
  0
LINE
  8
0
  6
CONTINUOUS
 62
     7
 10
-312.7246
 20
43.30684
 11
-312.7246
 21
42.77664
  0
LINE
  8
0
  6
CONTINUOUS
 62
     7
 10
-310.0294
 20
42.95337
 11
-310.0294
 21
40.70006
  0
LINE
  8
0
  6
CONTINUOUS
 62
     7
 10
-310.7364
 20
42.77664
 11
-310.7364
 21
41.23026
  0
LINE
  8
0
  6
CONTINUOUS
 62
     7
 10
-309.6318
 20
43.30684
 11
-309.6318
 21
42.77664
  0
LINE
  8
0
  6
CONTINUOUS
 62
     7
 10
-307.1134
 20
42.77664
 11
-307.1134
 21
41.05351
  0
LINE
  8
0
  6
CONTINUOUS
 62
     7
 10
-307.8203
 20
42.77664
 11
-307.8203
 21
41.23026
  0
LINE
  8
0
  6
CONTINUOUS
 62
     7
 10
-312.7246
 20
41.23026
 11
-312.7246
 21
40.70006
  0
LINE
  8
0
  6
CONTINUOUS
 62
     7
 10
-309.6318
 20
43.30684
 11
-308.9333
 21
43.30684
  0
LINE
  8
0
  6
CONTINUOUS
 62
     7
 10
-309.6318
 20
40.70006
 11
-309.0829
 21
40.70006
  0
LINE
  8
0
  6
CONTINUOUS
 62
     7
 10
-309.6317
 20
40.70004
 11
-309.0753
 21
42.77663
  0
LINE
  8
0
  6
CONTINUOUS
 62
     7
 10
-309.6318
 20
42.77664
 11
-309.0754
 21
42.77664
  0
LINE
  8
0
  6
CONTINUOUS
 62
     7
 10
-309.083
 20
40.70003
 11
-308.5266
 21
42.77662
  0
LINE
  8
0
  6
CONTINUOUS
 62
     7
 10
-308.3506
 20
41.23026
 11
-307.8203
 21
41.23026
  0
LINE
  8
0
  6
CONTINUOUS
 62
     7
 10
-308.3507
 20
41.23022
 11
-308.2086
 21
40.70003
  0
LINE
  8
0
  6
CONTINUOUS
 62
     7
 10
-308.2085
 20
40.70006
 11
-307.4669
 21
40.70006
  0
LINE
  8
0
  6
CONTINUOUS
 62
     7
 10
-308.5265
 20
42.77664
 11
-307.8203
 21
42.77664
  0
LINE
  8
0
  6
CONTINUOUS
 62
     7
 10
-308.3844
 20
43.30684
 11
-307.6436
 21
43.30684
  0
LINE
  8
0
  6
CONTINUOUS
 62
     7
 10
-308.9333
 20
43.30685
 11
-308.8279
 21
43.70008
  0
LINE
  8
0
  6
CONTINUOUS
 62
     7
 10
-308.3843
 20
43.30682
 11
-308.279
 21
43.70006
  0
LINE
  8
0
  6
CONTINUOUS
 62
     7
 10
-306.6716
 20
43.30684
 11
-305.8321
 21
43.30684
  0
LINE
  8
0
  6
CONTINUOUS
 62
     7
 10
-306.6716
 20
42.77664
 11
-304.6099
 21
42.77664
  0
LINE
  8
0
  6
CONTINUOUS
 62
     7
 10
-305.8321
 20
40.70006
 11
-305.1252
 21
40.70006
  0
LINE
  8
0
  6
CONTINUOUS
 62
     7
 10
-306.6716
 20
43.30684
 11
-306.6716
 21
42.77664
  0
LINE
  8
0
  6
CONTINUOUS
 62
     7
 10
-304.0648
 20
41.81525
 11
-304.0648
 21
41.23026
  0
LINE
  8
0
  6
CONTINUOUS
 62
     7
 10
-306.6715
 20
41.23024
 11
-305.8321
 21
41.6217
  0
LINE
  8
0
  6
CONTINUOUS
 62
     7
 10
-306.6715
 20
41.81523
 11
-304.6098
 21
42.77663
  0
LINE
  8
0
  6
CONTINUOUS
 62
     7
 10
-306.6716
 20
41.81525
 11
-306.6716
 21
41.23026
  0
LINE
  8
0
  6
CONTINUOUS
 62
     7
 10
-305.1252
 20
41.72471
 11
-304.0648
 21
41.23024
  0
LINE
  8
0
  6
CONTINUOUS
 62
     7
 10
-304.7408
 20
42.13049
 11
-304.0648
 21
41.81522
  0
LINE
  8
0
  6
CONTINUOUS
 62
     7
 10
-304.0648
 20
42.95337
 11
-304.0648
 21
42.67099
  0
LINE
  8
0
  6
CONTINUOUS
 62
     7
 10
-305.8321
 20
43.70006
 11
-305.8321
 21
43.30684
  0
LINE
  8
0
  6
CONTINUOUS
 62
     7
 10
-305.1252
 20
43.70006
 11
-305.1252
 21
43.30684
  0
LINE
  8
0
  6
CONTINUOUS
 62
     7
 10
-305.1252
 20
43.30684
 11
-304.4182
 21
43.30684
  0
LINE
  8
0
  6
CONTINUOUS
 62
     7
 10
-305.8321
 20
41.6217
 11
-305.8321
 21
40.70006
  0
LINE
  8
0
  6
CONTINUOUS
 62
     7
 10
-305.1252
 20
41.7247
 11
-305.1252
 21
40.70006
  0
LINE
  8
0
  6
CONTINUOUS
 62
     7
 10
-304.7408
 20
42.1305
 11
-304.2688
 21
42.3506
  0
LINE
  8
0
  6
CONTINUOUS
 62
     7
 10
-301.6789
 20
43.541
 11
-301.1488
 21
43.541
  0
LINE
  8
0
  6
CONTINUOUS
 62
     7
 10
-303.8439
 20
42.44582
 11
-303.8439
 21
41.87523
  0
LINE
  8
0
  6
CONTINUOUS
 62
     7
 10
-301.1488
 20
43.541
 11
-301.1488
 21
43.30684
  0
LINE
  8
0
  6
CONTINUOUS
 62
     7
 10
-301.6789
 20
43.541
 11
-301.6789
 21
43.42676
  0
LINE
  8
0
  6
CONTINUOUS
 62
     7
 10
-302.3858
 20
42.45511
 11
-302.3858
 21
40.70007
  0
LINE
  8
0
  6
CONTINUOUS
 62
     7
 10
-303.8439
 20
42.44576
 11
-301.7903
 21
43.26249
  0
LINE
  8
0
  6
CONTINUOUS
 62
     7
 10
-303.844
 20
41.87521
 11
-302.3859
 21
42.4551
  0
LINE
  8
0
  6
CONTINUOUS
 62
     7
 10
-302.3858
 20
40.70006
 11
-301.6789
 21
40.70006
  0
LINE
  8
0
  6
CONTINUOUS
 62
     7
 10
-301.6789
 20
42.73625
 11
-301.6789
 21
40.70007
  0
LINE
  8
0
  6
CONTINUOUS
 62
     7
 10
-301.6789
 20
42.73618
 11
-301.483
 21
42.81409
  0
LINE
  8
0
  6
CONTINUOUS
 62
     7
 10
-308.828
 20
43.70006
 11
-308.2791
 21
43.70006
  0
LINE
  8
0
  6
CONTINUOUS
 62
     7
 10
-307.4006
 20
43.70006
 11
-307.1746
 21
43.70006
  0
LINE
  8
0
  6
CONTINUOUS
 62
     7
 10
-305.8321
 20
43.70006
 11
-305.1252
 21
43.70006
  0
LINE
  8
0
  6
CONTINUOUS
 62
     7
 10
-307.4006
 20
43.34659
 11
-307.1746
 21
43.34659
  0
LINE
  8
0
  6
CONTINUOUS
 62
     7
 10
-307.4006
 20
43.70006
 11
-307.4006
 21
43.34659
  0
LINE
  8
0
  6
CONTINUOUS
 62
     7
 10
-307.1746
 20
43.70006
 11
-307.1746
 21
43.34659
  0
LINE
  8
0
  6
CONTINUOUS
 62
     7
 10
-307.0169
 20
43.70006
 11
-307.0169
 21
43.34659
  0
LINE
  8
0
  6
CONTINUOUS
 62
     7
 10
-306.7909
 20
43.70006
 11
-306.7909
 21
43.34659
  0
LINE
  8
0
  6
CONTINUOUS
 62
     7
 10
-307.0169
 20
43.70006
 11
-306.7909
 21
43.70006
  0
LINE
  8
0
  6
CONTINUOUS
 62
     7
 10
-307.0169
 20
43.34659
 11
-306.7909
 21
43.34659
  0
LINE
  8
0
  6
CONTINUOUS
 62
     7
 10
-314.4366
 20
48.20005
 11
-313.4366
 21
50.20007
  0
LINE
  8
0
  6
CONTINUOUS
 62
     7
 10
-313.6867
 20
49.49379
 11
-313.6867
 21
48.80005
  0
LINE
  8
0
  6
CENTER
 62
     2
 10
-311.4367
 20
53.20006
 11
-311.4367
 21
45.20006
  0
LINE
  8
0
  6
CONTINUOUS
 62
     7
 10
-313.4367
 20
50.20006
 11
-313.2624
 21
50.20006
  0
LINE
  8
0
  6
CONTINUOUS
 62
     7
 10
-309.1867
 20
49.49379
 11
-309.1867
 21
48.80005
  0
LINE
  8
0
  6
CONTINUOUS
 62
     7
 10
-309.6109
 20
50.20006
 11
-300.4367
 21
50.20006
  0
LINE
  8
0
  6
CENTER
 62
     2
 10
-302.4367
 20
53.20007
 11
-302.4367
 21
45.20007
  0
LINE
  8
0
  6
CONTINUOUS
 62
     7
 10
-299.4366
 20
48.20008
 11
-300.4366
 21
50.20007
  0
LINE
  8
0
  6
CONTINUOUS
 62
     7
 10
-314.4367
 20
48.20004
 11
-299.4367
 21
48.20004
  0
LINE
  8
0
  6
CONTINUOUS
 62
     7
 10
-314.4367
 20
47.20006
 11
-299.4367
 21
47.20006
  0
LINE
  8
0
  6
CONTINUOUS
 62
     7
 10
-308.8867
 20
48.80005
 11
-313.9867
 21
48.80005
  0
LINE
  8
0
  6
CONTINUOUS
 62
     7
 10
-308.8867
 20
48.80005
 11
-308.8867
 21
48.20004
  0
LINE
  8
0
  6
CONTINUOUS
 62
     7
 10
-313.9867
 20
48.80005
 11
-313.9867
 21
48.20004
  0
LINE
  8
0
  6
CONTINUOUS
 62
     7
 10
-314.3367
 20
58.70006
 11
-299.5367
 21
58.70006
  0
LINE
  8
0
  6
CONTINUOUS
 62
     7
 10
-312.7367
 20
66.10007
 11
-301.1367
 21
66.10007
  0
LINE
  8
0
  6
CONTINUOUS
 62
     7
 10
-314.3367
 20
59.70006
 11
-299.5367
 21
59.70006
  0
LINE
  8
0
  6
CONTINUOUS
 62
     7
 10
-299.5367
 20
59.70006
 11
-299.5367
 21
58.70006
  0
LINE
  8
0
  6
CONTINUOUS
 62
     7
 10
-314.3367
 20
59.70006
 11
-314.3367
 21
58.70006
  0
LINE
  8
0
  6
CONTINUOUS
 62
     7
 10
-313.4367
 20
65.69592
 11
-313.4367
 21
59.70006
  0
LINE
  8
0
  6
CONTINUOUS
 62
     7
 10
-300.4367
 20
65.69592
 11
-300.4367
 21
59.70006
  0
LINE
  8
0
  6
CONTINUOUS
 62
     7
 10
-301.1367
 20
66.10004
 11
-300.4367
 21
65.6959
  0
LINE
  8
0
  6
CONTINUOUS
 62
     7
 10
-312.7367
 20
66.10017
 11
-313.4367
 21
65.69602
  0
LINE
  8
0
  6
CONTINUOUS
 62
     7
 10
-307.1236
 20
65.1763
 11
-306.7498
 21
65.1763
  0
LINE
  8
0
  6
CONTINUOUS
 62
     7
 10
-307.1236
 20
65.1763
 11
-307.1236
 21
59.70006
  0
LINE
  8
0
  6
CONTINUOUS
 62
     7
 10
-306.7498
 20
65.1763
 11
-306.7498
 21
59.70006
  0
LINE
  8
0
  6
CONTINUOUS
 62
     7
 10
-314.3367
 20
56.70006
 11
-299.5367
 21
56.70006
  0
LINE
  8
0
  6
CONTINUOUS
 62
     7
 10
-314.3367
 20
56.70006
 11
-314.3367
 21
48.40004
  0
LINE
  8
0
  6
CONTINUOUS
 62
     7
 10
-299.5367
 20
56.70006
 11
-299.5367
 21
48.40005
  0
LINE
  8
0
  6
CONTINUOUS
 62
     7
 10
-312.9367
 20
58.70006
 11
-312.9367
 21
56.70006
  0
LINE
  8
0
  6
CONTINUOUS
 62
     7
 10
-300.9367
 20
58.70006
 11
-300.9367
 21
56.70006
  0
LINE
  8
0
  6
CONTINUOUS
 62
     7
 10
-301.6132
 20
58.70006
 11
-301.6132
 21
56.70006
  0
LINE
  8
0
  6
CONTINUOUS
 62
     7
 10
-312.2602
 20
58.70006
 11
-312.2602
 21
56.70006
  0
LINE
  8
0
  6
CONTINUOUS
 62
     7
 10
-299.4367
 20
-66.19992
 11
-299.4367
 21
-39.99994
  0
LINE
  8
0
  6
CONTINUOUS
 62
     7
 10
-299.4367
 20
-39.99994
 11
-314.4367
 21
-39.99994
  0
LINE
  8
0
  6
CONTINUOUS
 62
     7
 10
-314.4367
 20
-66.19992
 11
-314.4367
 21
-39.99994
  0
LINE
  8
0
  6
CONTINUOUS
 62
     7
 10
-305.4367
 20
-68.19992
 11
-305.4367
 21
-66.19992
  0
LINE
  8
0
  6
CONTINUOUS
 62
     7
 10
-300.4367
 20
-62.19995
 11
-313.4367
 21
-62.19995
  0
LINE
  8
0
  6
CONTINUOUS
 62
     7
 10
-300.4367
 20
-58.19995
 11
-313.4367
 21
-58.19995
  0
LINE
  8
0
  6
CONTINUOUS
 62
     7
 10
-313.4367
 20
-62.19995
 11
-313.4367
 21
-58.19995
  0
LINE
  8
0
  6
CONTINUOUS
 62
     7
 10
-300.4367
 20
-62.19992
 11
-300.4367
 21
-58.19992
  0
LINE
  8
0
  6
CONTINUOUS
 62
     7
 10
-301.1487
 20
-61.30673
 11
-303.4904
 21
-61.30673
  0
LINE
  8
0
  6
CONTINUOUS
 62
     7
 10
-301.1487
 20
-59.23013
 11
-303.1369
 21
-59.23013
  0
LINE
  8
0
  6
CONTINUOUS
 62
     7
 10
-301.1487
 20
-58.69995
 11
-303.8439
 21
-58.69995
  0
LINE
  8
0
  6
CONTINUOUS
 62
     7
 10
-301.1487
 20
-60.77652
 11
-303.1369
 21
-60.77652
  0
LINE
  8
0
  6
CONTINUOUS
 62
     7
 10
-301.1488
 20
-61.3067
 11
-301.1488
 21
-60.77652
  0
LINE
  8
0
  6
CONTINUOUS
 62
     7
 10
-303.8439
 20
-60.95325
 11
-303.8439
 21
-58.69995
  0
LINE
  8
0
  6
CONTINUOUS
 62
     7
 10
-303.137
 20
-60.77652
 11
-303.137
 21
-59.23013
  0
LINE
  8
0
  6
CONTINUOUS
 62
     7
 10
-304.2415
 20
-61.30673
 11
-304.2415
 21
-60.77652
  0
LINE
  8
0
  6
CONTINUOUS
 62
     7
 10
-306.7599
 20
-60.77652
 11
-306.7599
 21
-59.05338
  0
LINE
  8
0
  6
CONTINUOUS
 62
     7
 10
-306.053
 20
-60.77652
 11
-306.053
 21
-59.23013
  0
LINE
  8
0
  6
CONTINUOUS
 62
     7
 10
-301.1488
 20
-59.23013
 11
-301.1488
 21
-58.69992
  0
LINE
  8
0
  6
CONTINUOUS
 62
     7
 10
-304.2415
 20
-61.30673
 11
-304.94
 21
-61.30673
  0
LINE
  8
0
  6
CONTINUOUS
 62
     7
 10
-304.2415
 20
-58.69995
 11
-304.7904
 21
-58.69995
  0
LINE
  8
0
  6
CONTINUOUS
 62
     7
 10
-304.2414
 20
-58.69997
 11
-304.7979
 21
-60.77655
  0
LINE
  8
0
  6
CONTINUOUS
 62
     7
 10
-304.2415
 20
-60.77652
 11
-304.7979
 21
-60.77652
  0
LINE
  8
0
  6
CONTINUOUS
 62
     7
 10
-304.7906
 20
-58.69991
 11
-305.347
 21
-60.7765
  0
LINE
  8
0
  6
CONTINUOUS
 62
     7
 10
-305.5228
 20
-59.23013
 11
-306.053
 21
-59.23013
  0
LINE
  8
0
  6
CONTINUOUS
 62
     7
 10
-305.5229
 20
-59.23016
 11
-305.665
 21
-58.69997
  0
LINE
  8
0
  6
CONTINUOUS
 62
     7
 10
-305.6649
 20
-58.69995
 11
-306.4065
 21
-58.69995
  0
LINE
  8
0
  6
CONTINUOUS
 62
     7
 10
-305.3468
 20
-60.77652
 11
-306.053
 21
-60.77652
  0
LINE
  8
0
  6
CONTINUOUS
 62
     7
 10
-305.4889
 20
-61.30673
 11
-306.2298
 21
-61.30673
  0
LINE
  8
0
  6
CONTINUOUS
 62
     7
 10
-304.9401
 20
-61.30669
 11
-305.0454
 21
-61.6999
  0
LINE
  8
0
  6
CONTINUOUS
 62
     7
 10
-305.4888
 20
-61.30673
 11
-305.5942
 21
-61.69996
  0
LINE
  8
0
  6
CONTINUOUS
 62
     7
 10
-307.2018
 20
-61.30673
 11
-308.0412
 21
-61.30673
  0
LINE
  8
0
  6
CONTINUOUS
 62
     7
 10
-307.2018
 20
-60.77652
 11
-309.2635
 21
-60.77652
  0
LINE
  8
0
  6
CONTINUOUS
 62
     7
 10
-308.0412
 20
-58.69995
 11
-308.7481
 21
-58.69995
  0
LINE
  8
0
  6
CONTINUOUS
 62
     7
 10
-307.2018
 20
-61.30673
 11
-307.2018
 21
-60.77652
  0
LINE
  8
0
  6
CONTINUOUS
 62
     7
 10
-309.8086
 20
-59.81512
 11
-309.8086
 21
-59.23013
  0
LINE
  8
0
  6
CONTINUOUS
 62
     7
 10
-307.2017
 20
-59.23015
 11
-308.0411
 21
-59.62161
  0
LINE
  8
0
  6
CONTINUOUS
 62
     7
 10
-307.2018
 20
-59.81509
 11
-309.2635
 21
-60.77649
  0
LINE
  8
0
  6
CONTINUOUS
 62
     7
 10
-307.2018
 20
-59.81512
 11
-307.2018
 21
-59.23013
  0
LINE
  8
0
  6
CONTINUOUS
 62
     7
 10
-308.7481
 20
-59.72459
 11
-309.8085
 21
-59.23014
  0
LINE
  8
0
  6
CONTINUOUS
 62
     7
 10
-309.1324
 20
-60.13039
 11
-309.8086
 21
-59.81511
  0
LINE
  8
0
  6
CONTINUOUS
 62
     7
 10
-309.8086
 20
-60.95325
 11
-309.8086
 21
-60.67087
  0
LINE
  8
0
  6
CONTINUOUS
 62
     7
 10
-308.0412
 20
-61.69995
 11
-308.0412
 21
-61.30673
  0
LINE
  8
0
  6
CONTINUOUS
 62
     7
 10
-308.7481
 20
-61.69995
 11
-308.7481
 21
-61.30673
  0
LINE
  8
0
  6
CONTINUOUS
 62
     7
 10
-308.7481
 20
-61.30673
 11
-309.4551
 21
-61.30673
  0
LINE
  8
0
  6
CONTINUOUS
 62
     7
 10
-308.0412
 20
-59.62158
 11
-308.0412
 21
-58.69995
  0
LINE
  8
0
  6
CONTINUOUS
 62
     7
 10
-308.7481
 20
-59.72458
 11
-308.7481
 21
-58.69995
  0
LINE
  8
0
  6
CONTINUOUS
 62
     7
 10
-309.1324
 20
-60.13035
 11
-309.6045
 21
-60.35048
  0
LINE
  8
0
  6
CONTINUOUS
 62
     7
 10
-312.1944
 20
-61.54086
 11
-312.7246
 21
-61.54086
  0
LINE
  8
0
  6
CONTINUOUS
 62
     7
 10
-310.0294
 20
-60.44568
 11
-310.0294
 21
-59.87509
  0
LINE
  8
0
  6
CONTINUOUS
 62
     7
 10
-312.7246
 20
-61.54089
 11
-312.7246
 21
-61.30673
  0
LINE
  8
0
  6
CONTINUOUS
 62
     7
 10
-312.1944
 20
-61.54089
 11
-312.1944
 21
-61.42664
  0
LINE
  8
0
  6
CONTINUOUS
 62
     7
 10
-311.4875
 20
-60.45499
 11
-311.4875
 21
-58.69995
  0
LINE
  8
0
  6
CONTINUOUS
 62
     7
 10
-310.0295
 20
-60.44564
 11
-312.0831
 21
-61.26237
  0
LINE
  8
0
  6
CONTINUOUS
 62
     7
 10
-310.0295
 20
-59.87509
 11
-311.4875
 21
-60.45496
  0
LINE
  8
0
  6
CONTINUOUS
 62
     7
 10
-311.4875
 20
-58.69995
 11
-312.1944
 21
-58.69995
  0
LINE
  8
0
  6
CONTINUOUS
 62
     7
 10
-312.1944
 20
-60.73611
 11
-312.1944
 21
-58.69995
  0
LINE
  8
0
  6
CONTINUOUS
 62
     7
 10
-312.1945
 20
-60.73612
 11
-312.3904
 21
-60.81406
  0
LINE
  8
0
  6
CONTINUOUS
 62
     7
 10
-305.0454
 20
-61.69995
 11
-305.5943
 21
-61.69995
  0
LINE
  8
0
  6
CONTINUOUS
 62
     7
 10
-306.4727
 20
-61.69995
 11
-306.6988
 21
-61.69995
  0
LINE
  8
0
  6
CONTINUOUS
 62
     7
 10
-308.0412
 20
-61.69995
 11
-308.7481
 21
-61.69995
  0
LINE
  8
0
  6
CONTINUOUS
 62
     7
 10
-306.4727
 20
-61.34647
 11
-306.6988
 21
-61.34647
  0
LINE
  8
0
  6
CONTINUOUS
 62
     7
 10
-306.4727
 20
-61.69995
 11
-306.4727
 21
-61.34647
  0
LINE
  8
0
  6
CONTINUOUS
 62
     7
 10
-306.6988
 20
-61.69995
 11
-306.6988
 21
-61.34647
  0
LINE
  8
0
  6
CONTINUOUS
 62
     7
 10
-306.8565
 20
-61.69995
 11
-306.8565
 21
-61.34647
  0
LINE
  8
0
  6
CONTINUOUS
 62
     7
 10
-307.0825
 20
-61.69995
 11
-307.0825
 21
-61.34647
  0
LINE
  8
0
  6
CONTINUOUS
 62
     7
 10
-306.8565
 20
-61.69995
 11
-307.0825
 21
-61.69995
  0
LINE
  8
0
  6
CONTINUOUS
 62
     7
 10
-306.8565
 20
-61.34647
 11
-307.0825
 21
-61.34647
  0
LINE
  8
0
  6
CONTINUOUS
 62
     7
 10
-299.4367
 20
-66.19995
 11
-300.4367
 21
-68.19991
  0
LINE
  8
0
  6
CONTINUOUS
 62
     7
 10
-300.1867
 20
-67.49368
 11
-300.1867
 21
-66.79993
  0
LINE
  8
0
  6
CENTER
 62
     2
 10
-302.4367
 20
-71.19995
 11
-302.4367
 21
-63.19995
  0
LINE
  8
0
  6
CONTINUOUS
 62
     7
 10
-300.4367
 20
-68.19992
 11
-300.6109
 21
-68.19992
  0
LINE
  8
0
  6
CONTINUOUS
 62
     7
 10
-304.6867
 20
-67.49368
 11
-304.6867
 21
-66.79993
  0
LINE
  8
0
  6
CONTINUOUS
 62
     7
 10
-304.2624
 20
-68.19992
 11
-313.4367
 21
-68.19992
  0
LINE
  8
0
  6
CENTER
 62
     2
 10
-311.4367
 20
-71.19995
 11
-311.4367
 21
-63.19995
  0
LINE
  8
0
  6
CONTINUOUS
 62
     7
 10
-314.4366
 20
-66.1999
 11
-313.4366
 21
-68.1999
  0
LINE
  8
0
  6
CONTINUOUS
 62
     7
 10
-299.4367
 20
-66.19992
 11
-314.4367
 21
-66.19992
  0
LINE
  8
0
  6
CONTINUOUS
 62
     7
 10
-299.4367
 20
-65.19992
 11
-314.4367
 21
-65.19992
  0
LINE
  8
0
  6
CONTINUOUS
 62
     7
 10
-304.9867
 20
-66.79993
 11
-299.8867
 21
-66.79993
  0
LINE
  8
0
  6
CONTINUOUS
 62
     7
 10
-304.9867
 20
-66.79993
 11
-304.9867
 21
-66.19992
  0
LINE
  8
0
  6
CONTINUOUS
 62
     7
 10
-299.8867
 20
-66.79993
 11
-299.8867
 21
-66.19992
  0
LINE
  8
0
  6
CONTINUOUS
 62
     7
 10
-299.5367
 20
-76.69992
 11
-314.3366
 21
-76.69992
  0
LINE
  8
0
  6
CONTINUOUS
 62
     7
 10
-301.1367
 20
-84.09995
 11
-312.7367
 21
-84.09995
  0
LINE
  8
0
  6
CONTINUOUS
 62
     7
 10
-299.5367
 20
-77.69992
 11
-314.3366
 21
-77.69992
  0
LINE
  8
0
  6
CONTINUOUS
 62
     7
 10
-314.3367
 20
-77.69992
 11
-314.3367
 21
-76.69992
  0
LINE
  8
0
  6
CONTINUOUS
 62
     7
 10
-299.5367
 20
-77.69992
 11
-299.5367
 21
-76.69992
  0
LINE
  8
0
  6
CONTINUOUS
 62
     7
 10
-300.4367
 20
-83.69577
 11
-300.4367
 21
-77.69992
  0
LINE
  8
0
  6
CONTINUOUS
 62
     7
 10
-313.4367
 20
-83.6958
 11
-313.4367
 21
-77.69992
  0
LINE
  8
0
  6
CONTINUOUS
 62
     7
 10
-312.7367
 20
-84.09998
 11
-313.4367
 21
-83.69583
  0
LINE
  8
0
  6
CONTINUOUS
 62
     7
 10
-301.1367
 20
-84.09995
 11
-300.4367
 21
-83.6958
  0
LINE
  8
0
  6
CONTINUOUS
 62
     7
 10
-306.7497
 20
-83.17618
 11
-307.1236
 21
-83.17618
  0
LINE
  8
0
  6
CONTINUOUS
 62
     7
 10
-306.7498
 20
-83.17618
 11
-306.7498
 21
-77.69992
  0
LINE
  8
0
  6
CONTINUOUS
 62
     7
 10
-307.1236
 20
-83.17618
 11
-307.1236
 21
-77.69992
  0
LINE
  8
0
  6
CONTINUOUS
 62
     7
 10
-299.5367
 20
-74.69992
 11
-314.3366
 21
-74.69992
  0
LINE
  8
0
  6
CONTINUOUS
 62
     7
 10
-299.5367
 20
-74.69992
 11
-299.5367
 21
-66.39993
  0
LINE
  8
0
  6
CONTINUOUS
 62
     7
 10
-314.3367
 20
-74.69992
 11
-314.3367
 21
-66.39993
  0
LINE
  8
0
  6
CONTINUOUS
 62
     7
 10
-300.9367
 20
-76.69992
 11
-300.9367
 21
-74.69992
  0
LINE
  8
0
  6
CONTINUOUS
 62
     7
 10
-312.9367
 20
-76.69992
 11
-312.9367
 21
-74.69992
  0
LINE
  8
0
  6
CONTINUOUS
 62
     7
 10
-312.2602
 20
-76.69992
 11
-312.2602
 21
-74.69992
  0
LINE
  8
0
  6
CONTINUOUS
 62
     7
 10
-301.6132
 20
-76.69992
 11
-301.6132
 21
-74.69992
  0
LINE
  8
0
  6
CONTINUOUS
 62
     7
 10
-58.43674
 20
21.99991
 11
-58.43674
 21
-40.00009
  0
LINE
  8
0
  6
CONTINUOUS
 62
     7
 10
-43.43674
 20
21.99991
 11
-43.43674
 21
-40.00009
  0
LINE
  8
0
  6
CONTINUOUS
 62
     7
 10
-58.43674
 20
4.99991
 11
-43.43674
 21
4.99991
  0
LINE
  8
0
  6
CONTINUOUS
 62
     7
 10
-58.43674
 20
-23.00009
 11
-43.43674
 21
-23.00009
  0
LINE
  8
0
  6
CENTER
 62
     2
 10
-50.93674
 20
69.66656
 11
-50.93674
 21
-88.33344
  0
LINE
  8
0
  6
CENTER
 62
     2
 10
-51.40134
 20
-4.00009
 11
-44.45149
 21
-4.00009
  0
LINE
  8
0
  6
CENTER
 62
     2
 10
-57.25385
 20
-14.00009
 11
-50.304
 21
-14.00009
  0
LINE
  8
0
  6
CENTER
 62
     2
 10
-47.93674
 20
-0.40128
 11
-47.93674
 21
-8.17413
  0
LINE
  8
0
  6
CENTER
 62
     2
 10
-53.93674
 20
-10.55173
 11
-53.93674
 21
-17.50156
  0
LINE
  8
0
  6
CENTER
 62
     2
 10
-49.02376
 20
-18.00009
 11
-42.80547
 21
-18.00009
  0
LINE
  8
0
  6
CENTER
 62
     2
 10
-45.43674
 20
-14.48386
 11
-45.43674
 21
-21.43372
  0
LINE
  8
0
  6
CENTER
 62
     2
 10
-56.43674
 20
3.62234
 11
-56.43674
 21
-3.69333
  0
LINE
  8
0
  6
CENTER
 62
     2
 10
-53.32169
 20
18.49991
 11
-48.47508
 21
18.49991
  0
LINE
  8
0
  6
CENTER
 62
     2
 10
-59.06335
 20
-0.00009
 11
-52.77303
 21
-0.00009
  0
LINE
  8
0
  6
CENTER
 62
     2
 10
-53.32169
 20
-36.50009
 11
-48.47508
 21
-36.50009
  0
LINE
  8
0
  6
CONTINUOUS
 62
     7
 10
-58.43674
 20
48.19991
 11
-58.43674
 21
21.99991
  0
LINE
  8
0
  6
CONTINUOUS
 62
     7
 10
-58.43674
 20
47.19991
 11
-58.33675
 21
47.19991
  0
LINE
  8
0
  6
CONTINUOUS
 62
     7
 10
-43.43674
 20
48.19992
 11
-43.43674
 21
21.99991
  0
LINE
  8
0
  6
CONTINUOUS
 62
     7
 10
-58.43674
 20
21.99991
 11
-43.43674
 21
21.99991
  0
LINE
  8
0
  6
CONTINUOUS
 62
     7
 10
-58.43674
 20
48.19989
 11
-58.33675
 21
48.19989
  0
LINE
  8
0
  6
CONTINUOUS
 62
     7
 10
-43.43674
 20
48.19991
 11
-43.53675
 21
48.39991
  0
LINE
  8
0
  6
CONTINUOUS
 62
     7
 10
-58.43674
 20
48.19991
 11
-58.33675
 21
48.3999
  0
LINE
  8
0
  6
CONTINUOUS
 62
     7
 10
-57.83675
 20
46.3999
 11
-44.03674
 21
46.3999
  0
LINE
  8
0
  6
CONTINUOUS
 62
     7
 10
-57.83675
 20
31.59991
 11
-44.03674
 21
31.59991
  0
LINE
  8
0
  6
CENTER
 62
     2
 10
-61.43674
 20
38.99991
 11
-40.43674
 21
38.99991
  0
LINE
  8
0
  6
CONTINUOUS
 62
     7
 10
-52.20953
 20
38.15137
 11
-51.78526
 21
38.57564
  0
LINE
  8
0
  6
CONTINUOUS
 62
     7
 10
-51.78526
 20
37.72711
 11
-51.36098
 21
38.15138
  0
LINE
  8
0
  6
CONTINUOUS
 62
     7
 10
-52.20951
 20
38.15139
 11
-51.78524
 21
37.72712
  0
LINE
  8
0
  6
CONTINUOUS
 62
     7
 10
-50.08825
 20
40.27268
 11
-49.66398
 21
39.84842
  0
LINE
  8
0
  6
CONTINUOUS
 62
     7
 10
-53.11739
 20
40.75628
 11
-51.78528
 21
39.42417
  0
LINE
  8
0
  6
CONTINUOUS
 62
     7
 10
-52.69312
 20
41.18055
 11
-51.36101
 21
39.84844
  0
LINE
  8
0
  6
CONTINUOUS
 62
     7
 10
-50.51248
 20
39.84842
 11
-50.08821
 21
40.27269
  0
LINE
  8
0
  6
CONTINUOUS
 62
     7
 10
-50.0882
 20
39.42416
 11
-49.66393
 21
39.84843
  0
LINE
  8
0
  6
CONTINUOUS
 62
     7
 10
-50.51249
 20
38.15137
 11
-49.18038
 21
36.81927
  0
LINE
  8
0
  6
CONTINUOUS
 62
     7
 10
-50.08822
 20
38.57565
 11
-48.75611
 21
37.24354
  0
LINE
  8
0
  6
CONTINUOUS
 62
     7
 10
-58.33675
 20
58.69991
 11
-43.53674
 21
58.69991
  0
LINE
  8
0
  6
CONTINUOUS
 62
     7
 10
-56.73676
 20
66.09991
 11
-45.13675
 21
66.09991
  0
LINE
  8
0
  6
CONTINUOUS
 62
     7
 10
-58.33675
 20
59.69991
 11
-43.53674
 21
59.69991
  0
LINE
  8
0
  6
CONTINUOUS
 62
     7
 10
-43.53674
 20
59.69991
 11
-43.53674
 21
58.69991
  0
LINE
  8
0
  6
CONTINUOUS
 62
     7
 10
-58.33673
 20
59.69991
 11
-58.33673
 21
58.69991
  0
LINE
  8
0
  6
CONTINUOUS
 62
     7
 10
-57.43674
 20
65.69577
 11
-57.43674
 21
59.69991
  0
LINE
  8
0
  6
CONTINUOUS
 62
     7
 10
-44.43674
 20
65.69577
 11
-44.43674
 21
59.69991
  0
LINE
  8
0
  6
CONTINUOUS
 62
     7
 10
-45.13674
 20
66.0999
 11
-44.43675
 21
65.69577
  0
LINE
  8
0
  6
CONTINUOUS
 62
     7
 10
-56.73676
 20
66.09989
 11
-57.43673
 21
65.69576
  0
LINE
  8
0
  6
CONTINUOUS
 62
     7
 10
-51.12366
 20
65.17615
 11
-50.74983
 21
65.17615
  0
LINE
  8
0
  6
CONTINUOUS
 62
     7
 10
-43.53674
 20
48.19989
 11
-43.43674
 21
48.19989
  0
LINE
  8
0
  6
CONTINUOUS
 62
     7
 10
-43.53674
 20
47.19991
 11
-43.43674
 21
47.19991
  0
LINE
  8
0
  6
CONTINUOUS
 62
     7
 10
-50.74982
 20
65.17615
 11
-50.74982
 21
59.69991
  0
LINE
  8
0
  6
CONTINUOUS
 62
     7
 10
-51.12366
 20
65.17615
 11
-51.12366
 21
59.69991
  0
LINE
  8
0
  6
CONTINUOUS
 62
     7
 10
-58.33675
 20
56.69991
 11
-43.53674
 21
56.69991
  0
LINE
  8
0
  6
CONTINUOUS
 62
     7
 10
-58.33673
 20
56.69991
 11
-58.33673
 21
32.09991
  0
LINE
  8
0
  6
CONTINUOUS
 62
     7
 10
-43.53674
 20
56.69991
 11
-43.53674
 21
32.09991
  0
LINE
  8
0
  6
CONTINUOUS
 62
     7
 10
-44.93674
 20
58.69991
 11
-44.93674
 21
56.69991
  0
LINE
  8
0
  6
CONTINUOUS
 62
     7
 10
-56.93674
 20
58.69991
 11
-56.93674
 21
56.69991
  0
LINE
  8
0
  6
CONTINUOUS
 62
     7
 10
-45.61324
 20
58.69991
 11
-45.61324
 21
56.69991
  0
LINE
  8
0
  6
CONTINUOUS
 62
     7
 10
-56.26024
 20
58.69991
 11
-56.26024
 21
56.69991
  0
LINE
  8
0
  6
CONTINUOUS
 62
     7
 10
-43.43674
 20
-66.2001
 11
-43.43674
 21
-40.00009
  0
LINE
  8
0
  6
CONTINUOUS
 62
     7
 10
-43.43672
 20
-65.2001
 11
-43.53673
 21
-65.2001
  0
LINE
  8
0
  6
CONTINUOUS
 62
     7
 10
-58.43674
 20
-66.2001
 11
-58.43674
 21
-40.00009
  0
LINE
  8
0
  6
CONTINUOUS
 62
     7
 10
-43.43674
 20
-40.00009
 11
-58.43674
 21
-40.00009
  0
LINE
  8
0
  6
CONTINUOUS
 62
     7
 10
-43.43672
 20
-66.20007
 11
-43.53673
 21
-66.20007
  0
LINE
  8
0
  6
CONTINUOUS
 62
     7
 10
-58.4367
 20
-66.20009
 11
-58.3367
 21
-66.40008
  0
LINE
  8
0
  6
CONTINUOUS
 62
     7
 10
-43.43675
 20
-66.20007
 11
-43.53675
 21
-66.40006
  0
LINE
  8
0
  6
CONTINUOUS
 62
     7
 10
-44.03673
 20
-64.40009
 11
-57.83673
 21
-64.40009
  0
LINE
  8
0
  6
CONTINUOUS
 62
     7
 10
-44.03673
 20
-49.6001
 11
-57.83673
 21
-49.6001
  0
LINE
  8
0
  6
CENTER
 62
     2
 10
-40.43674
 20
-57.00009
 11
-61.43674
 21
-57.00009
  0
LINE
  8
0
  6
CONTINUOUS
 62
     7
 10
-49.66393
 20
-56.15156
 11
-50.08818
 21
-56.57581
  0
LINE
  8
0
  6
CONTINUOUS
 62
     7
 10
-50.08818
 20
-55.72731
 11
-50.51245
 21
-56.15158
  0
LINE
  8
0
  6
CONTINUOUS
 62
     7
 10
-49.66396
 20
-56.15157
 11
-50.08823
 21
-55.72729
  0
LINE
  8
0
  6
CONTINUOUS
 62
     7
 10
-51.78531
 20
-58.27295
 11
-52.20958
 21
-57.84868
  0
LINE
  8
0
  6
CONTINUOUS
 62
     7
 10
-48.75613
 20
-58.75652
 11
-50.08823
 21
-57.42442
  0
LINE
  8
0
  6
CONTINUOUS
 62
     7
 10
-49.1804
 20
-59.18077
 11
-50.51251
 21
-57.84867
  0
LINE
  8
0
  6
CONTINUOUS
 62
     7
 10
-51.36098
 20
-57.84861
 11
-51.78525
 21
-58.27288
  0
LINE
  8
0
  6
CONTINUOUS
 62
     7
 10
-51.78523
 20
-57.42436
 11
-52.2095
 21
-57.84863
  0
LINE
  8
0
  6
CONTINUOUS
 62
     7
 10
-51.36104
 20
-56.15161
 11
-52.69315
 21
-54.81951
  0
LINE
  8
0
  6
CONTINUOUS
 62
     7
 10
-51.78531
 20
-56.57587
 11
-53.11741
 21
-55.24377
  0
LINE
  8
0
  6
CONTINUOUS
 62
     7
 10
-43.53673
 20
-76.7001
 11
-58.33673
 21
-76.7001
  0
LINE
  8
0
  6
CONTINUOUS
 62
     7
 10
-45.13672
 20
-84.1001
 11
-56.73672
 21
-84.1001
  0
LINE
  8
0
  6
CONTINUOUS
 62
     7
 10
-43.53671
 20
-77.7001
 11
-58.33673
 21
-77.7001
  0
LINE
  8
0
  6
CONTINUOUS
 62
     7
 10
-58.33673
 20
-77.7001
 11
-58.33673
 21
-76.7001
  0
LINE
  8
0
  6
CONTINUOUS
 62
     7
 10
-43.53674
 20
-77.7001
 11
-43.53674
 21
-76.7001
  0
LINE
  8
0
  6
CONTINUOUS
 62
     7
 10
-44.43674
 20
-83.69595
 11
-44.43674
 21
-77.7001
  0
LINE
  8
0
  6
CONTINUOUS
 62
     7
 10
-57.43674
 20
-83.69595
 11
-57.43674
 21
-77.7001
  0
LINE
  8
0
  6
CONTINUOUS
 62
     7
 10
-56.73673
 20
-84.10008
 11
-57.43672
 21
-83.69595
  0
LINE
  8
0
  6
CONTINUOUS
 62
     7
 10
-45.13668
 20
-84.10018
 11
-44.43668
 21
-83.69604
  0
LINE
  8
0
  6
CONTINUOUS
 62
     7
 10
-50.7498
 20
-83.17633
 11
-51.12363
 21
-83.17633
  0
LINE
  8
0
  6
CONTINUOUS
 62
     7
 10
-58.33673
 20
-66.20007
 11
-58.43672
 21
-66.20007
  0
LINE
  8
0
  6
CONTINUOUS
 62
     7
 10
-58.33673
 20
-65.2001
 11
-58.43672
 21
-65.2001
  0
LINE
  8
0
  6
CONTINUOUS
 62
     7
 10
-51.12366
 20
-83.17633
 11
-51.12366
 21
-77.7001
  0
LINE
  8
0
  6
CONTINUOUS
 62
     7
 10
-50.74982
 20
-83.17633
 11
-50.74982
 21
-77.7001
  0
LINE
  8
0
  6
CONTINUOUS
 62
     7
 10
-43.53673
 20
-74.7001
 11
-58.33673
 21
-74.7001
  0
LINE
  8
0
  6
CONTINUOUS
 62
     7
 10
-43.53674
 20
-74.7001
 11
-43.53674
 21
-50.1001
  0
LINE
  8
0
  6
CONTINUOUS
 62
     7
 10
-58.33673
 20
-74.7001
 11
-58.33673
 21
-50.1001
  0
LINE
  8
0
  6
CONTINUOUS
 62
     7
 10
-56.93674
 20
-76.7001
 11
-56.93674
 21
-74.7001
  0
LINE
  8
0
  6
CONTINUOUS
 62
     7
 10
-44.93674
 20
-76.7001
 11
-44.93674
 21
-74.7001
  0
LINE
  8
0
  6
CONTINUOUS
 62
     7
 10
-56.26024
 20
-76.7001
 11
-56.26024
 21
-74.7001
  0
LINE
  8
0
  6
CONTINUOUS
 62
     7
 10
-45.61324
 20
-76.7001
 11
-45.61324
 21
-74.7001
  0
LINE
  8
0
  6
CENTER
 62
     2
 10
-148.0812
 20
-169.0
 11
-208.4367
 21
-169.0
  0
LINE
  8
0
  6
CENTER
 62
     2
 10
-194.4367
 20
-178.9484
 11
-194.4367
 21
-159.0122
  0
LINE
  8
0
  6
CONTINUOUS
 62
     7
 10
-185.4367
 20
-170.5
 11
-182.4367
 21
-170.5
  0
LINE
  8
0
  6
CONTINUOUS
 62
     7
 10
-203.4367
 20
-167.5
 11
-206.4367
 21
-167.5
  0
LINE
  8
0
  6
CONTINUOUS
 62
     7
 10
-200.4367
 20
-164.5
 11
-200.4367
 21
-161.5
  0
LINE
  8
0
  6
CONTINUOUS
 62
     7
 10
-188.4367
 20
-173.5
 11
-188.4367
 21
-176.5
  0
LINE
  8
0
  6
CONTINUOUS
 62
     7
 10
-205.4367
 20
-167.5
 11
-205.4367
 21
-175.5
  0
LINE
  8
0
  6
CONTINUOUS
 62
     7
 10
-183.4367
 20
-162.5
 11
-183.4367
 21
-170.5
  0
LINE
  8
0
  6
CONTINUOUS
 62
     7
 10
-200.4367
 20
-162.5
 11
-183.4367
 21
-162.5
  0
LINE
  8
0
  6
CONTINUOUS
 62
     7
 10
-205.4367
 20
-175.5
 11
-188.4367
 21
-175.5
  0
LINE
  8
0
  6
CONTINUOUS
 62
     7
 10
-185.1367
 20
-175.7299
 11
-185.1367
 21
-176.0323
  0
LINE
  8
0
  6
CONTINUOUS
 62
     7
 10
-185.7368
 20
-175.7299
 11
-185.7368
 21
-176.0323
  0
LINE
  8
0
  6
CONTINUOUS
 62
     7
 10
-185.8975
 20
-176.008
 11
-185.8975
 21
-175.7023
  0
LINE
  8
0
  6
CONTINUOUS
 62
     7
 10
-203.7368
 20
-162.2701
 11
-203.7368
 21
-161.9677
  0
LINE
  8
0
  6
CONTINUOUS
 62
     7
 10
-203.1367
 20
-162.2701
 11
-203.1367
 21
-161.9677
  0
LINE
  8
0
  6
CONTINUOUS
 62
     7
 10
-202.976
 20
-161.992
 11
-202.976
 21
-162.2977
  0
LINE
  8
0
  6
CONTINUOUS
 62
     7
 10
-186.5398
 20
-174.2354
 11
-186.1721
 21
-173.8677
  0
LINE
  8
0
  6
CONTINUOUS
 62
     7
 10
-186.1721
 20
-174.6031
 11
-185.8044
 21
-174.2354
  0
LINE
  8
0
  6
CONTINUOUS
 62
     7
 10
-186.5399
 20
-174.2355
 11
-186.1722
 21
-174.6032
  0
LINE
  8
0
  6
CONTINUOUS
 62
     7
 10
-184.7014
 20
-172.397
 11
-184.3337
 21
-172.7647
  0
LINE
  8
0
  6
CONTINUOUS
 62
     7
 10
-187.2009
 20
-172.1036
 11
-186.1721
 21
-173.1324
  0
LINE
  8
0
  6
CONTINUOUS
 62
     7
 10
-186.8333
 20
-171.7359
 11
-185.8045
 21
-172.7647
  0
LINE
  8
0
  6
CONTINUOUS
 62
     7
 10
-185.069
 20
-172.7646
 11
-184.7014
 21
-172.3969
  0
LINE
  8
0
  6
CONTINUOUS
 62
     7
 10
-184.7013
 20
-173.1323
 11
-184.3337
 21
-172.7646
  0
LINE
  8
0
  6
CONTINUOUS
 62
     7
 10
-185.0691
 20
-174.2354
 11
-184.0403
 21
-175.2642
  0
LINE
  8
0
  6
CONTINUOUS
 62
     7
 10
-184.7014
 20
-173.8678
 11
-183.6726
 21
-174.8965
  0
LINE
  8
0
  6
CONTINUOUS
 62
     7
 10
-204.5398
 20
-165.2354
 11
-204.1721
 21
-164.8677
  0
LINE
  8
0
  6
CONTINUOUS
 62
     7
 10
-204.1721
 20
-165.603
 11
-203.8045
 21
-165.2354
  0
LINE
  8
0
  6
CONTINUOUS
 62
     7
 10
-204.5399
 20
-165.2355
 11
-204.1722
 21
-165.6031
  0
LINE
  8
0
  6
CONTINUOUS
 62
     7
 10
-202.7014
 20
-163.397
 11
-202.3337
 21
-163.7647
  0
LINE
  8
0
  6
CONTINUOUS
 62
     7
 10
-205.201
 20
-163.1036
 11
-204.1722
 21
-164.1324
  0
LINE
  8
0
  6
CONTINUOUS
 62
     7
 10
-204.8333
 20
-162.7359
 11
-203.8045
 21
-163.7647
  0
LINE
  8
0
  6
CONTINUOUS
 62
     7
 10
-203.069
 20
-163.7646
 11
-202.7013
 21
-163.3969
  0
LINE
  8
0
  6
CONTINUOUS
 62
     7
 10
-202.7014
 20
-164.1323
 11
-202.3337
 21
-163.7646
  0
LINE
  8
0
  6
CONTINUOUS
 62
     7
 10
-203.0691
 20
-165.2355
 11
-202.0403
 21
-166.2643
  0
LINE
  8
0
  6
CONTINUOUS
 62
     7
 10
-202.7014
 20
-164.8678
 11
-201.6726
 21
-165.8965
  0
LINE
  8
0
  6
CENTER
 62
     2
 10
-185.4367
 20
-169.5
 11
-185.4367
 21
-177.5
  0
LINE
  8
0
  6
CENTER
 62
     2
 10
-203.4367
 20
-160.5
 11
-203.4367
 21
-168.5
  0
LINE
  8
0
  6
CENTER
 62
     2
 10
-207.4367
 20
-164.5
 11
-199.4367
 21
-164.5
  0
LINE
  8
0
  6
CONTINUOUS
 62
     7
 10
-206.4367
 20
-162.0
 11
-206.4367
 21
-176.0
  0
LINE
  8
0
  6
CONTINUOUS
 62
     7
 10
-205.9367
 20
-161.5
 11
-175.4367
 21
-161.5
  0
LINE
  8
0
  6
CONTINUOUS
 62
     7
 10
-205.9367
 20
-176.5
 11
-175.4367
 21
-176.5
  0
LINE
  8
0
  6
CONTINUOUS
 62
     7
 10
-179.4367
 20
-161.5
 11
-179.4367
 21
-176.5
  0
LINE
  8
0
  6
CONTINUOUS
 62
     7
 10
-175.4367
 20
-161.5
 11
-175.4367
 21
-161.6
  0
LINE
  8
0
  6
CONTINUOUS
 62
     7
 10
-174.9367
 20
-176.4
 11
-152.9367
 21
-176.4
  0
LINE
  8
0
  6
CONTINUOUS
 62
     7
 10
-174.9367
 20
-161.6
 11
-152.9367
 21
-161.6
  0
LINE
  8
0
  6
CONTINUOUS
 62
     7
 10
-152.4367
 20
-162.1
 11
-152.4367
 21
-175.9
  0
LINE
  8
0
  6
CONTINUOUS
 62
     7
 10
-151.2649
 20
-171.8
 11
-151.9367
 21
-171.8
  0
LINE
  8
0
  6
CONTINUOUS
 62
     7
 10
-151.2649
 20
-166.2
 11
-151.9367
 21
-166.2
  0
LINE
  8
0
  6
CONTINUOUS
 62
     7
 10
-151.9367
 20
-172.25
 11
-151.9367
 21
-165.75
  0
LINE
  8
0
  6
CONTINUOUS
 62
     7
 10
-151.9367
 20
-172.25
 11
-152.4367
 21
-172.25
  0
LINE
  8
0
  6
CONTINUOUS
 62
     7
 10
-151.9367
 20
-165.75
 11
-152.4367
 21
-165.75
  0
LINE
  8
0
  6
CENTER
 62
     2
 10
-159.8368
 20
-158.6
 11
-159.8368
 21
-179.4
  0
LINE
  8
0
  6
CONTINUOUS
 62
     7
 10
-175.4367
 20
-176.4
 11
-175.4367
 21
-176.5
  0
LINE
  8
0
  6
CONTINUOUS
 62
     7
 10
-175.4367
 20
-176.4
 11
-175.4367
 21
-161.6
  0
LINE
  8
0
  6
CONTINUOUS
 62
     7
 10
-174.9367
 20
-176.4
 11
-174.9367
 21
-161.6
  0
LINE
  8
0
  6
CONTINUOUS
 62
     7
 10
-175.4367
 20
-176.4
 11
-174.9367
 21
-176.4
  0
LINE
  8
0
  6
CONTINUOUS
 62
     7
 10
-175.4368
 20
-161.6
 11
-174.9368
 21
-161.6
  0
LINE
  8
0
  6
CONTINUOUS
 62
     7
 10
-182.4367
 20
-161.5
 11
-182.4367
 21
-176.5
  0
LINE
  8
0
  6
CENTER
 62
     2
 10
-189.4028
 20
-173.5
 11
-181.2455
 21
-173.5
  0
LINE
  8
0
  6
CENTER
 62
     2
 10
187.8852
 20
-169.0
 11
167.949
 21
-169.0
  0
LINE
  8
0
  6
CONTINUOUS
 62
     7
 10
170.4368
 20
-157.0
 11
185.4368
 21
-157.0
  0
LINE
  8
0
  6
CONTINUOUS
 62
     7
 10
179.4368
 20
-160.0
 11
179.4368
 21
-157.0
  0
LINE
  8
0
  6
CONTINUOUS
 62
     7
 10
176.4368
 20
-178.0
 11
176.4368
 21
-181.0
  0
LINE
  8
0
  6
CONTINUOUS
 62
     7
 10
173.4368
 20
-175.0
 11
170.4368
 21
-175.0
  0
LINE
  8
0
  6
CONTINUOUS
 62
     7
 10
182.4368
 20
-163.0
 11
185.4368
 21
-163.0
  0
LINE
  8
0
  6
CONTINUOUS
 62
     7
 10
176.4368
 20
-180.0
 11
184.4368
 21
-180.0
  0
LINE
  8
0
  6
CONTINUOUS
 62
     7
 10
171.4368
 20
-158.0
 11
179.4368
 21
-158.0
  0
LINE
  8
0
  6
CONTINUOUS
 62
     7
 10
171.4368
 20
-175.0
 11
171.4368
 21
-158.0
  0
LINE
  8
0
  6
CONTINUOUS
 62
     7
 10
184.4368
 20
-180.0
 11
184.4368
 21
-163.0
  0
LINE
  8
0
  6
CONTINUOUS
 62
     7
 10
184.6667
 20
-159.7
 11
184.9691
 21
-159.7
  0
LINE
  8
0
  6
CONTINUOUS
 62
     7
 10
184.6667
 20
-160.3
 11
184.9691
 21
-160.3
  0
LINE
  8
0
  6
CONTINUOUS
 62
     7
 10
184.9449
 20
-160.4608
 11
184.6391
 21
-160.4608
  0
LINE
  8
0
  6
CONTINUOUS
 62
     7
 10
171.2069
 20
-178.3
 11
170.9045
 21
-178.3
  0
LINE
  8
0
  6
CONTINUOUS
 62
     7
 10
171.2069
 20
-177.7
 11
170.9045
 21
-177.7
  0
LINE
  8
0
  6
CONTINUOUS
 62
     7
 10
170.9288
 20
-177.5392
 11
171.2345
 21
-177.5392
  0
LINE
  8
0
  6
CONTINUOUS
 62
     7
 10
183.1723
 20
-161.1031
 11
182.8046
 21
-160.7354
  0
LINE
  8
0
  6
CONTINUOUS
 62
     7
 10
183.5399
 20
-160.7354
 11
183.1722
 21
-160.3677
  0
LINE
  8
0
  6
CONTINUOUS
 62
     7
 10
183.1722
 20
-161.1031
 11
183.5399
 21
-160.7354
  0
LINE
  8
0
  6
CONTINUOUS
 62
     7
 10
181.3338
 20
-159.2646
 11
181.7015
 21
-158.8969
  0
LINE
  8
0
  6
CONTINUOUS
 62
     7
 10
181.0404
 20
-161.7642
 11
182.0692
 21
-160.7354
  0
LINE
  8
0
  6
CONTINUOUS
 62
     7
 10
180.6727
 20
-161.3965
 11
181.7014
 21
-160.3677
  0
LINE
  8
0
  6
CONTINUOUS
 62
     7
 10
181.7015
 20
-159.6323
 11
181.3338
 21
-159.2646
  0
LINE
  8
0
  6
CONTINUOUS
 62
     7
 10
182.0691
 20
-159.2646
 11
181.7014
 21
-158.8969
  0
LINE
  8
0
  6
CONTINUOUS
 62
     7
 10
183.1723
 20
-159.6323
 11
184.2011
 21
-158.6035
  0
LINE
  8
0
  6
CONTINUOUS
 62
     7
 10
182.8045
 20
-159.2646
 11
183.8333
 21
-158.2358
  0
LINE
  8
0
  6
CONTINUOUS
 62
     7
 10
174.1722
 20
-179.1031
 11
173.8046
 21
-178.7354
  0
LINE
  8
0
  6
CONTINUOUS
 62
     7
 10
174.5399
 20
-178.7354
 11
174.1722
 21
-178.3677
  0
LINE
  8
0
  6
CONTINUOUS
 62
     7
 10
174.1723
 20
-179.1031
 11
174.5399
 21
-178.7354
  0
LINE
  8
0
  6
CONTINUOUS
 62
     7
 10
172.3337
 20
-177.2646
 11
172.7014
 21
-176.8969
  0
LINE
  8
0
  6
CONTINUOUS
 62
     7
 10
172.0403
 20
-179.7642
 11
173.0691
 21
-178.7354
  0
LINE
  8
0
  6
CONTINUOUS
 62
     7
 10
171.6727
 20
-179.3965
 11
172.7015
 21
-178.3677
  0
LINE
  8
0
  6
CONTINUOUS
 62
     7
 10
172.7015
 20
-177.6323
 11
172.3338
 21
-177.2646
  0
LINE
  8
0
  6
CONTINUOUS
 62
     7
 10
173.0692
 20
-177.2646
 11
172.7015
 21
-176.8969
  0
LINE
  8
0
  6
CONTINUOUS
 62
     7
 10
174.1722
 20
-177.6323
 11
175.201
 21
-176.6035
  0
LINE
  8
0
  6
CONTINUOUS
 62
     7
 10
173.8046
 20
-177.2646
 11
174.8334
 21
-176.2358
  0
LINE
  8
0
  6
CENTER
 62
     2
 10
178.4368
 20
-160.0
 11
186.4368
 21
-160.0
  0
LINE
  8
0
  6
CENTER
 62
     2
 10
169.4368
 20
-178.0
 11
177.4368
 21
-178.0
  0
LINE
  8
0
  6
CENTER
 62
     2
 10
173.4368
 20
-182.0
 11
173.4368
 21
-174.0
  0
LINE
  8
0
  6
CENTER
 62
     2
 10
182.4368
 20
-164.0
 11
182.4368
 21
-156.0
  0
LINE
  8
0
  6
CONTINUOUS
 62
     7
 10
170.4368
 20
-180.5
 11
170.4368
 21
-150.0
  0
LINE
  8
0
  6
CONTINUOUS
 62
     7
 10
170.9368
 20
-181.0
 11
184.9368
 21
-181.0
  0
LINE
  8
0
  6
CONTINUOUS
 62
     7
 10
185.4368
 20
-180.5
 11
185.4368
 21
-150.0
  0
LINE
  8
0
  6
CONTINUOUS
 62
     7
 10
170.4368
 20
-154.0
 11
185.4368
 21
-154.0
  0
LINE
  8
0
  6
CONTINUOUS
 62
     7
 10
170.4368
 20
-150.0
 11
185.4368
 21
-150.0
  0
LINE
  8
0
  6
CENTER
 62
     2
 10
167.5368
 20
-134.4
 11
188.3368
 21
-134.4
  0
LINE
  8
0
  6
CONTINUOUS
 62
     7
 10
171.4368
 20
-137.937
 11
171.4368
 21
-130.8631
  0
LINE
  8
0
  6
CONTINUOUS
 62
     7
 10
184.4368
 20
-137.937
 11
184.4368
 21
-130.8631
  0
LINE
  8
0
  6
CONTINUOUS
 62
     7
 10
171.6237
 20
-130.5393
 11
177.7499
 21
-127.0023
  0
LINE
  8
0
  6
CONTINUOUS
 62
     7
 10
178.1237
 20
-141.7976
 11
184.2499
 21
-138.2607
  0
LINE
  8
0
  6
CONTINUOUS
 62
     7
 10
178.1238
 20
-127.0023
 11
184.25
 21
-130.5392
  0
LINE
  8
0
  6
CONTINUOUS
 62
     7
 10
171.6237
 20
-138.2607
 11
177.7499
 21
-141.7976
  0
LINE
  8
0
  6
CONTINUOUS
 62
     7
 10
171.0368
 20
-127.0
 11
184.8368
 21
-127.0
  0
LINE
  8
0
  6
CONTINUOUS
 62
     7
 10
180.7368
 20
-125.8282
 11
180.7368
 21
-126.5
  0
LINE
  8
0
  6
CONTINUOUS
 62
     7
 10
175.1368
 20
-125.8282
 11
175.1368
 21
-126.5
  0
LINE
  8
0
  6
CONTINUOUS
 62
     7
 10
174.6868
 20
-126.5
 11
174.6868
 21
-127.0
  0
LINE
  8
0
  6
CONTINUOUS
 62
     7
 10
181.1868
 20
-126.5
 11
174.6868
 21
-126.5
  0
LINE
  8
0
  6
CONTINUOUS
 62
     7
 10
181.1868
 20
-126.5
 11
181.1868
 21
-127.0
  0
LINE
  8
0
  6
CONTINUOUS
 62
     7
 10
185.3368
 20
-150.0
 11
185.3368
 21
-127.5
  0
LINE
  8
0
  6
CONTINUOUS
 62
     7
 10
170.5368
 20
-150.0
 11
170.5368
 21
-127.5
  0
LINE
  8
0
  6
CONTINUOUS
 62
     7
 10
170.5368
 20
-149.5
 11
185.3368
 21
-149.5
  0
LINE
  8
0
  6
CENTER
 62
     2
 10
177.9368
 20
-182.7183
 11
177.9368
 21
-122.0487
  0
LINE
  8
0
  6
CONTINUOUS
 62
     7
 10
332.4368
 20
4.99991
 11
308.4368
 21
4.99991
  0
LINE
  8
0
  6
CENTER
 62
     2
 10
320.4368
 20
53.19989
 11
320.4368
 21
-71.50717
  0
LINE
  8
0
  6
CENTER
 62
     2
 10
312.8413
 20
-18.00009
 11
307.6112
 21
-18.00009
  0
LINE
  8
0
  6
CONTINUOUS
 62
     7
 10
311.4368
 20
-16.18626
 11
311.4368
 21
-19.81393
  0
LINE
  8
0
  6
CONTINUOUS
 62
     7
 10
311.4368
 20
-16.18625
 11
308.4368
 21
-16.18625
  0
LINE
  8
0
  6
CONTINUOUS
 62
     7
 10
311.4368
 20
-19.81393
 11
308.4368
 21
-19.81393
  0
LINE
  8
0
  6
CONTINUOUS
 62
     7
 10
332.4368
 20
21.99991
 11
301.4368
 21
21.99991
  0
LINE
  8
0
  6
CONTINUOUS
 62
     7
 10
332.4368
 20
48.19992
 11
332.4368
 21
-66.20009
  0
LINE
  8
0
  6
CONTINUOUS
 62
     7
 10
332.4368
 20
-23.00009
 11
308.4368
 21
-23.00009
  0
LINE
  8
0
  6
CONTINUOUS
 62
     7
 10
308.4368
 20
-40.00009
 11
308.4368
 21
21.99991
  0
LINE
  8
0
  6
CONTINUOUS
 62
     7
 10
332.4368
 20
-40.00009
 11
301.4368
 21
-40.00009
  0
LINE
  8
0
  6
CONTINUOUS
 62
     7
 10
332.4368
 20
47.19992
 11
305.4368
 21
47.19992
  0
LINE
  8
0
  6
CONTINUOUS
 62
     7
 10
308.4368
 20
48.19992
 11
308.4368
 21
47.19992
  0
LINE
  8
0
  6
CONTINUOUS
 62
     7
 10
309.4368
 20
50.19992
 11
327.6111
 21
50.19992
  0
LINE
  8
0
  6
CONTINUOUS
 62
     7
 10
332.4368
 20
48.19992
 11
308.4368
 21
48.19992
  0
LINE
  8
0
  6
CONTINUOUS
 62
     7
 10
308.4368
 20
48.19994
 11
309.4368
 21
50.19996
  0
LINE
  8
0
  6
CONTINUOUS
 62
     7
 10
332.4366
 20
48.19983
 11
331.4366
 21
50.19982
  0
LINE
  8
0
  6
CONTINUOUS
 62
     7
 10
326.4368
 20
50.19992
 11
326.4368
 21
48.19992
  0
LINE
  8
0
  6
CENTER
 62
     2
 10
329.4368
 20
53.19992
 11
329.4368
 21
44.19992
  0
LINE
  8
0
  6
CONTINUOUS
 62
     7
 10
331.9868
 20
48.7999
 11
326.8868
 21
48.7999
  0
LINE
  8
0
  6
CONTINUOUS
 62
     7
 10
329.1367
 20
48.19987
 11
328.9759
 21
48.79987
  0
LINE
  8
0
  6
CONTINUOUS
 62
     7
 10
329.7366
 20
48.79988
 11
329.8974
 21
48.19988
  0
LINE
  8
0
  6
CONTINUOUS
 62
     7
 10
331.9868
 20
48.7999
 11
331.9868
 21
48.19992
  0
LINE
  8
0
  6
CONTINUOUS
 62
     7
 10
326.8868
 20
48.7999
 11
326.8868
 21
48.19992
  0
LINE
  8
0
  6
CONTINUOUS
 62
     7
 10
331.6868
 20
49.49365
 11
331.6868
 21
48.7999
  0
LINE
  8
0
  6
CONTINUOUS
 62
     7
 10
327.1868
 20
49.49365
 11
327.1868
 21
48.7999
  0
LINE
  8
0
  6
CONTINUOUS
 62
     7
 10
331.2625
 20
50.19992
 11
331.4368
 21
50.19992
  0
LINE
  8
0
  6
CENTER
 62
     2
 10
311.4368
 20
53.19992
 11
311.4368
 21
44.19992
  0
LINE
  8
0
  6
CONTINUOUS
 62
     7
 10
305.4368
 20
47.19992
 11
305.4368
 21
21.99991
  0
LINE
  8
0
  6
CONTINUOUS
 62
     7
 10
305.4368
 20
46.99991
 11
301.4368
 21
46.99991
  0
LINE
  8
0
  6
CENTER
 62
     2
 10
308.4368
 20
38.99991
 11
273.0368
 21
38.99991
  0
LINE
  8
0
  6
CONTINUOUS
 62
     7
 10
278.4368
 20
65.17612
 11
278.4368
 21
58.69992
  0
LINE
  8
0
  6
CONTINUOUS
 62
     7
 10
293.2368
 20
65.17615
 11
293.2368
 21
58.69992
  0
LINE
  8
0
  6
CONTINUOUS
 62
     7
 10
291.6368
 20
66.09991
 11
280.0368
 21
66.09991
  0
LINE
  8
0
  6
CONTINUOUS
 62
     7
 10
277.265
 20
36.19992
 11
277.9368
 21
36.19992
  0
LINE
  8
0
  6
CONTINUOUS
 62
     7
 10
277.265
 20
41.7999
 11
277.9368
 21
41.7999
  0
LINE
  8
0
  6
CONTINUOUS
 62
     7
 10
277.9368
 20
35.74991
 11
277.9368
 21
42.24991
  0
LINE
  8
0
  6
CONTINUOUS
 62
     7
 10
277.9368
 20
35.75003
 11
278.4368
 21
35.75003
  0
LINE
  8
0
  6
CONTINUOUS
 62
     7
 10
277.9368
 20
42.24991
 11
278.4368
 21
42.24991
  0
LINE
  8
0
  6
CONTINUOUS
 62
     7
 10
293.2368
 20
58.69992
 11
278.4368
 21
58.69992
  0
LINE
  8
0
  6
CONTINUOUS
 62
     7
 10
293.2368
 20
59.69992
 11
278.4368
 21
59.69992
  0
LINE
  8
0
  6
CENTER
 62
     2
 10
285.8368
 20
69.09991
 11
285.8368
 21
28.59991
  0
LINE
  8
0
  6
CONTINUOUS
 62
     7
 10
290.8368
 20
43.99991
 11
280.8368
 21
43.99991
  0
LINE
  8
0
  6
CONTINUOUS
 62
     7
 10
290.8368
 20
33.99991
 11
280.8368
 21
33.99991
  0
LINE
  8
0
  6
CONTINUOUS
 62
     7
 10
290.8368
 20
43.99991
 11
290.8368
 21
33.99991
  0
LINE
  8
0
  6
CONTINUOUS
 62
     7
 10
280.8368
 20
43.99991
 11
280.8368
 21
33.99991
  0
LINE
  8
0
  6
CONTINUOUS
 62
     7
 10
289.8368
 20
43.99991
 11
289.8368
 21
33.99991
  0
LINE
  8
0
  6
CONTINUOUS
 62
     7
 10
288.8368
 20
43.99991
 11
288.8368
 21
33.99991
  0
LINE
  8
0
  6
CONTINUOUS
 62
     7
 10
287.8368
 20
43.99991
 11
287.8368
 21
33.99991
  0
LINE
  8
0
  6
CONTINUOUS
 62
     7
 10
286.8368
 20
43.99991
 11
286.8368
 21
33.99991
  0
LINE
  8
0
  6
CONTINUOUS
 62
     7
 10
285.8368
 20
43.99991
 11
285.8368
 21
33.99991
  0
LINE
  8
0
  6
CONTINUOUS
 62
     7
 10
284.8368
 20
43.99991
 11
284.8368
 21
33.99991
  0
LINE
  8
0
  6
CONTINUOUS
 62
     7
 10
283.8368
 20
43.99991
 11
283.8368
 21
33.99991
  0
LINE
  8
0
  6
CONTINUOUS
 62
     7
 10
282.8368
 20
43.99991
 11
282.8368
 21
33.99991
  0
LINE
  8
0
  6
CONTINUOUS
 62
     7
 10
281.8368
 20
43.99991
 11
281.8368
 21
33.99991
  0
LINE
  8
0
  6
CONTINUOUS
 62
     7
 10
280.0368
 20
66.09992
 11
278.4368
 21
65.17616
  0
LINE
  8
0
  6
CONTINUOUS
 62
     7
 10
291.6368
 20
66.09997
 11
293.2368
 21
65.17622
  0
LINE
  8
0
  6
CONTINUOUS
 62
     7
 10
289.6975
 20
65.17615
 11
289.6975
 21
59.69992
  0
LINE
  8
0
  6
CONTINUOUS
 62
     7
 10
289.3737
 20
65.17615
 11
289.3737
 21
59.69992
  0
LINE
  8
0
  6
CONTINUOUS
 62
     7
 10
282.2998
 20
65.17615
 11
282.2998
 21
59.69992
  0
LINE
  8
0
  6
CONTINUOUS
 62
     7
 10
281.9761
 20
65.17615
 11
281.9761
 21
59.69992
  0
LINE
  8
0
  6
CONTINUOUS
 62
     7
 10
289.6975
 20
65.17615
 11
289.3737
 21
65.17615
  0
LINE
  8
0
  6
CONTINUOUS
 62
     7
 10
282.2998
 20
65.17615
 11
281.9761
 21
65.17615
  0
LINE
  8
0
  6
CONTINUOUS
 62
     7
 10
301.4368
 20
46.3999
 11
278.9368
 21
46.3999
  0
LINE
  8
0
  6
CONTINUOUS
 62
     7
 10
301.4368
 20
31.59991
 11
278.9368
 21
31.59991
  0
LINE
  8
0
  6
CONTINUOUS
 62
     7
 10
301.4368
 20
46.99991
 11
301.4368
 21
21.99991
  0
LINE
  8
0
  6
CONTINUOUS
 62
     7
 10
293.2368
 20
56.69992
 11
278.4368
 21
56.69992
  0
LINE
  8
0
  6
CONTINUOUS
 62
     7
 10
278.4368
 20
56.69992
 11
278.4368
 21
32.09991
  0
LINE
  8
0
  6
CONTINUOUS
 62
     7
 10
293.2368
 20
56.69992
 11
293.2368
 21
46.3999
  0
LINE
  8
0
  6
CONTINUOUS
 62
     7
 10
291.8368
 20
58.69992
 11
291.8368
 21
56.69992
  0
LINE
  8
0
  6
CONTINUOUS
 62
     7
 10
279.8368
 20
58.69992
 11
279.8368
 21
56.69992
  0
LINE
  8
0
  6
CONTINUOUS
 62
     7
 10
280.5133
 20
58.69992
 11
280.5133
 21
56.69992
  0
LINE
  8
0
  6
CONTINUOUS
 62
     7
 10
291.1603
 20
58.69992
 11
291.1603
 21
56.69992
  0
LINE
  8
0
  6
CONTINUOUS
 62
     7
 10
300.9368
 20
31.59991
 11
300.9368
 21
46.3999
  0
LINE
  8
0
  6
CONTINUOUS
 62
     7
 10
332.4368
 20
-65.20009
 11
305.4368
 21
-65.20009
  0
LINE
  8
0
  6
CONTINUOUS
 62
     7
 10
308.4368
 20
-66.20007
 11
308.4368
 21
-65.20009
  0
LINE
  8
0
  6
CONTINUOUS
 62
     7
 10
331.4368
 20
-68.20009
 11
313.2625
 21
-68.20009
  0
LINE
  8
0
  6
CONTINUOUS
 62
     7
 10
332.4368
 20
-66.20009
 11
308.4368
 21
-66.20009
  0
LINE
  8
0
  6
CONTINUOUS
 62
     7
 10
332.4367
 20
-66.20011
 11
331.4368
 21
-68.2001
  0
LINE
  8
0
  6
CONTINUOUS
 62
     7
 10
308.4367
 20
-66.20009
 11
309.4366
 21
-68.20007
  0
LINE
  8
0
  6
CONTINUOUS
 62
     7
 10
314.4368
 20
-68.20009
 11
314.4368
 21
-66.20009
  0
LINE
  8
0
  6
CENTER
 62
     2
 10
311.4368
 20
-71.20009
 11
311.4368
 21
-62.20009
  0
LINE
  8
0
  6
CONTINUOUS
 62
     7
 10
308.8868
 20
-66.80009
 11
313.9868
 21
-66.80009
  0
LINE
  8
0
  6
CONTINUOUS
 62
     7
 10
311.7368
 20
-66.20007
 11
311.8976
 21
-66.80007
  0
LINE
  8
0
  6
CONTINUOUS
 62
     7
 10
311.1369
 20
-66.80007
 11
310.9761
 21
-66.20007
  0
LINE
  8
0
  6
CONTINUOUS
 62
     7
 10
308.8868
 20
-66.80008
 11
308.8868
 21
-66.20009
  0
LINE
  8
0
  6
CONTINUOUS
 62
     7
 10
313.9868
 20
-66.80008
 11
313.9868
 21
-66.20009
  0
LINE
  8
0
  6
CONTINUOUS
 62
     7
 10
309.1868
 20
-67.49384
 11
309.1868
 21
-66.80008
  0
LINE
  8
0
  6
CONTINUOUS
 62
     7
 10
313.6868
 20
-67.49384
 11
313.6868
 21
-66.80008
  0
LINE
  8
0
  6
CONTINUOUS
 62
     7
 10
309.611
 20
-68.20009
 11
309.4368
 21
-68.20009
  0
LINE
  8
0
  6
CENTER
 62
     2
 10
329.4368
 20
-71.2001
 11
329.4368
 21
-62.2001
  0
LINE
  8
0
  6
CONTINUOUS
 62
     7
 10
305.4368
 20
-65.20009
 11
305.4368
 21
-40.00009
  0
LINE
  8
0
  6
CONTINUOUS
 62
     7
 10
305.4368
 20
-65.00009
 11
301.4368
 21
-65.00009
  0
LINE
  8
0
  6
CENTER
 62
     2
 10
308.4368
 20
-57.00009
 11
273.0368
 21
-57.00009
  0
LINE
  8
0
  6
CONTINUOUS
 62
     7
 10
278.4368
 20
-83.1763
 11
278.4368
 21
-76.70007
  0
LINE
  8
0
  6
CONTINUOUS
 62
     7
 10
301.4368
 20
-49.6001
 11
278.9368
 21
-49.6001
  0
LINE
  8
0
  6
CONTINUOUS
 62
     7
 10
301.4368
 20
-64.40009
 11
278.9368
 21
-64.40009
  0
LINE
  8
0
  6
CONTINUOUS
 62
     7
 10
293.2368
 20
-83.17633
 11
293.2368
 21
-76.70009
  0
LINE
  8
0
  6
CONTINUOUS
 62
     7
 10
291.6368
 20
-84.1001
 11
280.0368
 21
-84.1001
  0
LINE
  8
0
  6
CONTINUOUS
 62
     7
 10
277.265
 20
-54.2001
 11
277.9368
 21
-54.2001
  0
LINE
  8
0
  6
CONTINUOUS
 62
     7
 10
277.265
 20
-59.80011
 11
277.9368
 21
-59.80011
  0
LINE
  8
0
  6
CONTINUOUS
 62
     7
 10
277.9368
 20
-53.75009
 11
277.9368
 21
-60.25009
  0
LINE
  8
0
  6
CONTINUOUS
 62
     7
 10
277.9368
 20
-53.75011
 11
278.4368
 21
-53.75011
  0
LINE
  8
0
  6
CONTINUOUS
 62
     7
 10
277.9368
 20
-60.25011
 11
278.4368
 21
-60.25011
  0
LINE
  8
0
  6
CONTINUOUS
 62
     7
 10
293.2368
 20
-76.70009
 11
278.4368
 21
-76.70009
  0
LINE
  8
0
  6
CONTINUOUS
 62
     7
 10
293.2368
 20
-77.70009
 11
278.4368
 21
-77.70009
  0
LINE
  8
0
  6
CONTINUOUS
 62
     7
 10
290.8368
 20
-62.00009
 11
280.8368
 21
-62.00009
  0
LINE
  8
0
  6
CONTINUOUS
 62
     7
 10
290.8368
 20
-52.00009
 11
280.8368
 21
-52.00009
  0
LINE
  8
0
  6
CONTINUOUS
 62
     7
 10
290.8368
 20
-62.00009
 11
290.8368
 21
-52.00009
  0
LINE
  8
0
  6
CONTINUOUS
 62
     7
 10
280.8368
 20
-62.00009
 11
280.8368
 21
-52.00009
  0
LINE
  8
0
  6
CONTINUOUS
 62
     7
 10
289.8368
 20
-62.00009
 11
289.8368
 21
-52.00009
  0
LINE
  8
0
  6
CONTINUOUS
 62
     7
 10
288.8368
 20
-62.00009
 11
288.8368
 21
-52.00009
  0
LINE
  8
0
  6
CONTINUOUS
 62
     7
 10
287.8368
 20
-62.00009
 11
287.8368
 21
-52.00009
  0
LINE
  8
0
  6
CONTINUOUS
 62
     7
 10
286.8368
 20
-62.00009
 11
286.8368
 21
-52.00009
  0
LINE
  8
0
  6
CONTINUOUS
 62
     7
 10
285.8368
 20
-62.00009
 11
285.8368
 21
-52.00009
  0
LINE
  8
0
  6
CONTINUOUS
 62
     7
 10
284.8368
 20
-62.00009
 11
284.8368
 21
-52.00009
  0
LINE
  8
0
  6
CONTINUOUS
 62
     7
 10
283.8368
 20
-62.00009
 11
283.8368
 21
-52.00009
  0
LINE
  8
0
  6
CONTINUOUS
 62
     7
 10
282.8368
 20
-62.00009
 11
282.8368
 21
-52.00009
  0
LINE
  8
0
  6
CONTINUOUS
 62
     7
 10
281.8368
 20
-62.00009
 11
281.8368
 21
-52.00009
  0
LINE
  8
0
  6
CONTINUOUS
 62
     7
 10
280.0368
 20
-84.10011
 11
278.4368
 21
-83.17633
  0
LINE
  8
0
  6
CONTINUOUS
 62
     7
 10
291.6368
 20
-84.10012
 11
293.2368
 21
-83.17635
  0
LINE
  8
0
  6
CONTINUOUS
 62
     7
 10
289.6975
 20
-83.17633
 11
289.6975
 21
-77.70009
  0
LINE
  8
0
  6
CONTINUOUS
 62
     7
 10
289.3737
 20
-83.17633
 11
289.3737
 21
-77.70009
  0
LINE
  8
0
  6
CONTINUOUS
 62
     7
 10
282.2998
 20
-83.17632
 11
282.2998
 21
-77.70007
  0
LINE
  8
0
  6
CONTINUOUS
 62
     7
 10
281.9761
 20
-83.17632
 11
281.9761
 21
-77.70007
  0
LINE
  8
0
  6
CONTINUOUS
 62
     7
 10
289.6975
 20
-83.17633
 11
289.3737
 21
-83.17633
  0
LINE
  8
0
  6
CONTINUOUS
 62
     7
 10
282.2998
 20
-83.17633
 11
281.9761
 21
-83.17633
  0
LINE
  8
0
  6
CENTER
 62
     2
 10
285.8368
 20
-87.1001
 11
285.8368
 21
-46.60008
  0
LINE
  8
0
  6
CONTINUOUS
 62
     7
 10
301.4368
 20
-65.00009
 11
301.4368
 21
-40.00009
  0
LINE
  8
0
  6
CONTINUOUS
 62
     7
 10
293.2368
 20
-74.70009
 11
278.4368
 21
-74.70009
  0
LINE
  8
0
  6
CONTINUOUS
 62
     7
 10
293.2368
 20
-74.70009
 11
293.2368
 21
-64.40009
  0
LINE
  8
0
  6
CONTINUOUS
 62
     7
 10
278.4368
 20
-74.70007
 11
278.4368
 21
-50.10008
  0
LINE
  8
0
  6
CONTINUOUS
 62
     7
 10
279.8368
 20
-76.70007
 11
279.8368
 21
-74.70007
  0
LINE
  8
0
  6
CONTINUOUS
 62
     7
 10
291.8368
 20
-76.70009
 11
291.8368
 21
-74.70009
  0
LINE
  8
0
  6
CONTINUOUS
 62
     7
 10
280.5133
 20
-76.70007
 11
280.5133
 21
-74.70007
  0
LINE
  8
0
  6
CONTINUOUS
 62
     7
 10
291.1603
 20
-76.70009
 11
291.1603
 21
-74.70009
  0
LINE
  8
0
  6
CONTINUOUS
 62
     7
 10
300.9368
 20
-49.60008
 11
300.9368
 21
-64.40009
  0
LINE
  8
0
  6
CENTER
 62
     2
 10
172.4368
 20
3.43936
 11
172.4368
 21
-3.3425
  0
LINE
  8
0
  6
CENTER
 62
     2
 10
183.4368
 20
-14.47302
 11
183.4368
 21
-21.41019
  0
LINE
  8
0
  6
CENTER
 62
     2
 10
180.1682
 20
-18.0
 11
186.545
 21
-18.0
  0
LINE
  8
0
  6
CENTER
 62
     2
 10
169.866
 20
0.0
 11
175.9748
 21
0.0
  0
LINE
  8
0
  6
CONTINUOUS
 62
     7
 10
170.4368
 20
5.0
 11
185.4368
 21
5.0
  0
LINE
  8
0
  6
CENTER
 62
     2
 10
177.9368
 20
69.0
 11
177.9368
 21
-87.66666
  0
LINE
  8
0
  6
CENTER
 62
     2
 10
175.5518
 20
18.5
 11
180.3984
 21
18.5
  0
LINE
  8
0
  6
CENTER
 62
     2
 10
167.7576
 20
-9.0
 11
188.2222
 21
-9.0
  0
LINE
  8
0
  6
CONTINUOUS
 62
     7
 10
170.4368
 20
22.0
 11
185.4368
 21
22.0
  0
LINE
  8
0
  6
CONTINUOUS
 62
     7
 10
185.4368
 20
-66.19998
 11
185.4368
 21
48.19998
  0
LINE
  8
0
  6
CONTINUOUS
 62
     7
 10
170.4368
 20
-40.0
 11
185.4368
 21
-40.0
  0
LINE
  8
0
  6
CONTINUOUS
 62
     7
 10
170.4368
 20
-23.0
 11
185.4368
 21
-23.0
  0
LINE
  8
0
  6
CENTER
 62
     2
 10
174.9368
 20
-36.5
 11
180.6034
 21
-36.5
  0
LINE
  8
0
  6
CONTINUOUS
 62
     7
 10
170.4368
 20
-66.19998
 11
170.4368
 21
48.19998
  0
LINE
  8
0
  6
CONTINUOUS
 62
     7
 10
170.4368
 20
47.20001
 11
170.5368
 21
47.20001
  0
LINE
  8
0
  6
CONTINUOUS
 62
     7
 10
170.4368
 20
48.19998
 11
170.5368
 21
48.19998
  0
LINE
  8
0
  6
CONTINUOUS
 62
     7
 10
185.4368
 20
48.19999
 11
185.3368
 21
48.39999
  0
LINE
  8
0
  6
CONTINUOUS
 62
     7
 10
170.4368
 20
48.2
 11
170.5368
 21
48.39999
  0
LINE
  8
0
  6
CONTINUOUS
 62
     7
 10
171.0368
 20
46.39999
 11
184.8368
 21
46.39999
  0
LINE
  8
0
  6
CONTINUOUS
 62
     7
 10
171.0368
 20
31.60001
 11
184.8368
 21
31.60001
  0
LINE
  8
0
  6
CENTER
 62
     2
 10
167.4368
 20
39.0
 11
188.4368
 21
39.0
  0
LINE
  8
0
  6
CONTINUOUS
 62
     7
 10
176.664
 20
38.15146
 11
177.0883
 21
38.57571
  0
LINE
  8
0
  6
CONTINUOUS
 62
     7
 10
177.0883
 20
37.72721
 11
177.5126
 21
38.1515
  0
LINE
  8
0
  6
CONTINUOUS
 62
     7
 10
176.664
 20
38.15153
 11
177.0883
 21
37.72726
  0
LINE
  8
0
  6
CONTINUOUS
 62
     7
 10
178.7853
 20
40.27279
 11
179.2096
 21
39.84853
  0
LINE
  8
0
  6
CONTINUOUS
 62
     7
 10
175.7562
 20
40.75645
 11
177.0883
 21
39.42435
  0
LINE
  8
0
  6
CONTINUOUS
 62
     7
 10
176.1804
 20
41.18066
 11
177.5125
 21
39.84855
  0
LINE
  8
0
  6
CONTINUOUS
 62
     7
 10
178.3611
 20
39.84853
 11
178.7853
 21
40.27278
  0
LINE
  8
0
  6
CONTINUOUS
 62
     7
 10
178.7853
 20
39.42428
 11
179.2096
 21
39.84853
  0
LINE
  8
0
  6
CONTINUOUS
 62
     7
 10
178.3611
 20
38.15155
 11
179.6932
 21
36.81945
  0
LINE
  8
0
  6
CONTINUOUS
 62
     7
 10
178.7853
 20
38.57576
 11
180.1174
 21
37.24365
  0
LINE
  8
0
  6
CONTINUOUS
 62
     7
 10
170.5368
 20
58.69998
 11
185.3368
 21
58.69998
  0
LINE
  8
0
  6
CONTINUOUS
 62
     7
 10
172.1368
 20
66.10001
 11
183.7368
 21
66.10001
  0
LINE
  8
0
  6
CONTINUOUS
 62
     7
 10
170.5368
 20
59.69998
 11
185.3368
 21
59.69998
  0
LINE
  8
0
  6
CONTINUOUS
 62
     7
 10
185.3368
 20
59.69998
 11
185.3368
 21
58.69998
  0
LINE
  8
0
  6
CONTINUOUS
 62
     7
 10
170.5368
 20
59.69998
 11
170.5368
 21
58.69998
  0
LINE
  8
0
  6
CONTINUOUS
 62
     7
 10
171.4368
 20
65.69586
 11
171.4368
 21
59.69998
  0
LINE
  8
0
  6
CONTINUOUS
 62
     7
 10
184.4368
 20
65.69586
 11
184.4368
 21
59.69998
  0
LINE
  8
0
  6
CONTINUOUS
 62
     7
 10
183.7368
 20
66.10002
 11
184.4368
 21
65.69588
  0
LINE
  8
0
  6
CONTINUOUS
 62
     7
 10
172.1368
 20
66.10001
 11
171.4368
 21
65.69586
  0
LINE
  8
0
  6
CONTINUOUS
 62
     7
 10
177.7498
 20
65.17624
 11
178.1237
 21
65.17624
  0
LINE
  8
0
  6
CONTINUOUS
 62
     7
 10
185.3368
 20
48.19998
 11
185.4368
 21
48.19998
  0
LINE
  8
0
  6
CONTINUOUS
 62
     7
 10
185.3368
 20
47.20001
 11
185.4368
 21
47.20001
  0
LINE
  8
0
  6
CONTINUOUS
 62
     7
 10
178.1237
 20
65.17624
 11
178.1237
 21
59.69998
  0
LINE
  8
0
  6
CONTINUOUS
 62
     7
 10
177.7498
 20
65.17624
 11
177.7498
 21
59.69998
  0
LINE
  8
0
  6
CONTINUOUS
 62
     7
 10
170.5368
 20
56.69998
 11
185.3368
 21
56.69998
  0
LINE
  8
0
  6
CONTINUOUS
 62
     7
 10
170.5368
 20
56.69998
 11
170.5368
 21
32.10001
  0
LINE
  8
0
  6
CONTINUOUS
 62
     7
 10
185.3368
 20
56.69998
 11
185.3368
 21
32.10001
  0
LINE
  8
0
  6
CONTINUOUS
 62
     7
 10
183.9368
 20
58.69998
 11
183.9368
 21
56.69998
  0
LINE
  8
0
  6
CONTINUOUS
 62
     7
 10
171.9368
 20
58.69998
 11
171.9368
 21
56.69998
  0
LINE
  8
0
  6
CONTINUOUS
 62
     7
 10
183.2603
 20
58.69998
 11
183.2603
 21
56.69998
  0
LINE
  8
0
  6
CONTINUOUS
 62
     7
 10
172.6133
 20
58.69998
 11
172.6133
 21
56.69998
  0
LINE
  8
0
  6
CONTINUOUS
 62
     7
 10
185.4368
 20
-65.2
 11
185.3368
 21
-65.2
  0
LINE
  8
0
  6
CONTINUOUS
 62
     7
 10
185.4368
 20
-66.19998
 11
185.3368
 21
-66.19998
  0
LINE
  8
0
  6
CONTINUOUS
 62
     7
 10
170.4368
 20
-66.20001
 11
170.5368
 21
-66.40001
  0
LINE
  8
0
  6
CONTINUOUS
 62
     7
 10
185.4368
 20
-66.19996
 11
185.3368
 21
-66.39993
  0
LINE
  8
0
  6
CONTINUOUS
 62
     7
 10
184.8368
 20
-64.39999
 11
171.0368
 21
-64.39999
  0
LINE
  8
0
  6
CONTINUOUS
 62
     7
 10
184.8368
 20
-49.60001
 11
171.0368
 21
-49.60001
  0
LINE
  8
0
  6
CENTER
 62
     2
 10
188.4368
 20
-57.0
 11
167.4368
 21
-57.0
  0
LINE
  8
0
  6
CONTINUOUS
 62
     7
 10
179.2096
 20
-56.15153
 11
178.7853
 21
-56.5758
  0
LINE
  8
0
  6
CONTINUOUS
 62
     7
 10
178.7853
 20
-55.72727
 11
178.361
 21
-56.15154
  0
LINE
  8
0
  6
CONTINUOUS
 62
     7
 10
179.2096
 20
-56.15145
 11
178.7853
 21
-55.72719
  0
LINE
  8
0
  6
CONTINUOUS
 62
     7
 10
177.0883
 20
-58.27278
 11
176.664
 21
-57.84852
  0
LINE
  8
0
  6
CONTINUOUS
 62
     7
 10
180.1174
 20
-58.75634
 11
178.7853
 21
-57.42424
  0
LINE
  8
0
  6
CONTINUOUS
 62
     7
 10
179.6931
 20
-59.18066
 11
178.361
 21
-57.84856
  0
LINE
  8
0
  6
CONTINUOUS
 62
     7
 10
177.5125
 20
-57.84858
 11
177.0882
 21
-58.27285
  0
LINE
  8
0
  6
CONTINUOUS
 62
     7
 10
177.0882
 20
-57.42432
 11
176.664
 21
-57.84859
  0
LINE
  8
0
  6
CONTINUOUS
 62
     7
 10
177.5125
 20
-56.15145
 11
176.1804
 21
-54.81935
  0
LINE
  8
0
  6
CONTINUOUS
 62
     7
 10
177.0882
 20
-56.57576
 11
175.7561
 21
-55.24366
  0
LINE
  8
0
  6
CONTINUOUS
 62
     7
 10
185.3368
 20
-76.7
 11
170.5368
 21
-76.7
  0
LINE
  8
0
  6
CONTINUOUS
 62
     7
 10
183.7368
 20
-84.10001
 11
172.1368
 21
-84.10001
  0
LINE
  8
0
  6
CONTINUOUS
 62
     7
 10
185.3368
 20
-77.7
 11
170.5368
 21
-77.7
  0
LINE
  8
0
  6
CONTINUOUS
 62
     7
 10
170.5368
 20
-77.7
 11
170.5368
 21
-76.7
  0
LINE
  8
0
  6
CONTINUOUS
 62
     7
 10
185.3368
 20
-77.7
 11
185.3368
 21
-76.7
  0
LINE
  8
0
  6
CONTINUOUS
 62
     7
 10
184.4368
 20
-83.69586
 11
184.4368
 21
-77.7
  0
LINE
  8
0
  6
CONTINUOUS
 62
     7
 10
171.4368
 20
-83.69586
 11
171.4368
 21
-77.7
  0
LINE
  8
0
  6
CONTINUOUS
 62
     7
 10
172.1368
 20
-84.10002
 11
171.4368
 21
-83.69588
  0
LINE
  8
0
  6
CONTINUOUS
 62
     7
 10
183.7368
 20
-84.10003
 11
184.4368
 21
-83.69588
  0
LINE
  8
0
  6
CONTINUOUS
 62
     7
 10
178.1237
 20
-83.17624
 11
177.7498
 21
-83.17624
  0
LINE
  8
0
  6
CONTINUOUS
 62
     7
 10
170.5368
 20
-66.19998
 11
170.4368
 21
-66.19998
  0
LINE
  8
0
  6
CONTINUOUS
 62
     7
 10
170.5368
 20
-65.2
 11
170.4368
 21
-65.2
  0
LINE
  8
0
  6
CONTINUOUS
 62
     7
 10
177.7498
 20
-83.17624
 11
177.7498
 21
-77.7
  0
LINE
  8
0
  6
CONTINUOUS
 62
     7
 10
178.1237
 20
-83.17624
 11
178.1237
 21
-77.7
  0
LINE
  8
0
  6
CONTINUOUS
 62
     7
 10
185.3368
 20
-74.7
 11
170.5368
 21
-74.7
  0
LINE
  8
0
  6
CONTINUOUS
 62
     7
 10
185.3368
 20
-74.7
 11
185.3368
 21
-50.10001
  0
LINE
  8
0
  6
CONTINUOUS
 62
     7
 10
170.5368
 20
-74.7
 11
170.5368
 21
-50.10001
  0
LINE
  8
0
  6
CONTINUOUS
 62
     7
 10
171.9368
 20
-76.7
 11
171.9368
 21
-74.7
  0
LINE
  8
0
  6
CONTINUOUS
 62
     7
 10
183.9368
 20
-76.7
 11
183.9368
 21
-74.7
  0
LINE
  8
0
  6
CONTINUOUS
 62
     7
 10
172.6133
 20
-76.7
 11
172.6133
 21
-74.7
  0
LINE
  8
0
  6
CONTINUOUS
 62
     7
 10
183.2603
 20
-76.7
 11
183.2603
 21
-74.7
  0
LINE
  8
0
  6
CENTER
 62
     2
 10
167.9884
 20
145.4999
 11
187.9246
 21
145.4999
  0
LINE
  8
0
  6
CONTINUOUS
 62
     7
 10
185.4368
 20
133.4999
 11
170.4368
 21
133.4999
  0
LINE
  8
0
  6
CONTINUOUS
 62
     7
 10
176.4368
 20
136.4999
 11
176.4368
 21
133.4999
  0
LINE
  8
0
  6
CONTINUOUS
 62
     7
 10
179.4368
 20
154.4999
 11
179.4368
 21
157.4999
  0
LINE
  8
0
  6
CONTINUOUS
 62
     7
 10
182.4368
 20
151.4999
 11
185.4368
 21
151.4999
  0
LINE
  8
0
  6
CONTINUOUS
 62
     7
 10
173.4368
 20
139.4999
 11
170.4368
 21
139.4999
  0
LINE
  8
0
  6
CONTINUOUS
 62
     7
 10
179.4368
 20
156.4999
 11
171.4368
 21
156.4999
  0
LINE
  8
0
  6
CONTINUOUS
 62
     7
 10
184.4368
 20
134.4999
 11
176.4368
 21
134.4999
  0
LINE
  8
0
  6
CONTINUOUS
 62
     7
 10
184.4368
 20
151.4999
 11
184.4368
 21
134.4999
  0
LINE
  8
0
  6
CONTINUOUS
 62
     7
 10
171.4368
 20
156.4999
 11
171.4368
 21
139.4999
  0
LINE
  8
0
  6
CONTINUOUS
 62
     7
 10
171.2069
 20
136.1999
 11
170.9045
 21
136.1999
  0
LINE
  8
0
  6
CONTINUOUS
 62
     7
 10
171.2069
 20
136.7999
 11
170.9045
 21
136.7999
  0
LINE
  8
0
  6
CONTINUOUS
 62
     7
 10
170.9288
 20
136.9607
 11
171.2345
 21
136.9607
  0
LINE
  8
0
  6
CONTINUOUS
 62
     7
 10
184.6667
 20
154.7999
 11
184.9691
 21
154.7999
  0
LINE
  8
0
  6
CONTINUOUS
 62
     7
 10
184.6667
 20
154.1999
 11
184.9691
 21
154.1999
  0
LINE
  8
0
  6
CONTINUOUS
 62
     7
 10
184.9448
 20
154.0391
 11
184.6391
 21
154.0391
  0
LINE
  8
0
  6
CONTINUOUS
 62
     7
 10
172.7014
 20
137.603
 11
173.0691
 21
137.2353
  0
LINE
  8
0
  6
CONTINUOUS
 62
     7
 10
172.3337
 20
137.2353
 11
172.7014
 21
136.8676
  0
LINE
  8
0
  6
CONTINUOUS
 62
     7
 10
172.7014
 20
137.603
 11
172.3337
 21
137.2353
  0
LINE
  8
0
  6
CONTINUOUS
 62
     7
 10
174.5399
 20
135.7645
 11
174.1722
 21
135.3968
  0
LINE
  8
0
  6
CONTINUOUS
 62
     7
 10
174.8333
 20
138.2641
 11
173.8045
 21
137.2353
  0
LINE
  8
0
  6
CONTINUOUS
 62
     7
 10
175.201
 20
137.8964
 11
174.1722
 21
136.8676
  0
LINE
  8
0
  6
CONTINUOUS
 62
     7
 10
174.1722
 20
136.1322
 11
174.5399
 21
135.7646
  0
LINE
  8
0
  6
CONTINUOUS
 62
     7
 10
173.8045
 20
135.7646
 11
174.1722
 21
135.3969
  0
LINE
  8
0
  6
CONTINUOUS
 62
     7
 10
172.7015
 20
136.1322
 11
171.6727
 21
135.1034
  0
LINE
  8
0
  6
CONTINUOUS
 62
     7
 10
173.0692
 20
135.7645
 11
172.0404
 21
134.7357
  0
LINE
  8
0
  6
CONTINUOUS
 62
     7
 10
181.7015
 20
155.603
 11
182.0692
 21
155.2354
  0
LINE
  8
0
  6
CONTINUOUS
 62
     7
 10
181.3338
 20
155.2354
 11
181.7015
 21
154.8677
  0
LINE
  8
0
  6
CONTINUOUS
 62
     7
 10
181.7014
 20
155.603
 11
181.3337
 21
155.2353
  0
LINE
  8
0
  6
CONTINUOUS
 62
     7
 10
183.5399
 20
153.7645
 11
183.1722
 21
153.3968
  0
LINE
  8
0
  6
CONTINUOUS
 62
     7
 10
183.8333
 20
156.2641
 11
182.8045
 21
155.2353
  0
LINE
  8
0
  6
CONTINUOUS
 62
     7
 10
184.201
 20
155.8964
 11
183.1722
 21
154.8676
  0
LINE
  8
0
  6
CONTINUOUS
 62
     7
 10
183.1723
 20
154.1323
 11
183.54
 21
153.7646
  0
LINE
  8
0
  6
CONTINUOUS
 62
     7
 10
182.8046
 20
153.7646
 11
183.1723
 21
153.3969
  0
LINE
  8
0
  6
CONTINUOUS
 62
     7
 10
181.7014
 20
154.1322
 11
180.6727
 21
153.1034
  0
LINE
  8
0
  6
CONTINUOUS
 62
     7
 10
182.0691
 20
153.7645
 11
181.0404
 21
152.7357
  0
LINE
  8
0
  6
CENTER
 62
     2
 10
177.4368
 20
136.4999
 11
169.4368
 21
136.4999
  0
LINE
  8
0
  6
CENTER
 62
     2
 10
186.4368
 20
154.4999
 11
178.4368
 21
154.4999
  0
LINE
  8
0
  6
CENTER
 62
     2
 10
182.4368
 20
158.4999
 11
182.4368
 21
150.4999
  0
LINE
  8
0
  6
CENTER
 62
     2
 10
173.4368
 20
140.4999
 11
173.4368
 21
132.4999
  0
LINE
  8
0
  6
CONTINUOUS
 62
     7
 10
185.4368
 20
156.9999
 11
185.4368
 21
126.4999
  0
LINE
  8
0
  6
CONTINUOUS
 62
     7
 10
184.9368
 20
157.4999
 11
170.9368
 21
157.4999
  0
LINE
  8
0
  6
CONTINUOUS
 62
     7
 10
170.4368
 20
156.9999
 11
170.4368
 21
126.4999
  0
LINE
  8
0
  6
CONTINUOUS
 62
     7
 10
185.4368
 20
130.4999
 11
170.4368
 21
130.4999
  0
LINE
  8
0
  6
CONTINUOUS
 62
     7
 10
185.4368
 20
126.4999
 11
170.4368
 21
126.4999
  0
LINE
  8
0
  6
CENTER
 62
     2
 10
188.3368
 20
110.8999
 11
167.5368
 21
110.8999
  0
LINE
  8
0
  6
CONTINUOUS
 62
     7
 10
184.4368
 20
114.4369
 11
184.4368
 21
107.363
  0
LINE
  8
0
  6
CONTINUOUS
 62
     7
 10
171.4368
 20
114.4369
 11
171.4368
 21
107.363
  0
LINE
  8
0
  6
CONTINUOUS
 62
     7
 10
184.2499
 20
107.0392
 11
178.1237
 21
103.5023
  0
LINE
  8
0
  6
CONTINUOUS
 62
     7
 10
177.7499
 20
118.2976
 11
171.6237
 21
114.7606
  0
LINE
  8
0
  6
CONTINUOUS
 62
     7
 10
177.7499
 20
103.5023
 11
171.6237
 21
107.0392
  0
LINE
  8
0
  6
CONTINUOUS
 62
     7
 10
184.2499
 20
114.7606
 11
178.1237
 21
118.2976
  0
LINE
  8
0
  6
CONTINUOUS
 62
     7
 10
184.8368
 20
103.4999
 11
171.0368
 21
103.4999
  0
LINE
  8
0
  6
CONTINUOUS
 62
     7
 10
175.1368
 20
102.3281
 11
175.1368
 21
102.9999
  0
LINE
  8
0
  6
CONTINUOUS
 62
     7
 10
180.7368
 20
102.3281
 11
180.7368
 21
102.9999
  0
LINE
  8
0
  6
CONTINUOUS
 62
     7
 10
181.1868
 20
102.9999
 11
181.1868
 21
103.4999
  0
LINE
  8
0
  6
CONTINUOUS
 62
     7
 10
174.6868
 20
102.9999
 11
181.1868
 21
102.9999
  0
LINE
  8
0
  6
CONTINUOUS
 62
     7
 10
174.6868
 20
102.9999
 11
174.6868
 21
103.4999
  0
LINE
  8
0
  6
CONTINUOUS
 62
     7
 10
170.5368
 20
126.4999
 11
170.5368
 21
103.9999
  0
LINE
  8
0
  6
CONTINUOUS
 62
     7
 10
185.3368
 20
126.4999
 11
185.3368
 21
103.9999
  0
LINE
  8
0
  6
CONTINUOUS
 62
     7
 10
185.3368
 20
125.9999
 11
170.5368
 21
125.9999
  0
LINE
  8
0
  6
CENTER
 62
     2
 10
177.9368
 20
159.2182
 11
177.9368
 21
98.54858
  0
LINE
  8
0
  6
CONTINUOUS
 62
     7
 10
22.43677
 20
5.00003
 11
46.43677
 21
5.00003
  0
LINE
  8
0
  6
CENTER
 62
     2
 10
34.43677
 20
53.20001
 11
34.43677
 21
-72.19998
  0
LINE
  8
0
  6
CENTER
 62
     2
 10
42.03229
 20
0.00002
 11
47.26233
 21
0.00002
  0
LINE
  8
0
  6
CONTINUOUS
 62
     7
 10
43.43677
 20
1.81384
 11
43.43677
 21
-1.81384
  0
LINE
  8
0
  6
CONTINUOUS
 62
     7
 10
43.43677
 20
1.81386
 11
46.43677
 21
1.81386
  0
LINE
  8
0
  6
CONTINUOUS
 62
     7
 10
43.43677
 20
-1.81383
 11
46.43677
 21
-1.81383
  0
LINE
  8
0
  6
CONTINUOUS
 62
     7
 10
22.43677
 20
22.00003
 11
53.43677
 21
22.00003
  0
LINE
  8
0
  6
CONTINUOUS
 62
     7
 10
46.43677
 20
-39.99998
 11
46.43677
 21
22.00003
  0
LINE
  8
0
  6
CONTINUOUS
 62
     7
 10
22.43677
 20
-66.19998
 11
22.43677
 21
48.20001
  0
LINE
  8
0
  6
CONTINUOUS
 62
     7
 10
22.43677
 20
-39.99998
 11
53.43674
 21
-39.99998
  0
LINE
  8
0
  6
CONTINUOUS
 62
     7
 10
22.43677
 20
-23.0
 11
46.43677
 21
-23.0
  0
LINE
  8
0
  6
CONTINUOUS
 62
     7
 10
22.43677
 20
47.20001
 11
49.43677
 21
47.20001
  0
LINE
  8
0
  6
CONTINUOUS
 62
     7
 10
46.43677
 20
48.19998
 11
46.43677
 21
47.20001
  0
LINE
  8
0
  6
CONTINUOUS
 62
     7
 10
23.43677
 20
50.20001
 11
41.61099
 21
50.20001
  0
LINE
  8
0
  6
CONTINUOUS
 62
     7
 10
22.43677
 20
48.20001
 11
46.43677
 21
48.20001
  0
LINE
  8
0
  6
CONTINUOUS
 62
     7
 10
22.43674
 20
48.20001
 11
23.43675
 21
50.20002
  0
LINE
  8
0
  6
CONTINUOUS
 62
     7
 10
46.43673
 20
48.2
 11
45.43673
 21
50.20001
  0
LINE
  8
0
  6
CONTINUOUS
 62
     7
 10
40.43677
 20
50.20001
 11
40.43677
 21
48.20001
  0
LINE
  8
0
  6
CENTER
 62
     2
 10
43.43677
 20
53.20001
 11
43.43677
 21
44.20001
  0
LINE
  8
0
  6
CONTINUOUS
 62
     7
 10
45.98676
 20
48.80002
 11
40.88675
 21
48.80002
  0
LINE
  8
0
  6
CONTINUOUS
 62
     7
 10
43.13673
 20
48.20002
 11
42.97596
 21
48.80001
  0
LINE
  8
0
  6
CONTINUOUS
 62
     7
 10
43.73684
 20
48.80006
 11
43.89761
 21
48.20005
  0
LINE
  8
0
  6
CONTINUOUS
 62
     7
 10
45.98676
 20
48.80002
 11
45.98676
 21
48.20001
  0
LINE
  8
0
  6
CONTINUOUS
 62
     7
 10
40.88675
 20
48.80002
 11
40.88675
 21
48.20001
  0
LINE
  8
0
  6
CONTINUOUS
 62
     7
 10
45.68677
 20
49.49377
 11
45.68677
 21
48.80002
  0
LINE
  8
0
  6
CONTINUOUS
 62
     7
 10
41.18677
 20
49.49377
 11
41.18677
 21
48.80002
  0
LINE
  8
0
  6
CONTINUOUS
 62
     7
 10
45.26254
 20
50.20001
 11
45.43677
 21
50.20001
  0
LINE
  8
0
  6
CENTER
 62
     2
 10
25.43677
 20
53.20001
 11
25.43677
 21
44.20001
  0
LINE
  8
0
  6
CONTINUOUS
 62
     7
 10
49.43677
 20
47.20001
 11
49.43677
 21
22.00003
  0
LINE
  8
0
  6
CONTINUOUS
 62
     7
 10
49.43677
 20
47.00003
 11
53.43677
 21
47.00003
  0
LINE
  8
0
  6
CENTER
 62
     2
 10
46.43677
 20
39.00003
 11
81.83676
 21
39.00003
  0
LINE
  8
0
  6
CONTINUOUS
 62
     7
 10
76.43677
 20
65.17624
 11
76.43677
 21
58.70001
  0
LINE
  8
0
  6
CONTINUOUS
 62
     7
 10
53.43677
 20
31.60001
 11
75.93677
 21
31.60001
  0
LINE
  8
0
  6
CONTINUOUS
 62
     7
 10
53.43677
 20
46.40002
 11
75.93677
 21
46.40002
  0
LINE
  8
0
  6
CONTINUOUS
 62
     7
 10
61.63675
 20
65.17624
 11
61.63675
 21
58.70001
  0
LINE
  8
0
  6
CONTINUOUS
 62
     7
 10
63.23676
 20
66.10001
 11
74.83676
 21
66.10001
  0
LINE
  8
0
  6
CONTINUOUS
 62
     7
 10
77.60858
 20
36.20004
 11
76.93677
 21
36.20004
  0
LINE
  8
0
  6
CONTINUOUS
 62
     7
 10
77.60858
 20
41.80002
 11
76.93677
 21
41.80002
  0
LINE
  8
0
  6
CONTINUOUS
 62
     7
 10
76.93674
 20
35.75003
 11
76.93674
 21
42.25003
  0
LINE
  8
0
  6
CONTINUOUS
 62
     7
 10
76.93677
 20
35.75003
 11
76.43677
 21
35.75003
  0
LINE
  8
0
  6
CONTINUOUS
 62
     7
 10
76.93677
 20
42.25003
 11
76.43677
 21
42.25003
  0
LINE
  8
0
  6
CONTINUOUS
 62
     7
 10
61.63675
 20
58.70001
 11
76.43677
 21
58.70001
  0
LINE
  8
0
  6
CONTINUOUS
 62
     7
 10
61.63675
 20
59.70001
 11
76.43677
 21
59.70001
  0
LINE
  8
0
  6
CONTINUOUS
 62
     7
 10
64.03677
 20
44.00003
 11
74.03677
 21
44.00003
  0
LINE
  8
0
  6
CONTINUOUS
 62
     7
 10
64.03677
 20
34.00003
 11
74.03677
 21
34.00003
  0
LINE
  8
0
  6
CONTINUOUS
 62
     7
 10
64.03677
 20
44.00003
 11
64.03677
 21
34.00003
  0
LINE
  8
0
  6
CONTINUOUS
 62
     7
 10
74.03677
 20
44.00003
 11
74.03677
 21
34.00003
  0
LINE
  8
0
  6
CONTINUOUS
 62
     7
 10
65.03677
 20
44.00003
 11
65.03677
 21
34.00003
  0
LINE
  8
0
  6
CONTINUOUS
 62
     7
 10
66.03677
 20
44.00003
 11
66.03677
 21
34.00003
  0
LINE
  8
0
  6
CONTINUOUS
 62
     7
 10
67.03677
 20
44.00003
 11
67.03677
 21
34.00003
  0
LINE
  8
0
  6
CONTINUOUS
 62
     7
 10
68.03677
 20
44.00003
 11
68.03677
 21
34.00003
  0
LINE
  8
0
  6
CONTINUOUS
 62
     7
 10
69.03677
 20
44.00003
 11
69.03677
 21
34.00003
  0
LINE
  8
0
  6
CONTINUOUS
 62
     7
 10
70.03677
 20
44.00003
 11
70.03677
 21
34.00003
  0
LINE
  8
0
  6
CONTINUOUS
 62
     7
 10
71.03677
 20
44.00003
 11
71.03677
 21
34.00003
  0
LINE
  8
0
  6
CONTINUOUS
 62
     7
 10
72.03677
 20
44.00003
 11
72.03677
 21
34.00003
  0
LINE
  8
0
  6
CONTINUOUS
 62
     7
 10
73.03677
 20
44.00003
 11
73.03677
 21
34.00003
  0
LINE
  8
0
  6
CONTINUOUS
 62
     7
 10
74.83671
 20
66.09995
 11
76.43672
 21
65.17618
  0
LINE
  8
0
  6
CONTINUOUS
 62
     7
 10
63.23677
 20
66.10004
 11
61.63678
 21
65.17629
  0
LINE
  8
0
  6
CONTINUOUS
 62
     7
 10
65.17609
 20
65.17624
 11
65.17609
 21
59.70001
  0
LINE
  8
0
  6
CONTINUOUS
 62
     7
 10
65.49982
 20
65.17624
 11
65.49982
 21
59.70001
  0
LINE
  8
0
  6
CONTINUOUS
 62
     7
 10
72.5737
 20
65.17624
 11
72.5737
 21
59.70001
  0
LINE
  8
0
  6
CONTINUOUS
 62
     7
 10
72.89746
 20
65.17624
 11
72.89746
 21
59.70001
  0
LINE
  8
0
  6
CONTINUOUS
 62
     7
 10
65.17609
 20
65.17624
 11
65.49982
 21
65.17624
  0
LINE
  8
0
  6
CONTINUOUS
 62
     7
 10
72.5737
 20
65.17624
 11
72.89746
 21
65.17624
  0
LINE
  8
0
  6
CENTER
 62
     2
 10
69.03677
 20
69.10001
 11
69.03677
 21
28.60001
  0
LINE
  8
0
  6
CONTINUOUS
 62
     7
 10
53.43677
 20
47.00003
 11
53.43677
 21
22.00003
  0
LINE
  8
0
  6
CONTINUOUS
 62
     7
 10
61.63675
 20
56.70001
 11
76.43677
 21
56.70001
  0
LINE
  8
0
  6
CONTINUOUS
 62
     7
 10
61.63675
 20
56.70001
 11
61.63675
 21
46.40002
  0
LINE
  8
0
  6
CONTINUOUS
 62
     7
 10
76.43677
 20
56.70001
 11
76.43677
 21
32.10001
  0
LINE
  8
0
  6
CONTINUOUS
 62
     7
 10
75.03677
 20
58.70001
 11
75.03677
 21
56.70001
  0
LINE
  8
0
  6
CONTINUOUS
 62
     7
 10
63.03677
 20
58.70001
 11
63.03677
 21
56.70001
  0
LINE
  8
0
  6
CONTINUOUS
 62
     7
 10
74.36026
 20
58.70001
 11
74.36026
 21
56.70001
  0
LINE
  8
0
  6
CONTINUOUS
 62
     7
 10
63.71326
 20
58.70001
 11
63.71326
 21
56.70001
  0
LINE
  8
0
  6
CONTINUOUS
 62
     7
 10
53.93677
 20
31.60001
 11
53.93677
 21
46.40002
  0
LINE
  8
0
  6
CONTINUOUS
 62
     7
 10
22.43677
 20
-65.19998
 11
49.43674
 21
-65.19998
  0
LINE
  8
0
  6
CONTINUOUS
 62
     7
 10
46.43674
 20
-66.19998
 11
46.43674
 21
-65.19998
  0
LINE
  8
0
  6
CONTINUOUS
 62
     7
 10
45.43677
 20
-68.19998
 11
27.26251
 21
-68.19998
  0
LINE
  8
0
  6
CONTINUOUS
 62
     7
 10
22.43677
 20
-66.19998
 11
46.43674
 21
-66.19998
  0
LINE
  8
0
  6
CONTINUOUS
 62
     7
 10
46.43669
 20
-66.19997
 11
45.4367
 21
-68.19997
  0
LINE
  8
0
  6
CONTINUOUS
 62
     7
 10
22.43673
 20
-66.2
 11
23.43672
 21
-68.19998
  0
LINE
  8
0
  6
CONTINUOUS
 62
     7
 10
28.43677
 20
-68.19998
 11
28.43677
 21
-66.19998
  0
LINE
  8
0
  6
CENTER
 62
     2
 10
25.43677
 20
-71.19998
 11
25.43677
 21
-62.19998
  0
LINE
  8
0
  6
CONTINUOUS
 62
     7
 10
22.88675
 20
-66.79999
 11
27.98676
 21
-66.79999
  0
LINE
  8
0
  6
CONTINUOUS
 62
     7
 10
25.73666
 20
-66.20001
 11
25.89743
 21
-66.80002
  0
LINE
  8
0
  6
CONTINUOUS
 62
     7
 10
25.13666
 20
-66.8
 11
24.97588
 21
-66.19999
  0
LINE
  8
0
  6
CONTINUOUS
 62
     7
 10
22.88675
 20
-66.79999
 11
22.88675
 21
-66.19998
  0
LINE
  8
0
  6
CONTINUOUS
 62
     7
 10
27.98676
 20
-66.79999
 11
27.98676
 21
-66.19998
  0
LINE
  8
0
  6
CONTINUOUS
 62
     7
 10
23.18677
 20
-67.49373
 11
23.18677
 21
-66.79999
  0
LINE
  8
0
  6
CONTINUOUS
 62
     7
 10
27.68677
 20
-67.49373
 11
27.68677
 21
-66.79999
  0
LINE
  8
0
  6
CONTINUOUS
 62
     7
 10
23.61099
 20
-68.19998
 11
23.43677
 21
-68.19998
  0
LINE
  8
0
  6
CENTER
 62
     2
 10
43.43677
 20
-71.19998
 11
43.43677
 21
-62.19998
  0
LINE
  8
0
  6
CONTINUOUS
 62
     7
 10
49.43674
 20
-65.19998
 11
49.43674
 21
-39.99998
  0
LINE
  8
0
  6
CONTINUOUS
 62
     7
 10
49.43674
 20
-64.99998
 11
53.43674
 21
-64.99998
  0
LINE
  8
0
  6
CENTER
 62
     2
 10
46.43674
 20
-56.99998
 11
81.83676
 21
-56.99998
  0
LINE
  8
0
  6
CONTINUOUS
 62
     7
 10
76.43674
 20
-83.17622
 11
76.43674
 21
-76.69998
  0
LINE
  8
0
  6
CONTINUOUS
 62
     7
 10
61.63675
 20
-83.17622
 11
61.63675
 21
-76.69998
  0
LINE
  8
0
  6
CONTINUOUS
 62
     7
 10
63.23676
 20
-84.09999
 11
74.83673
 21
-84.09999
  0
LINE
  8
0
  6
CONTINUOUS
 62
     7
 10
77.60858
 20
-54.19998
 11
76.93674
 21
-54.19998
  0
LINE
  8
0
  6
CONTINUOUS
 62
     7
 10
77.60858
 20
-59.79999
 11
76.93674
 21
-59.79999
  0
LINE
  8
0
  6
CONTINUOUS
 62
     7
 10
76.93674
 20
-53.75
 11
76.93674
 21
-60.25
  0
LINE
  8
0
  6
CONTINUOUS
 62
     7
 10
76.93674
 20
-53.75009
 11
76.43674
 21
-53.75009
  0
LINE
  8
0
  6
CONTINUOUS
 62
     7
 10
76.93674
 20
-60.24998
 11
76.43674
 21
-60.24998
  0
LINE
  8
0
  6
CONTINUOUS
 62
     7
 10
61.63675
 20
-76.69998
 11
76.43674
 21
-76.69998
  0
LINE
  8
0
  6
CONTINUOUS
 62
     7
 10
61.63675
 20
-77.69998
 11
76.43674
 21
-77.69998
  0
LINE
  8
0
  6
CENTER
 62
     2
 10
69.03674
 20
-87.09999
 11
69.03674
 21
-46.59999
  0
LINE
  8
0
  6
CONTINUOUS
 62
     7
 10
64.03674
 20
-61.99998
 11
74.03674
 21
-61.99998
  0
LINE
  8
0
  6
CONTINUOUS
 62
     7
 10
64.03674
 20
-51.99998
 11
74.03674
 21
-51.99998
  0
LINE
  8
0
  6
CONTINUOUS
 62
     7
 10
64.03674
 20
-61.99998
 11
64.03674
 21
-51.99998
  0
LINE
  8
0
  6
CONTINUOUS
 62
     7
 10
74.03674
 20
-62.0
 11
74.03674
 21
-52.0
  0
LINE
  8
0
  6
CONTINUOUS
 62
     7
 10
65.03674
 20
-61.99998
 11
65.03674
 21
-51.99998
  0
LINE
  8
0
  6
CONTINUOUS
 62
     7
 10
66.03674
 20
-62.0
 11
66.03674
 21
-51.99998
  0
LINE
  8
0
  6
CONTINUOUS
 62
     7
 10
67.03674
 20
-62.0
 11
67.03674
 21
-51.99998
  0
LINE
  8
0
  6
CONTINUOUS
 62
     7
 10
68.03674
 20
-62.0
 11
68.03674
 21
-51.99998
  0
LINE
  8
0
  6
CONTINUOUS
 62
     7
 10
69.03674
 20
-62.0
 11
69.03674
 21
-51.99998
  0
LINE
  8
0
  6
CONTINUOUS
 62
     7
 10
70.03674
 20
-62.0
 11
70.03674
 21
-52.0
  0
LINE
  8
0
  6
CONTINUOUS
 62
     7
 10
71.03674
 20
-62.0
 11
71.03674
 21
-52.0
  0
LINE
  8
0
  6
CONTINUOUS
 62
     7
 10
72.03674
 20
-62.0
 11
72.03674
 21
-52.0
  0
LINE
  8
0
  6
CONTINUOUS
 62
     7
 10
73.03674
 20
-62.0
 11
73.03674
 21
-52.0
  0
LINE
  8
0
  6
CONTINUOUS
 62
     7
 10
74.83669
 20
-84.1
 11
76.4367
 21
-83.17623
  0
LINE
  8
0
  6
CONTINUOUS
 62
     7
 10
63.2368
 20
-84.09998
 11
61.63682
 21
-83.17622
  0
LINE
  8
0
  6
CONTINUOUS
 62
     7
 10
65.17606
 20
-83.17622
 11
65.17606
 21
-77.69998
  0
LINE
  8
0
  6
CONTINUOUS
 62
     7
 10
65.49979
 20
-83.17622
 11
65.49979
 21
-77.69998
  0
LINE
  8
0
  6
CONTINUOUS
 62
     7
 10
72.5737
 20
-83.17622
 11
72.5737
 21
-77.69998
  0
LINE
  8
0
  6
CONTINUOUS
 62
     7
 10
72.89743
 20
-83.17622
 11
72.89743
 21
-77.69998
  0
LINE
  8
0
  6
CONTINUOUS
 62
     7
 10
65.17606
 20
-83.17622
 11
65.49979
 21
-83.17622
  0
LINE
  8
0
  6
CONTINUOUS
 62
     7
 10
72.5737
 20
-83.17622
 11
72.89743
 21
-83.17622
  0
LINE
  8
0
  6
CONTINUOUS
 62
     7
 10
53.43674
 20
-64.39998
 11
75.93674
 21
-64.39998
  0
LINE
  8
0
  6
CONTINUOUS
 62
     7
 10
53.43674
 20
-49.59999
 11
75.93674
 21
-49.59999
  0
LINE
  8
0
  6
CONTINUOUS
 62
     7
 10
53.43674
 20
-64.99998
 11
53.43674
 21
-39.99998
  0
LINE
  8
0
  6
CONTINUOUS
 62
     7
 10
61.63675
 20
-74.69998
 11
76.43674
 21
-74.69998
  0
LINE
  8
0
  6
CONTINUOUS
 62
     7
 10
76.43674
 20
-74.69998
 11
76.43674
 21
-50.09999
  0
LINE
  8
0
  6
CONTINUOUS
 62
     7
 10
61.63675
 20
-74.69998
 11
61.63675
 21
-64.39999
  0
LINE
  8
0
  6
CONTINUOUS
 62
     7
 10
63.03674
 20
-76.69998
 11
63.03674
 21
-74.69998
  0
LINE
  8
0
  6
CONTINUOUS
 62
     7
 10
75.03674
 20
-76.69998
 11
75.03674
 21
-74.69998
  0
LINE
  8
0
  6
CONTINUOUS
 62
     7
 10
74.36026
 20
-76.69998
 11
74.36026
 21
-74.69998
  0
LINE
  8
0
  6
CONTINUOUS
 62
     7
 10
63.71326
 20
-76.69998
 11
63.71326
 21
-74.69998
  0
LINE
  8
0
  6
CONTINUOUS
 62
     7
 10
53.93674
 20
-49.59999
 11
53.93674
 21
-64.39999
  0
ARC
  8
0
  6
CONTINUOUS
 62
     7
 10
273.0354
 20
-235.0457
 40
2.21188
 50
0.0
 51
89.99999
  0
ARC
  8
0
  6
CONTINUOUS
 62
     7
 10
291.2836
 20
-246.9346
 40
2.2119
 50
270.0
 51
0.0
  0
ARC
  8
0
  6
CONTINUOUS
 62
     7
 10
290.1776
 20
-236.1516
 40
3.31784
 50
0.0
 51
89.99999
  0
ARC
  8
0
  6
CONTINUOUS
 62
     7
 10
310.3611
 20
-236.8128
 40
2.21189
 50
295.0
 51
0.0
  0
ARC
  8
0
  6
CONTINUOUS
 62
     7
 10
310.3611
 20
-235.0457
 40
2.21188
 50
0.0
 51
89.99999
  0
ARC
  8
0
  6
CONTINUOUS
 62
     7
 10
327.5034
 20
-232.8338
 40
3.31784
 50
291.6884
 51
0.0
  0
ARC
  8
0
  6
CONTINUOUS
 62
     7
 10
326.3973
 20
-232.0834
 40
1.10595
 50
291.689
 51
0.0
  0
CIRCLE
  8
0
  6
CONTINUOUS
 62
     7
 10
-201.4368
 20
-4.0
 40
1.6
  0
CIRCLE
  8
0
  6
CONTINUOUS
 62
     7
 10
-201.4368
 20
-14.0
 40
1.6
  0
ARC
  8
0
  6
CONTINUOUS
 62
     7
 10
-173.2368
 20
-40.80002
 40
0.8
 50
0.0
 51
89.99999
  0
ARC
  8
0
  6
CONTINUOUS
 62
     7
 10
-185.4368
 20
44.5
 40
6.0
 50
73.80862
 51
106.1914
  0
ARC
  8
0
  6
CONTINUOUS
 62
     7
 10
-183.9868
 20
49.49374
 40
0.8
 50
0.0
 51
73.8082
  0
ARC
  8
0
  6
CONTINUOUS
 62
     7
 10
-186.8868
 20
49.49374
 40
0.8
 50
106.1918
 51
180.0
  0
ARC
  8
0
  6
CONTINUOUS
 62
     7
 10
-203.4368
 20
44.49998
 40
6.0
 50
73.80862
 51
106.1914
  0
ARC
  8
0
  6
CONTINUOUS
 62
     7
 10
-204.8868
 20
49.49374
 40
0.8
 50
106.1918
 51
118.0138
  0
ARC
  8
0
  6
CONTINUOUS
 62
     7
 10
-201.9868
 20
49.49374
 40
0.8
 50
61.98621
 51
73.8082
  0
ARC
  8
0
  6
CONTINUOUS
 62
     7
 10
-152.9368
 20
32.10001
 40
0.5
 50
270.0
 51
0.0
  0
ARC
  8
0
  6
CONTINUOUS
 62
     7
 10
-152.9368
 20
45.90001
 40
0.5
 50
0.0
 51
89.99999
  0
ARC
  8
0
  6
CONTINUOUS
 62
     7
 10
-155.0368
 20
39.00002
 40
5.0
 50
330.5077
 51
29.49232
  0
ARC
  8
0
  6
CONTINUOUS
 62
     7
 10
-151.265
 20
36.86668
 40
0.66667
 50
270.0
 51
330.5074
  0
ARC
  8
0
  6
CONTINUOUS
 62
     7
 10
-151.265
 20
41.13335
 40
0.66666
 50
29.49256
 51
89.99999
  0
ARC
  8
0
  6
CONTINUOUS
 62
     7
 10
-154.2064
 20
62.42262
 40
3.27324
 50
62.72894
 51
122.7273
  0
ARC
  8
0
  6
CONTINUOUS
 62
     7
 10
-159.8368
 20
53.39838
 40
12.29748
 50
73.28477
 51
106.7153
  0
ARC
  8
0
  6
CONTINUOUS
 62
     7
 10
-165.4671
 20
62.42261
 40
3.27326
 50
57.27284
 51
117.273
  0
ARC
  8
0
  6
CONTINUOUS
 62
     7
 10
-203.4368
 20
-62.5
 40
6.0
 50
253.8086
 51
286.1914
  0
ARC
  8
0
  6
CONTINUOUS
 62
     7
 10
-204.8867
 20
-67.49374
 40
0.8
 50
180.0
 51
253.8083
  0
ARC
  8
0
  6
CONTINUOUS
 62
     7
 10
-201.9868
 20
-67.49374
 40
0.80001
 50
286.1917
 51
0.0
  0
ARC
  8
0
  6
CONTINUOUS
 62
     7
 10
-185.4368
 20
-62.49997
 40
6.0
 50
253.8086
 51
286.1914
  0
ARC
  8
0
  6
CONTINUOUS
 62
     7
 10
-183.9868
 20
-67.49374
 40
0.80001
 50
286.1917
 51
298.0138
  0
ARC
  8
0
  6
CONTINUOUS
 62
     7
 10
-186.8867
 20
-67.49374
 40
0.8
 50
241.9862
 51
253.8083
  0
ARC
  8
0
  6
CONTINUOUS
 62
     7
 10
-152.9368
 20
-50.09998
 40
0.5
 50
0.0
 51
89.99999
  0
ARC
  8
0
  6
CONTINUOUS
 62
     7
 10
-152.9368
 20
-63.89999
 40
0.5
 50
270.0
 51
0.0
  0
ARC
  8
0
  6
CONTINUOUS
 62
     7
 10
-152.9368
 20
-50.09998
 40
0.5
 50
0.0
 51
89.99999
  0
ARC
  8
0
  6
CONTINUOUS
 62
     7
 10
-152.9368
 20
-63.89999
 40
0.5
 50
270.0
 51
0.0
  0
ARC
  8
0
  6
CONTINUOUS
 62
     7
 10
-155.0368
 20
-56.99997
 40
5.00001
 50
330.5076
 51
29.49228
  0
ARC
  8
0
  6
CONTINUOUS
 62
     7
 10
-151.2649
 20
-54.86664
 40
0.66666
 50
29.49256
 51
89.99999
  0
ARC
  8
0
  6
CONTINUOUS
 62
     7
 10
-151.2649
 20
-59.13333
 40
0.66667
 50
270.0
 51
330.5074
  0
ARC
  8
0
  6
CONTINUOUS
 62
     7
 10
-154.2064
 20
-80.42258
 40
3.27324
 50
237.2726
 51
297.271
  0
ARC
  8
0
  6
CONTINUOUS
 62
     7
 10
-159.8368
 20
-71.39835
 40
12.29748
 50
253.2847
 51
286.7152
  0
ARC
  8
0
  6
CONTINUOUS
 62
     7
 10
-165.4671
 20
-80.42258
 40
3.27326
 50
242.727
 51
302.7271
  0
ARC
  8
0
  6
CONTINUOUS
 62
     7
 10
-185.4367
 20
140.9999
 40
3.0
 50
89.99999
 51
180.0
  0
ARC
  8
0
  6
CONTINUOUS
 62
     7
 10
-203.4367
 20
149.9999
 40
3.0
 50
270.0
 51
0.0
  0
ARC
  8
0
  6
CONTINUOUS
 62
     7
 10
-185.4367
 20
140.9999
 40
2.55
 50
276.7564
 51
263.2436
  0
ARC
  8
0
  6
CONTINUOUS
 62
     7
 10
-203.4367
 20
149.9999
 40
2.55
 50
96.7564
 51
83.24359
  0
CIRCLE
  8
0
  6
CONTINUOUS
 62
     7
 10
-185.4367
 20
140.9999
 40
2.25
  0
ARC
  8
0
  6
CONTINUOUS
 62
     7
 10
-185.4367
 20
142.103
 40
0.51999
 50
225.0
 51
315.0
  0
ARC
  8
0
  6
CONTINUOUS
 62
     7
 10
-186.5398
 20
140.9999
 40
0.51999
 50
315.0
 51
45.0
  0
ARC
  8
0
  6
CONTINUOUS
 62
     7
 10
-184.3336
 20
140.9999
 40
0.51999
 50
135.0
 51
225.0
  0
ARC
  8
0
  6
CONTINUOUS
 62
     7
 10
-185.4367
 20
139.8968
 40
0.51999
 50
45.0
 51
135.0
  0
CIRCLE
  8
0
  6
CONTINUOUS
 62
     7
 10
-203.4367
 20
149.9999
 40
2.25
  0
ARC
  8
0
  6
CONTINUOUS
 62
     7
 10
-203.4367
 20
151.103
 40
0.51999
 50
225.0
 51
315.0
  0
ARC
  8
0
  6
CONTINUOUS
 62
     7
 10
-204.5398
 20
149.9999
 40
0.51999
 50
315.0
 51
45.0
  0
ARC
  8
0
  6
CONTINUOUS
 62
     7
 10
-202.3337
 20
149.9999
 40
0.51999
 50
135.0
 51
225.0
  0
ARC
  8
0
  6
CONTINUOUS
 62
     7
 10
-203.4367
 20
148.8968
 40
0.51999
 50
45.0
 51
135.0
  0
ARC
  8
0
  6
CONTINUOUS
 62
     7
 10
-205.9367
 20
152.4999
 40
0.5
 50
89.99999
 51
180.0
  0
ARC
  8
0
  6
CONTINUOUS
 62
     7
 10
-205.9367
 20
138.4999
 40
0.5
 50
180.0
 51
270.0
  0
CIRCLE
  8
0
  6
CONTINUOUS
 62
     7
 10
-159.8368
 20
145.4999
 40
7.4
  0
CIRCLE
  8
0
  6
CONTINUOUS
 62
     7
 10
-159.8368
 20
145.4999
 40
3.8
  0
CIRCLE
  8
0
  6
CONTINUOUS
 62
     7
 10
-159.8368
 20
145.4999
 40
5.8
  0
ARC
  8
0
  6
CONTINUOUS
 62
     7
 10
-152.9367
 20
138.5999
 40
0.5
 50
270.0
 51
0.0
  0
ARC
  8
0
  6
CONTINUOUS
 62
     7
 10
-155.0367
 20
145.4999
 40
5.0
 50
330.5077
 51
29.49228
  0
ARC
  8
0
  6
CONTINUOUS
 62
     7
 10
-151.2649
 20
147.6332
 40
0.66666
 50
29.49227
 51
89.99999
  0
ARC
  8
0
  6
CONTINUOUS
 62
     7
 10
-151.2649
 20
143.3666
 40
0.66667
 50
270.0
 51
330.5077
  0
ARC
  8
0
  6
CONTINUOUS
 62
     7
 10
-152.9367
 20
152.3999
 40
0.5
 50
0.0
 51
89.99999
  0
CIRCLE
  8
0
  6
CONTINUOUS
 62
     7
 10
-309.9367
 20
1.00006
 40
1.75
  0
CIRCLE
  8
0
  6
CONTINUOUS
 62
     7
 10
-306.9367
 20
-8.99994
 40
1.75
  0
CIRCLE
  8
0
  6
CONTINUOUS
 62
     7
 10
-303.9367
 20
-18.99994
 40
1.75
  0
CIRCLE
  8
0
  6
CONTINUOUS
 62
     7
 10
-309.9367
 20
1.00006
 40
2.5
  0
CIRCLE
  8
0
  6
CONTINUOUS
 62
     7
 10
-306.9367
 20
-8.99994
 40
2.5
  0
CIRCLE
  8
0
  6
CONTINUOUS
 62
     7
 10
-303.9367
 20
-18.99994
 40
2.5
  0
CIRCLE
  8
0
  6
CENTER
 62
     2
 10
-312.4367
 20
-17.99994
 40
1.4
  0
CIRCLE
  8
0
  6
CONTINUOUS
 62
     7
 10
-301.4367
 20
0.00006
 40
1.4
  0
CIRCLE
  8
0
  6
CONTINUOUS
 62
     7
 10
-306.9367
 20
13.70006
 40
2.0
  0
CIRCLE
  8
0
  6
CONTINUOUS
 62
     7
 10
-306.9367
 20
13.70006
 40
2.65
  0
CIRCLE
  8
0
  6
CONTINUOUS
 62
     7
 10
-306.9367
 20
-31.69995
 40
2.0
  0
CIRCLE
  8
0
  6
CONTINUOUS
 62
     7
 10
-306.9367
 20
-31.69995
 40
2.65
  0
ARC
  8
0
  6
CONTINUOUS
 62
     7
 10
-310.3829
 20
42.95337
 40
0.35345
 50
0.0
 51
89.99999
  0
ARC
  8
0
  6
CONTINUOUS
 62
     7
 10
-307.4669
 20
41.05351
 40
0.35346
 50
270.0
 51
0.0
  0
ARC
  8
0
  6
CONTINUOUS
 62
     7
 10
-307.6436
 20
42.77664
 40
0.53018
 50
0.0
 51
89.99999
  0
ARC
  8
0
  6
CONTINUOUS
 62
     7
 10
-304.4182
 20
42.95337
 40
0.35345
 50
0.0
 51
89.99999
  0
ARC
  8
0
  6
CONTINUOUS
 62
     7
 10
-304.4182
 20
42.67099
 40
0.35347
 50
295.0005
 51
0.0
  0
ARC
  8
0
  6
CONTINUOUS
 62
     7
 10
-301.6789
 20
43.30684
 40
0.53019
 50
291.6869
 51
0.0
  0
ARC
  8
0
  6
CONTINUOUS
 62
     7
 10
-301.8557
 20
43.42676
 40
0.17673
 50
291.687
 51
0.0
  0
ARC
  8
0
  6
CONTINUOUS
 62
     7
 10
-312.8867
 20
49.49379
 40
0.8
 50
106.1918
 51
180.0
  0
ARC
  8
0
  6
CONTINUOUS
 62
     7
 10
-311.4367
 20
44.50005
 40
6.0
 50
73.80876
 51
106.1912
  0
ARC
  8
0
  6
CONTINUOUS
 62
     7
 10
-309.9867
 20
49.4938
 40
0.79999
 50
0.0
 51
73.8082
  0
ARC
  8
0
  6
CONTINUOUS
 62
     7
 10
-302.4367
 20
44.50005
 40
6.0
 50
73.80876
 51
106.1912
  0
ARC
  8
0
  6
CONTINUOUS
 62
     7
 10
-303.8867
 20
49.49379
 40
0.8
 50
106.1918
 51
118.0148
  0
ARC
  8
0
  6
CONTINUOUS
 62
     7
 10
-300.9867
 20
49.4938
 40
0.80001
 50
61.98524
 51
73.8082
  0
ARC
  8
0
  6
CONTINUOUS
 62
     7
 10
-303.5932
 20
55.84854
 40
9.84738
 50
71.30395
 51
108.696
  0
ARC
  8
0
  6
CONTINUOUS
 62
     7
 10
-310.2801
 20
55.84854
 40
9.84738
 50
71.30395
 51
108.696
  0
ARC
  8
0
  6
CONTINUOUS
 62
     7
 10
-303.4904
 20
-60.95325
 40
0.35345
 50
180.0
 51
270.0
  0
ARC
  8
0
  6
CONTINUOUS
 62
     7
 10
-306.4065
 20
-59.05338
 40
0.35346
 50
89.99999
 51
180.0
  0
ARC
  8
0
  6
CONTINUOUS
 62
     7
 10
-306.2298
 20
-60.77652
 40
0.53018
 50
180.0
 51
270.0
  0
ARC
  8
0
  6
CONTINUOUS
 62
     7
 10
-309.4551
 20
-60.95325
 40
0.35345
 50
180.0
 51
270.0
  0
ARC
  8
0
  6
CONTINUOUS
 62
     7
 10
-309.4551
 20
-60.67087
 40
0.35347
 50
115.0005
 51
180.0
  0
ARC
  8
0
  6
CONTINUOUS
 62
     7
 10
-312.1944
 20
-61.30673
 40
0.53019
 50
111.6869
 51
180.0
  0
ARC
  8
0
  6
CONTINUOUS
 62
     7
 10
-312.0177
 20
-61.42664
 40
0.17673
 50
111.687
 51
180.0
  0
ARC
  8
0
  6
CONTINUOUS
 62
     7
 10
-300.9867
 20
-67.49368
 40
0.80001
 50
286.1917
 51
0.0
  0
ARC
  8
0
  6
CONTINUOUS
 62
     7
 10
-302.4367
 20
-62.49991
 40
6.0
 50
253.8088
 51
286.1912
  0
ARC
  8
0
  6
CONTINUOUS
 62
     7
 10
-303.8867
 20
-67.49368
 40
0.79999
 50
180.0
 51
253.8083
  0
ARC
  8
0
  6
CONTINUOUS
 62
     7
 10
-311.4367
 20
-62.49994
 40
6.0
 50
253.8088
 51
286.1912
  0
ARC
  8
0
  6
CONTINUOUS
 62
     7
 10
-309.9867
 20
-67.49368
 40
0.80001
 50
286.1917
 51
298.0148
  0
ARC
  8
0
  6
CONTINUOUS
 62
     7
 10
-312.8867
 20
-67.49368
 40
0.80001
 50
241.9852
 51
253.8083
  0
ARC
  8
0
  6
CONTINUOUS
 62
     7
 10
-310.2801
 20
-73.84842
 40
9.84738
 50
251.3039
 51
288.696
  0
ARC
  8
0
  6
CONTINUOUS
 62
     7
 10
-303.5932
 20
-73.84842
 40
9.84738
 50
251.3039
 51
288.696
  0
CIRCLE
  8
0
  6
CONTINUOUS
 62
     7
 10
-53.93674
 20
-14.00009
 40
1.75
  0
CIRCLE
  8
0
  6
CONTINUOUS
 62
     7
 10
-47.93674
 20
-4.00009
 40
1.75
  0
CIRCLE
  8
0
  6
CONTINUOUS
 62
     7
 10
-47.93674
 20
-4.00009
 40
2.5
  0
CIRCLE
  8
0
  6
CONTINUOUS
 62
     7
 10
-53.93674
 20
-14.00009
 40
2.5
  0
CIRCLE
  8
0
  6
CONTINUOUS
 62
     7
 10
-56.43674
 20
-0.00009
 40
1.4
  0
CIRCLE
  8
0
  6
CONTINUOUS
 62
     7
 10
-45.43674
 20
-18.00009
 40
1.4
  0
ARC
  8
0
  6
CONTINUOUS
 62
     7
 10
-45.43674
 20
-18.00009
 40
2.7
 50
42.20544
 51
317.7946
  0
ARC
  8
0
  6
CONTINUOUS
 62
     7
 10
-56.43674
 20
-0.00009
 40
2.7
 50
0.0
 51
137.7946
  0
ARC
  8
0
  6
CONTINUOUS
 62
     7
 10
-56.43674
 20
-0.00009
 40
2.7
 50
222.2054
 51
0.0
  0
CIRCLE
  8
0
  6
CONTINUOUS
 62
     7
 10
-50.93674
 20
18.49991
 40
1.65
  0
CIRCLE
  8
0
  6
CONTINUOUS
 62
     7
 10
-50.93674
 20
-36.50009
 40
1.65
  0
ARC
  8
0
  6
CONTINUOUS
 62
     7
 10
-44.73674
 20
-40.80008
 40
0.8
 50
0.0
 51
89.99999
  0
ARC
  8
0
  6
CONTINUOUS
 62
     7
 10
-57.13673
 20
-40.80008
 40
0.8
 50
89.99999
 51
180.0
  0
ARC
  8
0
  6
CONTINUOUS
 62
     7
 10
-57.83675
 20
32.09991
 40
0.5
 50
180.0
 51
270.0
  0
ARC
  8
0
  6
CONTINUOUS
 62
     7
 10
-44.03674
 20
32.09991
 40
0.5
 50
270.0
 51
0.0
  0
ARC
  8
0
  6
CONTINUOUS
 62
     7
 10
-57.83675
 20
45.8999
 40
0.5
 50
89.99999
 51
180.0
  0
ARC
  8
0
  6
CONTINUOUS
 62
     7
 10
-44.03674
 20
45.8999
 40
0.5
 50
0.0
 51
89.99999
  0
CIRCLE
  8
0
  6
CONTINUOUS
 62
     7
 10
-50.93674
 20
38.99991
 40
2.8
  0
ARC
  8
0
  6
CONTINUOUS
 62
     7
 10
-50.93674
 20
40.27271
 40
0.6
 50
225.0
 51
315.0
  0
ARC
  8
0
  6
CONTINUOUS
 62
     7
 10
-52.20953
 20
38.99991
 40
0.6
 50
315.0
 51
45.0
  0
ARC
  8
0
  6
CONTINUOUS
 62
     7
 10
-49.66396
 20
38.99991
 40
0.6
 50
135.0
 51
225.0
  0
ARC
  8
0
  6
CONTINUOUS
 62
     7
 10
-50.93674
 20
37.72711
 40
0.6
 50
45.0
 51
135.0
  0
CIRCLE
  8
0
  6
CONTINUOUS
 62
     7
 10
-50.93674
 20
38.99991
 40
3.25
  0
ARC
  8
0
  6
CONTINUOUS
 62
     7
 10
-47.59329
 20
55.84839
 40
9.84738
 50
71.30401
 51
108.696
  0
ARC
  8
0
  6
CONTINUOUS
 62
     7
 10
-54.28021
 20
55.84839
 40
9.84738
 50
71.30401
 51
108.696
  0
ARC
  8
0
  6
CONTINUOUS
 62
     7
 10
-44.03673
 20
-50.1001
 40
0.5
 50
0.0
 51
89.99999
  0
ARC
  8
0
  6
CONTINUOUS
 62
     7
 10
-57.83673
 20
-50.1001
 40
0.5
 50
89.99999
 51
180.0
  0
ARC
  8
0
  6
CONTINUOUS
 62
     7
 10
-44.03673
 20
-63.90009
 40
0.5
 50
270.0
 51
0.0
  0
ARC
  8
0
  6
CONTINUOUS
 62
     7
 10
-57.83673
 20
-63.90009
 40
0.5
 50
180.0
 51
270.0
  0
CIRCLE
  8
0
  6
CONTINUOUS
 62
     7
 10
-50.93674
 20
-57.00009
 40
2.8
  0
ARC
  8
0
  6
CONTINUOUS
 62
     7
 10
-50.93674
 20
-58.27289
 40
0.6
 50
45.0
 51
135.0
  0
ARC
  8
0
  6
CONTINUOUS
 62
     7
 10
-49.66394
 20
-57.00009
 40
0.6
 50
135.0
 51
225.0
  0
ARC
  8
0
  6
CONTINUOUS
 62
     7
 10
-52.20952
 20
-57.00009
 40
0.6
 50
315.0
 51
45.0
  0
ARC
  8
0
  6
CONTINUOUS
 62
     7
 10
-50.93674
 20
-55.72729
 40
0.6
 50
225.0
 51
315.0
  0
CIRCLE
  8
0
  6
CONTINUOUS
 62
     7
 10
-50.93674
 20
-57.00009
 40
3.25
  0
ARC
  8
0
  6
CONTINUOUS
 62
     7
 10
-54.28018
 20
-73.84857
 40
9.84738
 50
251.304
 51
288.696
  0
ARC
  8
0
  6
CONTINUOUS
 62
     7
 10
-47.59326
 20
-73.84857
 40
9.84738
 50
251.304
 51
288.696
  0
ARC
  8
0
  6
CONTINUOUS
 62
     7
 10
-185.4367
 20
-173.5
 40
3.0
 50
89.99999
 51
180.0
  0
ARC
  8
0
  6
CONTINUOUS
 62
     7
 10
-203.4367
 20
-164.5
 40
3.0
 50
270.0
 51
0.0
  0
ARC
  8
0
  6
CONTINUOUS
 62
     7
 10
-185.4367
 20
-173.5
 40
2.55
 50
276.7564
 51
263.2436
  0
ARC
  8
0
  6
CONTINUOUS
 62
     7
 10
-203.4367
 20
-164.5
 40
2.55
 50
96.7564
 51
83.24359
  0
CIRCLE
  8
0
  6
CONTINUOUS
 62
     7
 10
-185.4367
 20
-173.5
 40
2.25
  0
ARC
  8
0
  6
CONTINUOUS
 62
     7
 10
-185.4367
 20
-172.3969
 40
0.51999
 50
225.0
 51
315.0
  0
ARC
  8
0
  6
CONTINUOUS
 62
     7
 10
-186.5398
 20
-173.5
 40
0.51999
 50
315.0
 51
45.0
  0
ARC
  8
0
  6
CONTINUOUS
 62
     7
 10
-184.3336
 20
-173.5
 40
0.51999
 50
135.0
 51
225.0
  0
ARC
  8
0
  6
CONTINUOUS
 62
     7
 10
-185.4367
 20
-174.6031
 40
0.51999
 50
45.0
 51
135.0
  0
CIRCLE
  8
0
  6
CONTINUOUS
 62
     7
 10
-203.4367
 20
-164.5
 40
2.25
  0
ARC
  8
0
  6
CONTINUOUS
 62
     7
 10
-203.4367
 20
-163.3969
 40
0.51999
 50
225.0
 51
315.0
  0
ARC
  8
0
  6
CONTINUOUS
 62
     7
 10
-204.5398
 20
-164.5
 40
0.51999
 50
315.0
 51
45.0
  0
ARC
  8
0
  6
CONTINUOUS
 62
     7
 10
-202.3337
 20
-164.5
 40
0.51999
 50
135.0
 51
225.0
  0
ARC
  8
0
  6
CONTINUOUS
 62
     7
 10
-203.4367
 20
-165.6031
 40
0.51999
 50
45.0
 51
135.0
  0
ARC
  8
0
  6
CONTINUOUS
 62
     7
 10
-205.9367
 20
-162.0
 40
0.5
 50
89.99999
 51
180.0
  0
ARC
  8
0
  6
CONTINUOUS
 62
     7
 10
-205.9367
 20
-176.0
 40
0.5
 50
180.0
 51
270.0
  0
ARC
  8
0
  6
CONTINUOUS
 62
     7
 10
-152.9367
 20
-162.1
 40
0.5
 50
0.0
 51
89.99999
  0
ARC
  8
0
  6
CONTINUOUS
 62
     7
 10
-152.9367
 20
-175.9
 40
0.5
 50
270.0
 51
0.0
  0
ARC
  8
0
  6
CONTINUOUS
 62
     7
 10
-155.0367
 20
-169.0
 40
5.0
 50
330.5077
 51
29.49228
  0
ARC
  8
0
  6
CONTINUOUS
 62
     7
 10
-151.2649
 20
-171.1333
 40
0.66667
 50
270.0
 51
330.5077
  0
ARC
  8
0
  6
CONTINUOUS
 62
     7
 10
-151.2649
 20
-166.8667
 40
0.66666
 50
29.49227
 51
89.99999
  0
ARC
  8
0
  6
CONTINUOUS
 62
     7
 10
182.4368
 20
-160.0
 40
3.0
 50
180.0
 51
270.0
  0
ARC
  8
0
  6
CONTINUOUS
 62
     7
 10
173.4368
 20
-178.0
 40
3.0
 50
0.0
 51
89.99999
  0
ARC
  8
0
  6
CONTINUOUS
 62
     7
 10
182.4368
 20
-160.0
 40
2.55
 50
6.75641
 51
353.2436
  0
ARC
  8
0
  6
CONTINUOUS
 62
     7
 10
173.4368
 20
-178.0
 40
2.55
 50
186.7564
 51
173.2436
  0
CIRCLE
  8
0
  6
CONTINUOUS
 62
     7
 10
182.4368
 20
-160.0
 40
2.25
  0
ARC
  8
0
  6
CONTINUOUS
 62
     7
 10
181.3337
 20
-160.0
 40
0.51999
 50
315.0
 51
45.0
  0
ARC
  8
0
  6
CONTINUOUS
 62
     7
 10
182.4368
 20
-161.1031
 40
0.51999
 50
45.0
 51
135.0
  0
ARC
  8
0
  6
CONTINUOUS
 62
     7
 10
182.4368
 20
-158.8969
 40
0.51999
 50
225.0
 51
315.0
  0
ARC
  8
0
  6
CONTINUOUS
 62
     7
 10
183.5399
 20
-160.0
 40
0.51999
 50
135.0
 51
225.0
  0
CIRCLE
  8
0
  6
CONTINUOUS
 62
     7
 10
173.4368
 20
-178.0
 40
2.25
  0
ARC
  8
0
  6
CONTINUOUS
 62
     7
 10
172.3337
 20
-178.0
 40
0.51999
 50
315.0
 51
45.0
  0
ARC
  8
0
  6
CONTINUOUS
 62
     7
 10
173.4368
 20
-179.1031
 40
0.51999
 50
45.0
 51
135.0
  0
ARC
  8
0
  6
CONTINUOUS
 62
     7
 10
173.4368
 20
-176.8969
 40
0.51999
 50
225.0
 51
315.0
  0
ARC
  8
0
  6
CONTINUOUS
 62
     7
 10
174.5399
 20
-178.0
 40
0.51999
 50
135.0
 51
225.0
  0
ARC
  8
0
  6
CONTINUOUS
 62
     7
 10
170.9368
 20
-180.5
 40
0.5
 50
180.0
 51
270.0
  0
ARC
  8
0
  6
CONTINUOUS
 62
     7
 10
184.9368
 20
-180.5
 40
0.5
 50
270.0
 51
0.0
  0
CIRCLE
  8
0
  6
CONTINUOUS
 62
     7
 10
177.9368
 20
-134.4
 40
7.4
  0
CIRCLE
  8
0
  6
CONTINUOUS
 62
     7
 10
177.9368
 20
-134.4
 40
3.8
  0
CIRCLE
  8
0
  6
CONTINUOUS
 62
     7
 10
177.9368
 20
-134.4
 40
5.8
  0
ARC
  8
0
  6
CONTINUOUS
 62
     7
 10
184.8368
 20
-127.5
 40
0.5
 50
0.0
 51
89.99999
  0
ARC
  8
0
  6
CONTINUOUS
 62
     7
 10
177.9368
 20
-129.6
 40
5.0
 50
60.50768
 51
119.4923
  0
ARC
  8
0
  6
CONTINUOUS
 62
     7
 10
175.8035
 20
-125.8282
 40
0.66667
 50
119.4919
 51
180.0
  0
ARC
  8
0
  6
CONTINUOUS
 62
     7
 10
180.0702
 20
-125.8282
 40
0.66667
 50
0.0
 51
60.50805
  0
ARC
  8
0
  6
CONTINUOUS
 62
     7
 10
171.0368
 20
-127.5
 40
0.5
 50
89.99999
 51
180.0
  0
ARC
  8
0
  6
CONTINUOUS
 62
     7
 10
280.2065
 20
62.42252
 40
3.27324
 50
57.27263
 51
117.2712
  0
ARC
  8
0
  6
CONTINUOUS
 62
     7
 10
277.265
 20
41.13324
 40
0.66667
 50
89.99999
 51
150.5081
  0
ARC
  8
0
  6
CONTINUOUS
 62
     7
 10
277.265
 20
36.86658
 40
0.66668
 50
209.4919
 51
270.0
  0
ARC
  8
0
  6
CONTINUOUS
 62
     7
 10
285.8368
 20
53.39828
 40
12.29748
 50
73.2847
 51
106.7152
  0
ARC
  8
0
  6
CONTINUOUS
 62
     7
 10
291.4671
 20
62.42249
 40
3.27326
 50
62.72702
 51
122.7271
  0
ARC
  8
0
  6
CONTINUOUS
 62
     7
 10
329.4368
 20
44.49991
 40
6.0
 50
73.80876
 51
106.1912
  0
ARC
  8
0
  6
CONTINUOUS
 62
     7
 10
330.8868
 20
49.49365
 40
0.79999
 50
0.0
 51
73.8082
  0
ARC
  8
0
  6
CONTINUOUS
 62
     7
 10
327.9868
 20
49.49365
 40
0.8
 50
106.1918
 51
180.0
  0
ARC
  8
0
  6
CONTINUOUS
 62
     7
 10
311.4368
 20
44.49991
 40
6.0
 50
73.80876
 51
106.1912
  0
ARC
  8
0
  6
CONTINUOUS
 62
     7
 10
309.9868
 20
49.49365
 40
0.8
 50
106.1918
 51
118.0148
  0
ARC
  8
0
  6
CONTINUOUS
 62
     7
 10
312.8868
 20
49.49365
 40
0.80001
 50
61.98524
 51
73.8082
  0
ARC
  8
0
  6
CONTINUOUS
 62
     7
 10
278.9368
 20
32.09991
 40
0.5
 50
180.0
 51
270.0
  0
ARC
  8
0
  6
CONTINUOUS
 62
     7
 10
278.9368
 20
45.8999
 40
0.5
 50
89.99999
 51
180.0
  0
ARC
  8
0
  6
CONTINUOUS
 62
     7
 10
278.9368
 20
32.09991
 40
0.5
 50
180.0
 51
270.0
  0
ARC
  8
0
  6
CONTINUOUS
 62
     7
 10
278.9368
 20
45.8999
 40
0.5
 50
89.99999
 51
180.0
  0
ARC
  8
0
  6
CONTINUOUS
 62
     7
 10
281.0368
 20
38.99991
 40
5.00001
 50
150.5076
 51
209.4923
  0
ARC
  8
0
  6
CONTINUOUS
 62
     7
 10
277.265
 20
-59.13342
 40
0.66668
 50
209.4919
 51
270.0
  0
ARC
  8
0
  6
CONTINUOUS
 62
     7
 10
285.8368
 20
-71.39847
 40
12.29749
 50
253.2847
 51
286.7153
  0
ARC
  8
0
  6
CONTINUOUS
 62
     7
 10
280.2065
 20
-80.42268
 40
3.27325
 50
242.7287
 51
300.93690689
  0
ARC
  8
0
  6
CONTINUOUS
 62
     7
 10
291.4671
 20
-80.42267
 40
3.27326
 50
237.2728
 51
297.273
  0
ARC
  8
0
  6
CONTINUOUS
 62
     7
 10
311.4368
 20
-62.50009
 40
6.0
 50
253.8088
 51
286.1912
  0
ARC
  8
0
  6
CONTINUOUS
 62
     7
 10
309.9868
 20
-67.49384
 40
0.79999
 50
180.0
 51
253.8083
  0
ARC
  8
0
  6
CONTINUOUS
 62
     7
 10
312.8868
 20
-67.49384
 40
0.8
 50
286.1919
 51
0.0
  0
ARC
  8
0
  6
CONTINUOUS
 62
     7
 10
329.4368
 20
-62.50009
 40
6.0
 50
253.8088
 51
286.1912
  0
ARC
  8
0
  6
CONTINUOUS
 62
     7
 10
330.8868
 20
-67.49384
 40
0.8
 50
286.1919
 51
298.0148
  0
ARC
  8
0
  6
CONTINUOUS
 62
     7
 10
327.9868
 20
-67.49384
 40
0.79999
 50
241.9872
 51
253.8083
  0
ARC
  8
0
  6
CONTINUOUS
 62
     7
 10
278.9368
 20
-50.10008
 40
0.5
 50
89.99999
 51
180.0
  0
ARC
  8
0
  6
CONTINUOUS
 62
     7
 10
278.9368
 20
-63.90009
 40
0.5
 50
180.0
 51
270.0
  0
ARC
  8
0
  6
CONTINUOUS
 62
     7
 10
281.0368
 20
-57.00009
 40
5.0
 50
150.5077
 51
209.4924
  0
ARC
  8
0
  6
CONTINUOUS
 62
     7
 10
277.265
 20
-54.86674
 40
0.66667
 50
89.99999
 51
150.5081
  0
ARC
  8
0
  6
CONTINUOUS
 62
     7
 10
172.4368
 20
0.0
 40
2.7
 50
222.2054
 51
0.0
  0
ARC
  8
0
  6
CONTINUOUS
 62
     7
 10
172.4368
 20
0.0
 40
2.7
 50
0.0
 51
137.7946
  0
ARC
  8
0
  6
CONTINUOUS
 62
     7
 10
183.4368
 20
-18.0
 40
2.7
 50
42.20544
 51
317.7946
  0
CIRCLE
  8
0
  6
CONTINUOUS
 62
     7
 10
183.4368
 20
-18.0
 40
1.4
  0
CIRCLE
  8
0
  6
CONTINUOUS
 62
     7
 10
172.4368
 20
0.0
 40
1.4
  0
CIRCLE
  8
0
  6
CONTINUOUS
 62
     7
 10
177.9368
 20
18.5
 40
1.65
  0
CIRCLE
  8
0
  6
CONTINUOUS
 62
     7
 10
177.9368
 20
-36.5
 40
1.65
  0
CIRCLE
  8
0
  6
CONTINUOUS
 62
     7
 10
177.9368
 20
39.0
 40
3.25
  0
ARC
  8
0
  6
CONTINUOUS
 62
     7
 10
174.5933
 20
55.84848
 40
9.84738
 50
71.30403
 51
108.696
  0
ARC
  8
0
  6
CONTINUOUS
 62
     7
 10
177.9368
 20
37.7272
 40
0.6
 50
44.99949
 51
135.0005
  0
ARC
  8
0
  6
CONTINUOUS
 62
     7
 10
181.2802
 20
55.84848
 40
9.84738
 50
71.30403
 51
108.696
  0
ARC
  8
0
  6
CONTINUOUS
 62
     7
 10
171.0368
 20
32.10001
 40
0.5
 50
180.0
 51
270.0
  0
ARC
  8
0
  6
CONTINUOUS
 62
     7
 10
184.8368
 20
32.10001
 40
0.5
 50
270.0
 51
0.0
  0
ARC
  8
0
  6
CONTINUOUS
 62
     7
 10
171.0368
 20
45.89999
 40
0.5
 50
89.99999
 51
180.0
  0
ARC
  8
0
  6
CONTINUOUS
 62
     7
 10
184.8368
 20
45.89999
 40
0.5
 50
0.0
 51
89.99999
  0
CIRCLE
  8
0
  6
CONTINUOUS
 62
     7
 10
177.9368
 20
39.0
 40
2.8
  0
ARC
  8
0
  6
CONTINUOUS
 62
     7
 10
177.9368
 20
40.2728
 40
0.6
 50
224.9995
 51
315.0005
  0
ARC
  8
0
  6
CONTINUOUS
 62
     7
 10
176.664
 20
39.0
 40
0.6
 50
315.0005
 51
44.99949
  0
ARC
  8
0
  6
CONTINUOUS
 62
     7
 10
179.2096
 20
39.0
 40
0.6
 50
135.0005
 51
224.9995
  0
CIRCLE
  8
0
  6
CONTINUOUS
 62
     7
 10
177.9368
 20
-57.0
 40
3.25
  0
ARC
  8
0
  6
CONTINUOUS
 62
     7
 10
181.2802
 20
-73.84848
 40
9.84738
 50
251.304
 51
288.696
  0
ARC
  8
0
  6
CONTINUOUS
 62
     7
 10
177.9368
 20
-55.7272
 40
0.6
 50
224.9995
 51
315.0005
  0
ARC
  8
0
  6
CONTINUOUS
 62
     7
 10
174.5933
 20
-73.84848
 40
9.84738
 50
251.304
 51
288.696
  0
ARC
  8
0
  6
CONTINUOUS
 62
     7
 10
184.8368
 20
-50.10001
 40
0.5
 50
0.0
 51
89.99999
  0
ARC
  8
0
  6
CONTINUOUS
 62
     7
 10
171.0368
 20
-50.10001
 40
0.5
 50
89.99999
 51
180.0
  0
ARC
  8
0
  6
CONTINUOUS
 62
     7
 10
184.8368
 20
-63.89999
 40
0.5
 50
270.0
 51
0.0
  0
ARC
  8
0
  6
CONTINUOUS
 62
     7
 10
171.0368
 20
-63.89999
 40
0.5
 50
180.0
 51
270.0
  0
CIRCLE
  8
0
  6
CONTINUOUS
 62
     7
 10
177.9368
 20
-57.0
 40
2.8
  0
ARC
  8
0
  6
CONTINUOUS
 62
     7
 10
177.9368
 20
-58.2728
 40
0.6
 50
44.99949
 51
135.0005
  0
ARC
  8
0
  6
CONTINUOUS
 62
     7
 10
179.2096
 20
-57.0
 40
0.6
 50
135.0005
 51
224.9995
  0
ARC
  8
0
  6
CONTINUOUS
 62
     7
 10
176.664
 20
-57.0
 40
0.6
 50
315.0005
 51
44.99949
  0
ARC
  8
0
  6
CONTINUOUS
 62
     7
 10
173.4368
 20
136.4999
 40
3.0
 50
0.0
 51
89.99999
  0
ARC
  8
0
  6
CONTINUOUS
 62
     7
 10
182.4368
 20
154.4999
 40
3.0
 50
180.0
 51
270.0
  0
ARC
  8
0
  6
CONTINUOUS
 62
     7
 10
173.4368
 20
136.4999
 40
2.55
 50
186.7564
 51
173.2436
  0
ARC
  8
0
  6
CONTINUOUS
 62
     7
 10
182.4368
 20
154.4999
 40
2.55
 50
6.75641
 51
353.2436
  0
CIRCLE
  8
0
  6
CONTINUOUS
 62
     7
 10
173.4368
 20
136.4999
 40
2.25
  0
ARC
  8
0
  6
CONTINUOUS
 62
     7
 10
174.5399
 20
136.4999
 40
0.51999
 50
135.0
 51
225.0
  0
ARC
  8
0
  6
CONTINUOUS
 62
     7
 10
173.4368
 20
137.603
 40
0.51999
 50
225.0
 51
315.0
  0
ARC
  8
0
  6
CONTINUOUS
 62
     7
 10
173.4368
 20
135.3968
 40
0.51999
 50
45.0
 51
135.0
  0
ARC
  8
0
  6
CONTINUOUS
 62
     7
 10
172.3337
 20
136.4999
 40
0.51999
 50
315.0
 51
45.0
  0
CIRCLE
  8
0
  6
CONTINUOUS
 62
     7
 10
182.4368
 20
154.4999
 40
2.25
  0
ARC
  8
0
  6
CONTINUOUS
 62
     7
 10
183.5399
 20
154.4999
 40
0.51999
 50
135.0
 51
225.0
  0
ARC
  8
0
  6
CONTINUOUS
 62
     7
 10
182.4368
 20
155.603
 40
0.51999
 50
225.0
 51
315.0
  0
ARC
  8
0
  6
CONTINUOUS
 62
     7
 10
182.4368
 20
153.3968
 40
0.51999
 50
45.0
 51
135.0
  0
ARC
  8
0
  6
CONTINUOUS
 62
     7
 10
181.3337
 20
154.4999
 40
0.51999
 50
315.0
 51
45.0
  0
ARC
  8
0
  6
CONTINUOUS
 62
     7
 10
184.9368
 20
156.9999
 40
0.5
 50
0.0
 51
89.99999
  0
ARC
  8
0
  6
CONTINUOUS
 62
     7
 10
170.9368
 20
156.9999
 40
0.5
 50
89.99999
 51
180.0
  0
CIRCLE
  8
0
  6
CONTINUOUS
 62
     7
 10
177.9368
 20
110.8999
 40
7.4
  0
CIRCLE
  8
0
  6
CONTINUOUS
 62
     7
 10
177.9368
 20
110.8999
 40
3.8
  0
CIRCLE
  8
0
  6
CONTINUOUS
 62
     7
 10
177.9368
 20
110.8999
 40
5.8
  0
ARC
  8
0
  6
CONTINUOUS
 62
     7
 10
171.0368
 20
103.9999
 40
0.5
 50
180.0
 51
270.0
  0
ARC
  8
0
  6
CONTINUOUS
 62
     7
 10
177.9368
 20
106.0999
 40
5.0
 50
240.5077
 51
299.4923
  0
ARC
  8
0
  6
CONTINUOUS
 62
     7
 10
180.0701
 20
102.3281
 40
0.66667
 50
299.4919
 51
0.0
  0
ARC
  8
0
  6
CONTINUOUS
 62
     7
 10
175.8035
 20
102.3281
 40
0.66667
 50
180.0
 51
240.508
  0
ARC
  8
0
  6
CONTINUOUS
 62
     7
 10
184.8368
 20
103.9999
 40
0.5
 50
270.0
 51
0.0
  0
ARC
  8
0
  6
CONTINUOUS
 62
     7
 10
77.60858
 20
41.13336
 40
0.66667
 50
29.49223
 51
89.99999
  0
ARC
  8
0
  6
CONTINUOUS
 62
     7
 10
69.03677
 20
53.39838
 40
12.29748
 50
73.28473
 51
106.7153
  0
ARC
  8
0
  6
CONTINUOUS
 62
     7
 10
74.66711
 20
62.42261
 40
3.27324
 50
62.72881
 51
122.7273
  0
ARC
  8
0
  6
CONTINUOUS
 62
     7
 10
63.4064
 20
62.42261
 40
3.27327
 50
57.27274
 51
117.2729
  0
ARC
  8
0
  6
CONTINUOUS
 62
     7
 10
43.43677
 20
44.50003
 40
6.0
 50
73.80869
 51
106.1913
  0
ARC
  8
0
  6
CONTINUOUS
 62
     7
 10
44.88675
 20
49.49377
 40
0.8
 50
0.0
 51
73.80872
  0
ARC
  8
0
  6
CONTINUOUS
 62
     7
 10
41.98676
 20
49.49377
 40
0.8
 50
106.1913
 51
180.0
  0
ARC
  8
0
  6
CONTINUOUS
 62
     7
 10
25.43677
 20
44.5
 40
6.0
 50
73.80865
 51
106.1913
  0
ARC
  8
0
  6
CONTINUOUS
 62
     7
 10
23.98676
 20
49.49374
 40
0.8
 50
106.1914
 51
118.0138
  0
ARC
  8
0
  6
CONTINUOUS
 62
     7
 10
26.88675
 20
49.49374
 40
0.8
 50
61.98621
 51
73.80872
  0
ARC
  8
0
  6
CONTINUOUS
 62
     7
 10
75.93677
 20
32.10001
 40
0.5
 50
270.0
 51
0.0
  0
ARC
  8
0
  6
CONTINUOUS
 62
     7
 10
75.93677
 20
45.90002
 40
0.5
 50
0.0
 51
89.99999
  0
ARC
  8
0
  6
CONTINUOUS
 62
     7
 10
73.83676
 20
39.00003
 40
5.0
 50
330.5076
 51
29.49236
  0
ARC
  8
0
  6
CONTINUOUS
 62
     7
 10
77.60858
 20
36.86667
 40
0.66667
 50
270.0
 51
330.5078
  0
ARC
  8
0
  6
CONTINUOUS
 62
     7
 10
74.66708
 20
-80.42259
 40
3.27325
 50
237.2725
 51
297.2712
  0
ARC
  8
0
  6
CONTINUOUS
 62
     7
 10
77.60858
 20
-59.13333
 40
0.66667
 50
270.0
 51
330.5078
  0
ARC
  8
0
  6
CONTINUOUS
 62
     7
 10
77.60858
 20
-54.86665
 40
0.66667
 50
29.49223
 51
89.99999
  0
ARC
  8
0
  6
CONTINUOUS
 62
     7
 10
69.03674
 20
-71.39836
 40
12.29748
 50
253.2847
 51
286.7152
  0
ARC
  8
0
  6
CONTINUOUS
 62
     7
 10
63.4064
 20
-80.42258
 40
3.27326
 50
242.727
 51
302.7273
  0
ARC
  8
0
  6
CONTINUOUS
 62
     7
 10
25.43677
 20
-62.49998
 40
6.0
 50
253.8087
 51
286.1913
  0
ARC
  8
0
  6
CONTINUOUS
 62
     7
 10
23.98676
 20
-67.49373
 40
0.8
 50
180.0
 51
253.8088
  0
ARC
  8
0
  6
CONTINUOUS
 62
     7
 10
26.88675
 20
-67.49373
 40
0.8
 50
286.1915
 51
0.0
  0
ARC
  8
0
  6
CONTINUOUS
 62
     7
 10
43.43677
 20
-62.49997
 40
6.0
 50
253.8087
 51
286.1913
  0
ARC
  8
0
  6
CONTINUOUS
 62
     7
 10
44.88675
 20
-67.49371
 40
0.8
 50
286.1913
 51
298.0138
  0
ARC
  8
0
  6
CONTINUOUS
 62
     7
 10
41.98676
 20
-67.49371
 40
0.8
 50
241.9862
 51
253.8088
  0
ARC
  8
0
  6
CONTINUOUS
 62
     7
 10
75.93674
 20
-50.09999
 40
0.5
 50
0.0
 51
89.99999
  0
ARC
  8
0
  6
CONTINUOUS
 62
     7
 10
75.93674
 20
-63.89999
 40
0.5
 50
270.0
 51
0.0
  0
ARC
  8
0
  6
CONTINUOUS
 62
     7
 10
75.93674
 20
-50.09999
 40
0.5
 50
0.0
 51
89.99999
  0
ARC
  8
0
  6
CONTINUOUS
 62
     7
 10
75.93674
 20
-63.89999
 40
0.5
 50
270.0
 51
0.0
  0
ARC
  8
0
  6
CONTINUOUS
 62
     7
 10
73.83676
 20
-57.0
 40
5.0
 50
330.5076
 51
29.49228
  0
TEXT
  8
0
  6
CONTINUOUS
 62
     7
 10
-350.9787
 20
200.5946
 40
8.5
  1
MODEL : 110-4E2-39
 41
0.8
  7
STANDARD
  0
TEXT
  8
0
  6
CONTINUOUS
 62
     7
 10
229.0661
 20
236.2625
 40
8.5
  1
DATE : NOV ,1989
 41
0.8
  7
STANDARD
  0
TEXT
  8
0
  6
CONTINUOUS
 62
     7
 10
-370.6519
 20
235.5575
 40
10.0
  1
110 CONNECTOR -39
 41
0.73013
  7
STANDARD
  0
TEXT
  8
0
  6
CONTINUOUS
 62
     7
 10
19.88928
 20
200.5946
 40
8.5
  1
MODEL : A110-4E2-39
 41
0.8
  7
STANDARD
  0
TEXT
  8
0
  6
CONTINUOUS
 62
     7
 10
-313.0908
 20
-3.94977
 40
2.0
  1
R1
 41
0.8
  7
STANDARD
  0
TEXT
  8
0
  6
CONTINUOUS
 62
     7
 10
-310.1527
 20
-13.49844
 40
2.0
  1
P
 41
0.8
  7
STANDARD
  0
TEXT
  8
0
  6
CONTINUOUS
 62
     7
 10
-303.3789
 20
-15.29391
 40
2.0
  1
R2
 41
0.8
  7
STANDARD
  0
TEXT
  8
0
  6
CONTINUOUS
 62
     7
 10
-47.05839
 20
-1.34717
 40
2.0
  1
A
 41
0.8
  7
STANDARD
  0
TEXT
  8
0
  6
CONTINUOUS
 62
     7
 10
-57.30029
 20
-11.46713
 40
2.0
  1
B
 41
0.8
  7
STANDARD
  0
ENDSEC
  0
EOF
