  0
SECTION
  2
HEADER
  9
$ACADVER
  1
AC1002
  9
$INSBASE
 10
0.0
 20
0.0
  9
$EXTMIN
 10
-370.8736
 20
-254.5585
  9
$EXTMAX
 10
370.8736
 20
254.5585
  9
$LIMMIN
 10
0.0
 20
0.0
  9
$LIMMAX
 10
12.0
 20
9.0
  9
$VIEWCTR
 10
28.6093211
 20
0.0
  9
$VIEWSIZE
 40
509.117
  9
$SNAPMODE
 70
     0
  9
$SNAPUNIT
 10
1.0
 20
1.0
  9
$SNAPBASE
 10
0.0
 20
0.0
  9
$SNAPANG
 50
0.0
  9
$SNAPSTYLE
 70
     0
  9
$SNAPISOPAIR
 70
     0
  9
$GRIDMODE
 70
     0
  9
$GRIDUNIT
 10
0.0
 20
0.0
  9
$ORTHOMODE
 70
     0
  9
$REGENMODE
 70
     1
  9
$FILLMODE
 70
     1
  9
$QTEXTMODE
 70
     0
  9
$DRAGMODE
 70
     2
  9
$LTSCALE
 40
1.0
  9
$OSMODE
 70
     0
  9
$ATTMODE
 70
     1
  9
$TEXTSIZE
 40
0.2
  9
$TRACEWID
 40
0.05
  9
$TEXTSTYLE
  7
AAA
  9
$CLAYER
  8
0
  9
$CELTYPE
  6
BYLAYER
  9
$CECOLOR
 62
   256
  9
$DIMSCALE
 40
1.0
  9
$DIMASZ
 40
0.18
  9
$DIMEXO
 40
0.0625
  9
$DIMDLI
 40
0.38
  9
$DIMRND
 40
0.0
  9
$DIMDLE
 40
0.0
  9
$DIMEXE
 40
0.18
  9
$DIMTP
 40
0.0
  9
$DIMTM
 40
0.0
  9
$DIMTXT
 40
0.18
  9
$DIMCEN
 40
0.09
  9
$DIMTSZ
 40
0.0
  9
$DIMTOL
 70
     0
  9
$DIMLIM
 70
     0
  9
$DIMTIH
 70
     1
  9
$DIMTOH
 70
     1
  9
$DIMSE1
 70
     0
  9
$DIMSE2
 70
     0
  9
$DIMTAD
 70
     0
  9
$DIMZIN
 70
     0
  9
$DIMBLK
  1

  9
$LUNITS
 70
     2
  9
$LUPREC
 70
     4
  9
$AXISMODE
 70
     0
  9
$AXISUNIT
 10
0.0
 20
0.0
  9
$SKETCHINC
 40
0.1
  9
$FILLETRAD
 40
0.0
  9
$AUNITS
 70
     0
  9
$AUPREC
 70
     0
  9
$MENU
  1
ACAD
  9
$ELEVATION
 40
0.0
  9
$THICKNESS
 40
0.0
  9
$VIEWDIR
 10
0.0
 20
0.0
 30
1.0
  9
$LIMCHECK
 70
     0
  9
$BLIPMODE
 70
     1
  9
$CHAMFERA
 40
0.0
  9
$CHAMFERB
 40
0.0
  9
$FASTZOOM
 70
     1
  9
$SKPOLY
 70
     0
  9
$TDCREATE
 40
2447869.6246181055
  9
$TDUPDATE
 40
2447869.6246181055
  9
$TDINDWG
 40
0.0028472222
  9
$TDUSRTIMER
 40
0.0028472222
  9
$USRTIMER
 70
     1
  9
$ANGBASE
 50
0.0
  9
$ANGDIR
 70
     0
  9
$PDMODE
 70
     0
  9
$PDSIZE
 40
0.0
  9
$PLINEWID
 40
0.0
  9
$COORDS
 70
     0
  9
$USERI1
 70
     0
  9
$USERI2
 70
     0
  9
$USERI3
 70
     0
  9
$USERI4
 70
     0
  9
$USERI5
 70
     0
  9
$USERR1
 40
0.0
  9
$USERR2
 40
0.0
  9
$USERR3
 40
0.0
  9
$USERR4
 40
0.0
  9
$USERR5
 40
0.0
  0
ENDSEC
  0
SECTION
  2
TABLES
  0
TABLE
  2
LTYPE
 70
     2
  0
LTYPE
  2
CONTINUOUS
 70
    64
  3
SOLID
 72
    65
 73
     0
 40
0.0
  0
LTYPE
  2
CENTER
 70
    64
  3
CENTER
 72
    65
 73
     4
 40
2.0
 49
1.25
 49
-0.25
 49
0.25
 49
-0.25
  0
ENDTAB
  0
TABLE
  2
LAYER
 70
     1
  0
LAYER
  2
0
 70
    64
 62
     7
  6
CONTINUOUS
  0
ENDTAB
  0
TABLE
  2
STYLE
 70
     2
  0
STYLE
  2
AAA
 70
     0
 40
0.0
 41
1.0
 50
0.0
 71
     0
 42
0.2
  3
TXT
  4

  0
STYLE
  2
STANDARD
 70
    64
 40
0.0
 41
1.0
 50
0.0
 71
     0
 42
0.2
  3
TXT
  4
BIGFONT
  0
ENDTAB
  0
TABLE
  2
VIEW
 70
     0
  0
ENDTAB
  0
ENDSEC
  0
SECTION
  2
BLOCKS
  0
ENDSEC
  0
SECTION
  2
ENTITIES
  0
POINT
  8
0
  6
CONTINUOUS
 62
     7
 10
-206.4368
 20
127.5
  0
POINT
  8
0
  6
CONTINUOUS
 62
     7
 10
-182.4368
 20
127.5
  0
POINT
  8
0
  6
CONTINUOUS
 62
     7
 10
-182.4368
 20
0.0
  0
POINT
  8
0
  6
CONTINUOUS
 62
     7
 10
-206.4368
 20
0.0
  0
POINT
  8
0
  6
CONTINUOUS
 62
     7
 10
-182.4368
 20
20.5
  0
POINT
  8
0
  6
CONTINUOUS
 62
     7
 10
-182.4368
 20
-46.50003
  0
POINT
  8
0
  6
CONTINUOUS
 62
     7
 10
-56.43674
 20
-0.00012
  0
POINT
  8
0
  6
CONTINUOUS
 62
     7
 10
-43.43674
 20
-0.00012
  0
POINT
  8
0
  6
CONTINUOUS
 62
     7
 10
-50.93674
 20
20.49988
  0
POINT
  8
0
  6
CONTINUOUS
 62
     7
 10
-50.93674
 20
-46.50012
  0
POINT
  8
0
  6
CONTINUOUS
 62
     7
 10
-47.93674
 20
-4.00012
  0
POINT
  8
0
  6
CONTINUOUS
 62
     7
 10
-53.93674
 20
-14.00012
  0
POINT
  8
0
  6
CONTINUOUS
 62
     7
 10
-309.9367
 20
1.00003
  0
POINT
  8
0
  6
CONTINUOUS
 62
     7
 10
-306.9367
 20
-8.99997
  0
POINT
  8
0
  6
CONTINUOUS
 62
     7
 10
-303.9367
 20
-18.99997
  0
POINT
  8
0
  6
CONTINUOUS
 62
     7
 10
-301.4367
 20
0.00003
  0
POINT
  8
0
  6
CONTINUOUS
 62
     7
 10
-206.4368
 20
-163.5
  0
POINT
  8
0
  6
CONTINUOUS
 62
     7
 10
-182.4368
 20
-163.5
  0
POINT
  8
0
  6
CONTINUOUS
 62
     7
 10
172.4367
 20
145.0
  0
POINT
  8
0
  6
CONTINUOUS
 62
     7
 10
185.4367
 20
145.0
  0
POINT
  8
0
  6
CONTINUOUS
 62
     7
 10
172.4368
 20
0.0
  0
POINT
  8
0
  6
CONTINUOUS
 62
     7
 10
185.4368
 20
0.0
  0
POINT
  8
0
  6
CONTINUOUS
 62
     7
 10
177.9368
 20
18.50002
  0
POINT
  8
0
  6
CONTINUOUS
 62
     7
 10
177.9368
 20
-48.50002
  0
POINT
  8
0
  6
CONTINUOUS
 62
     7
 10
332.4368
 20
0.00003
  0
POINT
  8
0
  6
CONTINUOUS
 62
     7
 10
308.4368
 20
18.50003
  0
POINT
  8
0
  6
CONTINUOUS
 62
     7
 10
308.4368
 20
-48.49995
  0
POINT
  8
0
  6
CONTINUOUS
 62
     7
 10
46.4368
 20
0.0
  0
POINT
  8
0
  6
CONTINUOUS
 62
     7
 10
22.4368
 20
0.0
  0
POINT
  8
0
  6
CONTINUOUS
 62
     7
 10
46.4368
 20
-48.50002
  0
POINT
  8
0
  6
CONTINUOUS
 62
     7
 10
46.4368
 20
18.5
  0
POINT
  8
0
  6
CONTINUOUS
 62
     7
 10
172.4368
 20
-181.0
  0
POINT
  8
0
  6
CONTINUOUS
 62
     7
 10
185.4367
 20
-181.0
  0
LINE
  8
0
  6
CONTINUOUS
 62
     7
 10
218.3292
 20
-225.9564
 11
370.8736
 21
-225.9564
  0
LINE
  8
0
  6
CONTINUOUS
 62
     7
 10
-218.3292
 20
225.9564
 11
-218.3292
 21
254.5585
  0
LINE
  8
0
  6
CONTINUOUS
 62
     7
 10
-370.8736
 20
225.9564
 11
-218.3292
 21
225.9564
  0
LINE
  8
0
  6
CONTINUOUS
 62
     7
 10
-370.8736
 20
254.5585
 11
370.8736
 21
254.5585
  0
LINE
  8
0
  6
CONTINUOUS
 62
     7
 10
-370.8736
 20
-254.5585
 11
370.8736
 21
-254.5585
  0
LINE
  8
0
  6
CONTINUOUS
 62
     7
 10
370.8736
 20
254.5585
 11
370.8736
 21
-254.5585
  0
LINE
  8
0
  6
CONTINUOUS
 62
     7
 10
-370.8736
 20
-254.5585
 11
-370.8736
 21
254.5585
  0
LINE
  8
0
  6
CONTINUOUS
 62
     7
 10
218.3292
 20
-225.9564
 11
218.3292
 21
-254.5585
  0
LINE
  8
0
  6
CONTINUOUS
 62
     7
 10
218.3292
 20
254.5585
 11
218.3292
 21
225.9564
  0
LINE
  8
0
  6
CONTINUOUS
 62
     7
 10
218.3292
 20
225.9564
 11
370.8736
 21
225.9564
  0
LINE
  8
0
  6
CONTINUOUS
 62
     7
 10
258.3816
 20
-232.8337
 11
258.3816
 21
-236.1516
  0
LINE
  8
0
  6
CONTINUOUS
 62
     7
 10
258.3816
 20
-236.1516
 11
270.8235
 21
-236.1516
  0
LINE
  8
0
  6
CONTINUOUS
 62
     7
 10
258.3816
 20
-249.1465
 11
275.2473
 21
-249.1465
  0
LINE
  8
0
  6
CONTINUOUS
 62
     7
 10
258.3816
 20
-245.8286
 11
270.8235
 21
-245.8286
  0
LINE
  8
0
  6
CONTINUOUS
 62
     7
 10
258.3816
 20
-232.8337
 11
273.0354
 21
-232.8337
  0
LINE
  8
0
  6
CONTINUOUS
 62
     7
 10
270.8235
 20
-236.1516
 11
270.8235
 21
-245.8286
  0
LINE
  8
0
  6
CONTINUOUS
 62
     7
 10
275.2473
 20
-235.0457
 11
275.2473
 21
-249.1465
  0
LINE
  8
0
  6
CONTINUOUS
 62
     7
 10
258.3816
 20
-245.8286
 11
258.3816
 21
-249.1465
  0
LINE
  8
0
  6
CONTINUOUS
 62
     7
 10
293.4954
 20
-236.1516
 11
293.4954
 21
-246.9346
  0
LINE
  8
0
  6
CONTINUOUS
 62
     7
 10
277.7357
 20
-232.8337
 11
277.7357
 21
-236.1516
  0
LINE
  8
0
  6
CONTINUOUS
 62
     7
 10
293.9378
 20
-232.585
 11
295.5138
 21
-232.585
  0
LINE
  8
0
  6
CONTINUOUS
 62
     7
 10
293.9378
 20
-230.373
 11
295.5138
 21
-230.373
  0
LINE
  8
0
  6
CONTINUOUS
 62
     7
 10
295.5138
 20
-230.373
 11
295.5138
 21
-232.585
  0
LINE
  8
0
  6
CONTINUOUS
 62
     7
 10
293.9378
 20
-230.373
 11
293.9378
 21
-232.585
  0
LINE
  8
0
  6
CONTINUOUS
 62
     7
 10
293.1083
 20
-230.373
 11
293.1083
 21
-232.585
  0
LINE
  8
0
  6
CONTINUOUS
 62
     7
 10
282.7661
 20
-230.373
 11
286.2009
 21
-230.373
  0
LINE
  8
0
  6
CONTINUOUS
 62
     7
 10
285.5413
 20
-232.8335
 11
286.2006
 21
-230.3727
  0
LINE
  8
0
  6
CONTINUOUS
 62
     7
 10
282.1067
 20
-232.8337
 11
282.766
 21
-230.373
  0
LINE
  8
0
  6
CONTINUOUS
 62
     7
 10
285.5416
 20
-232.8337
 11
290.1776
 21
-232.8337
  0
LINE
  8
0
  6
CONTINUOUS
 62
     7
 10
284.6526
 20
-236.1516
 11
289.0716
 21
-236.1516
  0
LINE
  8
0
  6
CONTINUOUS
 62
     7
 10
286.6429
 20
-249.1465
 11
291.2836
 21
-249.1465
  0
LINE
  8
0
  6
CONTINUOUS
 62
     7
 10
285.7537
 20
-245.8286
 11
286.6427
 21
-249.1463
  0
LINE
  8
0
  6
CONTINUOUS
 62
     7
 10
285.7538
 20
-245.8286
 11
289.0716
 21
-245.8286
  0
LINE
  8
0
  6
CONTINUOUS
 62
     7
 10
281.1707
 20
-249.1466
 11
284.6527
 21
-236.1517
  0
LINE
  8
0
  6
CONTINUOUS
 62
     7
 10
277.7357
 20
-236.1516
 11
281.2177
 21
-236.1516
  0
LINE
  8
0
  6
CONTINUOUS
 62
     7
 10
277.7354
 20
-249.1462
 11
281.2175
 21
-236.1513
  0
LINE
  8
0
  6
CONTINUOUS
 62
     7
 10
277.7357
 20
-249.1465
 11
281.1706
 21
-249.1465
  0
LINE
  8
0
  6
CONTINUOUS
 62
     7
 10
277.7357
 20
-232.8337
 11
282.1067
 21
-232.8337
  0
LINE
  8
0
  6
CONTINUOUS
 62
     7
 10
289.0716
 20
-236.1516
 11
289.0716
 21
-245.8286
  0
LINE
  8
0
  6
CONTINUOUS
 62
     7
 10
291.5323
 20
-230.373
 11
293.1083
 21
-230.373
  0
LINE
  8
0
  6
CONTINUOUS
 62
     7
 10
291.5323
 20
-232.585
 11
293.1083
 21
-232.585
  0
LINE
  8
0
  6
CONTINUOUS
 62
     7
 10
291.5323
 20
-230.373
 11
291.5323
 21
-232.585
  0
LINE
  8
0
  6
CONTINUOUS
 62
     7
 10
301.5135
 20
-230.373
 11
305.9373
 21
-230.373
  0
LINE
  8
0
  6
CONTINUOUS
 62
     7
 10
308.3423
 20
-240.1951
 11
311.2962
 21
-238.8176
  0
LINE
  8
0
  6
CONTINUOUS
 62
     7
 10
305.9373
 20
-242.7344
 11
305.9373
 21
-249.1465
  0
LINE
  8
0
  6
CONTINUOUS
 62
     7
 10
301.5135
 20
-243.379
 11
301.5135
 21
-249.1465
  0
LINE
  8
0
  6
CONTINUOUS
 62
     7
 10
305.9373
 20
-232.8337
 11
310.3611
 21
-232.8337
  0
LINE
  8
0
  6
CONTINUOUS
 62
     7
 10
305.9373
 20
-230.373
 11
305.9373
 21
-232.8337
  0
LINE
  8
0
  6
CONTINUOUS
 62
     7
 10
301.5135
 20
-230.373
 11
301.5135
 21
-232.8337
  0
LINE
  8
0
  6
CONTINUOUS
 62
     7
 10
312.573
 20
-235.0457
 11
312.573
 21
-236.8128
  0
LINE
  8
0
  6
CONTINUOUS
 62
     7
 10
308.3424
 20
-240.195
 11
312.5734
 21
-242.168
  0
LINE
  8
0
  6
CONTINUOUS
 62
     7
 10
305.9373
 20
-242.7343
 11
312.5731
 21
-245.8286
  0
LINE
  8
0
  6
CONTINUOUS
 62
     7
 10
296.2603
 20
-242.1678
 11
296.2603
 21
-245.8286
  0
LINE
  8
0
  6
CONTINUOUS
 62
     7
 10
296.2607
 20
-242.1682
 11
309.1626
 21
-236.1519
  0
LINE
  8
0
  6
CONTINUOUS
 62
     7
 10
296.2603
 20
-245.8286
 11
301.5136
 21
-243.3789
  0
LINE
  8
0
  6
CONTINUOUS
 62
     7
 10
312.573
 20
-242.1678
 11
312.573
 21
-245.8286
  0
LINE
  8
0
  6
CONTINUOUS
 62
     7
 10
296.2603
 20
-232.8337
 11
296.2603
 21
-236.1516
  0
LINE
  8
0
  6
CONTINUOUS
 62
     7
 10
301.5135
 20
-249.1465
 11
305.9373
 21
-249.1465
  0
LINE
  8
0
  6
CONTINUOUS
 62
     7
 10
296.2603
 20
-236.1516
 11
309.1621
 21
-236.1516
  0
LINE
  8
0
  6
CONTINUOUS
 62
     7
 10
296.2603
 20
-232.8337
 11
301.5135
 21
-232.8337
  0
LINE
  8
0
  6
CONTINUOUS
 62
     7
 10
327.504
 20
-236.4047
 11
328.73
 21
-235.9171
  0
LINE
  8
0
  6
CONTINUOUS
 62
     7
 10
327.5034
 20
-236.4044
 11
327.5034
 21
-249.1465
  0
LINE
  8
0
  6
CONTINUOUS
 62
     7
 10
323.0795
 20
-249.1465
 11
327.5034
 21
-249.1465
  0
LINE
  8
0
  6
CONTINUOUS
 62
     7
 10
313.9553
 20
-241.7925
 11
323.0794
 21
-238.1637
  0
LINE
  8
0
  6
CONTINUOUS
 62
     7
 10
313.9555
 20
-238.222
 11
326.8062
 21
-233.1111
  0
LINE
  8
0
  6
CONTINUOUS
 62
     7
 10
323.0795
 20
-238.1638
 11
323.0795
 21
-249.1465
  0
LINE
  8
0
  6
CONTINUOUS
 62
     7
 10
327.5034
 20
-231.3684
 11
327.5034
 21
-232.0834
  0
LINE
  8
0
  6
CONTINUOUS
 62
     7
 10
330.8211
 20
-231.3684
 11
330.8211
 21
-232.8338
  0
LINE
  8
0
  6
CONTINUOUS
 62
     7
 10
313.9554
 20
-238.2219
 11
313.9554
 21
-241.7925
  0
LINE
  8
0
  6
CONTINUOUS
 62
     7
 10
327.5034
 20
-231.3684
 11
330.8211
 21
-231.3684
  0
LINE
  8
0
  6
CONTINUOUS
 62
     7
 10
0.0
 20
254.5585
 11
0.0
 21
-254.5585
  0
LINE
  8
0
  6
CONTINUOUS
 62
     7
 10
-206.4368
 20
5.0
 11
-182.4368
 21
5.0
  0
LINE
  8
0
  6
CENTER
 62
     2
 10
-194.4368
 20
55.77065
 11
-194.4368
 21
-81.6225
  0
LINE
  8
0
  6
CONTINUOUS
 62
     7
 10
-206.4368
 20
-23.0
 11
-182.4368
 21
-23.0
  0
LINE
  8
0
  6
CENTER
 62
     2
 10
-186.8527
 20
0.0
 11
-181.1682
 21
0.0
  0
LINE
  8
0
  6
CONTINUOUS
 62
     7
 10
-185.4368
 20
1.81384
 11
-182.4368
 21
1.81384
  0
LINE
  8
0
  6
CONTINUOUS
 62
     7
 10
-185.4368
 20
-1.81381
 11
-182.4368
 21
-1.81381
  0
LINE
  8
0
  6
CONTINUOUS
 62
     7
 10
-185.4368
 20
1.81384
 11
-185.4368
 21
-1.81384
  0
LINE
  8
0
  6
CENTER
 62
     2
 10
-203.9368
 20
-4.0
 11
-198.9368
 21
-4.0
  0
LINE
  8
0
  6
CENTER
 62
     2
 10
-203.9368
 20
-14.0
 11
-198.9368
 21
-14.0
  0
LINE
  8
0
  6
CENTER
 62
     2
 10
-201.4368
 20
-11.5
 11
-201.4368
 21
-16.5
  0
LINE
  8
0
  6
CENTER
 62
     2
 10
-201.4368
 20
-1.5
 11
-201.4368
 21
-6.5
  0
LINE
  8
0
  6
CONTINUOUS
 62
     7
 10
-206.4368
 20
24.0
 11
-206.4368
 21
-50.0
  0
LINE
  8
0
  6
CONTINUOUS
 62
     7
 10
-182.4368
 20
24.0
 11
-182.4368
 21
-50.0
  0
LINE
  8
0
  6
CENTER
 62
     2
 10
-209.8387
 20
-9.0
 11
-179.4368
 21
-9.0
  0
LINE
  8
0
  6
CONTINUOUS
 62
     7
 10
-206.4368
 20
49.2
 11
-179.4368
 21
49.2
  0
LINE
  8
0
  6
CONTINUOUS
 62
     7
 10
-206.4368
 20
24.0
 11
-175.4368
 21
24.0
  0
LINE
  8
0
  6
CONTINUOUS
 62
     7
 10
-206.4368
 20
50.2
 11
-206.4368
 21
24.0
  0
LINE
  8
0
  6
CONTINUOUS
 62
     7
 10
-182.4368
 20
50.19998
 11
-182.4368
 21
49.20001
  0
LINE
  8
0
  6
CONTINUOUS
 62
     7
 10
-205.4368
 20
52.2
 11
-187.2625
 21
52.2
  0
LINE
  8
0
  6
CONTINUOUS
 62
     7
 10
-206.4368
 20
50.2
 11
-182.4368
 21
50.2
  0
LINE
  8
0
  6
CONTINUOUS
 62
     7
 10
-206.4367
 20
50.19999
 11
-205.4367
 21
52.19999
  0
LINE
  8
0
  6
CONTINUOUS
 62
     7
 10
-182.4368
 20
50.19998
 11
-183.4368
 21
52.19999
  0
LINE
  8
0
  6
CONTINUOUS
 62
     7
 10
-188.4368
 20
52.20001
 11
-188.4368
 21
50.20001
  0
LINE
  8
0
  6
CENTER
 62
     2
 10
-185.4368
 20
55.20001
 11
-185.4368
 21
46.20001
  0
LINE
  8
0
  6
CONTINUOUS
 62
     7
 10
-182.8868
 20
50.8
 11
-187.9868
 21
50.8
  0
LINE
  8
0
  6
CONTINUOUS
 62
     7
 10
-185.7368
 20
50.20002
 11
-185.8975
 21
50.8
  0
LINE
  8
0
  6
CONTINUOUS
 62
     7
 10
-185.1367
 20
50.80003
 11
-184.9759
 21
50.20004
  0
LINE
  8
0
  6
CONTINUOUS
 62
     7
 10
-182.8867
 20
50.8
 11
-182.8867
 21
50.20001
  0
LINE
  8
0
  6
CONTINUOUS
 62
     7
 10
-187.9868
 20
50.8
 11
-187.9868
 21
50.20001
  0
LINE
  8
0
  6
CONTINUOUS
 62
     7
 10
-183.1867
 20
51.49374
 11
-183.1867
 21
50.8
  0
LINE
  8
0
  6
CONTINUOUS
 62
     7
 10
-187.6867
 20
51.49374
 11
-187.6867
 21
50.8
  0
LINE
  8
0
  6
CONTINUOUS
 62
     7
 10
-183.611
 20
52.2
 11
-183.4368
 21
52.2
  0
LINE
  8
0
  6
CENTER
 62
     2
 10
-203.4368
 20
55.2
 11
-203.4368
 21
46.2
  0
LINE
  8
0
  6
CONTINUOUS
 62
     7
 10
-179.4368
 20
49.20001
 11
-179.4368
 21
24.0
  0
LINE
  8
0
  6
CONTINUOUS
 62
     7
 10
-175.4368
 20
49.0
 11
-175.4368
 21
48.39999
  0
LINE
  8
0
  6
CONTINUOUS
 62
     7
 10
-179.4368
 20
49.0
 11
-175.4368
 21
49.0
  0
LINE
  8
0
  6
CENTER
 62
     2
 10
-182.4368
 20
41.0
 11
-147.0368
 21
41.0
  0
LINE
  8
0
  6
CONTINUOUS
 62
     7
 10
-152.4368
 20
67.17624
 11
-152.4368
 21
60.70001
  0
LINE
  8
0
  6
CONTINUOUS
 62
     7
 10
-174.9368
 20
33.60001
 11
-152.9368
 21
33.60001
  0
LINE
  8
0
  6
CONTINUOUS
 62
     7
 10
-174.9368
 20
48.39999
 11
-152.9368
 21
48.39999
  0
LINE
  8
0
  6
CONTINUOUS
 62
     7
 10
-167.2368
 20
67.17624
 11
-167.2368
 21
60.70001
  0
LINE
  8
0
  6
CONTINUOUS
 62
     7
 10
-165.6368
 20
68.10001
 11
-154.0368
 21
68.10001
  0
LINE
  8
0
  6
CONTINUOUS
 62
     7
 10
-151.2649
 20
38.20001
 11
-151.9368
 21
38.20001
  0
LINE
  8
0
  6
CONTINUOUS
 62
     7
 10
-151.2649
 20
43.80002
 11
-151.9368
 21
43.80002
  0
LINE
  8
0
  6
CONTINUOUS
 62
     7
 10
-151.9368
 20
37.75002
 11
-151.9368
 21
44.25
  0
LINE
  8
0
  6
CONTINUOUS
 62
     7
 10
-151.9368
 20
37.75002
 11
-152.4368
 21
37.75002
  0
LINE
  8
0
  6
CONTINUOUS
 62
     7
 10
-151.9368
 20
44.25002
 11
-152.4368
 21
44.25002
  0
LINE
  8
0
  6
CONTINUOUS
 62
     7
 10
-167.2368
 20
60.7
 11
-152.4368
 21
60.7
  0
LINE
  8
0
  6
CONTINUOUS
 62
     7
 10
-167.2368
 20
61.7
 11
-152.4368
 21
61.7
  0
LINE
  8
0
  6
CONTINUOUS
 62
     7
 10
-164.8368
 20
46.0
 11
-154.8368
 21
46.0
  0
LINE
  8
0
  6
CONTINUOUS
 62
     7
 10
-164.8368
 20
36.0
 11
-154.8368
 21
36.0
  0
LINE
  8
0
  6
CONTINUOUS
 62
     7
 10
-164.8368
 20
46.0
 11
-164.8368
 21
36.0
  0
LINE
  8
0
  6
CONTINUOUS
 62
     7
 10
-154.8368
 20
46.0
 11
-154.8368
 21
36.0
  0
LINE
  8
0
  6
CONTINUOUS
 62
     7
 10
-163.8368
 20
46.0
 11
-163.8368
 21
36.0
  0
LINE
  8
0
  6
CONTINUOUS
 62
     7
 10
-162.8368
 20
46.0
 11
-162.8368
 21
36.0
  0
LINE
  8
0
  6
CONTINUOUS
 62
     7
 10
-161.8368
 20
46.0
 11
-161.8368
 21
36.0
  0
LINE
  8
0
  6
CONTINUOUS
 62
     7
 10
-160.8368
 20
46.0
 11
-160.8368
 21
36.0
  0
LINE
  8
0
  6
CONTINUOUS
 62
     7
 10
-159.8368
 20
46.0
 11
-159.8368
 21
36.0
  0
LINE
  8
0
  6
CONTINUOUS
 62
     7
 10
-158.8368
 20
46.0
 11
-158.8368
 21
36.0
  0
LINE
  8
0
  6
CONTINUOUS
 62
     7
 10
-157.8368
 20
46.0
 11
-157.8368
 21
36.0
  0
LINE
  8
0
  6
CONTINUOUS
 62
     7
 10
-156.8368
 20
46.0
 11
-156.8368
 21
36.0
  0
LINE
  8
0
  6
CONTINUOUS
 62
     7
 10
-155.8368
 20
46.0
 11
-155.8368
 21
36.0
  0
LINE
  8
0
  6
CONTINUOUS
 62
     7
 10
-154.0368
 20
68.1
 11
-152.4368
 21
67.17622
  0
LINE
  8
0
  6
CONTINUOUS
 62
     7
 10
-165.6368
 20
68.09997
 11
-167.2368
 21
67.17621
  0
LINE
  8
0
  6
CONTINUOUS
 62
     7
 10
-163.6974
 20
67.17624
 11
-163.6974
 21
61.70001
  0
LINE
  8
0
  6
CONTINUOUS
 62
     7
 10
-163.3737
 20
67.17624
 11
-163.3737
 21
61.70001
  0
LINE
  8
0
  6
CONTINUOUS
 62
     7
 10
-156.2998
 20
67.17624
 11
-156.2998
 21
61.70001
  0
LINE
  8
0
  6
CONTINUOUS
 62
     7
 10
-155.9761
 20
67.17624
 11
-155.9761
 21
61.70001
  0
LINE
  8
0
  6
CONTINUOUS
 62
     7
 10
-163.6974
 20
67.17624
 11
-163.3737
 21
67.17624
  0
LINE
  8
0
  6
CONTINUOUS
 62
     7
 10
-156.2998
 20
67.17624
 11
-155.9761
 21
67.17624
  0
LINE
  8
0
  6
CENTER
 62
     2
 10
-159.8368
 20
71.10001
 11
-159.8368
 21
30.60001
  0
LINE
  8
0
  6
CONTINUOUS
 62
     7
 10
-175.4368
 20
33.60001
 11
-175.4368
 21
24.0
  0
LINE
  8
0
  6
CONTINUOUS
 62
     7
 10
-167.2368
 20
58.7
 11
-152.4368
 21
58.7
  0
LINE
  8
0
  6
CONTINUOUS
 62
     7
 10
-167.2368
 20
58.70001
 11
-167.2368
 21
48.40001
  0
LINE
  8
0
  6
CONTINUOUS
 62
     7
 10
-152.4368
 20
58.70001
 11
-152.4368
 21
34.10001
  0
LINE
  8
0
  6
CONTINUOUS
 62
     7
 10
-153.8368
 20
60.70001
 11
-153.8368
 21
58.70001
  0
LINE
  8
0
  6
CONTINUOUS
 62
     7
 10
-165.8368
 20
60.70001
 11
-165.8368
 21
58.70001
  0
LINE
  8
0
  6
CONTINUOUS
 62
     7
 10
-154.5133
 20
60.70001
 11
-154.5133
 21
58.70001
  0
LINE
  8
0
  6
CONTINUOUS
 62
     7
 10
-165.1602
 20
60.70001
 11
-165.1602
 21
58.70001
  0
LINE
  8
0
  6
CONTINUOUS
 62
     7
 10
-175.4368
 20
48.40001
 11
-175.4368
 21
33.60001
  0
LINE
  8
0
  6
CONTINUOUS
 62
     7
 10
-174.9368
 20
48.40001
 11
-174.9368
 21
33.60001
  0
LINE
  8
0
  6
CONTINUOUS
 62
     7
 10
-175.4368
 20
48.39999
 11
-174.9368
 21
48.39999
  0
LINE
  8
0
  6
CONTINUOUS
 62
     7
 10
-175.4368
 20
33.60001
 11
-174.9368
 21
33.60001
  0
LINE
  8
0
  6
CONTINUOUS
 62
     7
 10
-206.4367
 20
-75.20001
 11
-179.4368
 21
-75.20001
  0
LINE
  8
0
  6
CONTINUOUS
 62
     7
 10
-206.4368
 20
-50.00003
 11
-175.4368
 21
-50.00003
  0
LINE
  8
0
  6
CONTINUOUS
 62
     7
 10
-206.4368
 20
-76.20004
 11
-206.4368
 21
-50.00003
  0
LINE
  8
0
  6
CONTINUOUS
 62
     7
 10
-182.4368
 20
-76.20001
 11
-182.4368
 21
-75.20001
  0
LINE
  8
0
  6
CONTINUOUS
 62
     7
 10
-183.4367
 20
-78.20001
 11
-201.611
 21
-78.20001
  0
LINE
  8
0
  6
CONTINUOUS
 62
     7
 10
-206.4367
 20
-76.20001
 11
-182.4368
 21
-76.20001
  0
LINE
  8
0
  6
CONTINUOUS
 62
     7
 10
-182.4368
 20
-76.19996
 11
-183.4368
 21
-78.19997
  0
LINE
  8
0
  6
CONTINUOUS
 62
     7
 10
-206.4367
 20
-76.20004
 11
-205.4367
 21
-78.20002
  0
LINE
  8
0
  6
CONTINUOUS
 62
     7
 10
-200.4368
 20
-78.20004
 11
-200.4368
 21
-76.20004
  0
LINE
  8
0
  6
CENTER
 62
     2
 10
-203.4368
 20
-81.20004
 11
-203.4368
 21
-72.20004
  0
LINE
  8
0
  6
CONTINUOUS
 62
     7
 10
-205.9868
 20
-76.80002
 11
-200.8867
 21
-76.80002
  0
LINE
  8
0
  6
CONTINUOUS
 62
     7
 10
-203.1368
 20
-76.20004
 11
-202.9761
 21
-76.80003
  0
LINE
  8
0
  6
CONTINUOUS
 62
     7
 10
-203.7368
 20
-76.80002
 11
-203.8976
 21
-76.20003
  0
LINE
  8
0
  6
CONTINUOUS
 62
     7
 10
-205.9868
 20
-76.80002
 11
-205.9868
 21
-76.20004
  0
LINE
  8
0
  6
CONTINUOUS
 62
     7
 10
-200.8867
 20
-76.80002
 11
-200.8867
 21
-76.20004
  0
LINE
  8
0
  6
CONTINUOUS
 62
     7
 10
-205.6867
 20
-77.49377
 11
-205.6867
 21
-76.80002
  0
LINE
  8
0
  6
CONTINUOUS
 62
     7
 10
-201.1868
 20
-77.49377
 11
-201.1868
 21
-76.80002
  0
LINE
  8
0
  6
CONTINUOUS
 62
     7
 10
-205.2625
 20
-78.20001
 11
-205.4367
 21
-78.20001
  0
LINE
  8
0
  6
CENTER
 62
     2
 10
-185.4368
 20
-81.20001
 11
-185.4368
 21
-72.20001
  0
LINE
  8
0
  6
CONTINUOUS
 62
     7
 10
-179.4368
 20
-75.20001
 11
-179.4368
 21
-50.0
  0
LINE
  8
0
  6
CONTINUOUS
 62
     7
 10
-175.4368
 20
-75.00003
 11
-175.4368
 21
-74.39999
  0
LINE
  8
0
  6
CONTINUOUS
 62
     7
 10
-179.4368
 20
-75.00003
 11
-175.4368
 21
-75.00003
  0
LINE
  8
0
  6
CENTER
 62
     2
 10
-182.4368
 20
-67.00003
 11
-147.0368
 21
-67.00003
  0
LINE
  8
0
  6
CONTINUOUS
 62
     7
 10
-152.4368
 20
-93.17624
 11
-152.4368
 21
-86.69998
  0
LINE
  8
0
  6
CONTINUOUS
 62
     7
 10
-167.2368
 20
-93.17624
 11
-167.2368
 21
-86.70001
  0
LINE
  8
0
  6
CONTINUOUS
 62
     7
 10
-165.6367
 20
-94.10001
 11
-154.0368
 21
-94.10001
  0
LINE
  8
0
  6
CONTINUOUS
 62
     7
 10
-151.2649
 20
-64.20001
 11
-151.9368
 21
-64.20001
  0
LINE
  8
0
  6
CONTINUOUS
 62
     7
 10
-151.2649
 20
-69.80002
 11
-151.9368
 21
-69.80002
  0
LINE
  8
0
  6
CONTINUOUS
 62
     7
 10
-151.9368
 20
-63.75
 11
-151.9368
 21
-70.25
  0
LINE
  8
0
  6
CONTINUOUS
 62
     7
 10
-151.9368
 20
-63.75009
 11
-152.4368
 21
-63.75009
  0
LINE
  8
0
  6
CONTINUOUS
 62
     7
 10
-151.9368
 20
-70.25003
 11
-152.4368
 21
-70.25003
  0
LINE
  8
0
  6
CONTINUOUS
 62
     7
 10
-167.2368
 20
-86.70001
 11
-152.4367
 21
-86.70001
  0
LINE
  8
0
  6
CONTINUOUS
 62
     7
 10
-167.2368
 20
-87.70001
 11
-152.4367
 21
-87.70001
  0
LINE
  8
0
  6
CENTER
 62
     2
 10
-159.8368
 20
-97.10001
 11
-159.8368
 21
-56.60001
  0
LINE
  8
0
  6
CONTINUOUS
 62
     7
 10
-164.8368
 20
-72.00003
 11
-154.8368
 21
-72.00003
  0
LINE
  8
0
  6
CONTINUOUS
 62
     7
 10
-164.8368
 20
-62.00003
 11
-154.8368
 21
-62.00003
  0
LINE
  8
0
  6
CONTINUOUS
 62
     7
 10
-164.8368
 20
-72.0
 11
-164.8368
 21
-62.0
  0
LINE
  8
0
  6
CONTINUOUS
 62
     7
 10
-154.8368
 20
-72.0
 11
-154.8368
 21
-62.0
  0
LINE
  8
0
  6
CONTINUOUS
 62
     7
 10
-163.8368
 20
-72.0
 11
-163.8368
 21
-62.0
  0
LINE
  8
0
  6
CONTINUOUS
 62
     7
 10
-162.8368
 20
-72.0
 11
-162.8368
 21
-62.0
  0
LINE
  8
0
  6
CONTINUOUS
 62
     7
 10
-161.8368
 20
-72.0
 11
-161.8368
 21
-62.0
  0
LINE
  8
0
  6
CONTINUOUS
 62
     7
 10
-160.8368
 20
-72.0
 11
-160.8368
 21
-62.0
  0
LINE
  8
0
  6
CONTINUOUS
 62
     7
 10
-159.8368
 20
-72.0
 11
-159.8368
 21
-62.0
  0
LINE
  8
0
  6
CONTINUOUS
 62
     7
 10
-158.8368
 20
-72.0
 11
-158.8368
 21
-62.0
  0
LINE
  8
0
  6
CONTINUOUS
 62
     7
 10
-157.8368
 20
-72.0
 11
-157.8368
 21
-62.0
  0
LINE
  8
0
  6
CONTINUOUS
 62
     7
 10
-156.8368
 20
-72.0
 11
-156.8368
 21
-62.0
  0
LINE
  8
0
  6
CONTINUOUS
 62
     7
 10
-155.8368
 20
-72.0
 11
-155.8368
 21
-62.0
  0
LINE
  8
0
  6
CONTINUOUS
 62
     7
 10
-154.0368
 20
-94.09999
 11
-152.4368
 21
-93.17623
  0
LINE
  8
0
  6
CONTINUOUS
 62
     7
 10
-165.6367
 20
-94.1
 11
-167.2368
 21
-93.17623
  0
LINE
  8
0
  6
CONTINUOUS
 62
     7
 10
-163.6974
 20
-93.17624
 11
-163.6974
 21
-87.70001
  0
LINE
  8
0
  6
CONTINUOUS
 62
     7
 10
-163.3737
 20
-93.17624
 11
-163.3737
 21
-87.70001
  0
LINE
  8
0
  6
CONTINUOUS
 62
     7
 10
-156.2998
 20
-93.17624
 11
-156.2998
 21
-87.69998
  0
LINE
  8
0
  6
CONTINUOUS
 62
     7
 10
-155.9761
 20
-93.17624
 11
-155.9761
 21
-87.69998
  0
LINE
  8
0
  6
CONTINUOUS
 62
     7
 10
-163.6974
 20
-93.17624
 11
-163.3737
 21
-93.17624
  0
LINE
  8
0
  6
CONTINUOUS
 62
     7
 10
-156.2998
 20
-93.17624
 11
-155.976
 21
-93.17624
  0
LINE
  8
0
  6
CONTINUOUS
 62
     7
 10
-174.9368
 20
-74.40002
 11
-152.9368
 21
-74.40002
  0
LINE
  8
0
  6
CONTINUOUS
 62
     7
 10
-174.9368
 20
-59.60001
 11
-152.9368
 21
-59.60001
  0
LINE
  8
0
  6
CONTINUOUS
 62
     7
 10
-175.4368
 20
-59.60001
 11
-175.4368
 21
-50.0
  0
LINE
  8
0
  6
CONTINUOUS
 62
     7
 10
-167.2368
 20
-84.70001
 11
-152.4367
 21
-84.70001
  0
LINE
  8
0
  6
CONTINUOUS
 62
     7
 10
-152.4368
 20
-84.69998
 11
-152.4368
 21
-60.10001
  0
LINE
  8
0
  6
CONTINUOUS
 62
     7
 10
-167.2368
 20
-84.70001
 11
-167.2368
 21
-74.39999
  0
LINE
  8
0
  6
CONTINUOUS
 62
     7
 10
-165.8368
 20
-86.70001
 11
-165.8368
 21
-84.70001
  0
LINE
  8
0
  6
CONTINUOUS
 62
     7
 10
-153.8368
 20
-86.69998
 11
-153.8368
 21
-84.69998
  0
LINE
  8
0
  6
CONTINUOUS
 62
     7
 10
-154.5133
 20
-86.69998
 11
-154.5133
 21
-84.69998
  0
LINE
  8
0
  6
CONTINUOUS
 62
     7
 10
-165.1603
 20
-86.70001
 11
-165.1603
 21
-84.70001
  0
LINE
  8
0
  6
CONTINUOUS
 62
     7
 10
-174.9368
 20
-59.60001
 11
-174.9368
 21
-74.39999
  0
LINE
  8
0
  6
CONTINUOUS
 62
     7
 10
-175.4368
 20
-59.60001
 11
-175.4368
 21
-74.39999
  0
LINE
  8
0
  6
CONTINUOUS
 62
     7
 10
-174.9368
 20
-59.60001
 11
-175.4368
 21
-59.60001
  0
LINE
  8
0
  6
CONTINUOUS
 62
     7
 10
-174.9368
 20
-74.40002
 11
-175.4368
 21
-74.40002
  0
LINE
  8
0
  6
CENTER
 62
     2
 10
-148.0595
 20
133.0
 11
-208.4368
 21
133.0
  0
LINE
  8
0
  6
CENTER
 62
     2
 10
-194.4368
 20
123.0517
 11
-194.4368
 21
142.9878
  0
LINE
  8
0
  6
CONTINUOUS
 62
     7
 10
-182.4368
 20
140.5
 11
-182.4368
 21
125.5
  0
LINE
  8
0
  6
CONTINUOUS
 62
     7
 10
-185.4368
 20
131.5
 11
-182.4368
 21
131.5
  0
LINE
  8
0
  6
CONTINUOUS
 62
     7
 10
-203.4368
 20
134.5
 11
-206.4368
 21
134.5
  0
LINE
  8
0
  6
CONTINUOUS
 62
     7
 10
-200.4368
 20
137.5
 11
-200.4368
 21
140.5
  0
LINE
  8
0
  6
CONTINUOUS
 62
     7
 10
-188.4368
 20
128.5
 11
-188.4368
 21
125.5
  0
LINE
  8
0
  6
CONTINUOUS
 62
     7
 10
-205.4368
 20
134.5
 11
-205.4368
 21
126.5
  0
LINE
  8
0
  6
CONTINUOUS
 62
     7
 10
-183.4368
 20
139.5
 11
-183.4368
 21
131.5
  0
LINE
  8
0
  6
CONTINUOUS
 62
     7
 10
-200.4368
 20
139.5
 11
-183.4368
 21
139.5
  0
LINE
  8
0
  6
CONTINUOUS
 62
     7
 10
-205.4368
 20
126.5
 11
-188.4368
 21
126.5
  0
LINE
  8
0
  6
CONTINUOUS
 62
     7
 10
-185.1368
 20
126.2701
 11
-185.1368
 21
125.9677
  0
LINE
  8
0
  6
CONTINUOUS
 62
     7
 10
-185.7368
 20
126.2701
 11
-185.7368
 21
125.9677
  0
LINE
  8
0
  6
CONTINUOUS
 62
     7
 10
-185.8976
 20
125.992
 11
-185.8976
 21
126.2977
  0
LINE
  8
0
  6
CONTINUOUS
 62
     7
 10
-203.7368
 20
139.7299
 11
-203.7368
 21
140.0323
  0
LINE
  8
0
  6
CONTINUOUS
 62
     7
 10
-203.1368
 20
139.7299
 11
-203.1368
 21
140.0323
  0
LINE
  8
0
  6
CONTINUOUS
 62
     7
 10
-202.976
 20
140.008
 11
-202.976
 21
139.7023
  0
LINE
  8
0
  6
CONTINUOUS
 62
     7
 10
-186.5399
 20
127.7646
 11
-186.1722
 21
128.1323
  0
LINE
  8
0
  6
CONTINUOUS
 62
     7
 10
-186.1722
 20
127.3969
 11
-185.8045
 21
127.7646
  0
LINE
  8
0
  6
CONTINUOUS
 62
     7
 10
-186.5399
 20
127.7647
 11
-186.1722
 21
127.397
  0
LINE
  8
0
  6
CONTINUOUS
 62
     7
 10
-184.7014
 20
129.6031
 11
-184.3338
 21
129.2354
  0
LINE
  8
0
  6
CONTINUOUS
 62
     7
 10
-187.201
 20
129.8966
 11
-186.1722
 21
128.8678
  0
LINE
  8
0
  6
CONTINUOUS
 62
     7
 10
-186.8333
 20
130.2643
 11
-185.8045
 21
129.2355
  0
LINE
  8
0
  6
CONTINUOUS
 62
     7
 10
-185.0691
 20
129.2354
 11
-184.7014
 21
129.6031
  0
LINE
  8
0
  6
CONTINUOUS
 62
     7
 10
-184.7014
 20
128.8677
 11
-184.3337
 21
129.2354
  0
LINE
  8
0
  6
CONTINUOUS
 62
     7
 10
-185.0691
 20
127.7647
 11
-184.0403
 21
126.7359
  0
LINE
  8
0
  6
CONTINUOUS
 62
     7
 10
-184.7014
 20
128.1324
 11
-183.6727
 21
127.1036
  0
LINE
  8
0
  6
CONTINUOUS
 62
     7
 10
-204.5399
 20
136.7646
 11
-204.1722
 21
137.1323
  0
LINE
  8
0
  6
CONTINUOUS
 62
     7
 10
-204.1722
 20
136.3969
 11
-203.8045
 21
136.7646
  0
LINE
  8
0
  6
CONTINUOUS
 62
     7
 10
-204.5399
 20
136.7647
 11
-204.1722
 21
136.397
  0
LINE
  8
0
  6
CONTINUOUS
 62
     7
 10
-202.7014
 20
138.6031
 11
-202.3337
 21
138.2354
  0
LINE
  8
0
  6
CONTINUOUS
 62
     7
 10
-205.201
 20
138.8965
 11
-204.1722
 21
137.8677
  0
LINE
  8
0
  6
CONTINUOUS
 62
     7
 10
-204.8333
 20
139.2643
 11
-203.8045
 21
138.2355
  0
LINE
  8
0
  6
CONTINUOUS
 62
     7
 10
-203.0691
 20
138.2354
 11
-202.7014
 21
138.6031
  0
LINE
  8
0
  6
CONTINUOUS
 62
     7
 10
-202.7014
 20
137.8677
 11
-202.3337
 21
138.2354
  0
LINE
  8
0
  6
CONTINUOUS
 62
     7
 10
-203.0691
 20
136.7646
 11
-202.0404
 21
135.7359
  0
LINE
  8
0
  6
CONTINUOUS
 62
     7
 10
-202.7014
 20
137.1324
 11
-201.6726
 21
136.1036
  0
LINE
  8
0
  6
CENTER
 62
     2
 10
-185.4368
 20
132.5
 11
-185.4368
 21
124.5
  0
LINE
  8
0
  6
CENTER
 62
     2
 10
-203.4368
 20
141.5
 11
-203.4368
 21
133.5
  0
LINE
  8
0
  6
CENTER
 62
     2
 10
-207.4368
 20
137.5
 11
-199.4368
 21
137.5
  0
LINE
  8
0
  6
CENTER
 62
     2
 10
-189.4368
 20
128.5
 11
-181.4368
 21
128.5
  0
LINE
  8
0
  6
CONTINUOUS
 62
     7
 10
-205.9368
 20
140.5
 11
-175.4368
 21
140.5
  0
LINE
  8
0
  6
CONTINUOUS
 62
     7
 10
-206.4368
 20
140.0
 11
-206.4368
 21
126.0
  0
LINE
  8
0
  6
CONTINUOUS
 62
     7
 10
-205.9368
 20
125.5
 11
-175.4368
 21
125.5
  0
LINE
  8
0
  6
CONTINUOUS
 62
     7
 10
-179.4368
 20
140.5
 11
-179.4368
 21
125.5
  0
LINE
  8
0
  6
CONTINUOUS
 62
     7
 10
-175.4368
 20
140.5
 11
-175.4368
 21
140.4
  0
LINE
  8
0
  6
CENTER
 62
     2
 10
-159.8368
 20
143.4
 11
-159.8368
 21
122.6
  0
LINE
  8
0
  6
CONTINUOUS
 62
     7
 10
-163.3737
 20
139.5
 11
-156.2999
 21
139.5
  0
LINE
  8
0
  6
CONTINUOUS
 62
     7
 10
-163.3737
 20
126.5
 11
-156.2999
 21
126.5
  0
LINE
  8
0
  6
CONTINUOUS
 62
     7
 10
-155.9761
 20
139.3132
 11
-152.4391
 21
133.187
  0
LINE
  8
0
  6
CONTINUOUS
 62
     7
 10
-167.2345
 20
132.8131
 11
-163.6975
 21
126.687
  0
LINE
  8
0
  6
CONTINUOUS
 62
     7
 10
-152.4392
 20
132.8131
 11
-155.9762
 21
126.6869
  0
LINE
  8
0
  6
CONTINUOUS
 62
     7
 10
-163.6975
 20
139.3131
 11
-167.2344
 21
133.1869
  0
LINE
  8
0
  6
CONTINUOUS
 62
     7
 10
-152.4368
 20
139.9
 11
-152.4368
 21
126.1
  0
LINE
  8
0
  6
CONTINUOUS
 62
     7
 10
-151.265
 20
130.2
 11
-151.9368
 21
130.2
  0
LINE
  8
0
  6
CONTINUOUS
 62
     7
 10
-151.265
 20
135.8
 11
-151.9368
 21
135.8
  0
LINE
  8
0
  6
CONTINUOUS
 62
     7
 10
-151.9368
 20
136.25
 11
-152.4368
 21
136.25
  0
LINE
  8
0
  6
CONTINUOUS
 62
     7
 10
-151.9368
 20
129.75
 11
-151.9368
 21
136.25
  0
LINE
  8
0
  6
CONTINUOUS
 62
     7
 10
-151.9368
 20
129.75
 11
-152.4368
 21
129.75
  0
LINE
  8
0
  6
CONTINUOUS
 62
     7
 10
-175.4368
 20
125.6
 11
-175.4368
 21
125.5
  0
LINE
  8
0
  6
CONTINUOUS
 62
     7
 10
-174.9368
 20
125.6
 11
-152.9368
 21
125.6
  0
LINE
  8
0
  6
CONTINUOUS
 62
     7
 10
-174.9368
 20
140.4
 11
-152.9368
 21
140.4
  0
LINE
  8
0
  6
CONTINUOUS
 62
     7
 10
-175.4368
 20
125.6
 11
-175.4368
 21
140.4
  0
LINE
  8
0
  6
CONTINUOUS
 62
     7
 10
-174.9368
 20
125.6
 11
-174.9368
 21
140.4
  0
LINE
  8
0
  6
CONTINUOUS
 62
     7
 10
-175.4368
 20
125.6
 11
-174.9368
 21
125.6
  0
LINE
  8
0
  6
CONTINUOUS
 62
     7
 10
-175.4368
 20
140.4
 11
-174.9368
 21
140.4
  0
LINE
  8
0
  6
CONTINUOUS
 62
     7
 10
-314.4367
 20
5.00003
 11
-299.4367
 21
5.00003
  0
LINE
  8
0
  6
CENTER
 62
     2
 10
-306.9367
 20
75.00003
 11
-306.9367
 21
-98.99997
  0
LINE
  8
0
  6
CONTINUOUS
 62
     7
 10
-314.4367
 20
-22.99997
 11
-299.4367
 21
-22.99997
  0
LINE
  8
0
  6
CENTER
 62
     2
 10
-312.4367
 20
-15.49997
 11
-312.4367
 21
-20.49997
  0
LINE
  8
0
  6
CENTER
 62
     2
 10
-301.4367
 20
2.50003
 11
-301.4367
 21
-2.49997
  0
LINE
  8
0
  6
CENTER
 62
     2
 10
-314.9367
 20
-17.99997
 11
-309.9367
 21
-17.99997
  0
LINE
  8
0
  6
CENTER
 62
     2
 10
-303.9367
 20
0.00003
 11
-298.9367
 21
0.00003
  0
LINE
  8
0
  6
CENTER
 62
     2
 10
-313.4367
 20
1.00003
 11
-306.4367
 21
1.00003
  0
LINE
  8
0
  6
CENTER
 62
     2
 10
-316.6518
 20
-8.99997
 11
-297.4737
 21
-8.99997
  0
LINE
  8
0
  6
CENTER
 62
     2
 10
-310.4367
 20
-31.99997
 11
-303.4367
 21
-31.99997
  0
LINE
  8
0
  6
CONTINUOUS
 62
     7
 10
-314.4367
 20
24.00003
 11
-314.4367
 21
-49.99997
  0
LINE
  8
0
  6
CONTINUOUS
 62
     7
 10
-299.4367
 20
24.00003
 11
-299.4367
 21
-49.99997
  0
LINE
  8
0
  6
CONTINUOUS
 62
     7
 10
-308.351
 20
-30.5858
 11
-305.5226
 21
-33.41421
  0
LINE
  8
0
  6
CONTINUOUS
 62
     7
 10
-307.4544
 20
-30.06811
 11
-305.0049
 21
-32.5176
  0
LINE
  8
0
  6
CONTINUOUS
 62
     7
 10
-308.8687
 20
-31.48239
 11
-306.4192
 21
-33.93188
  0
LINE
  8
0
  6
CONTINUOUS
 62
     7
 10
-308.351
 20
-33.41414
 11
-305.5226
 21
-30.58571
  0
LINE
  8
0
  6
CONTINUOUS
 62
     7
 10
-307.4544
 20
-33.93177
 11
-305.0049
 21
-31.48229
  0
LINE
  8
0
  6
CONTINUOUS
 62
     7
 10
-308.8686
 20
-32.51756
 11
-306.4192
 21
-30.06808
  0
LINE
  8
0
  6
CENTER
 62
     2
 10
-307.4367
 20
-18.99997
 11
-300.4367
 21
-18.99997
  0
LINE
  8
0
  6
CENTER
 62
     2
 10
-303.9367
 20
-15.49997
 11
-303.9367
 21
-22.49997
  0
LINE
  8
0
  6
CENTER
 62
     2
 10
-310.4367
 20
14.00003
 11
-303.4367
 21
14.00003
  0
LINE
  8
0
  6
CONTINUOUS
 62
     7
 10
-308.8687
 20
13.48244
 11
-306.4192
 21
15.93194
  0
LINE
  8
0
  6
CONTINUOUS
 62
     7
 10
-308.8686
 20
14.51765
 11
-306.4191
 21
12.06816
  0
LINE
  8
0
  6
CONTINUOUS
 62
     7
 10
-308.351
 20
12.58587
 11
-305.5226
 21
15.4143
  0
LINE
  8
0
  6
CONTINUOUS
 62
     7
 10
-307.4544
 20
12.06823
 11
-305.0049
 21
14.5177
  0
LINE
  8
0
  6
CONTINUOUS
 62
     7
 10
-308.351
 20
15.41421
 11
-305.5226
 21
12.5858
  0
LINE
  8
0
  6
CONTINUOUS
 62
     7
 10
-307.4544
 20
15.93189
 11
-305.0049
 21
13.48239
  0
LINE
  8
0
  6
CENTER
 62
     2
 10
-309.9367
 20
4.50003
 11
-309.9367
 21
-2.3392
  0
LINE
  8
0
  6
CONTINUOUS
 62
     7
 10
-314.4367
 20
50.20001
 11
-314.4367
 21
24.00003
  0
LINE
  8
0
  6
CONTINUOUS
 62
     7
 10
-314.4367
 20
24.00003
 11
-299.4367
 21
24.00003
  0
LINE
  8
0
  6
CONTINUOUS
 62
     7
 10
-299.4367
 20
50.20001
 11
-299.4367
 21
24.00003
  0
LINE
  8
0
  6
CONTINUOUS
 62
     7
 10
-308.4367
 20
52.20003
 11
-308.4367
 21
50.20001
  0
LINE
  8
0
  6
CONTINUOUS
 62
     7
 10
-313.4367
 20
46.20003
 11
-300.4367
 21
46.20003
  0
LINE
  8
0
  6
CONTINUOUS
 62
     7
 10
-313.4367
 20
42.20003
 11
-300.4367
 21
42.20003
  0
LINE
  8
0
  6
CONTINUOUS
 62
     7
 10
-300.4367
 20
46.20004
 11
-300.4367
 21
42.20004
  0
LINE
  8
0
  6
CONTINUOUS
 62
     7
 10
-313.4367
 20
46.20003
 11
-313.4367
 21
42.20003
  0
LINE
  8
0
  6
CONTINUOUS
 62
     7
 10
-312.7247
 20
45.30681
 11
-310.383
 21
45.30681
  0
LINE
  8
0
  6
CONTINUOUS
 62
     7
 10
-312.7247
 20
43.23022
 11
-310.7365
 21
43.23022
  0
LINE
  8
0
  6
CONTINUOUS
 62
     7
 10
-312.7247
 20
42.70003
 11
-310.0295
 21
42.70003
  0
LINE
  8
0
  6
CONTINUOUS
 62
     7
 10
-312.7247
 20
44.77661
 11
-310.7365
 21
44.77661
  0
LINE
  8
0
  6
CONTINUOUS
 62
     7
 10
-312.7247
 20
45.30681
 11
-312.7247
 21
44.77661
  0
LINE
  8
0
  6
CONTINUOUS
 62
     7
 10
-310.0295
 20
44.95334
 11
-310.0295
 21
42.70003
  0
LINE
  8
0
  6
CONTINUOUS
 62
     7
 10
-310.7365
 20
44.77661
 11
-310.7365
 21
43.23022
  0
LINE
  8
0
  6
CONTINUOUS
 62
     7
 10
-309.6319
 20
45.30681
 11
-309.6319
 21
44.77661
  0
LINE
  8
0
  6
CONTINUOUS
 62
     7
 10
-307.1135
 20
44.77661
 11
-307.1135
 21
43.05348
  0
LINE
  8
0
  6
CONTINUOUS
 62
     7
 10
-307.8204
 20
44.77661
 11
-307.8204
 21
43.23022
  0
LINE
  8
0
  6
CONTINUOUS
 62
     7
 10
-312.7247
 20
43.23022
 11
-312.7247
 21
42.70003
  0
LINE
  8
0
  6
CONTINUOUS
 62
     7
 10
-309.6319
 20
45.30681
 11
-308.9334
 21
45.30681
  0
LINE
  8
0
  6
CONTINUOUS
 62
     7
 10
-309.6319
 20
42.70003
 11
-309.083
 21
42.70003
  0
LINE
  8
0
  6
CONTINUOUS
 62
     7
 10
-309.6318
 20
42.70002
 11
-309.0754
 21
44.7766
  0
LINE
  8
0
  6
CONTINUOUS
 62
     7
 10
-309.6319
 20
44.77661
 11
-309.0754
 21
44.77661
  0
LINE
  8
0
  6
CONTINUOUS
 62
     7
 10
-309.0829
 20
42.69999
 11
-308.5265
 21
44.77657
  0
LINE
  8
0
  6
CONTINUOUS
 62
     7
 10
-308.3506
 20
43.23022
 11
-307.8204
 21
43.23022
  0
LINE
  8
0
  6
CONTINUOUS
 62
     7
 10
-308.3506
 20
43.23019
 11
-308.2085
 21
42.7
  0
LINE
  8
0
  6
CONTINUOUS
 62
     7
 10
-308.2085
 20
42.70003
 11
-307.4669
 21
42.70003
  0
LINE
  8
0
  6
CONTINUOUS
 62
     7
 10
-308.5266
 20
44.77661
 11
-307.8204
 21
44.77661
  0
LINE
  8
0
  6
CONTINUOUS
 62
     7
 10
-308.3845
 20
45.30681
 11
-307.6437
 21
45.30681
  0
LINE
  8
0
  6
CONTINUOUS
 62
     7
 10
-308.9333
 20
45.30681
 11
-308.828
 21
45.70004
  0
LINE
  8
0
  6
CONTINUOUS
 62
     7
 10
-308.3845
 20
45.30684
 11
-308.2791
 21
45.70008
  0
LINE
  8
0
  6
CONTINUOUS
 62
     7
 10
-306.6716
 20
45.30681
 11
-305.8322
 21
45.30681
  0
LINE
  8
0
  6
CONTINUOUS
 62
     7
 10
-306.6716
 20
44.77661
 11
-304.6099
 21
44.77661
  0
LINE
  8
0
  6
CONTINUOUS
 62
     7
 10
-305.8322
 20
42.70003
 11
-305.1252
 21
42.70003
  0
LINE
  8
0
  6
CONTINUOUS
 62
     7
 10
-306.6716
 20
45.30681
 11
-306.6716
 21
44.77661
  0
LINE
  8
0
  6
CONTINUOUS
 62
     7
 10
-304.0648
 20
43.81522
 11
-304.0648
 21
43.23022
  0
LINE
  8
0
  6
CONTINUOUS
 62
     7
 10
-306.6717
 20
43.23027
 11
-305.8322
 21
43.62173
  0
LINE
  8
0
  6
CONTINUOUS
 62
     7
 10
-306.6716
 20
43.81518
 11
-304.6099
 21
44.77658
  0
LINE
  8
0
  6
CONTINUOUS
 62
     7
 10
-306.6716
 20
43.81522
 11
-306.6716
 21
43.23022
  0
LINE
  8
0
  6
CONTINUOUS
 62
     7
 10
-305.1252
 20
43.72469
 11
-304.0648
 21
43.23024
  0
LINE
  8
0
  6
CONTINUOUS
 62
     7
 10
-304.7409
 20
44.13046
 11
-304.0648
 21
43.81518
  0
LINE
  8
0
  6
CONTINUOUS
 62
     7
 10
-304.0648
 20
44.95334
 11
-304.0648
 21
44.67096
  0
LINE
  8
0
  6
CONTINUOUS
 62
     7
 10
-305.8322
 20
45.70003
 11
-305.8322
 21
45.30681
  0
LINE
  8
0
  6
CONTINUOUS
 62
     7
 10
-305.1252
 20
45.70003
 11
-305.1252
 21
45.30681
  0
LINE
  8
0
  6
CONTINUOUS
 62
     7
 10
-305.1252
 20
45.30681
 11
-304.4183
 21
45.30681
  0
LINE
  8
0
  6
CONTINUOUS
 62
     7
 10
-305.8322
 20
43.62167
 11
-305.8322
 21
42.70003
  0
LINE
  8
0
  6
CONTINUOUS
 62
     7
 10
-305.1252
 20
43.72467
 11
-305.1252
 21
42.70003
  0
LINE
  8
0
  6
CONTINUOUS
 62
     7
 10
-304.7409
 20
44.13048
 11
-304.2688
 21
44.35061
  0
LINE
  8
0
  6
CONTINUOUS
 62
     7
 10
-301.679
 20
45.54097
 11
-301.1488
 21
45.54097
  0
LINE
  8
0
  6
CONTINUOUS
 62
     7
 10
-303.8439
 20
44.44579
 11
-303.8439
 21
43.8752
  0
LINE
  8
0
  6
CONTINUOUS
 62
     7
 10
-301.1488
 20
45.54097
 11
-301.1488
 21
45.30681
  0
LINE
  8
0
  6
CONTINUOUS
 62
     7
 10
-301.679
 20
45.54097
 11
-301.679
 21
45.42673
  0
LINE
  8
0
  6
CONTINUOUS
 62
     7
 10
-302.3859
 20
44.45508
 11
-302.3859
 21
42.70004
  0
LINE
  8
0
  6
CONTINUOUS
 62
     7
 10
-303.8439
 20
44.44574
 11
-301.7903
 21
45.26244
  0
LINE
  8
0
  6
CONTINUOUS
 62
     7
 10
-303.8439
 20
43.87514
 11
-302.3859
 21
44.45504
  0
LINE
  8
0
  6
CONTINUOUS
 62
     7
 10
-302.3859
 20
42.70003
 11
-301.679
 21
42.70003
  0
LINE
  8
0
  6
CONTINUOUS
 62
     7
 10
-301.679
 20
44.73622
 11
-301.679
 21
42.70004
  0
LINE
  8
0
  6
CONTINUOUS
 62
     7
 10
-301.6789
 20
44.73621
 11
-301.483
 21
44.81414
  0
LINE
  8
0
  6
CONTINUOUS
 62
     7
 10
-308.828
 20
45.70003
 11
-308.2791
 21
45.70003
  0
LINE
  8
0
  6
CONTINUOUS
 62
     7
 10
-307.4006
 20
45.70003
 11
-307.1747
 21
45.70003
  0
LINE
  8
0
  6
CONTINUOUS
 62
     7
 10
-305.8322
 20
45.70003
 11
-305.1252
 21
45.70003
  0
LINE
  8
0
  6
CONTINUOUS
 62
     7
 10
-307.4006
 20
45.34656
 11
-307.1747
 21
45.34656
  0
LINE
  8
0
  6
CONTINUOUS
 62
     7
 10
-307.4006
 20
45.70003
 11
-307.4006
 21
45.34656
  0
LINE
  8
0
  6
CONTINUOUS
 62
     7
 10
-307.1747
 20
45.70003
 11
-307.1747
 21
45.34656
  0
LINE
  8
0
  6
CONTINUOUS
 62
     7
 10
-307.0169
 20
45.70003
 11
-307.0169
 21
45.34656
  0
LINE
  8
0
  6
CONTINUOUS
 62
     7
 10
-306.7909
 20
45.70003
 11
-306.7909
 21
45.34656
  0
LINE
  8
0
  6
CONTINUOUS
 62
     7
 10
-307.0169
 20
45.70003
 11
-306.7909
 21
45.70003
  0
LINE
  8
0
  6
CONTINUOUS
 62
     7
 10
-307.0169
 20
45.34656
 11
-306.7909
 21
45.34656
  0
LINE
  8
0
  6
CONTINUOUS
 62
     7
 10
-314.4367
 20
50.20001
 11
-313.4367
 21
52.20001
  0
LINE
  8
0
  6
CONTINUOUS
 62
     7
 10
-313.6867
 20
51.49376
 11
-313.6867
 21
50.80002
  0
LINE
  8
0
  6
CENTER
 62
     2
 10
-311.4367
 20
55.20003
 11
-311.4367
 21
47.20003
  0
LINE
  8
0
  6
CONTINUOUS
 62
     7
 10
-313.4367
 20
52.20003
 11
-313.2625
 21
52.20003
  0
LINE
  8
0
  6
CONTINUOUS
 62
     7
 10
-309.1867
 20
51.49376
 11
-309.1867
 21
50.80002
  0
LINE
  8
0
  6
CONTINUOUS
 62
     7
 10
-309.611
 20
52.20003
 11
-300.4367
 21
52.20003
  0
LINE
  8
0
  6
CENTER
 62
     2
 10
-302.4367
 20
55.20004
 11
-302.4367
 21
47.20004
  0
LINE
  8
0
  6
CONTINUOUS
 62
     7
 10
-299.4367
 20
50.20005
 11
-300.4367
 21
52.20004
  0
LINE
  8
0
  6
CONTINUOUS
 62
     7
 10
-314.4367
 20
50.20001
 11
-299.4367
 21
50.20001
  0
LINE
  8
0
  6
CONTINUOUS
 62
     7
 10
-314.4367
 20
49.20003
 11
-299.4367
 21
49.20003
  0
LINE
  8
0
  6
CONTINUOUS
 62
     7
 10
-308.8867
 20
50.80002
 11
-313.9867
 21
50.80002
  0
LINE
  8
0
  6
CONTINUOUS
 62
     7
 10
-308.8867
 20
50.80002
 11
-308.8867
 21
50.20001
  0
LINE
  8
0
  6
CONTINUOUS
 62
     7
 10
-313.9867
 20
50.80002
 11
-313.9867
 21
50.20001
  0
LINE
  8
0
  6
CONTINUOUS
 62
     7
 10
-314.3367
 20
60.70003
 11
-299.5367
 21
60.70003
  0
LINE
  8
0
  6
CONTINUOUS
 62
     7
 10
-312.7367
 20
68.10004
 11
-301.1367
 21
68.10004
  0
LINE
  8
0
  6
CONTINUOUS
 62
     7
 10
-314.3367
 20
61.70003
 11
-299.5367
 21
61.70003
  0
LINE
  8
0
  6
CONTINUOUS
 62
     7
 10
-299.5367
 20
61.70003
 11
-299.5367
 21
60.70003
  0
LINE
  8
0
  6
CONTINUOUS
 62
     7
 10
-314.3367
 20
61.70003
 11
-314.3367
 21
60.70003
  0
LINE
  8
0
  6
CONTINUOUS
 62
     7
 10
-313.4367
 20
67.69589
 11
-313.4367
 21
61.70003
  0
LINE
  8
0
  6
CONTINUOUS
 62
     7
 10
-300.4367
 20
67.69589
 11
-300.4367
 21
61.70003
  0
LINE
  8
0
  6
CONTINUOUS
 62
     7
 10
-301.1367
 20
68.10003
 11
-300.4367
 21
67.69588
  0
LINE
  8
0
  6
CONTINUOUS
 62
     7
 10
-312.7367
 20
68.10007
 11
-313.4367
 21
67.69593
  0
LINE
  8
0
  6
CONTINUOUS
 62
     7
 10
-307.1237
 20
67.17627
 11
-306.7498
 21
67.17627
  0
LINE
  8
0
  6
CONTINUOUS
 62
     7
 10
-307.1236
 20
67.17627
 11
-307.1236
 21
61.70003
  0
LINE
  8
0
  6
CONTINUOUS
 62
     7
 10
-306.7498
 20
67.17627
 11
-306.7498
 21
61.70003
  0
LINE
  8
0
  6
CONTINUOUS
 62
     7
 10
-314.3367
 20
58.70003
 11
-299.5367
 21
58.70003
  0
LINE
  8
0
  6
CONTINUOUS
 62
     7
 10
-314.3367
 20
58.70003
 11
-314.3367
 21
50.40001
  0
LINE
  8
0
  6
CONTINUOUS
 62
     7
 10
-299.5367
 20
58.70003
 11
-299.5367
 21
50.40002
  0
LINE
  8
0
  6
CONTINUOUS
 62
     7
 10
-312.9367
 20
60.70003
 11
-312.9367
 21
58.70003
  0
LINE
  8
0
  6
CONTINUOUS
 62
     7
 10
-300.9367
 20
60.70003
 11
-300.9367
 21
58.70003
  0
LINE
  8
0
  6
CONTINUOUS
 62
     7
 10
-301.6132
 20
60.70003
 11
-301.6132
 21
58.70003
  0
LINE
  8
0
  6
CONTINUOUS
 62
     7
 10
-312.2602
 20
60.70003
 11
-312.2602
 21
58.70003
  0
LINE
  8
0
  6
CONTINUOUS
 62
     7
 10
-299.4367
 20
-76.19989
 11
-299.4367
 21
-49.99991
  0
LINE
  8
0
  6
CONTINUOUS
 62
     7
 10
-299.4367
 20
-49.99991
 11
-314.4367
 21
-49.99991
  0
LINE
  8
0
  6
CONTINUOUS
 62
     7
 10
-314.4367
 20
-76.19989
 11
-314.4367
 21
-49.99991
  0
LINE
  8
0
  6
CONTINUOUS
 62
     7
 10
-305.4367
 20
-78.19992
 11
-305.4367
 21
-76.19989
  0
LINE
  8
0
  6
CONTINUOUS
 62
     7
 10
-300.4367
 20
-72.19992
 11
-313.4367
 21
-72.19992
  0
LINE
  8
0
  6
CONTINUOUS
 62
     7
 10
-300.4367
 20
-68.19992
 11
-313.4367
 21
-68.19992
  0
LINE
  8
0
  6
CONTINUOUS
 62
     7
 10
-313.4367
 20
-72.19992
 11
-313.4367
 21
-68.19992
  0
LINE
  8
0
  6
CONTINUOUS
 62
     7
 10
-300.4367
 20
-72.19992
 11
-300.4367
 21
-68.19992
  0
LINE
  8
0
  6
CONTINUOUS
 62
     7
 10
-301.1488
 20
-71.30667
 11
-303.4905
 21
-71.30667
  0
LINE
  8
0
  6
CONTINUOUS
 62
     7
 10
-301.1488
 20
-69.2301
 11
-303.137
 21
-69.2301
  0
LINE
  8
0
  6
CONTINUOUS
 62
     7
 10
-301.1488
 20
-68.69992
 11
-303.8439
 21
-68.69992
  0
LINE
  8
0
  6
CONTINUOUS
 62
     7
 10
-301.1488
 20
-70.77649
 11
-303.137
 21
-70.77649
  0
LINE
  8
0
  6
CONTINUOUS
 62
     7
 10
-301.1488
 20
-71.30667
 11
-301.1488
 21
-70.77649
  0
LINE
  8
0
  6
CONTINUOUS
 62
     7
 10
-303.8439
 20
-70.95322
 11
-303.8439
 21
-68.69992
  0
LINE
  8
0
  6
CONTINUOUS
 62
     7
 10
-303.137
 20
-70.77649
 11
-303.137
 21
-69.2301
  0
LINE
  8
0
  6
CONTINUOUS
 62
     7
 10
-304.2416
 20
-71.30667
 11
-304.2416
 21
-70.77649
  0
LINE
  8
0
  6
CONTINUOUS
 62
     7
 10
-306.76
 20
-70.77649
 11
-306.76
 21
-69.05338
  0
LINE
  8
0
  6
CONTINUOUS
 62
     7
 10
-306.0531
 20
-70.77649
 11
-306.0531
 21
-69.2301
  0
LINE
  8
0
  6
CONTINUOUS
 62
     7
 10
-301.1488
 20
-69.23007
 11
-301.1488
 21
-68.69992
  0
LINE
  8
0
  6
CONTINUOUS
 62
     7
 10
-304.2416
 20
-71.30667
 11
-304.9401
 21
-71.30667
  0
LINE
  8
0
  6
CONTINUOUS
 62
     7
 10
-304.2416
 20
-68.69992
 11
-304.7905
 21
-68.69992
  0
LINE
  8
0
  6
CONTINUOUS
 62
     7
 10
-304.2416
 20
-68.69991
 11
-304.798
 21
-70.77649
  0
LINE
  8
0
  6
CONTINUOUS
 62
     7
 10
-304.2416
 20
-70.77649
 11
-304.798
 21
-70.77649
  0
LINE
  8
0
  6
CONTINUOUS
 62
     7
 10
-304.7906
 20
-68.69987
 11
-305.347
 21
-70.77644
  0
LINE
  8
0
  6
CONTINUOUS
 62
     7
 10
-305.5229
 20
-69.2301
 11
-306.053
 21
-69.2301
  0
LINE
  8
0
  6
CONTINUOUS
 62
     7
 10
-305.5229
 20
-69.23013
 11
-305.6649
 21
-68.69994
  0
LINE
  8
0
  6
CONTINUOUS
 62
     7
 10
-305.6649
 20
-68.69992
 11
-306.4065
 21
-68.69992
  0
LINE
  8
0
  6
CONTINUOUS
 62
     7
 10
-305.3469
 20
-70.77649
 11
-306.053
 21
-70.77649
  0
LINE
  8
0
  6
CONTINUOUS
 62
     7
 10
-305.489
 20
-71.30667
 11
-306.2298
 21
-71.30667
  0
LINE
  8
0
  6
CONTINUOUS
 62
     7
 10
-304.9401
 20
-71.30666
 11
-305.0455
 21
-71.6999
  0
LINE
  8
0
  6
CONTINUOUS
 62
     7
 10
-305.4889
 20
-71.3067
 11
-305.5943
 21
-71.69994
  0
LINE
  8
0
  6
CONTINUOUS
 62
     7
 10
-307.2018
 20
-71.30667
 11
-308.0413
 21
-71.30667
  0
LINE
  8
0
  6
CONTINUOUS
 62
     7
 10
-307.2018
 20
-70.77649
 11
-309.2635
 21
-70.77649
  0
LINE
  8
0
  6
CONTINUOUS
 62
     7
 10
-308.0413
 20
-68.69992
 11
-308.7482
 21
-68.69992
  0
LINE
  8
0
  6
CONTINUOUS
 62
     7
 10
-307.2018
 20
-71.30667
 11
-307.2018
 21
-70.77649
  0
LINE
  8
0
  6
CONTINUOUS
 62
     7
 10
-309.8086
 20
-69.81509
 11
-309.8086
 21
-69.2301
  0
LINE
  8
0
  6
CONTINUOUS
 62
     7
 10
-307.2018
 20
-69.23006
 11
-308.0413
 21
-69.62151
  0
LINE
  8
0
  6
CONTINUOUS
 62
     7
 10
-307.2019
 20
-69.81506
 11
-309.2636
 21
-70.77646
  0
LINE
  8
0
  6
CONTINUOUS
 62
     7
 10
-307.2018
 20
-69.81509
 11
-307.2018
 21
-69.2301
  0
LINE
  8
0
  6
CONTINUOUS
 62
     7
 10
-308.7482
 20
-69.72457
 11
-309.8086
 21
-69.23009
  0
LINE
  8
0
  6
CONTINUOUS
 62
     7
 10
-309.1326
 20
-70.13036
 11
-309.8087
 21
-69.8151
  0
LINE
  8
0
  6
CONTINUOUS
 62
     7
 10
-309.8086
 20
-70.95322
 11
-309.8086
 21
-70.67084
  0
LINE
  8
0
  6
CONTINUOUS
 62
     7
 10
-308.0413
 20
-71.69992
 11
-308.0413
 21
-71.30667
  0
LINE
  8
0
  6
CONTINUOUS
 62
     7
 10
-308.7482
 20
-71.69992
 11
-308.7482
 21
-71.30667
  0
LINE
  8
0
  6
CONTINUOUS
 62
     7
 10
-308.7482
 20
-71.30667
 11
-309.4551
 21
-71.30667
  0
LINE
  8
0
  6
CONTINUOUS
 62
     7
 10
-308.0413
 20
-69.62155
 11
-308.0413
 21
-68.69992
  0
LINE
  8
0
  6
CONTINUOUS
 62
     7
 10
-308.7482
 20
-69.72455
 11
-308.7482
 21
-68.69992
  0
LINE
  8
0
  6
CONTINUOUS
 62
     7
 10
-309.1325
 20
-70.13026
 11
-309.6046
 21
-70.35039
  0
LINE
  8
0
  6
CONTINUOUS
 62
     7
 10
-312.1945
 20
-71.54086
 11
-312.7246
 21
-71.54086
  0
LINE
  8
0
  6
CONTINUOUS
 62
     7
 10
-310.0295
 20
-70.44565
 11
-310.0295
 21
-69.87509
  0
LINE
  8
0
  6
CONTINUOUS
 62
     7
 10
-312.7247
 20
-71.54086
 11
-312.7247
 21
-71.30667
  0
LINE
  8
0
  6
CONTINUOUS
 62
     7
 10
-312.1945
 20
-71.54086
 11
-312.1945
 21
-71.42661
  0
LINE
  8
0
  6
CONTINUOUS
 62
     7
 10
-311.4875
 20
-70.45493
 11
-311.4875
 21
-68.69992
  0
LINE
  8
0
  6
CONTINUOUS
 62
     7
 10
-310.0295
 20
-70.44566
 11
-312.0831
 21
-71.26237
  0
LINE
  8
0
  6
CONTINUOUS
 62
     7
 10
-310.0295
 20
-69.87514
 11
-311.4875
 21
-70.45502
  0
LINE
  8
0
  6
CONTINUOUS
 62
     7
 10
-311.4875
 20
-68.69992
 11
-312.1945
 21
-68.69992
  0
LINE
  8
0
  6
CONTINUOUS
 62
     7
 10
-312.1945
 20
-70.73611
 11
-312.1945
 21
-68.69992
  0
LINE
  8
0
  6
CONTINUOUS
 62
     7
 10
-312.1945
 20
-70.73603
 11
-312.3905
 21
-70.81396
  0
LINE
  8
0
  6
CONTINUOUS
 62
     7
 10
-305.0454
 20
-71.69992
 11
-305.5943
 21
-71.69992
  0
LINE
  8
0
  6
CONTINUOUS
 62
     7
 10
-306.4728
 20
-71.69992
 11
-306.6988
 21
-71.69992
  0
LINE
  8
0
  6
CONTINUOUS
 62
     7
 10
-308.0413
 20
-71.69992
 11
-308.7482
 21
-71.69992
  0
LINE
  8
0
  6
CONTINUOUS
 62
     7
 10
-306.4728
 20
-71.34644
 11
-306.6988
 21
-71.34644
  0
LINE
  8
0
  6
CONTINUOUS
 62
     7
 10
-306.4728
 20
-71.69992
 11
-306.4728
 21
-71.34644
  0
LINE
  8
0
  6
CONTINUOUS
 62
     7
 10
-306.6988
 20
-71.69992
 11
-306.6988
 21
-71.34644
  0
LINE
  8
0
  6
CONTINUOUS
 62
     7
 10
-306.8565
 20
-71.69992
 11
-306.8565
 21
-71.34644
  0
LINE
  8
0
  6
CONTINUOUS
 62
     7
 10
-307.0825
 20
-71.69992
 11
-307.0825
 21
-71.34644
  0
LINE
  8
0
  6
CONTINUOUS
 62
     7
 10
-306.8565
 20
-71.69992
 11
-307.0825
 21
-71.69992
  0
LINE
  8
0
  6
CONTINUOUS
 62
     7
 10
-306.8565
 20
-71.34644
 11
-307.0825
 21
-71.34644
  0
LINE
  8
0
  6
CONTINUOUS
 62
     7
 10
-299.4367
 20
-76.1999
 11
-300.4367
 21
-78.19991
  0
LINE
  8
0
  6
CONTINUOUS
 62
     7
 10
-300.1867
 20
-77.49362
 11
-300.1867
 21
-76.7999
  0
LINE
  8
0
  6
CENTER
 62
     2
 10
-302.4367
 20
-81.19992
 11
-302.4367
 21
-73.19992
  0
LINE
  8
0
  6
CONTINUOUS
 62
     7
 10
-300.4367
 20
-78.19992
 11
-300.611
 21
-78.19992
  0
LINE
  8
0
  6
CONTINUOUS
 62
     7
 10
-304.6867
 20
-77.49362
 11
-304.6867
 21
-76.7999
  0
LINE
  8
0
  6
CONTINUOUS
 62
     7
 10
-304.2625
 20
-78.19992
 11
-313.4367
 21
-78.19992
  0
LINE
  8
0
  6
CENTER
 62
     2
 10
-311.4367
 20
-81.19992
 11
-311.4367
 21
-73.19992
  0
LINE
  8
0
  6
CONTINUOUS
 62
     7
 10
-314.4367
 20
-76.19987
 11
-313.4367
 21
-78.19989
  0
LINE
  8
0
  6
CONTINUOUS
 62
     7
 10
-299.4367
 20
-76.19989
 11
-314.4367
 21
-76.19989
  0
LINE
  8
0
  6
CONTINUOUS
 62
     7
 10
-299.4367
 20
-75.19992
 11
-314.4367
 21
-75.19992
  0
LINE
  8
0
  6
CONTINUOUS
 62
     7
 10
-304.9867
 20
-76.7999
 11
-299.8867
 21
-76.7999
  0
LINE
  8
0
  6
CONTINUOUS
 62
     7
 10
-304.9867
 20
-76.7999
 11
-304.9867
 21
-76.19989
  0
LINE
  8
0
  6
CONTINUOUS
 62
     7
 10
-299.8867
 20
-76.7999
 11
-299.8867
 21
-76.19989
  0
LINE
  8
0
  6
CONTINUOUS
 62
     7
 10
-299.5367
 20
-86.69992
 11
-314.3367
 21
-86.69992
  0
LINE
  8
0
  6
CONTINUOUS
 62
     7
 10
-301.1367
 20
-94.09988
 11
-312.7367
 21
-94.09988
  0
LINE
  8
0
  6
CONTINUOUS
 62
     7
 10
-299.5367
 20
-87.69992
 11
-314.3367
 21
-87.69992
  0
LINE
  8
0
  6
CONTINUOUS
 62
     7
 10
-314.3367
 20
-87.69992
 11
-314.3367
 21
-86.69992
  0
LINE
  8
0
  6
CONTINUOUS
 62
     7
 10
-299.5367
 20
-87.69989
 11
-299.5367
 21
-86.69989
  0
LINE
  8
0
  6
CONTINUOUS
 62
     7
 10
-300.4367
 20
-93.69577
 11
-300.4367
 21
-87.69989
  0
LINE
  8
0
  6
CONTINUOUS
 62
     7
 10
-313.4367
 20
-93.69577
 11
-313.4367
 21
-87.69992
  0
LINE
  8
0
  6
CONTINUOUS
 62
     7
 10
-312.7367
 20
-94.09991
 11
-313.4367
 21
-93.69577
  0
LINE
  8
0
  6
CONTINUOUS
 62
     7
 10
-301.1367
 20
-94.10002
 11
-300.4367
 21
-93.69588
  0
LINE
  8
0
  6
CONTINUOUS
 62
     7
 10
-306.7498
 20
-93.17615
 11
-307.1236
 21
-93.17615
  0
LINE
  8
0
  6
CONTINUOUS
 62
     7
 10
-306.7498
 20
-93.17615
 11
-306.7498
 21
-87.69992
  0
LINE
  8
0
  6
CONTINUOUS
 62
     7
 10
-307.1237
 20
-93.17615
 11
-307.1237
 21
-87.69992
  0
LINE
  8
0
  6
CONTINUOUS
 62
     7
 10
-299.5367
 20
-84.69992
 11
-314.3367
 21
-84.69992
  0
LINE
  8
0
  6
CONTINUOUS
 62
     7
 10
-299.5367
 20
-84.69989
 11
-299.5367
 21
-76.39987
  0
LINE
  8
0
  6
CONTINUOUS
 62
     7
 10
-314.3367
 20
-84.69992
 11
-314.3367
 21
-76.3999
  0
LINE
  8
0
  6
CONTINUOUS
 62
     7
 10
-300.9367
 20
-86.69989
 11
-300.9367
 21
-84.69989
  0
LINE
  8
0
  6
CONTINUOUS
 62
     7
 10
-312.9367
 20
-86.69992
 11
-312.9367
 21
-84.69992
  0
LINE
  8
0
  6
CONTINUOUS
 62
     7
 10
-312.2602
 20
-86.69992
 11
-312.2602
 21
-84.69992
  0
LINE
  8
0
  6
CONTINUOUS
 62
     7
 10
-301.6132
 20
-86.69989
 11
-301.6132
 21
-84.69989
  0
LINE
  8
0
  6
CONTINUOUS
 62
     7
 10
-58.43674
 20
4.99988
 11
-43.43674
 21
4.99988
  0
LINE
  8
0
  6
CENTER
 62
     2
 10
-50.93674
 20
71.8634
 11
-50.93674
 21
-99.16266
  0
LINE
  8
0
  6
CENTER
 62
     2
 10
-53.32169
 20
-46.50012
 11
-48.47513
 21
-46.50012
  0
LINE
  8
0
  6
CENTER
 62
     2
 10
-59.00754
 20
-0.00012
 11
-52.89871
 21
-0.00012
  0
LINE
  8
0
  6
CENTER
 62
     2
 10
-45.43674
 20
-14.47311
 11
-45.43674
 21
-21.41031
  0
LINE
  8
0
  6
CENTER
 62
     2
 10
-56.43674
 20
3.43927
 11
-56.43674
 21
-3.34259
  0
LINE
  8
0
  6
CONTINUOUS
 62
     7
 10
-58.43674
 20
-23.00012
 11
-43.43674
 21
-23.00012
  0
LINE
  8
0
  6
CENTER
 62
     2
 10
-53.93674
 20
-10.50012
 11
-53.93674
 21
-17.50012
  0
LINE
  8
0
  6
CENTER
 62
     2
 10
-57.43674
 20
-14.00012
 11
-50.43674
 21
-14.00012
  0
LINE
  8
0
  6
CONTINUOUS
 62
     7
 10
-58.43674
 20
23.99988
 11
-58.43674
 21
-50.00012
  0
LINE
  8
0
  6
CONTINUOUS
 62
     7
 10
-43.43674
 20
23.99988
 11
-43.43674
 21
-50.00012
  0
LINE
  8
0
  6
CENTER
 62
     2
 10
-53.32169
 20
20.49988
 11
-48.47513
 21
20.49988
  0
LINE
  8
0
  6
CENTER
 62
     2
 10
-47.93674
 20
-0.50012
 11
-47.93674
 21
-7.50012
  0
LINE
  8
0
  6
CENTER
 62
     2
 10
-51.43674
 20
-4.00012
 11
-44.43674
 21
-4.00012
  0
LINE
  8
0
  6
CENTER
 62
     2
 10
-61.43674
 20
-9.00012
 11
-40.43674
 21
-9.00012
  0
LINE
  8
0
  6
CENTER
 62
     2
 10
-50.31284
 20
-18.00012
 11
-42.85532
 21
-18.00012
  0
LINE
  8
0
  6
CONTINUOUS
 62
     7
 10
-58.43674
 20
50.19987
 11
-58.43674
 21
23.99988
  0
LINE
  8
0
  6
CONTINUOUS
 62
     7
 10
-58.43674
 20
49.19987
 11
-58.33676
 21
49.19987
  0
LINE
  8
0
  6
CONTINUOUS
 62
     7
 10
-43.43674
 20
50.19989
 11
-43.43674
 21
23.99988
  0
LINE
  8
0
  6
CONTINUOUS
 62
     7
 10
-58.43674
 20
23.99988
 11
-43.43674
 21
23.99988
  0
LINE
  8
0
  6
CONTINUOUS
 62
     7
 10
-58.43674
 20
50.19986
 11
-58.33676
 21
50.19986
  0
LINE
  8
0
  6
CONTINUOUS
 62
     7
 10
-43.43678
 20
50.19991
 11
-43.53678
 21
50.39991
  0
LINE
  8
0
  6
CONTINUOUS
 62
     7
 10
-58.43684
 20
50.19994
 11
-58.33685
 21
50.39992
  0
LINE
  8
0
  6
CONTINUOUS
 62
     7
 10
-57.83676
 20
48.39987
 11
-44.03671
 21
48.39987
  0
LINE
  8
0
  6
CONTINUOUS
 62
     7
 10
-57.83676
 20
33.59988
 11
-44.03671
 21
33.59988
  0
LINE
  8
0
  6
CENTER
 62
     2
 10
-61.43674
 20
40.99988
 11
-40.43674
 21
40.99988
  0
LINE
  8
0
  6
CONTINUOUS
 62
     7
 10
-52.20945
 20
40.15134
 11
-51.7852
 21
40.57558
  0
LINE
  8
0
  6
CONTINUOUS
 62
     7
 10
-51.78521
 20
39.72707
 11
-51.36094
 21
40.15134
  0
LINE
  8
0
  6
CONTINUOUS
 62
     7
 10
-52.20952
 20
40.15136
 11
-51.78527
 21
39.72711
  0
LINE
  8
0
  6
CONTINUOUS
 62
     7
 10
-50.08817
 20
42.2727
 11
-49.66393
 21
41.84845
  0
LINE
  8
0
  6
CONTINUOUS
 62
     7
 10
-53.1173
 20
42.75628
 11
-51.78521
 21
41.42419
  0
LINE
  8
0
  6
CONTINUOUS
 62
     7
 10
-52.69305
 20
43.18053
 11
-51.36097
 21
41.84844
  0
LINE
  8
0
  6
CONTINUOUS
 62
     7
 10
-50.5124
 20
41.84839
 11
-50.08813
 21
42.27266
  0
LINE
  8
0
  6
CONTINUOUS
 62
     7
 10
-50.08816
 20
41.42413
 11
-49.66389
 21
41.84839
  0
LINE
  8
0
  6
CONTINUOUS
 62
     7
 10
-50.51239
 20
40.15137
 11
-49.18031
 21
38.81929
  0
LINE
  8
0
  6
CONTINUOUS
 62
     7
 10
-50.08818
 20
40.57566
 11
-48.75606
 21
39.24353
  0
LINE
  8
0
  6
CONTINUOUS
 62
     7
 10
-58.33676
 20
60.69987
 11
-43.53677
 21
60.69987
  0
LINE
  8
0
  6
CONTINUOUS
 62
     7
 10
-56.73672
 20
68.09988
 11
-45.13675
 21
68.09988
  0
LINE
  8
0
  6
CONTINUOUS
 62
     7
 10
-58.33676
 20
61.69987
 11
-43.53677
 21
61.69987
  0
LINE
  8
0
  6
CONTINUOUS
 62
     7
 10
-43.53671
 20
61.69987
 11
-43.53671
 21
60.69987
  0
LINE
  8
0
  6
CONTINUOUS
 62
     7
 10
-58.33676
 20
61.69987
 11
-58.33676
 21
60.69987
  0
LINE
  8
0
  6
CONTINUOUS
 62
     7
 10
-57.43674
 20
67.69574
 11
-57.43674
 21
61.69987
  0
LINE
  8
0
  6
CONTINUOUS
 62
     7
 10
-44.43674
 20
67.69574
 11
-44.43674
 21
61.69987
  0
LINE
  8
0
  6
CONTINUOUS
 62
     7
 10
-45.13675
 20
68.09993
 11
-44.43675
 21
67.69579
  0
LINE
  8
0
  6
CONTINUOUS
 62
     7
 10
-56.7367
 20
68.09982
 11
-57.43667
 21
67.69569
  0
LINE
  8
0
  6
CONTINUOUS
 62
     7
 10
-51.12369
 20
67.17612
 11
-50.74985
 21
67.17612
  0
LINE
  8
0
  6
CONTINUOUS
 62
     7
 10
-43.53671
 20
50.19986
 11
-43.43674
 21
50.19986
  0
LINE
  8
0
  6
CONTINUOUS
 62
     7
 10
-43.53671
 20
49.19987
 11
-43.43674
 21
49.19987
  0
LINE
  8
0
  6
CONTINUOUS
 62
     7
 10
-50.74985
 20
67.17612
 11
-50.74985
 21
61.69987
  0
LINE
  8
0
  6
CONTINUOUS
 62
     7
 10
-51.12363
 20
67.17612
 11
-51.12363
 21
61.69987
  0
LINE
  8
0
  6
CONTINUOUS
 62
     7
 10
-58.33676
 20
58.69987
 11
-43.53677
 21
58.69987
  0
LINE
  8
0
  6
CONTINUOUS
 62
     7
 10
-58.33676
 20
58.69987
 11
-58.33676
 21
34.09988
  0
LINE
  8
0
  6
CONTINUOUS
 62
     7
 10
-43.53671
 20
58.69987
 11
-43.53671
 21
34.09988
  0
LINE
  8
0
  6
CONTINUOUS
 62
     7
 10
-44.93674
 20
60.69987
 11
-44.93674
 21
58.69987
  0
LINE
  8
0
  6
CONTINUOUS
 62
     7
 10
-56.93674
 20
60.69987
 11
-56.93674
 21
58.69987
  0
LINE
  8
0
  6
CONTINUOUS
 62
     7
 10
-45.61325
 20
60.69987
 11
-45.61325
 21
58.69987
  0
LINE
  8
0
  6
CONTINUOUS
 62
     7
 10
-56.26022
 20
60.69987
 11
-56.26022
 21
58.69987
  0
LINE
  8
0
  6
CONTINUOUS
 62
     7
 10
-43.43674
 20
-76.20026
 11
-43.43674
 21
-50.00024
  0
LINE
  8
0
  6
CONTINUOUS
 62
     7
 10
-43.43674
 20
-75.20026
 11
-43.53671
 21
-75.20026
  0
LINE
  8
0
  6
CONTINUOUS
 62
     7
 10
-58.43674
 20
-76.20026
 11
-58.43674
 21
-50.00024
  0
LINE
  8
0
  6
CONTINUOUS
 62
     7
 10
-43.43674
 20
-50.00024
 11
-58.43674
 21
-50.00024
  0
LINE
  8
0
  6
CONTINUOUS
 62
     7
 10
-43.43674
 20
-76.20023
 11
-43.53671
 21
-76.20023
  0
LINE
  8
0
  6
CONTINUOUS
 62
     7
 10
-58.4368
 20
-76.20025
 11
-58.33679
 21
-76.40027
  0
LINE
  8
0
  6
CONTINUOUS
 62
     7
 10
-43.43677
 20
-76.20026
 11
-43.53677
 21
-76.40025
  0
LINE
  8
0
  6
CONTINUOUS
 62
     7
 10
-44.03671
 20
-74.40024
 11
-57.8367
 21
-74.40024
  0
LINE
  8
0
  6
CONTINUOUS
 62
     7
 10
-44.03671
 20
-59.60025
 11
-57.83676
 21
-59.60025
  0
LINE
  8
0
  6
CENTER
 62
     2
 10
-40.43674
 20
-67.00024
 11
-61.43674
 21
-67.00024
  0
LINE
  8
0
  6
CONTINUOUS
 62
     7
 10
-49.66391
 20
-66.15173
 11
-50.08817
 21
-66.57598
  0
LINE
  8
0
  6
CONTINUOUS
 62
     7
 10
-50.08811
 20
-65.72753
 11
-50.51238
 21
-66.1518
  0
LINE
  8
0
  6
CONTINUOUS
 62
     7
 10
-49.66396
 20
-66.1517
 11
-50.0882
 21
-65.72745
  0
LINE
  8
0
  6
CONTINUOUS
 62
     7
 10
-51.78526
 20
-68.27303
 11
-52.20951
 21
-67.84878
  0
LINE
  8
0
  6
CONTINUOUS
 62
     7
 10
-48.75608
 20
-68.75665
 11
-50.08816
 21
-67.42456
  0
LINE
  8
0
  6
CONTINUOUS
 62
     7
 10
-49.18037
 20
-69.1809
 11
-50.51245
 21
-67.84882
  0
LINE
  8
0
  6
CONTINUOUS
 62
     7
 10
-51.36096
 20
-67.84878
 11
-51.78523
 21
-68.27304
  0
LINE
  8
0
  6
CONTINUOUS
 62
     7
 10
-51.78516
 20
-67.42458
 11
-52.20943
 21
-67.84885
  0
LINE
  8
0
  6
CONTINUOUS
 62
     7
 10
-51.36099
 20
-66.15174
 11
-52.69307
 21
-64.81966
  0
LINE
  8
0
  6
CONTINUOUS
 62
     7
 10
-51.78524
 20
-66.57603
 11
-53.11737
 21
-65.24391
  0
LINE
  8
0
  6
CONTINUOUS
 62
     7
 10
-43.53671
 20
-86.70026
 11
-58.3367
 21
-86.70026
  0
LINE
  8
0
  6
CONTINUOUS
 62
     7
 10
-45.13669
 20
-94.10025
 11
-56.73672
 21
-94.10025
  0
LINE
  8
0
  6
CONTINUOUS
 62
     7
 10
-43.53671
 20
-87.70026
 11
-58.3367
 21
-87.70026
  0
LINE
  8
0
  6
CONTINUOUS
 62
     7
 10
-58.33676
 20
-87.70026
 11
-58.33676
 21
-86.70026
  0
LINE
  8
0
  6
CONTINUOUS
 62
     7
 10
-43.53671
 20
-87.70023
 11
-43.53671
 21
-86.70023
  0
LINE
  8
0
  6
CONTINUOUS
 62
     7
 10
-44.43674
 20
-93.69611
 11
-44.43674
 21
-87.70023
  0
LINE
  8
0
  6
CONTINUOUS
 62
     7
 10
-57.43674
 20
-93.69614
 11
-57.43674
 21
-87.70026
  0
LINE
  8
0
  6
CONTINUOUS
 62
     7
 10
-56.73672
 20
-94.10027
 11
-57.43673
 21
-93.69613
  0
LINE
  8
0
  6
CONTINUOUS
 62
     7
 10
-45.13662
 20
-94.10039
 11
-44.43665
 21
-93.69626
  0
LINE
  8
0
  6
CONTINUOUS
 62
     7
 10
-50.74979
 20
-93.17648
 11
-51.12363
 21
-93.17648
  0
LINE
  8
0
  6
CONTINUOUS
 62
     7
 10
-58.3367
 20
-76.20023
 11
-58.43674
 21
-76.20023
  0
LINE
  8
0
  6
CONTINUOUS
 62
     7
 10
-58.3367
 20
-75.20026
 11
-58.43674
 21
-75.20026
  0
LINE
  8
0
  6
CONTINUOUS
 62
     7
 10
-51.12363
 20
-93.17648
 11
-51.12363
 21
-87.70026
  0
LINE
  8
0
  6
CONTINUOUS
 62
     7
 10
-50.74985
 20
-93.17648
 11
-50.74985
 21
-87.70026
  0
LINE
  8
0
  6
CONTINUOUS
 62
     7
 10
-43.53671
 20
-84.70026
 11
-58.3367
 21
-84.70026
  0
LINE
  8
0
  6
CONTINUOUS
 62
     7
 10
-43.53671
 20
-84.70023
 11
-43.53671
 21
-60.10025
  0
LINE
  8
0
  6
CONTINUOUS
 62
     7
 10
-58.33676
 20
-84.70026
 11
-58.33676
 21
-60.10025
  0
LINE
  8
0
  6
CONTINUOUS
 62
     7
 10
-56.93674
 20
-86.70026
 11
-56.93674
 21
-84.70026
  0
LINE
  8
0
  6
CONTINUOUS
 62
     7
 10
-44.93674
 20
-86.70023
 11
-44.93674
 21
-84.70023
  0
LINE
  8
0
  6
CONTINUOUS
 62
     7
 10
-56.26022
 20
-86.70026
 11
-56.26022
 21
-84.70026
  0
LINE
  8
0
  6
CONTINUOUS
 62
     7
 10
-45.61325
 20
-86.70023
 11
-45.61325
 21
-84.70023
  0
LINE
  8
0
  6
CENTER
 62
     2
 10
-147.8263
 20
-169.0
 11
-208.4368
 21
-169.0
  0
LINE
  8
0
  6
CENTER
 62
     2
 10
-194.4368
 20
-178.9483
 11
-194.4368
 21
-159.0122
  0
LINE
  8
0
  6
CONTINUOUS
 62
     7
 10
-185.4368
 20
-170.5
 11
-182.4368
 21
-170.5
  0
LINE
  8
0
  6
CONTINUOUS
 62
     7
 10
-203.4368
 20
-167.5
 11
-206.4368
 21
-167.5
  0
LINE
  8
0
  6
CONTINUOUS
 62
     7
 10
-200.4368
 20
-164.5
 11
-200.4368
 21
-161.5
  0
LINE
  8
0
  6
CONTINUOUS
 62
     7
 10
-188.4368
 20
-173.5
 11
-188.4368
 21
-176.5
  0
LINE
  8
0
  6
CONTINUOUS
 62
     7
 10
-205.4368
 20
-167.5
 11
-205.4368
 21
-175.5
  0
LINE
  8
0
  6
CONTINUOUS
 62
     7
 10
-183.4368
 20
-162.5
 11
-183.4368
 21
-170.5
  0
LINE
  8
0
  6
CONTINUOUS
 62
     7
 10
-200.4368
 20
-162.5
 11
-183.4368
 21
-162.5
  0
LINE
  8
0
  6
CONTINUOUS
 62
     7
 10
-205.4368
 20
-175.5
 11
-188.4368
 21
-175.5
  0
LINE
  8
0
  6
CONTINUOUS
 62
     7
 10
-185.1368
 20
-175.7299
 11
-185.1368
 21
-176.0322
  0
LINE
  8
0
  6
CONTINUOUS
 62
     7
 10
-185.7368
 20
-175.7298
 11
-185.7368
 21
-176.0322
  0
LINE
  8
0
  6
CONTINUOUS
 62
     7
 10
-185.8976
 20
-176.008
 11
-185.8976
 21
-175.7023
  0
LINE
  8
0
  6
CONTINUOUS
 62
     7
 10
-203.7368
 20
-162.27
 11
-203.7368
 21
-161.9677
  0
LINE
  8
0
  6
CONTINUOUS
 62
     7
 10
-203.1368
 20
-162.27
 11
-203.1368
 21
-161.9677
  0
LINE
  8
0
  6
CONTINUOUS
 62
     7
 10
-202.976
 20
-161.9919
 11
-202.976
 21
-162.2977
  0
LINE
  8
0
  6
CONTINUOUS
 62
     7
 10
-186.5399
 20
-174.2354
 11
-186.1722
 21
-173.8677
  0
LINE
  8
0
  6
CONTINUOUS
 62
     7
 10
-186.1722
 20
-174.6031
 11
-185.8045
 21
-174.2354
  0
LINE
  8
0
  6
CONTINUOUS
 62
     7
 10
-186.5399
 20
-174.2354
 11
-186.1722
 21
-174.6031
  0
LINE
  8
0
  6
CONTINUOUS
 62
     7
 10
-184.7014
 20
-172.3969
 11
-184.3337
 21
-172.7646
  0
LINE
  8
0
  6
CONTINUOUS
 62
     7
 10
-187.201
 20
-172.1035
 11
-186.1722
 21
-173.1322
  0
LINE
  8
0
  6
CONTINUOUS
 62
     7
 10
-186.8333
 20
-171.7358
 11
-185.8045
 21
-172.7646
  0
LINE
  8
0
  6
CONTINUOUS
 62
     7
 10
-185.0691
 20
-172.7646
 11
-184.7014
 21
-172.3969
  0
LINE
  8
0
  6
CONTINUOUS
 62
     7
 10
-184.7014
 20
-173.1323
 11
-184.3337
 21
-172.7646
  0
LINE
  8
0
  6
CONTINUOUS
 62
     7
 10
-185.0691
 20
-174.2353
 11
-184.0403
 21
-175.2641
  0
LINE
  8
0
  6
CONTINUOUS
 62
     7
 10
-184.7014
 20
-173.8677
 11
-183.6726
 21
-174.8965
  0
LINE
  8
0
  6
CONTINUOUS
 62
     7
 10
-204.5399
 20
-165.2354
 11
-204.1722
 21
-164.8676
  0
LINE
  8
0
  6
CONTINUOUS
 62
     7
 10
-204.1722
 20
-165.6031
 11
-203.8045
 21
-165.2354
  0
LINE
  8
0
  6
CONTINUOUS
 62
     7
 10
-204.5399
 20
-165.2354
 11
-204.1722
 21
-165.6031
  0
LINE
  8
0
  6
CONTINUOUS
 62
     7
 10
-202.7014
 20
-163.3969
 11
-202.3338
 21
-163.7646
  0
LINE
  8
0
  6
CONTINUOUS
 62
     7
 10
-205.201
 20
-163.1035
 11
-204.1722
 21
-164.1323
  0
LINE
  8
0
  6
CONTINUOUS
 62
     7
 10
-204.8333
 20
-162.7358
 11
-203.8045
 21
-163.7646
  0
LINE
  8
0
  6
CONTINUOUS
 62
     7
 10
-203.0691
 20
-163.7646
 11
-202.7014
 21
-163.3969
  0
LINE
  8
0
  6
CONTINUOUS
 62
     7
 10
-202.7014
 20
-164.1323
 11
-202.3337
 21
-163.7646
  0
LINE
  8
0
  6
CONTINUOUS
 62
     7
 10
-203.0692
 20
-165.2354
 11
-202.0404
 21
-166.2642
  0
LINE
  8
0
  6
CONTINUOUS
 62
     7
 10
-202.7014
 20
-164.8677
 11
-201.6727
 21
-165.8965
  0
LINE
  8
0
  6
CENTER
 62
     2
 10
-185.4368
 20
-169.5
 11
-185.4368
 21
-177.5
  0
LINE
  8
0
  6
CENTER
 62
     2
 10
-203.4368
 20
-160.5
 11
-203.4368
 21
-168.5
  0
LINE
  8
0
  6
CENTER
 62
     2
 10
-207.4368
 20
-164.5
 11
-199.4368
 21
-164.5
  0
LINE
  8
0
  6
CENTER
 62
     2
 10
-189.4368
 20
-173.5
 11
-181.4368
 21
-173.5
  0
LINE
  8
0
  6
CONTINUOUS
 62
     7
 10
-206.4368
 20
-162.0
 11
-206.4368
 21
-176.0
  0
LINE
  8
0
  6
CONTINUOUS
 62
     7
 10
-205.9368
 20
-161.5
 11
-175.4368
 21
-161.5
  0
LINE
  8
0
  6
CONTINUOUS
 62
     7
 10
-205.9368
 20
-176.5
 11
-175.4368
 21
-176.5
  0
LINE
  8
0
  6
CONTINUOUS
 62
     7
 10
-182.4368
 20
-161.5
 11
-182.4368
 21
-176.5
  0
LINE
  8
0
  6
CONTINUOUS
 62
     7
 10
-179.4368
 20
-161.5
 11
-179.4368
 21
-176.5
  0
LINE
  8
0
  6
CONTINUOUS
 62
     7
 10
-175.4368
 20
-161.5
 11
-175.4368
 21
-161.6
  0
LINE
  8
0
  6
CONTINUOUS
 62
     7
 10
-174.9368
 20
-176.3999
 11
-152.9368
 21
-176.3999
  0
LINE
  8
0
  6
CONTINUOUS
 62
     7
 10
-174.9368
 20
-161.6
 11
-152.9368
 21
-161.6
  0
LINE
  8
0
  6
CONTINUOUS
 62
     7
 10
-152.4368
 20
-162.1
 11
-152.4368
 21
-175.8999
  0
LINE
  8
0
  6
CONTINUOUS
 62
     7
 10
-151.265
 20
-171.7999
 11
-151.9368
 21
-171.7999
  0
LINE
  8
0
  6
CONTINUOUS
 62
     7
 10
-151.265
 20
-166.1999
 11
-151.9368
 21
-166.1999
  0
LINE
  8
0
  6
CONTINUOUS
 62
     7
 10
-151.9368
 20
-172.25
 11
-151.9368
 21
-165.75
  0
LINE
  8
0
  6
CONTINUOUS
 62
     7
 10
-151.9368
 20
-172.25
 11
-152.4368
 21
-172.25
  0
LINE
  8
0
  6
CONTINUOUS
 62
     7
 10
-151.9368
 20
-165.75
 11
-152.4368
 21
-165.75
  0
LINE
  8
0
  6
CENTER
 62
     2
 10
-159.8368
 20
-158.6
 11
-159.8368
 21
-179.3999
  0
LINE
  8
0
  6
CONTINUOUS
 62
     7
 10
-175.4368
 20
-176.3999
 11
-175.4368
 21
-176.5
  0
LINE
  8
0
  6
CONTINUOUS
 62
     7
 10
-175.4368
 20
-176.3999
 11
-175.4368
 21
-161.6
  0
LINE
  8
0
  6
CONTINUOUS
 62
     7
 10
-174.9368
 20
-176.3999
 11
-174.9368
 21
-161.6
  0
LINE
  8
0
  6
CONTINUOUS
 62
     7
 10
-175.4368
 20
-176.3999
 11
-174.9368
 21
-176.3999
  0
LINE
  8
0
  6
CONTINUOUS
 62
     7
 10
-175.4368
 20
-161.6
 11
-174.9368
 21
-161.6
  0
LINE
  8
0
  6
CENTER
 62
     2
 10
172.4368
 20
3.43936
 11
172.4368
 21
-3.34248
  0
LINE
  8
0
  6
CENTER
 62
     2
 10
183.4368
 20
-14.47301
 11
183.4368
 21
-21.41019
  0
LINE
  8
0
  6
CENTER
 62
     2
 10
180.1682
 20
-18.0
 11
186.545
 21
-18.0
  0
LINE
  8
0
  6
CENTER
 62
     2
 10
169.866
 20
0.0
 11
175.9748
 21
0.0
  0
LINE
  8
0
  6
CONTINUOUS
 62
     7
 10
170.4368
 20
5.00002
 11
185.4368
 21
5.00002
  0
LINE
  8
0
  6
CENTER
 62
     2
 10
175.5518
 20
18.50002
 11
180.3984
 21
18.50002
  0
LINE
  8
0
  6
CENTER
 62
     2
 10
168.2627
 20
-9.0
 11
187.5901
 21
-9.0
  0
LINE
  8
0
  6
CONTINUOUS
 62
     7
 10
170.4368
 20
22.0
 11
185.4368
 21
22.0
  0
LINE
  8
0
  6
CENTER
 62
     2
 10
177.9368
 20
-99.66667
 11
177.9368
 21
69.66667
  0
LINE
  8
0
  6
CONTINUOUS
 62
     7
 10
185.4368
 20
-78.19997
 11
185.4368
 21
48.19998
  0
LINE
  8
0
  6
CONTINUOUS
 62
     7
 10
170.4368
 20
-78.19997
 11
170.4368
 21
48.19998
  0
LINE
  8
0
  6
CONTINUOUS
 62
     7
 10
170.4368
 20
-52.00002
 11
185.4368
 21
-52.00002
  0
LINE
  8
0
  6
CONTINUOUS
 62
     7
 10
170.4368
 20
-23.00002
 11
185.4368
 21
-23.00002
  0
LINE
  8
0
  6
CENTER
 62
     2
 10
174.9368
 20
-48.50002
 11
180.6034
 21
-48.50002
  0
LINE
  8
0
  6
CONTINUOUS
 62
     7
 10
170.4368
 20
47.2
 11
170.5368
 21
47.2
  0
LINE
  8
0
  6
CONTINUOUS
 62
     7
 10
170.4368
 20
48.19998
 11
170.5368
 21
48.19998
  0
LINE
  8
0
  6
CONTINUOUS
 62
     7
 10
185.4368
 20
48.2
 11
185.3368
 21
48.4
  0
LINE
  8
0
  6
CONTINUOUS
 62
     7
 10
170.4368
 20
48.19999
 11
170.5368
 21
48.39996
  0
LINE
  8
0
  6
CONTINUOUS
 62
     7
 10
171.0368
 20
46.39999
 11
184.8368
 21
46.39999
  0
LINE
  8
0
  6
CONTINUOUS
 62
     7
 10
171.0368
 20
31.60001
 11
184.8368
 21
31.60001
  0
LINE
  8
0
  6
CENTER
 62
     2
 10
167.4368
 20
39.0
 11
188.4368
 21
39.0
  0
LINE
  8
0
  6
CONTINUOUS
 62
     7
 10
176.664
 20
38.15147
 11
177.0882
 21
38.57574
  0
LINE
  8
0
  6
CONTINUOUS
 62
     7
 10
177.0882
 20
37.72721
 11
177.5125
 21
38.15148
  0
LINE
  8
0
  6
CONTINUOUS
 62
     7
 10
176.664
 20
38.15148
 11
177.0883
 21
37.72721
  0
LINE
  8
0
  6
CONTINUOUS
 62
     7
 10
178.7853
 20
40.27275
 11
179.2095
 21
39.8485
  0
LINE
  8
0
  6
CONTINUOUS
 62
     7
 10
175.7561
 20
40.75634
 11
177.0882
 21
39.42424
  0
LINE
  8
0
  6
CONTINUOUS
 62
     7
 10
176.1804
 20
41.18062
 11
177.5125
 21
39.84852
  0
LINE
  8
0
  6
CONTINUOUS
 62
     7
 10
178.361
 20
39.84855
 11
178.7853
 21
40.27279
  0
LINE
  8
0
  6
CONTINUOUS
 62
     7
 10
178.7853
 20
39.42429
 11
179.2095
 21
39.84853
  0
LINE
  8
0
  6
CONTINUOUS
 62
     7
 10
178.361
 20
38.15144
 11
179.6931
 21
36.81934
  0
LINE
  8
0
  6
CONTINUOUS
 62
     7
 10
178.7853
 20
38.57573
 11
180.1174
 21
37.24362
  0
LINE
  8
0
  6
CONTINUOUS
 62
     7
 10
170.5368
 20
58.7
 11
185.3368
 21
58.7
  0
LINE
  8
0
  6
CONTINUOUS
 62
     7
 10
172.1368
 20
66.10001
 11
183.7368
 21
66.10001
  0
LINE
  8
0
  6
CONTINUOUS
 62
     7
 10
170.5368
 20
59.7
 11
185.3368
 21
59.7
  0
LINE
  8
0
  6
CONTINUOUS
 62
     7
 10
185.3368
 20
59.7
 11
185.3368
 21
58.7
  0
LINE
  8
0
  6
CONTINUOUS
 62
     7
 10
170.5368
 20
59.7
 11
170.5368
 21
58.7
  0
LINE
  8
0
  6
CONTINUOUS
 62
     7
 10
171.4368
 20
65.69586
 11
171.4368
 21
59.7
  0
LINE
  8
0
  6
CONTINUOUS
 62
     7
 10
184.4368
 20
65.69586
 11
184.4368
 21
59.7
  0
LINE
  8
0
  6
CONTINUOUS
 62
     7
 10
183.7368
 20
66.1
 11
184.4368
 21
65.69586
  0
LINE
  8
0
  6
CONTINUOUS
 62
     7
 10
172.1367
 20
66.10002
 11
171.4367
 21
65.69588
  0
LINE
  8
0
  6
CONTINUOUS
 62
     7
 10
177.7498
 20
65.17624
 11
178.1237
 21
65.17624
  0
LINE
  8
0
  6
CONTINUOUS
 62
     7
 10
185.3368
 20
48.19998
 11
185.4368
 21
48.19998
  0
LINE
  8
0
  6
CONTINUOUS
 62
     7
 10
185.3368
 20
47.2
 11
185.4368
 21
47.2
  0
LINE
  8
0
  6
CONTINUOUS
 62
     7
 10
178.1237
 20
65.17624
 11
178.1237
 21
59.7
  0
LINE
  8
0
  6
CONTINUOUS
 62
     7
 10
177.7498
 20
65.17624
 11
177.7498
 21
59.7
  0
LINE
  8
0
  6
CONTINUOUS
 62
     7
 10
170.5368
 20
56.7
 11
185.3368
 21
56.7
  0
LINE
  8
0
  6
CONTINUOUS
 62
     7
 10
170.5368
 20
56.7
 11
170.5368
 21
32.10001
  0
LINE
  8
0
  6
CONTINUOUS
 62
     7
 10
185.3368
 20
56.7
 11
185.3368
 21
32.10001
  0
LINE
  8
0
  6
CONTINUOUS
 62
     7
 10
183.9368
 20
58.7
 11
183.9368
 21
56.7
  0
LINE
  8
0
  6
CONTINUOUS
 62
     7
 10
171.9368
 20
58.7
 11
171.9368
 21
56.7
  0
LINE
  8
0
  6
CONTINUOUS
 62
     7
 10
183.2603
 20
58.7
 11
183.2603
 21
56.7
  0
LINE
  8
0
  6
CONTINUOUS
 62
     7
 10
172.6133
 20
58.7
 11
172.6133
 21
56.7
  0
LINE
  8
0
  6
CONTINUOUS
 62
     7
 10
185.4368
 20
-77.2
 11
185.3368
 21
-77.2
  0
LINE
  8
0
  6
CONTINUOUS
 62
     7
 10
185.4368
 20
-78.19997
 11
185.3368
 21
-78.19997
  0
LINE
  8
0
  6
CONTINUOUS
 62
     7
 10
170.4368
 20
-78.19996
 11
170.5368
 21
-78.39995
  0
LINE
  8
0
  6
CONTINUOUS
 62
     7
 10
185.4367
 20
-78.2
 11
185.3367
 21
-78.39996
  0
LINE
  8
0
  6
CONTINUOUS
 62
     7
 10
184.8368
 20
-76.39998
 11
171.0368
 21
-76.39998
  0
LINE
  8
0
  6
CONTINUOUS
 62
     7
 10
184.8368
 20
-61.59999
 11
171.0368
 21
-61.59999
  0
LINE
  8
0
  6
CENTER
 62
     2
 10
188.4368
 20
-69.00002
 11
167.4368
 21
-69.00002
  0
LINE
  8
0
  6
CONTINUOUS
 62
     7
 10
179.2095
 20
-68.1515
 11
178.7853
 21
-68.57574
  0
LINE
  8
0
  6
CONTINUOUS
 62
     7
 10
178.7853
 20
-67.72724
 11
178.3611
 21
-68.15149
  0
LINE
  8
0
  6
CONTINUOUS
 62
     7
 10
179.2095
 20
-68.15156
 11
178.7852
 21
-67.72729
  0
LINE
  8
0
  6
CONTINUOUS
 62
     7
 10
177.0882
 20
-70.27283
 11
176.664
 21
-69.84857
  0
LINE
  8
0
  6
CONTINUOUS
 62
     7
 10
180.1174
 20
-70.75639
 11
178.7853
 21
-69.42429
  0
LINE
  8
0
  6
CONTINUOUS
 62
     7
 10
179.6931
 20
-71.18073
 11
178.361
 21
-69.84863
  0
LINE
  8
0
  6
CONTINUOUS
 62
     7
 10
177.5125
 20
-69.84853
 11
177.0882
 21
-70.27282
  0
LINE
  8
0
  6
CONTINUOUS
 62
     7
 10
177.0882
 20
-69.42432
 11
176.664
 21
-69.84856
  0
LINE
  8
0
  6
CONTINUOUS
 62
     7
 10
177.5125
 20
-68.1515
 11
176.1804
 21
-66.81939
  0
LINE
  8
0
  6
CONTINUOUS
 62
     7
 10
177.0882
 20
-68.57584
 11
175.7561
 21
-67.24372
  0
LINE
  8
0
  6
CONTINUOUS
 62
     7
 10
185.3368
 20
-88.7
 11
170.5368
 21
-88.7
  0
LINE
  8
0
  6
CONTINUOUS
 62
     7
 10
183.7368
 20
-96.09999
 11
172.1368
 21
-96.09999
  0
LINE
  8
0
  6
CONTINUOUS
 62
     7
 10
185.3368
 20
-89.7
 11
170.5368
 21
-89.7
  0
LINE
  8
0
  6
CONTINUOUS
 62
     7
 10
170.5368
 20
-89.7
 11
170.5368
 21
-88.7
  0
LINE
  8
0
  6
CONTINUOUS
 62
     7
 10
185.3368
 20
-89.7
 11
185.3368
 21
-88.7
  0
LINE
  8
0
  6
CONTINUOUS
 62
     7
 10
184.4368
 20
-95.69588
 11
184.4368
 21
-89.7
  0
LINE
  8
0
  6
CONTINUOUS
 62
     7
 10
171.4368
 20
-95.69588
 11
171.4368
 21
-89.7
  0
LINE
  8
0
  6
CONTINUOUS
 62
     7
 10
172.1367
 20
-96.10004
 11
171.4367
 21
-95.6959
  0
LINE
  8
0
  6
CONTINUOUS
 62
     7
 10
183.7368
 20
-96.10006
 11
184.4368
 21
-95.69592
  0
LINE
  8
0
  6
CONTINUOUS
 62
     7
 10
178.1237
 20
-95.17622
 11
177.7498
 21
-95.17622
  0
LINE
  8
0
  6
CONTINUOUS
 62
     7
 10
170.5368
 20
-78.19997
 11
170.4368
 21
-78.19997
  0
LINE
  8
0
  6
CONTINUOUS
 62
     7
 10
170.5368
 20
-77.2
 11
170.4368
 21
-77.2
  0
LINE
  8
0
  6
CONTINUOUS
 62
     7
 10
177.7498
 20
-95.17622
 11
177.7498
 21
-89.7
  0
LINE
  8
0
  6
CONTINUOUS
 62
     7
 10
178.1237
 20
-95.17622
 11
178.1237
 21
-89.7
  0
LINE
  8
0
  6
CONTINUOUS
 62
     7
 10
185.3368
 20
-86.7
 11
170.5368
 21
-86.7
  0
LINE
  8
0
  6
CONTINUOUS
 62
     7
 10
185.3368
 20
-86.7
 11
185.3368
 21
-62.09999
  0
LINE
  8
0
  6
CONTINUOUS
 62
     7
 10
170.5368
 20
-86.7
 11
170.5368
 21
-62.09999
  0
LINE
  8
0
  6
CONTINUOUS
 62
     7
 10
171.9368
 20
-88.7
 11
171.9368
 21
-86.7
  0
LINE
  8
0
  6
CONTINUOUS
 62
     7
 10
183.9368
 20
-88.7
 11
183.9368
 21
-86.7
  0
LINE
  8
0
  6
CONTINUOUS
 62
     7
 10
172.6133
 20
-88.7
 11
172.6133
 21
-86.7
  0
LINE
  8
0
  6
CONTINUOUS
 62
     7
 10
183.2603
 20
-88.7
 11
183.2603
 21
-86.7
  0
LINE
  8
0
  6
CENTER
 62
     2
 10
167.9884
 20
133.0
 11
187.9245
 21
133.0
  0
LINE
  8
0
  6
CONTINUOUS
 62
     7
 10
185.4367
 20
121.0
 11
170.4367
 21
121.0
  0
LINE
  8
0
  6
CONTINUOUS
 62
     7
 10
176.4367
 20
124.0
 11
176.4367
 21
121.0
  0
LINE
  8
0
  6
CONTINUOUS
 62
     7
 10
179.4367
 20
142.0
 11
179.4367
 21
145.0
  0
LINE
  8
0
  6
CONTINUOUS
 62
     7
 10
182.4367
 20
139.0
 11
185.4367
 21
139.0
  0
LINE
  8
0
  6
CONTINUOUS
 62
     7
 10
173.4367
 20
127.0
 11
170.4367
 21
127.0
  0
LINE
  8
0
  6
CONTINUOUS
 62
     7
 10
179.4367
 20
144.0
 11
171.4367
 21
144.0
  0
LINE
  8
0
  6
CONTINUOUS
 62
     7
 10
184.4367
 20
122.0
 11
176.4367
 21
122.0
  0
LINE
  8
0
  6
CONTINUOUS
 62
     7
 10
184.4367
 20
139.0
 11
184.4367
 21
122.0
  0
LINE
  8
0
  6
CONTINUOUS
 62
     7
 10
171.4367
 20
144.0
 11
171.4367
 21
127.0
  0
LINE
  8
0
  6
CONTINUOUS
 62
     7
 10
171.2068
 20
123.7
 11
170.9044
 21
123.7
  0
LINE
  8
0
  6
CONTINUOUS
 62
     7
 10
171.2068
 20
124.3
 11
170.9044
 21
124.3
  0
LINE
  8
0
  6
CONTINUOUS
 62
     7
 10
170.9287
 20
124.4608
 11
171.2344
 21
124.4608
  0
LINE
  8
0
  6
CONTINUOUS
 62
     7
 10
184.6666
 20
142.3
 11
184.969
 21
142.3
  0
LINE
  8
0
  6
CONTINUOUS
 62
     7
 10
184.6666
 20
141.7
 11
184.969
 21
141.7
  0
LINE
  8
0
  6
CONTINUOUS
 62
     7
 10
184.9448
 20
141.5392
 11
184.639
 21
141.5392
  0
LINE
  8
0
  6
CONTINUOUS
 62
     7
 10
172.7013
 20
125.1031
 11
173.069
 21
124.7354
  0
LINE
  8
0
  6
CONTINUOUS
 62
     7
 10
172.3336
 20
124.7354
 11
172.7013
 21
124.3677
  0
LINE
  8
0
  6
CONTINUOUS
 62
     7
 10
172.7013
 20
125.1031
 11
172.3336
 21
124.7354
  0
LINE
  8
0
  6
CONTINUOUS
 62
     7
 10
174.5398
 20
123.2646
 11
174.1721
 21
122.8969
  0
LINE
  8
0
  6
CONTINUOUS
 62
     7
 10
174.8332
 20
125.7642
 11
173.8044
 21
124.7354
  0
LINE
  8
0
  6
CONTINUOUS
 62
     7
 10
175.2009
 20
125.3965
 11
174.1721
 21
124.3677
  0
LINE
  8
0
  6
CONTINUOUS
 62
     7
 10
174.1721
 20
123.6323
 11
174.5398
 21
123.2646
  0
LINE
  8
0
  6
CONTINUOUS
 62
     7
 10
173.8044
 20
123.2646
 11
174.1721
 21
122.8969
  0
LINE
  8
0
  6
CONTINUOUS
 62
     7
 10
172.7013
 20
123.6323
 11
171.6725
 21
122.6035
  0
LINE
  8
0
  6
CONTINUOUS
 62
     7
 10
173.069
 20
123.2646
 11
172.0402
 21
122.2358
  0
LINE
  8
0
  6
CONTINUOUS
 62
     7
 10
181.7014
 20
143.1031
 11
182.069
 21
142.7354
  0
LINE
  8
0
  6
CONTINUOUS
 62
     7
 10
181.3336
 20
142.7354
 11
181.7013
 21
142.3677
  0
LINE
  8
0
  6
CONTINUOUS
 62
     7
 10
181.7013
 20
143.1031
 11
181.3336
 21
142.7354
  0
LINE
  8
0
  6
CONTINUOUS
 62
     7
 10
183.5398
 20
141.2647
 11
183.1721
 21
140.897
  0
LINE
  8
0
  6
CONTINUOUS
 62
     7
 10
183.8332
 20
143.7642
 11
182.8044
 21
142.7354
  0
LINE
  8
0
  6
CONTINUOUS
 62
     7
 10
184.2009
 20
143.3965
 11
183.1721
 21
142.3677
  0
LINE
  8
0
  6
CONTINUOUS
 62
     7
 10
183.1721
 20
141.6323
 11
183.5398
 21
141.2646
  0
LINE
  8
0
  6
CONTINUOUS
 62
     7
 10
182.8044
 20
141.2646
 11
183.1721
 21
140.8969
  0
LINE
  8
0
  6
CONTINUOUS
 62
     7
 10
181.7013
 20
141.6324
 11
180.6725
 21
140.6036
  0
LINE
  8
0
  6
CONTINUOUS
 62
     7
 10
182.0691
 20
141.2646
 11
181.0403
 21
140.2358
  0
LINE
  8
0
  6
CENTER
 62
     2
 10
177.4367
 20
124.0
 11
169.4367
 21
124.0
  0
LINE
  8
0
  6
CENTER
 62
     2
 10
186.4367
 20
142.0
 11
178.4367
 21
142.0
  0
LINE
  8
0
  6
CENTER
 62
     2
 10
182.4367
 20
146.0
 11
182.4367
 21
138.0
  0
LINE
  8
0
  6
CENTER
 62
     2
 10
173.4367
 20
128.0
 11
173.4367
 21
120.0
  0
LINE
  8
0
  6
CONTINUOUS
 62
     7
 10
185.4367
 20
144.5
 11
185.4367
 21
114.0
  0
LINE
  8
0
  6
CONTINUOUS
 62
     7
 10
184.9367
 20
145.0
 11
170.9367
 21
145.0
  0
LINE
  8
0
  6
CONTINUOUS
 62
     7
 10
170.4367
 20
144.5
 11
170.4367
 21
114.0
  0
LINE
  8
0
  6
CONTINUOUS
 62
     7
 10
185.4367
 20
118.0
 11
170.4367
 21
118.0
  0
LINE
  8
0
  6
CONTINUOUS
 62
     7
 10
185.4367
 20
114.0
 11
170.4367
 21
114.0
  0
LINE
  8
0
  6
CENTER
 62
     2
 10
188.3367
 20
98.40002
 11
167.5367
 21
98.40002
  0
LINE
  8
0
  6
CONTINUOUS
 62
     7
 10
184.4367
 20
101.937
 11
184.4367
 21
94.86308
  0
LINE
  8
0
  6
CONTINUOUS
 62
     7
 10
171.4367
 20
101.937
 11
171.4367
 21
94.86308
  0
LINE
  8
0
  6
CONTINUOUS
 62
     7
 10
184.2499
 20
94.53936
 11
178.1237
 21
91.0024
  0
LINE
  8
0
  6
CONTINUOUS
 62
     7
 10
177.7498
 20
105.7977
 11
171.6237
 21
102.2607
  0
LINE
  8
0
  6
CONTINUOUS
 62
     7
 10
177.7498
 20
91.00237
 11
171.6236
 21
94.53932
  0
LINE
  8
0
  6
CONTINUOUS
 62
     7
 10
184.2498
 20
102.2607
 11
178.1236
 21
105.7976
  0
LINE
  8
0
  6
CONTINUOUS
 62
     7
 10
184.8367
 20
91.00003
 11
171.0367
 21
91.00003
  0
LINE
  8
0
  6
CONTINUOUS
 62
     7
 10
175.1367
 20
89.8282
 11
175.1367
 21
90.50002
  0
LINE
  8
0
  6
CONTINUOUS
 62
     7
 10
180.7368
 20
89.8282
 11
180.7368
 21
90.50002
  0
LINE
  8
0
  6
CONTINUOUS
 62
     7
 10
181.1867
 20
90.50002
 11
181.1867
 21
91.00002
  0
LINE
  8
0
  6
CONTINUOUS
 62
     7
 10
174.6867
 20
90.50002
 11
181.1867
 21
90.50002
  0
LINE
  8
0
  6
CONTINUOUS
 62
     7
 10
174.6867
 20
90.50002
 11
174.6867
 21
91.00002
  0
LINE
  8
0
  6
CONTINUOUS
 62
     7
 10
170.5367
 20
114.0
 11
170.5367
 21
91.50003
  0
LINE
  8
0
  6
CONTINUOUS
 62
     7
 10
185.3367
 20
114.0
 11
185.3367
 21
91.50003
  0
LINE
  8
0
  6
CONTINUOUS
 62
     7
 10
185.3367
 20
113.5
 11
170.5367
 21
113.5
  0
LINE
  8
0
  6
CENTER
 62
     2
 10
177.9367
 20
146.7183
 11
177.9367
 21
86.04871
  0
LINE
  8
0
  6
CONTINUOUS
 62
     7
 10
22.4368
 20
5.00002
 11
46.4368
 21
5.00002
  0
LINE
  8
0
  6
CENTER
 62
     2
 10
34.4368
 20
52.99998
 11
34.4368
 21
-84.2
  0
LINE
  8
0
  6
CENTER
 62
     2
 10
42.03232
 20
0.0
 11
47.26236
 21
0.0
  0
LINE
  8
0
  6
CONTINUOUS
 62
     7
 10
43.4368
 20
1.81383
 11
43.4368
 21
-1.81386
  0
LINE
  8
0
  6
CONTINUOUS
 62
     7
 10
43.4368
 20
1.81384
 11
46.4368
 21
1.81384
  0
LINE
  8
0
  6
CONTINUOUS
 62
     7
 10
43.4368
 20
-1.81384
 11
46.4368
 21
-1.81384
  0
LINE
  8
0
  6
CONTINUOUS
 62
     7
 10
22.4368
 20
22.0
 11
53.4368
 21
22.0
  0
LINE
  8
0
  6
CONTINUOUS
 62
     7
 10
22.4368
 20
-52.00002
 11
53.4368
 21
-52.00002
  0
LINE
  8
0
  6
CONTINUOUS
 62
     7
 10
46.4368
 20
-52.00002
 11
46.4368
 21
22.0
  0
LINE
  8
0
  6
CONTINUOUS
 62
     7
 10
22.4368
 20
-78.2
 11
22.4368
 21
48.2
  0
LINE
  8
0
  6
CONTINUOUS
 62
     7
 10
22.4368
 20
-23.00002
 11
46.4368
 21
-23.00002
  0
LINE
  8
0
  6
CONTINUOUS
 62
     7
 10
22.4368
 20
47.2
 11
49.4368
 21
47.2
  0
LINE
  8
0
  6
CONTINUOUS
 62
     7
 10
46.4368
 20
48.19997
 11
46.4368
 21
47.2
  0
LINE
  8
0
  6
CONTINUOUS
 62
     7
 10
23.4368
 20
50.2
 11
41.61099
 21
50.2
  0
LINE
  8
0
  6
CONTINUOUS
 62
     7
 10
22.4368
 20
48.2
 11
46.4368
 21
48.2
  0
LINE
  8
0
  6
CONTINUOUS
 62
     7
 10
22.43682
 20
48.19997
 11
23.43683
 21
50.19999
  0
LINE
  8
0
  6
CONTINUOUS
 62
     7
 10
46.43676
 20
48.19999
 11
45.43676
 21
50.19999
  0
LINE
  8
0
  6
CONTINUOUS
 62
     7
 10
40.4368
 20
50.2
 11
40.4368
 21
48.2
  0
LINE
  8
0
  6
CENTER
 62
     2
 10
43.4368
 20
53.2
 11
43.4368
 21
44.2
  0
LINE
  8
0
  6
CONTINUOUS
 62
     7
 10
45.98679
 20
48.8
 11
40.88681
 21
48.8
  0
LINE
  8
0
  6
CONTINUOUS
 62
     7
 10
43.13688
 20
48.20002
 11
42.97611
 21
48.80001
  0
LINE
  8
0
  6
CONTINUOUS
 62
     7
 10
43.73667
 20
48.79998
 11
43.89744
 21
48.19999
  0
LINE
  8
0
  6
CONTINUOUS
 62
     7
 10
45.98679
 20
48.8
 11
45.98679
 21
48.2
  0
LINE
  8
0
  6
CONTINUOUS
 62
     7
 10
40.88681
 20
48.8
 11
40.88681
 21
48.2
  0
LINE
  8
0
  6
CONTINUOUS
 62
     7
 10
45.6868
 20
49.49374
 11
45.6868
 21
48.8
  0
LINE
  8
0
  6
CONTINUOUS
 62
     7
 10
41.1868
 20
49.49374
 11
41.1868
 21
48.8
  0
LINE
  8
0
  6
CONTINUOUS
 62
     7
 10
45.26254
 20
50.2
 11
45.4368
 21
50.2
  0
LINE
  8
0
  6
CENTER
 62
     2
 10
25.4368
 20
53.2
 11
25.4368
 21
44.2
  0
LINE
  8
0
  6
CONTINUOUS
 62
     7
 10
49.4368
 20
47.2
 11
49.4368
 21
22.0
  0
LINE
  8
0
  6
CONTINUOUS
 62
     7
 10
49.4368
 20
47.0
 11
53.4368
 21
47.0
  0
LINE
  8
0
  6
CENTER
 62
     2
 10
46.4368
 20
39.0
 11
81.83682
 21
39.0
  0
LINE
  8
0
  6
CONTINUOUS
 62
     7
 10
76.4368
 20
65.17622
 11
76.4368
 21
58.7
  0
LINE
  8
0
  6
CONTINUOUS
 62
     7
 10
53.4368
 20
31.60001
 11
75.9368
 21
31.60001
  0
LINE
  8
0
  6
CONTINUOUS
 62
     7
 10
53.4368
 20
46.39999
 11
75.9368
 21
46.39999
  0
LINE
  8
0
  6
CONTINUOUS
 62
     7
 10
61.63681
 20
65.17624
 11
61.63681
 21
58.7
  0
LINE
  8
0
  6
CONTINUOUS
 62
     7
 10
63.23679
 20
66.10001
 11
74.83676
 21
66.10001
  0
LINE
  8
0
  6
CONTINUOUS
 62
     7
 10
77.60861
 20
36.20001
 11
76.9368
 21
36.20001
  0
LINE
  8
0
  6
CONTINUOUS
 62
     7
 10
77.60861
 20
41.80002
 11
76.9368
 21
41.80002
  0
LINE
  8
0
  6
CONTINUOUS
 62
     7
 10
76.9368
 20
35.75
 11
76.9368
 21
42.25
  0
LINE
  8
0
  6
CONTINUOUS
 62
     7
 10
76.9368
 20
35.75002
 11
76.4368
 21
35.75002
  0
LINE
  8
0
  6
CONTINUOUS
 62
     7
 10
76.9368
 20
42.25002
 11
76.4368
 21
42.25002
  0
LINE
  8
0
  6
CONTINUOUS
 62
     7
 10
61.63681
 20
58.7
 11
76.4368
 21
58.7
  0
LINE
  8
0
  6
CONTINUOUS
 62
     7
 10
61.63681
 20
59.7
 11
76.4368
 21
59.7
  0
LINE
  8
0
  6
CONTINUOUS
 62
     7
 10
64.03677
 20
44.0
 11
74.03677
 21
44.0
  0
LINE
  8
0
  6
CONTINUOUS
 62
     7
 10
64.03677
 20
34.0
 11
74.03677
 21
34.0
  0
LINE
  8
0
  6
CONTINUOUS
 62
     7
 10
64.03677
 20
44.0
 11
64.03677
 21
34.0
  0
LINE
  8
0
  6
CONTINUOUS
 62
     7
 10
74.03677
 20
44.0
 11
74.03677
 21
34.0
  0
LINE
  8
0
  6
CONTINUOUS
 62
     7
 10
65.03677
 20
44.0
 11
65.03677
 21
34.0
  0
LINE
  8
0
  6
CONTINUOUS
 62
     7
 10
66.03677
 20
44.0
 11
66.03677
 21
34.0
  0
LINE
  8
0
  6
CONTINUOUS
 62
     7
 10
67.03677
 20
44.0
 11
67.03677
 21
34.0
  0
LINE
  8
0
  6
CONTINUOUS
 62
     7
 10
68.03677
 20
44.0
 11
68.03677
 21
34.0
  0
LINE
  8
0
  6
CONTINUOUS
 62
     7
 10
69.03677
 20
44.0
 11
69.03677
 21
34.0
  0
LINE
  8
0
  6
CONTINUOUS
 62
     7
 10
70.03677
 20
44.0
 11
70.03677
 21
34.0
  0
LINE
  8
0
  6
CONTINUOUS
 62
     7
 10
71.03677
 20
44.0
 11
71.03677
 21
34.0
  0
LINE
  8
0
  6
CONTINUOUS
 62
     7
 10
72.03677
 20
44.0
 11
72.03677
 21
34.0
  0
LINE
  8
0
  6
CONTINUOUS
 62
     7
 10
73.03677
 20
44.0
 11
73.03677
 21
34.0
  0
LINE
  8
0
  6
CONTINUOUS
 62
     7
 10
74.83677
 20
66.09998
 11
76.43678
 21
65.17622
  0
LINE
  8
0
  6
CONTINUOUS
 62
     7
 10
63.23681
 20
66.10003
 11
61.6368
 21
65.17626
  0
LINE
  8
0
  6
CONTINUOUS
 62
     7
 10
65.17612
 20
65.17624
 11
65.17612
 21
59.7
  0
LINE
  8
0
  6
CONTINUOUS
 62
     7
 10
65.49985
 20
65.17624
 11
65.49985
 21
59.7
  0
LINE
  8
0
  6
CONTINUOUS
 62
     7
 10
72.57376
 20
65.17624
 11
72.57376
 21
59.7
  0
LINE
  8
0
  6
CONTINUOUS
 62
     7
 10
72.89749
 20
65.17624
 11
72.89749
 21
59.7
  0
LINE
  8
0
  6
CONTINUOUS
 62
     7
 10
65.17612
 20
65.17624
 11
65.49985
 21
65.17624
  0
LINE
  8
0
  6
CONTINUOUS
 62
     7
 10
72.57376
 20
65.17624
 11
72.89749
 21
65.17624
  0
LINE
  8
0
  6
CENTER
 62
     2
 10
69.03677
 20
69.10001
 11
69.03677
 21
28.60001
  0
LINE
  8
0
  6
CONTINUOUS
 62
     7
 10
53.4368
 20
47.0
 11
53.4368
 21
22.0
  0
LINE
  8
0
  6
CONTINUOUS
 62
     7
 10
61.63681
 20
56.7
 11
76.4368
 21
56.7
  0
LINE
  8
0
  6
CONTINUOUS
 62
     7
 10
61.63681
 20
56.7
 11
61.63681
 21
46.39999
  0
LINE
  8
0
  6
CONTINUOUS
 62
     7
 10
76.4368
 20
56.7
 11
76.4368
 21
32.10001
  0
LINE
  8
0
  6
CONTINUOUS
 62
     7
 10
75.03677
 20
58.7
 11
75.03677
 21
56.7
  0
LINE
  8
0
  6
CONTINUOUS
 62
     7
 10
63.03677
 20
58.7
 11
63.03677
 21
56.7
  0
LINE
  8
0
  6
CONTINUOUS
 62
     7
 10
74.36026
 20
58.7
 11
74.36026
 21
56.7
  0
LINE
  8
0
  6
CONTINUOUS
 62
     7
 10
63.71329
 20
58.7
 11
63.71329
 21
56.7
  0
LINE
  8
0
  6
CONTINUOUS
 62
     7
 10
53.9368
 20
31.59999
 11
53.9368
 21
46.40001
  0
LINE
  8
0
  6
CONTINUOUS
 62
     7
 10
22.4368
 20
-77.2
 11
49.4368
 21
-77.2
  0
LINE
  8
0
  6
CONTINUOUS
 62
     7
 10
46.4368
 20
-78.2
 11
46.4368
 21
-77.2
  0
LINE
  8
0
  6
CONTINUOUS
 62
     7
 10
45.4368
 20
-80.2
 11
27.26254
 21
-80.2
  0
LINE
  8
0
  6
CONTINUOUS
 62
     7
 10
22.4368
 20
-78.2
 11
46.4368
 21
-78.2
  0
LINE
  8
0
  6
CONTINUOUS
 62
     7
 10
46.43679
 20
-78.19999
 11
45.43679
 21
-80.2
  0
LINE
  8
0
  6
CONTINUOUS
 62
     7
 10
22.43698
 20
-78.19989
 11
23.43698
 21
-80.19988
  0
LINE
  8
0
  6
CONTINUOUS
 62
     7
 10
28.4368
 20
-80.2
 11
28.4368
 21
-78.2
  0
LINE
  8
0
  6
CENTER
 62
     2
 10
25.4368
 20
-83.2
 11
25.4368
 21
-74.2
  0
LINE
  8
0
  6
CONTINUOUS
 62
     7
 10
22.88681
 20
-78.8
 11
27.98679
 21
-78.8
  0
LINE
  8
0
  6
CONTINUOUS
 62
     7
 10
25.73684
 20
-78.19996
 11
25.89762
 21
-78.79996
  0
LINE
  8
0
  6
CONTINUOUS
 62
     7
 10
25.13688
 20
-78.79995
 11
24.9761
 21
-78.19994
  0
LINE
  8
0
  6
CONTINUOUS
 62
     7
 10
22.88681
 20
-78.8
 11
22.88681
 21
-78.2
  0
LINE
  8
0
  6
CONTINUOUS
 62
     7
 10
27.98679
 20
-78.8
 11
27.98679
 21
-78.2
  0
LINE
  8
0
  6
CONTINUOUS
 62
     7
 10
23.1868
 20
-79.49373
 11
23.1868
 21
-78.8
  0
LINE
  8
0
  6
CONTINUOUS
 62
     7
 10
27.6868
 20
-79.49373
 11
27.6868
 21
-78.8
  0
LINE
  8
0
  6
CONTINUOUS
 62
     7
 10
23.61099
 20
-80.2
 11
23.4368
 21
-80.2
  0
LINE
  8
0
  6
CENTER
 62
     2
 10
43.4368
 20
-83.2
 11
43.4368
 21
-74.2
  0
LINE
  8
0
  6
CONTINUOUS
 62
     7
 10
49.4368
 20
-77.2
 11
49.4368
 21
-52.00002
  0
LINE
  8
0
  6
CONTINUOUS
 62
     7
 10
49.4368
 20
-77.00002
 11
53.4368
 21
-77.00002
  0
LINE
  8
0
  6
CENTER
 62
     2
 10
46.4368
 20
-69.00002
 11
81.83676
 21
-69.00002
  0
LINE
  8
0
  6
CONTINUOUS
 62
     7
 10
76.4368
 20
-95.17622
 11
76.4368
 21
-88.7
  0
LINE
  8
0
  6
CONTINUOUS
 62
     7
 10
61.63675
 20
-95.17622
 11
61.63675
 21
-88.7
  0
LINE
  8
0
  6
CONTINUOUS
 62
     7
 10
63.23679
 20
-96.09999
 11
74.83676
 21
-96.09999
  0
LINE
  8
0
  6
CONTINUOUS
 62
     7
 10
77.60861
 20
-66.2
 11
76.9368
 21
-66.2
  0
LINE
  8
0
  6
CONTINUOUS
 62
     7
 10
77.60861
 20
-71.8
 11
76.9368
 21
-71.8
  0
LINE
  8
0
  6
CONTINUOUS
 62
     7
 10
76.9368
 20
-65.75002
 11
76.9368
 21
-72.25002
  0
LINE
  8
0
  6
CONTINUOUS
 62
     7
 10
76.9368
 20
-65.75011
 11
76.4368
 21
-65.75011
  0
LINE
  8
0
  6
CONTINUOUS
 62
     7
 10
76.9368
 20
-72.25002
 11
76.4368
 21
-72.25002
  0
LINE
  8
0
  6
CONTINUOUS
 62
     7
 10
61.63675
 20
-88.7
 11
76.4368
 21
-88.7
  0
LINE
  8
0
  6
CONTINUOUS
 62
     7
 10
61.63675
 20
-89.7
 11
76.4368
 21
-89.7
  0
LINE
  8
0
  6
CENTER
 62
     2
 10
69.03677
 20
-99.09999
 11
69.03677
 21
-58.59999
  0
LINE
  8
0
  6
CONTINUOUS
 62
     7
 10
64.03677
 20
-74.00002
 11
74.03677
 21
-74.00002
  0
LINE
  8
0
  6
CONTINUOUS
 62
     7
 10
64.03677
 20
-64.00002
 11
74.03677
 21
-64.00002
  0
LINE
  8
0
  6
CONTINUOUS
 62
     7
 10
64.03677
 20
-74.00002
 11
64.03677
 21
-64.00002
  0
LINE
  8
0
  6
CONTINUOUS
 62
     7
 10
74.03677
 20
-74.00002
 11
74.03677
 21
-64.00002
  0
LINE
  8
0
  6
CONTINUOUS
 62
     7
 10
65.03677
 20
-74.00002
 11
65.03677
 21
-64.00002
  0
LINE
  8
0
  6
CONTINUOUS
 62
     7
 10
66.03677
 20
-74.00002
 11
66.03677
 21
-64.00002
  0
LINE
  8
0
  6
CONTINUOUS
 62
     7
 10
67.03677
 20
-74.00002
 11
67.03677
 21
-64.00002
  0
LINE
  8
0
  6
CONTINUOUS
 62
     7
 10
68.03677
 20
-74.00002
 11
68.03677
 21
-64.00002
  0
LINE
  8
0
  6
CONTINUOUS
 62
     7
 10
69.03677
 20
-74.00002
 11
69.03677
 21
-64.00002
  0
LINE
  8
0
  6
CONTINUOUS
 62
     7
 10
70.03677
 20
-74.00002
 11
70.03677
 21
-64.00002
  0
LINE
  8
0
  6
CONTINUOUS
 62
     7
 10
71.03677
 20
-74.00002
 11
71.03677
 21
-64.00002
  0
LINE
  8
0
  6
CONTINUOUS
 62
     7
 10
72.03677
 20
-74.00002
 11
72.03677
 21
-64.00002
  0
LINE
  8
0
  6
CONTINUOUS
 62
     7
 10
73.03677
 20
-74.00002
 11
73.03677
 21
-64.00002
  0
LINE
  8
0
  6
CONTINUOUS
 62
     7
 10
74.83675
 20
-96.1
 11
76.43677
 21
-95.17623
  0
LINE
  8
0
  6
CONTINUOUS
 62
     7
 10
63.2367
 20
-96.10016
 11
61.63671
 21
-95.17641
  0
LINE
  8
0
  6
CONTINUOUS
 62
     7
 10
65.17612
 20
-95.17622
 11
65.17612
 21
-89.7
  0
LINE
  8
0
  6
CONTINUOUS
 62
     7
 10
65.49985
 20
-95.17622
 11
65.49985
 21
-89.7
  0
LINE
  8
0
  6
CONTINUOUS
 62
     7
 10
72.57376
 20
-95.17622
 11
72.57376
 21
-89.7
  0
LINE
  8
0
  6
CONTINUOUS
 62
     7
 10
72.89749
 20
-95.17622
 11
72.89749
 21
-89.7
  0
LINE
  8
0
  6
CONTINUOUS
 62
     7
 10
65.17612
 20
-95.17622
 11
65.49985
 21
-95.17622
  0
LINE
  8
0
  6
CONTINUOUS
 62
     7
 10
72.5737
 20
-95.17622
 11
72.89749
 21
-95.17622
  0
LINE
  8
0
  6
CONTINUOUS
 62
     7
 10
53.4368
 20
-76.39998
 11
75.9368
 21
-76.39998
  0
LINE
  8
0
  6
CONTINUOUS
 62
     7
 10
53.4368
 20
-61.59999
 11
75.9368
 21
-61.59999
  0
LINE
  8
0
  6
CONTINUOUS
 62
     7
 10
53.4368
 20
-77.00002
 11
53.4368
 21
-52.00002
  0
LINE
  8
0
  6
CONTINUOUS
 62
     7
 10
61.63675
 20
-86.7
 11
76.4368
 21
-86.7
  0
LINE
  8
0
  6
CONTINUOUS
 62
     7
 10
76.4368
 20
-86.7
 11
76.4368
 21
-62.10002
  0
LINE
  8
0
  6
CONTINUOUS
 62
     7
 10
61.63675
 20
-86.7
 11
61.63675
 21
-76.40001
  0
LINE
  8
0
  6
CONTINUOUS
 62
     7
 10
63.03677
 20
-88.7
 11
63.03677
 21
-86.7
  0
LINE
  8
0
  6
CONTINUOUS
 62
     7
 10
75.03677
 20
-88.7
 11
75.03677
 21
-86.7
  0
LINE
  8
0
  6
CONTINUOUS
 62
     7
 10
74.36026
 20
-88.7
 11
74.36026
 21
-86.7
  0
LINE
  8
0
  6
CONTINUOUS
 62
     7
 10
63.71329
 20
-88.7
 11
63.71329
 21
-86.7
  0
LINE
  8
0
  6
CONTINUOUS
 62
     7
 10
53.9368
 20
-61.59999
 11
53.9368
 21
-76.40001
  0
LINE
  8
0
  6
CONTINUOUS
 62
     7
 10
332.4368
 20
5.00005
 11
308.4368
 21
5.00005
  0
LINE
  8
0
  6
CENTER
 62
     2
 10
320.4368
 20
53.20001
 11
320.4368
 21
-84.53331
  0
LINE
  8
0
  6
CENTER
 62
     2
 10
312.8412
 20
-17.99997
 11
307.6112
 21
-17.99997
  0
LINE
  8
0
  6
CONTINUOUS
 62
     7
 10
311.4368
 20
-16.18614
 11
311.4368
 21
-19.81383
  0
LINE
  8
0
  6
CONTINUOUS
 62
     7
 10
311.4368
 20
-16.18613
 11
308.4368
 21
-16.18613
  0
LINE
  8
0
  6
CONTINUOUS
 62
     7
 10
311.4368
 20
-19.81381
 11
308.4368
 21
-19.81381
  0
LINE
  8
0
  6
CONTINUOUS
 62
     7
 10
332.4368
 20
22.00003
 11
301.4368
 21
22.00003
  0
LINE
  8
0
  6
CONTINUOUS
 62
     7
 10
332.4368
 20
48.20003
 11
332.4368
 21
-78.19997
  0
LINE
  8
0
  6
CONTINUOUS
 62
     7
 10
332.4368
 20
-22.99998
 11
308.4368
 21
-22.99998
  0
LINE
  8
0
  6
CONTINUOUS
 62
     7
 10
332.4368
 20
-51.99995
 11
301.4368
 21
-51.99995
  0
LINE
  8
0
  6
CONTINUOUS
 62
     7
 10
308.4368
 20
-51.99995
 11
308.4368
 21
22.00003
  0
LINE
  8
0
  6
CONTINUOUS
 62
     7
 10
332.4368
 20
47.20003
 11
305.4368
 21
47.20003
  0
LINE
  8
0
  6
CONTINUOUS
 62
     7
 10
308.4368
 20
48.20003
 11
308.4368
 21
47.20003
  0
LINE
  8
0
  6
CONTINUOUS
 62
     7
 10
309.4368
 20
50.20003
 11
327.611
 21
50.20003
  0
LINE
  8
0
  6
CONTINUOUS
 62
     7
 10
332.4368
 20
48.20003
 11
308.4368
 21
48.20003
  0
LINE
  8
0
  6
CONTINUOUS
 62
     7
 10
308.4368
 20
48.20003
 11
309.4368
 21
50.20001
  0
LINE
  8
0
  6
CONTINUOUS
 62
     7
 10
332.4368
 20
48.20007
 11
331.4368
 21
50.20005
  0
LINE
  8
0
  6
CONTINUOUS
 62
     7
 10
326.4368
 20
50.20003
 11
326.4368
 21
48.20003
  0
LINE
  8
0
  6
CENTER
 62
     2
 10
329.4368
 20
53.20003
 11
329.4368
 21
44.20003
  0
LINE
  8
0
  6
CONTINUOUS
 62
     7
 10
331.9868
 20
48.80003
 11
326.8868
 21
48.80003
  0
LINE
  8
0
  6
CONTINUOUS
 62
     7
 10
329.1368
 20
48.20005
 11
328.976
 21
48.80005
  0
LINE
  8
0
  6
CONTINUOUS
 62
     7
 10
329.7369
 20
48.80006
 11
329.8976
 21
48.20006
  0
LINE
  8
0
  6
CONTINUOUS
 62
     7
 10
331.9868
 20
48.80003
 11
331.9868
 21
48.20003
  0
LINE
  8
0
  6
CONTINUOUS
 62
     7
 10
326.8868
 20
48.80003
 11
326.8868
 21
48.20003
  0
LINE
  8
0
  6
CONTINUOUS
 62
     7
 10
331.6868
 20
49.49377
 11
331.6868
 21
48.80003
  0
LINE
  8
0
  6
CONTINUOUS
 62
     7
 10
327.1868
 20
49.49377
 11
327.1868
 21
48.80003
  0
LINE
  8
0
  6
CONTINUOUS
 62
     7
 10
331.2625
 20
50.20003
 11
331.4368
 21
50.20003
  0
LINE
  8
0
  6
CENTER
 62
     2
 10
311.4368
 20
53.20003
 11
311.4368
 21
44.20003
  0
LINE
  8
0
  6
CONTINUOUS
 62
     7
 10
305.4368
 20
47.20003
 11
305.4368
 21
22.00003
  0
LINE
  8
0
  6
CONTINUOUS
 62
     7
 10
305.4368
 20
47.00003
 11
301.4368
 21
47.00003
  0
LINE
  8
0
  6
CENTER
 62
     2
 10
308.4368
 20
39.00003
 11
273.0368
 21
39.00003
  0
LINE
  8
0
  6
CONTINUOUS
 62
     7
 10
278.4368
 20
65.17625
 11
278.4368
 21
58.70003
  0
LINE
  8
0
  6
CONTINUOUS
 62
     7
 10
293.2368
 20
65.17627
 11
293.2368
 21
58.70003
  0
LINE
  8
0
  6
CONTINUOUS
 62
     7
 10
291.6368
 20
66.10004
 11
280.0368
 21
66.10004
  0
LINE
  8
0
  6
CONTINUOUS
 62
     7
 10
277.265
 20
36.20003
 11
277.9368
 21
36.20003
  0
LINE
  8
0
  6
CONTINUOUS
 62
     7
 10
277.265
 20
41.80003
 11
277.9368
 21
41.80003
  0
LINE
  8
0
  6
CONTINUOUS
 62
     7
 10
277.9368
 20
35.75003
 11
277.9368
 21
42.25003
  0
LINE
  8
0
  6
CONTINUOUS
 62
     7
 10
277.9368
 20
35.75014
 11
278.4368
 21
35.75014
  0
LINE
  8
0
  6
CONTINUOUS
 62
     7
 10
277.9368
 20
42.25003
 11
278.4368
 21
42.25003
  0
LINE
  8
0
  6
CONTINUOUS
 62
     7
 10
293.2368
 20
58.70003
 11
278.4368
 21
58.70003
  0
LINE
  8
0
  6
CONTINUOUS
 62
     7
 10
293.2368
 20
59.70003
 11
278.4368
 21
59.70003
  0
LINE
  8
0
  6
CENTER
 62
     2
 10
285.8368
 20
69.10004
 11
285.8368
 21
28.60004
  0
LINE
  8
0
  6
CONTINUOUS
 62
     7
 10
290.8368
 20
44.00003
 11
280.8368
 21
44.00003
  0
LINE
  8
0
  6
CONTINUOUS
 62
     7
 10
290.8368
 20
34.00003
 11
280.8368
 21
34.00003
  0
LINE
  8
0
  6
CONTINUOUS
 62
     7
 10
290.8368
 20
44.00003
 11
290.8368
 21
34.00003
  0
LINE
  8
0
  6
CONTINUOUS
 62
     7
 10
280.8368
 20
44.00003
 11
280.8368
 21
34.00003
  0
LINE
  8
0
  6
CONTINUOUS
 62
     7
 10
289.8368
 20
44.00003
 11
289.8368
 21
34.00003
  0
LINE
  8
0
  6
CONTINUOUS
 62
     7
 10
288.8368
 20
44.00003
 11
288.8368
 21
34.00003
  0
LINE
  8
0
  6
CONTINUOUS
 62
     7
 10
287.8368
 20
44.00003
 11
287.8368
 21
34.00003
  0
LINE
  8
0
  6
CONTINUOUS
 62
     7
 10
286.8368
 20
44.00003
 11
286.8368
 21
34.00003
  0
LINE
  8
0
  6
CONTINUOUS
 62
     7
 10
285.8368
 20
44.00003
 11
285.8368
 21
34.00003
  0
LINE
  8
0
  6
CONTINUOUS
 62
     7
 10
284.8368
 20
44.00003
 11
284.8368
 21
34.00003
  0
LINE
  8
0
  6
CONTINUOUS
 62
     7
 10
283.8368
 20
44.00003
 11
283.8368
 21
34.00003
  0
LINE
  8
0
  6
CONTINUOUS
 62
     7
 10
282.8368
 20
44.00003
 11
282.8368
 21
34.00003
  0
LINE
  8
0
  6
CONTINUOUS
 62
     7
 10
281.8368
 20
44.00003
 11
281.8368
 21
34.00003
  0
LINE
  8
0
  6
CONTINUOUS
 62
     7
 10
280.0368
 20
66.10002
 11
278.4368
 21
65.17625
  0
LINE
  8
0
  6
CONTINUOUS
 62
     7
 10
291.6368
 20
66.10001
 11
293.2368
 21
65.17625
  0
LINE
  8
0
  6
CONTINUOUS
 62
     7
 10
289.6974
 20
65.17627
 11
289.6974
 21
59.70003
  0
LINE
  8
0
  6
CONTINUOUS
 62
     7
 10
289.3737
 20
65.17627
 11
289.3737
 21
59.70003
  0
LINE
  8
0
  6
CONTINUOUS
 62
     7
 10
282.2998
 20
65.17627
 11
282.2998
 21
59.70003
  0
LINE
  8
0
  6
CONTINUOUS
 62
     7
 10
281.9761
 20
65.17627
 11
281.9761
 21
59.70003
  0
LINE
  8
0
  6
CONTINUOUS
 62
     7
 10
289.6974
 20
65.17627
 11
289.3737
 21
65.17627
  0
LINE
  8
0
  6
CONTINUOUS
 62
     7
 10
282.2998
 20
65.17627
 11
281.9761
 21
65.17627
  0
LINE
  8
0
  6
CONTINUOUS
 62
     7
 10
301.4368
 20
46.40002
 11
278.9368
 21
46.40002
  0
LINE
  8
0
  6
CONTINUOUS
 62
     7
 10
301.4368
 20
31.60004
 11
278.9368
 21
31.60004
  0
LINE
  8
0
  6
CONTINUOUS
 62
     7
 10
301.4368
 20
47.00003
 11
301.4368
 21
22.00003
  0
LINE
  8
0
  6
CONTINUOUS
 62
     7
 10
293.2368
 20
56.70003
 11
278.4368
 21
56.70003
  0
LINE
  8
0
  6
CONTINUOUS
 62
     7
 10
278.4368
 20
56.70003
 11
278.4368
 21
32.10004
  0
LINE
  8
0
  6
CONTINUOUS
 62
     7
 10
293.2368
 20
56.70003
 11
293.2368
 21
46.40002
  0
LINE
  8
0
  6
CONTINUOUS
 62
     7
 10
291.8368
 20
58.70003
 11
291.8368
 21
56.70003
  0
LINE
  8
0
  6
CONTINUOUS
 62
     7
 10
279.8368
 20
58.70003
 11
279.8368
 21
56.70003
  0
LINE
  8
0
  6
CONTINUOUS
 62
     7
 10
280.5133
 20
58.70003
 11
280.5133
 21
56.70003
  0
LINE
  8
0
  6
CONTINUOUS
 62
     7
 10
291.1603
 20
58.70003
 11
291.1603
 21
56.70003
  0
LINE
  8
0
  6
CONTINUOUS
 62
     7
 10
300.9368
 20
31.60002
 11
300.9368
 21
46.40004
  0
LINE
  8
0
  6
CONTINUOUS
 62
     7
 10
332.4368
 20
-77.19997
 11
305.4368
 21
-77.19997
  0
LINE
  8
0
  6
CONTINUOUS
 62
     7
 10
308.4368
 20
-78.19994
 11
308.4368
 21
-77.19997
  0
LINE
  8
0
  6
CONTINUOUS
 62
     7
 10
331.4368
 20
-80.19997
 11
313.2625
 21
-80.19997
  0
LINE
  8
0
  6
CONTINUOUS
 62
     7
 10
332.4368
 20
-78.19997
 11
308.4368
 21
-78.19997
  0
LINE
  8
0
  6
CONTINUOUS
 62
     7
 10
332.4368
 20
-78.19996
 11
331.4368
 21
-80.19997
  0
LINE
  8
0
  6
CONTINUOUS
 62
     7
 10
308.4368
 20
-78.19991
 11
309.4368
 21
-80.19993
  0
LINE
  8
0
  6
CONTINUOUS
 62
     7
 10
314.4368
 20
-80.19997
 11
314.4368
 21
-78.19997
  0
LINE
  8
0
  6
CENTER
 62
     2
 10
311.4368
 20
-83.19997
 11
311.4368
 21
-74.19997
  0
LINE
  8
0
  6
CONTINUOUS
 62
     7
 10
308.8867
 20
-78.79997
 11
313.9868
 21
-78.79997
  0
LINE
  8
0
  6
CONTINUOUS
 62
     7
 10
311.7367
 20
-78.19997
 11
311.8975
 21
-78.79997
  0
LINE
  8
0
  6
CONTINUOUS
 62
     7
 10
311.1367
 20
-78.80001
 11
310.9759
 21
-78.20002
  0
LINE
  8
0
  6
CONTINUOUS
 62
     7
 10
308.8868
 20
-78.79997
 11
308.8868
 21
-78.19997
  0
LINE
  8
0
  6
CONTINUOUS
 62
     7
 10
313.9868
 20
-78.79997
 11
313.9868
 21
-78.19997
  0
LINE
  8
0
  6
CONTINUOUS
 62
     7
 10
309.1867
 20
-79.49373
 11
309.1867
 21
-78.79997
  0
LINE
  8
0
  6
CONTINUOUS
 62
     7
 10
313.6867
 20
-79.49373
 11
313.6867
 21
-78.79997
  0
LINE
  8
0
  6
CONTINUOUS
 62
     7
 10
309.611
 20
-80.19997
 11
309.4368
 21
-80.19997
  0
LINE
  8
0
  6
CENTER
 62
     2
 10
329.4368
 20
-83.19997
 11
329.4368
 21
-74.19997
  0
LINE
  8
0
  6
CONTINUOUS
 62
     7
 10
305.4368
 20
-77.19997
 11
305.4368
 21
-51.99995
  0
LINE
  8
0
  6
CONTINUOUS
 62
     7
 10
305.4368
 20
-76.99995
 11
301.4368
 21
-76.99995
  0
LINE
  8
0
  6
CENTER
 62
     2
 10
308.4368
 20
-68.99995
 11
273.0368
 21
-68.99995
  0
LINE
  8
0
  6
CONTINUOUS
 62
     7
 10
278.4368
 20
-95.17616
 11
278.4368
 21
-88.69997
  0
LINE
  8
0
  6
CONTINUOUS
 62
     7
 10
301.4368
 20
-61.59996
 11
278.9368
 21
-61.59996
  0
LINE
  8
0
  6
CONTINUOUS
 62
     7
 10
301.4368
 20
-76.39998
 11
278.9368
 21
-76.39998
  0
LINE
  8
0
  6
CONTINUOUS
 62
     7
 10
293.2368
 20
-95.17622
 11
293.2368
 21
-88.69997
  0
LINE
  8
0
  6
CONTINUOUS
 62
     7
 10
291.6367
 20
-96.09999
 11
280.0368
 21
-96.09999
  0
LINE
  8
0
  6
CONTINUOUS
 62
     7
 10
277.2649
 20
-66.19997
 11
277.9368
 21
-66.19997
  0
LINE
  8
0
  6
CONTINUOUS
 62
     7
 10
277.2649
 20
-71.8
 11
277.9368
 21
-71.8
  0
LINE
  8
0
  6
CONTINUOUS
 62
     7
 10
277.9368
 20
-65.74995
 11
277.9368
 21
-72.24995
  0
LINE
  8
0
  6
CONTINUOUS
 62
     7
 10
277.9368
 20
-65.74998
 11
278.4368
 21
-65.74998
  0
LINE
  8
0
  6
CONTINUOUS
 62
     7
 10
277.9368
 20
-72.24998
 11
278.4368
 21
-72.24998
  0
LINE
  8
0
  6
CONTINUOUS
 62
     7
 10
293.2368
 20
-88.69997
 11
278.4368
 21
-88.69997
  0
LINE
  8
0
  6
CONTINUOUS
 62
     7
 10
293.2368
 20
-89.69997
 11
278.4368
 21
-89.69997
  0
LINE
  8
0
  6
CONTINUOUS
 62
     7
 10
290.8368
 20
-73.99995
 11
280.8368
 21
-73.99995
  0
LINE
  8
0
  6
CONTINUOUS
 62
     7
 10
290.8368
 20
-63.99995
 11
280.8368
 21
-63.99995
  0
LINE
  8
0
  6
CONTINUOUS
 62
     7
 10
290.8368
 20
-73.99995
 11
290.8368
 21
-63.99995
  0
LINE
  8
0
  6
CONTINUOUS
 62
     7
 10
280.8368
 20
-73.99995
 11
280.8368
 21
-63.99995
  0
LINE
  8
0
  6
CONTINUOUS
 62
     7
 10
289.8368
 20
-73.99995
 11
289.8368
 21
-63.99995
  0
LINE
  8
0
  6
CONTINUOUS
 62
     7
 10
288.8368
 20
-73.99995
 11
288.8368
 21
-63.99995
  0
LINE
  8
0
  6
CONTINUOUS
 62
     7
 10
287.8368
 20
-73.99995
 11
287.8368
 21
-63.99995
  0
LINE
  8
0
  6
CONTINUOUS
 62
     7
 10
286.8368
 20
-73.99995
 11
286.8368
 21
-63.99995
  0
LINE
  8
0
  6
CONTINUOUS
 62
     7
 10
285.8368
 20
-73.99995
 11
285.8368
 21
-63.99995
  0
LINE
  8
0
  6
CONTINUOUS
 62
     7
 10
284.8368
 20
-73.99995
 11
284.8368
 21
-63.99995
  0
LINE
  8
0
  6
CONTINUOUS
 62
     7
 10
283.8368
 20
-73.99995
 11
283.8368
 21
-63.99995
  0
LINE
  8
0
  6
CONTINUOUS
 62
     7
 10
282.8368
 20
-73.99995
 11
282.8368
 21
-63.99995
  0
LINE
  8
0
  6
CONTINUOUS
 62
     7
 10
281.8368
 20
-73.99995
 11
281.8368
 21
-63.99995
  0
LINE
  8
0
  6
CONTINUOUS
 62
     7
 10
280.0368
 20
-96.09986
 11
278.4368
 21
-95.17609
  0
LINE
  8
0
  6
CONTINUOUS
 62
     7
 10
291.6367
 20
-96.09998
 11
293.2368
 21
-95.17623
  0
LINE
  8
0
  6
CONTINUOUS
 62
     7
 10
289.6974
 20
-95.17619
 11
289.6974
 21
-89.69997
  0
LINE
  8
0
  6
CONTINUOUS
 62
     7
 10
289.3737
 20
-95.17619
 11
289.3737
 21
-89.69997
  0
LINE
  8
0
  6
CONTINUOUS
 62
     7
 10
282.2998
 20
-95.17619
 11
282.2998
 21
-89.69997
  0
LINE
  8
0
  6
CONTINUOUS
 62
     7
 10
281.9761
 20
-95.17619
 11
281.9761
 21
-89.69997
  0
LINE
  8
0
  6
CONTINUOUS
 62
     7
 10
289.6974
 20
-95.17622
 11
289.3737
 21
-95.17622
  0
LINE
  8
0
  6
CONTINUOUS
 62
     7
 10
282.2998
 20
-95.17622
 11
281.9761
 21
-95.17622
  0
LINE
  8
0
  6
CENTER
 62
     2
 10
285.8368
 20
-99.09996
 11
285.8368
 21
-58.59996
  0
LINE
  8
0
  6
CONTINUOUS
 62
     7
 10
301.4368
 20
-76.99995
 11
301.4368
 21
-51.99995
  0
LINE
  8
0
  6
CONTINUOUS
 62
     7
 10
293.2368
 20
-86.69997
 11
278.4368
 21
-86.69997
  0
LINE
  8
0
  6
CONTINUOUS
 62
     7
 10
293.2368
 20
-86.69997
 11
293.2368
 21
-76.39998
  0
LINE
  8
0
  6
CONTINUOUS
 62
     7
 10
278.4368
 20
-86.69997
 11
278.4368
 21
-62.09996
  0
LINE
  8
0
  6
CONTINUOUS
 62
     7
 10
279.8368
 20
-88.69997
 11
279.8368
 21
-86.69997
  0
LINE
  8
0
  6
CONTINUOUS
 62
     7
 10
291.8368
 20
-88.69997
 11
291.8368
 21
-86.69997
  0
LINE
  8
0
  6
CONTINUOUS
 62
     7
 10
280.5133
 20
-88.69997
 11
280.5133
 21
-86.69997
  0
LINE
  8
0
  6
CONTINUOUS
 62
     7
 10
291.1603
 20
-88.69997
 11
291.1603
 21
-86.69997
  0
LINE
  8
0
  6
CONTINUOUS
 62
     7
 10
300.9367
 20
-61.59996
 11
300.9367
 21
-76.39998
  0
LINE
  8
0
  6
CENTER
 62
     2
 10
187.8851
 20
-169.0
 11
167.949
 21
-169.0
  0
LINE
  8
0
  6
CONTINUOUS
 62
     7
 10
170.4368
 20
-157.0
 11
185.4368
 21
-157.0
  0
LINE
  8
0
  6
CONTINUOUS
 62
     7
 10
179.4368
 20
-160.0
 11
179.4368
 21
-157.0
  0
LINE
  8
0
  6
CONTINUOUS
 62
     7
 10
176.4368
 20
-178.0
 11
176.4368
 21
-181.0
  0
LINE
  8
0
  6
CONTINUOUS
 62
     7
 10
173.4368
 20
-175.0
 11
170.4368
 21
-175.0
  0
LINE
  8
0
  6
CONTINUOUS
 62
     7
 10
182.4368
 20
-163.0
 11
185.4368
 21
-163.0
  0
LINE
  8
0
  6
CONTINUOUS
 62
     7
 10
176.4368
 20
-180.0
 11
184.4368
 21
-180.0
  0
LINE
  8
0
  6
CONTINUOUS
 62
     7
 10
171.4368
 20
-158.0
 11
179.4368
 21
-158.0
  0
LINE
  8
0
  6
CONTINUOUS
 62
     7
 10
171.4368
 20
-175.0
 11
171.4368
 21
-158.0
  0
LINE
  8
0
  6
CONTINUOUS
 62
     7
 10
184.4368
 20
-180.0
 11
184.4368
 21
-163.0
  0
LINE
  8
0
  6
CONTINUOUS
 62
     7
 10
184.6667
 20
-159.7
 11
184.9691
 21
-159.7
  0
LINE
  8
0
  6
CONTINUOUS
 62
     7
 10
184.6667
 20
-160.2999
 11
184.9691
 21
-160.2999
  0
LINE
  8
0
  6
CONTINUOUS
 62
     7
 10
184.9448
 20
-160.4607
 11
184.6391
 21
-160.4607
  0
LINE
  8
0
  6
CONTINUOUS
 62
     7
 10
171.2068
 20
-178.2999
 11
170.9045
 21
-178.2999
  0
LINE
  8
0
  6
CONTINUOUS
 62
     7
 10
171.2068
 20
-177.7
 11
170.9045
 21
-177.7
  0
LINE
  8
0
  6
CONTINUOUS
 62
     7
 10
170.9287
 20
-177.5392
 11
171.2344
 21
-177.5392
  0
LINE
  8
0
  6
CONTINUOUS
 62
     7
 10
183.1721
 20
-161.1031
 11
182.8044
 21
-160.7354
  0
LINE
  8
0
  6
CONTINUOUS
 62
     7
 10
183.5398
 20
-160.7354
 11
183.1721
 21
-160.3677
  0
LINE
  8
0
  6
CONTINUOUS
 62
     7
 10
183.1721
 20
-161.1031
 11
183.5398
 21
-160.7353
  0
LINE
  8
0
  6
CONTINUOUS
 62
     7
 10
181.3337
 20
-159.2645
 11
181.7014
 21
-158.8968
  0
LINE
  8
0
  6
CONTINUOUS
 62
     7
 10
181.0403
 20
-161.7641
 11
182.0691
 21
-160.7353
  0
LINE
  8
0
  6
CONTINUOUS
 62
     7
 10
180.6726
 20
-161.3964
 11
181.7014
 21
-160.3676
  0
LINE
  8
0
  6
CONTINUOUS
 62
     7
 10
181.7013
 20
-159.6323
 11
181.3337
 21
-159.2646
  0
LINE
  8
0
  6
CONTINUOUS
 62
     7
 10
182.069
 20
-159.2646
 11
181.7013
 21
-158.8969
  0
LINE
  8
0
  6
CONTINUOUS
 62
     7
 10
183.1722
 20
-159.6323
 11
184.201
 21
-158.6035
  0
LINE
  8
0
  6
CONTINUOUS
 62
     7
 10
182.8045
 20
-159.2645
 11
183.8332
 21
-158.2358
  0
LINE
  8
0
  6
CONTINUOUS
 62
     7
 10
174.1721
 20
-179.1031
 11
173.8044
 21
-178.7354
  0
LINE
  8
0
  6
CONTINUOUS
 62
     7
 10
174.5398
 20
-178.7354
 11
174.1721
 21
-178.3677
  0
LINE
  8
0
  6
CONTINUOUS
 62
     7
 10
174.1721
 20
-179.103
 11
174.5399
 21
-178.7353
  0
LINE
  8
0
  6
CONTINUOUS
 62
     7
 10
172.3337
 20
-177.2646
 11
172.7014
 21
-176.8969
  0
LINE
  8
0
  6
CONTINUOUS
 62
     7
 10
172.0403
 20
-179.7641
 11
173.0691
 21
-178.7353
  0
LINE
  8
0
  6
CONTINUOUS
 62
     7
 10
171.6726
 20
-179.3964
 11
172.7014
 21
-178.3676
  0
LINE
  8
0
  6
CONTINUOUS
 62
     7
 10
172.7013
 20
-177.6324
 11
172.3336
 21
-177.2647
  0
LINE
  8
0
  6
CONTINUOUS
 62
     7
 10
173.069
 20
-177.2647
 11
172.7013
 21
-176.897
  0
LINE
  8
0
  6
CONTINUOUS
 62
     7
 10
174.1722
 20
-177.6322
 11
175.201
 21
-176.6034
  0
LINE
  8
0
  6
CONTINUOUS
 62
     7
 10
173.8045
 20
-177.2646
 11
174.8333
 21
-176.2358
  0
LINE
  8
0
  6
CENTER
 62
     2
 10
178.4368
 20
-160.0
 11
186.4368
 21
-160.0
  0
LINE
  8
0
  6
CENTER
 62
     2
 10
169.4368
 20
-178.0
 11
177.4368
 21
-178.0
  0
LINE
  8
0
  6
CENTER
 62
     2
 10
173.4368
 20
-182.0
 11
173.4368
 21
-174.0
  0
LINE
  8
0
  6
CENTER
 62
     2
 10
182.4368
 20
-164.0
 11
182.4368
 21
-156.0
  0
LINE
  8
0
  6
CONTINUOUS
 62
     7
 10
170.4368
 20
-180.5
 11
170.4368
 21
-150.0
  0
LINE
  8
0
  6
CONTINUOUS
 62
     7
 10
170.9368
 20
-181.0
 11
184.9368
 21
-181.0
  0
LINE
  8
0
  6
CONTINUOUS
 62
     7
 10
185.4368
 20
-180.5
 11
185.4368
 21
-150.0
  0
LINE
  8
0
  6
CONTINUOUS
 62
     7
 10
170.4368
 20
-154.0
 11
185.4368
 21
-154.0
  0
LINE
  8
0
  6
CONTINUOUS
 62
     7
 10
170.4368
 20
-150.0
 11
185.4368
 21
-150.0
  0
LINE
  8
0
  6
CENTER
 62
     2
 10
167.5368
 20
-134.3999
 11
188.3368
 21
-134.3999
  0
LINE
  8
0
  6
CONTINUOUS
 62
     7
 10
171.4368
 20
-137.9369
 11
171.4368
 21
-130.863
  0
LINE
  8
0
  6
CONTINUOUS
 62
     7
 10
184.4368
 20
-137.9369
 11
184.4368
 21
-130.863
  0
LINE
  8
0
  6
CONTINUOUS
 62
     7
 10
171.6237
 20
-130.5392
 11
177.7498
 21
-127.0023
  0
LINE
  8
0
  6
CONTINUOUS
 62
     7
 10
178.1237
 20
-141.7976
 11
184.2499
 21
-138.2606
  0
LINE
  8
0
  6
CONTINUOUS
 62
     7
 10
178.1236
 20
-127.0024
 11
184.2498
 21
-130.5393
  0
LINE
  8
0
  6
CONTINUOUS
 62
     7
 10
171.6236
 20
-138.2607
 11
177.7498
 21
-141.7976
  0
LINE
  8
0
  6
CONTINUOUS
 62
     7
 10
171.0368
 20
-127.0
 11
184.8368
 21
-127.0
  0
LINE
  8
0
  6
CONTINUOUS
 62
     7
 10
180.7368
 20
-125.8281
 11
180.7368
 21
-126.5
  0
LINE
  8
0
  6
CONTINUOUS
 62
     7
 10
175.1367
 20
-125.8281
 11
175.1367
 21
-126.5
  0
LINE
  8
0
  6
CONTINUOUS
 62
     7
 10
174.6867
 20
-126.5
 11
174.6867
 21
-127.0
  0
LINE
  8
0
  6
CONTINUOUS
 62
     7
 10
181.1868
 20
-126.5
 11
174.6868
 21
-126.5
  0
LINE
  8
0
  6
CONTINUOUS
 62
     7
 10
181.1867
 20
-126.5
 11
181.1867
 21
-127.0
  0
LINE
  8
0
  6
CONTINUOUS
 62
     7
 10
185.3368
 20
-150.0
 11
185.3368
 21
-127.5
  0
LINE
  8
0
  6
CONTINUOUS
 62
     7
 10
170.5367
 20
-150.0
 11
170.5367
 21
-127.5
  0
LINE
  8
0
  6
CONTINUOUS
 62
     7
 10
170.5368
 20
-149.5
 11
185.3368
 21
-149.5
  0
LINE
  8
0
  6
CENTER
 62
     2
 10
177.9368
 20
-182.7182
 11
177.9368
 21
-122.0486
  0
ARC
  8
0
  6
CONTINUOUS
 62
     7
 10
273.0354
 20
-235.0457
 40
2.21188
 50
0.0
 51
89.99999
  0
ARC
  8
0
  6
CONTINUOUS
 62
     7
 10
291.2836
 20
-246.9346
 40
2.2119
 50
270.0
 51
0.0
  0
ARC
  8
0
  6
CONTINUOUS
 62
     7
 10
290.1776
 20
-236.1516
 40
3.31784
 50
0.0
 51
89.99999
  0
ARC
  8
0
  6
CONTINUOUS
 62
     7
 10
310.3611
 20
-236.8128
 40
2.21189
 50
295.0
 51
0.0
  0
ARC
  8
0
  6
CONTINUOUS
 62
     7
 10
310.3611
 20
-235.0457
 40
2.21188
 50
0.0
 51
89.99999
  0
ARC
  8
0
  6
CONTINUOUS
 62
     7
 10
327.5034
 20
-232.8338
 40
3.31784
 50
291.6884
 51
0.0
  0
ARC
  8
0
  6
CONTINUOUS
 62
     7
 10
326.3973
 20
-232.0834
 40
1.10595
 50
291.689
 51
0.0
  0
CIRCLE
  8
0
  6
CONTINUOUS
 62
     7
 10
-201.4368
 20
-4.0
 40
1.6
  0
CIRCLE
  8
0
  6
CONTINUOUS
 62
     7
 10
-201.4368
 20
-14.0
 40
1.6
  0
ARC
  8
0
  6
CONTINUOUS
 62
     7
 10
-185.4368
 20
46.5
 40
6.0
 50
73.80862
 51
106.1914
  0
ARC
  8
0
  6
CONTINUOUS
 62
     7
 10
-183.9868
 20
51.49374
 40
0.8
 50
0.0
 51
73.8082
  0
ARC
  8
0
  6
CONTINUOUS
 62
     7
 10
-186.8868
 20
51.49374
 40
0.8
 50
106.1918
 51
180.0
  0
ARC
  8
0
  6
CONTINUOUS
 62
     7
 10
-203.4368
 20
46.49998
 40
6.0
 50
73.80862
 51
106.1914
  0
ARC
  8
0
  6
CONTINUOUS
 62
     7
 10
-204.8868
 20
51.49373
 40
0.8
 50
106.1918
 51
118.0138
  0
ARC
  8
0
  6
CONTINUOUS
 62
     7
 10
-201.9868
 20
51.49373
 40
0.8
 50
61.98621
 51
73.8082
  0
ARC
  8
0
  6
CONTINUOUS
 62
     7
 10
-152.9368
 20
34.10001
 40
0.5
 50
270.0
 51
0.0
  0
ARC
  8
0
  6
CONTINUOUS
 62
     7
 10
-152.9368
 20
47.90001
 40
0.5
 50
0.0
 51
89.99999
  0
ARC
  8
0
  6
CONTINUOUS
 62
     7
 10
-155.0368
 20
41.0
 40
5.0
 50
330.5077
 51
29.49232
  0
ARC
  8
0
  6
CONTINUOUS
 62
     7
 10
-151.2649
 20
38.86667
 40
0.66667
 50
270.0
 51
330.5074
  0
ARC
  8
0
  6
CONTINUOUS
 62
     7
 10
-151.2649
 20
43.13335
 40
0.66666
 50
29.49256
 51
89.99999
  0
ARC
  8
0
  6
CONTINUOUS
 62
     7
 10
-154.2064
 20
64.42262
 40
3.27324
 50
62.72894
 51
122.7273
  0
ARC
  8
0
  6
CONTINUOUS
 62
     7
 10
-159.8368
 20
55.39838
 40
12.29748
 50
73.28477
 51
106.7153
  0
ARC
  8
0
  6
CONTINUOUS
 62
     7
 10
-165.4671
 20
64.42261
 40
3.27326
 50
57.27284
 51
117.273
  0
ARC
  8
0
  6
CONTINUOUS
 62
     7
 10
-203.4367
 20
-72.50003
 40
6.0
 50
253.8086
 51
286.1914
  0
ARC
  8
0
  6
CONTINUOUS
 62
     7
 10
-204.8867
 20
-77.49377
 40
0.8
 50
180.0
 51
253.8083
  0
ARC
  8
0
  6
CONTINUOUS
 62
     7
 10
-201.9868
 20
-77.49377
 40
0.80001
 50
286.1917
 51
0.0
  0
ARC
  8
0
  6
CONTINUOUS
 62
     7
 10
-185.4367
 20
-72.5
 40
6.0
 50
253.8086
 51
286.1914
  0
ARC
  8
0
  6
CONTINUOUS
 62
     7
 10
-183.9868
 20
-77.49374
 40
0.80001
 50
286.1917
 51
298.0138
  0
ARC
  8
0
  6
CONTINUOUS
 62
     7
 10
-186.8867
 20
-77.49374
 40
0.8
 50
241.9862
 51
253.8083
  0
ARC
  8
0
  6
CONTINUOUS
 62
     7
 10
-152.9368
 20
-60.10001
 40
0.5
 50
0.0
 51
89.99999
  0
ARC
  8
0
  6
CONTINUOUS
 62
     7
 10
-152.9368
 20
-73.89999
 40
0.5
 50
270.0
 51
0.0
  0
ARC
  8
0
  6
CONTINUOUS
 62
     7
 10
-152.9368
 20
-60.10001
 40
0.5
 50
0.0
 51
89.99999
  0
ARC
  8
0
  6
CONTINUOUS
 62
     7
 10
-152.9368
 20
-73.89999
 40
0.5
 50
270.0
 51
0.0
  0
ARC
  8
0
  6
CONTINUOUS
 62
     7
 10
-155.0368
 20
-67.0
 40
5.00001
 50
330.5076
 51
29.49228
  0
ARC
  8
0
  6
CONTINUOUS
 62
     7
 10
-151.2649
 20
-64.86667
 40
0.66666
 50
29.49227
 51
89.99999
  0
ARC
  8
0
  6
CONTINUOUS
 62
     7
 10
-151.2649
 20
-69.13333
 40
0.66666
 50
270.0
 51
330.5071
  0
ARC
  8
0
  6
CONTINUOUS
 62
     7
 10
-154.2064
 20
-90.42261
 40
3.27324
 50
237.2726
 51
297.271
  0
ARC
  8
0
  6
CONTINUOUS
 62
     7
 10
-159.8368
 20
-81.39838
 40
12.29748
 50
253.2847
 51
286.7152
  0
ARC
  8
0
  6
CONTINUOUS
 62
     7
 10
-165.4671
 20
-90.42261
 40
3.27326
 50
242.727
 51
302.7271
  0
ARC
  8
0
  6
CONTINUOUS
 62
     7
 10
-185.4368
 20
128.5
 40
3.0
 50
89.99999
 51
180.0
  0
ARC
  8
0
  6
CONTINUOUS
 62
     7
 10
-203.4368
 20
137.5
 40
3.0
 50
270.0
 51
0.0
  0
ARC
  8
0
  6
CONTINUOUS
 62
     7
 10
-185.4368
 20
128.5
 40
2.55
 50
276.7564
 51
263.2436
  0
ARC
  8
0
  6
CONTINUOUS
 62
     7
 10
-203.4368
 20
137.5
 40
2.55
 50
96.7564
 51
83.24359
  0
CIRCLE
  8
0
  6
CONTINUOUS
 62
     7
 10
-185.4368
 20
128.5
 40
2.25
  0
ARC
  8
0
  6
CONTINUOUS
 62
     7
 10
-185.4368
 20
129.6031
 40
0.51999
 50
225.0
 51
315.0
  0
ARC
  8
0
  6
CONTINUOUS
 62
     7
 10
-186.5399
 20
128.5
 40
0.51999
 50
315.0
 51
45.0
  0
ARC
  8
0
  6
CONTINUOUS
 62
     7
 10
-184.3337
 20
128.5
 40
0.51999
 50
135.0
 51
225.0
  0
ARC
  8
0
  6
CONTINUOUS
 62
     7
 10
-185.4368
 20
127.3969
 40
0.52
 50
45.0006
 51
134.9994
  0
CIRCLE
  8
0
  6
CONTINUOUS
 62
     7
 10
-203.4368
 20
137.5
 40
2.25
  0
ARC
  8
0
  6
CONTINUOUS
 62
     7
 10
-203.4368
 20
138.6031
 40
0.51999
 50
225.0
 51
315.0
  0
ARC
  8
0
  6
CONTINUOUS
 62
     7
 10
-204.5399
 20
137.5
 40
0.51999
 50
315.0
 51
45.0
  0
ARC
  8
0
  6
CONTINUOUS
 62
     7
 10
-202.3337
 20
137.5
 40
0.51999
 50
135.0
 51
225.0
  0
ARC
  8
0
  6
CONTINUOUS
 62
     7
 10
-203.4368
 20
136.3969
 40
0.51999
 50
45.0
 51
135.0
  0
ARC
  8
0
  6
CONTINUOUS
 62
     7
 10
-205.9368
 20
140.0
 40
0.5
 50
89.99999
 51
180.0
  0
ARC
  8
0
  6
CONTINUOUS
 62
     7
 10
-205.9368
 20
126.0
 40
0.5
 50
180.0
 51
270.0
  0
CIRCLE
  8
0
  6
CONTINUOUS
 62
     7
 10
-159.8368
 20
133.0
 40
7.4
  0
CIRCLE
  8
0
  6
CONTINUOUS
 62
     7
 10
-159.8368
 20
133.0
 40
3.8
  0
CIRCLE
  8
0
  6
CONTINUOUS
 62
     7
 10
-159.8368
 20
133.0
 40
5.8
  0
ARC
  8
0
  6
CONTINUOUS
 62
     7
 10
-152.9368
 20
126.1
 40
0.5
 50
270.0
 51
0.0
  0
ARC
  8
0
  6
CONTINUOUS
 62
     7
 10
-155.0368
 20
133.0
 40
5.0
 50
330.5077
 51
29.49228
  0
ARC
  8
0
  6
CONTINUOUS
 62
     7
 10
-151.265
 20
135.1334
 40
0.66666
 50
29.49227
 51
89.99999
  0
ARC
  8
0
  6
CONTINUOUS
 62
     7
 10
-151.265
 20
130.8667
 40
0.66667
 50
270.0
 51
330.5077
  0
ARC
  8
0
  6
CONTINUOUS
 62
     7
 10
-152.9368
 20
139.9
 40
0.5
 50
0.0
 51
89.99999
  0
CIRCLE
  8
0
  6
CONTINUOUS
 62
     7
 10
-301.4367
 20
0.00003
 40
1.4
  0
CIRCLE
  8
0
  6
CONTINUOUS
 62
     7
 10
-312.4367
 20
-17.99997
 40
1.4
  0
CIRCLE
  8
0
  6
CONTINUOUS
 62
     7
 10
-309.9367
 20
1.00003
 40
2.5
  0
CIRCLE
  8
0
  6
CONTINUOUS
 62
     7
 10
-306.9367
 20
-8.99997
 40
2.5
  0
CIRCLE
  8
0
  6
CONTINUOUS
 62
     7
 10
-306.9367
 20
-31.99997
 40
2.65
  0
CIRCLE
  8
0
  6
CONTINUOUS
 62
     7
 10
-306.9367
 20
-31.99997
 40
2.0
  0
CIRCLE
  8
0
  6
CONTINUOUS
 62
     7
 10
-303.9367
 20
-18.99997
 40
2.5
  0
CIRCLE
  8
0
  6
CONTINUOUS
 62
     7
 10
-306.9367
 20
14.00003
 40
2.65
  0
CIRCLE
  8
0
  6
CONTINUOUS
 62
     7
 10
-306.9367
 20
14.00003
 40
2.0
  0
CIRCLE
  8
0
  6
CONTINUOUS
 62
     7
 10
-309.9367
 20
1.00003
 40
1.75001
  0
CIRCLE
  8
0
  6
CONTINUOUS
 62
     7
 10
-306.9367
 20
-8.99997
 40
1.75001
  0
CIRCLE
  8
0
  6
CONTINUOUS
 62
     7
 10
-303.9367
 20
-18.99997
 40
1.75001
  0
ARC
  8
0
  6
CONTINUOUS
 62
     7
 10
-310.383
 20
44.95334
 40
0.35345
 50
0.0
 51
89.99999
  0
ARC
  8
0
  6
CONTINUOUS
 62
     7
 10
-307.4669
 20
43.05348
 40
0.35346
 50
270.0
 51
0.0
  0
ARC
  8
0
  6
CONTINUOUS
 62
     7
 10
-307.6437
 20
44.77661
 40
0.53018
 50
0.0
 51
89.99999
  0
ARC
  8
0
  6
CONTINUOUS
 62
     7
 10
-304.4183
 20
44.95334
 40
0.35345
 50
0.0
 51
89.99999
  0
ARC
  8
0
  6
CONTINUOUS
 62
     7
 10
-304.4183
 20
44.67096
 40
0.35347
 50
295.0005
 51
0.0
  0
ARC
  8
0
  6
CONTINUOUS
 62
     7
 10
-301.679
 20
45.30681
 40
0.53019
 50
291.6869
 51
0.0
  0
ARC
  8
0
  6
CONTINUOUS
 62
     7
 10
-301.8557
 20
45.42673
 40
0.17673
 50
291.687
 51
0.0
  0
ARC
  8
0
  6
CONTINUOUS
 62
     7
 10
-312.8867
 20
51.49376
 40
0.8
 50
106.1918
 51
180.0
  0
ARC
  8
0
  6
CONTINUOUS
 62
     7
 10
-311.4367
 20
46.50002
 40
6.0
 50
73.80876
 51
106.1912
  0
ARC
  8
0
  6
CONTINUOUS
 62
     7
 10
-309.9867
 20
51.49377
 40
0.79999
 50
0.0
 51
73.8082
  0
ARC
  8
0
  6
CONTINUOUS
 62
     7
 10
-302.4367
 20
46.50002
 40
6.0
 50
73.80876
 51
106.1912
  0
ARC
  8
0
  6
CONTINUOUS
 62
     7
 10
-303.8867
 20
51.49376
 40
0.8
 50
106.1918
 51
118.0148
  0
ARC
  8
0
  6
CONTINUOUS
 62
     7
 10
-300.9867
 20
51.49377
 40
0.80001
 50
61.98524
 51
73.8082
  0
ARC
  8
0
  6
CONTINUOUS
 62
     7
 10
-303.5933
 20
57.84851
 40
9.84738
 50
71.30395
 51
108.696
  0
ARC
  8
0
  6
CONTINUOUS
 62
     7
 10
-310.2802
 20
57.84851
 40
9.84738
 50
71.30395
 51
108.696
  0
ARC
  8
0
  6
CONTINUOUS
 62
     7
 10
-303.4905
 20
-70.95322
 40
0.35345
 50
180.0
 51
270.0
  0
ARC
  8
0
  6
CONTINUOUS
 62
     7
 10
-306.4065
 20
-69.05338
 40
0.35346
 50
89.99999
 51
180.0
  0
ARC
  8
0
  6
CONTINUOUS
 62
     7
 10
-306.2298
 20
-70.77649
 40
0.53018
 50
180.0
 51
270.0
  0
ARC
  8
0
  6
CONTINUOUS
 62
     7
 10
-309.4551
 20
-70.95322
 40
0.35345
 50
180.0
 51
270.0
  0
ARC
  8
0
  6
CONTINUOUS
 62
     7
 10
-309.4551
 20
-70.67084
 40
0.35346
 50
115.0008
 51
180.0
  0
ARC
  8
0
  6
CONTINUOUS
 62
     7
 10
-312.1945
 20
-71.30667
 40
0.53019
 50
111.6869
 51
180.0
  0
ARC
  8
0
  6
CONTINUOUS
 62
     7
 10
-312.0177
 20
-71.42661
 40
0.17673
 50
111.6866
 51
180.0
  0
ARC
  8
0
  6
CONTINUOUS
 62
     7
 10
-300.9867
 20
-77.49362
 40
0.80001
 50
286.1917
 51
0.0
  0
ARC
  8
0
  6
CONTINUOUS
 62
     7
 10
-302.4367
 20
-72.49991
 40
6.0
 50
253.8088
 51
286.1912
  0
ARC
  8
0
  6
CONTINUOUS
 62
     7
 10
-303.8867
 20
-77.49362
 40
0.79999
 50
180.0
 51
253.8083
  0
ARC
  8
0
  6
CONTINUOUS
 62
     7
 10
-311.4367
 20
-72.49991
 40
6.0
 50
253.8088
 51
286.1912
  0
ARC
  8
0
  6
CONTINUOUS
 62
     7
 10
-309.9867
 20
-77.49362
 40
0.80001
 50
286.1917
 51
298.0148
  0
ARC
  8
0
  6
CONTINUOUS
 62
     7
 10
-312.8867
 20
-77.49362
 40
0.80001
 50
241.9852
 51
253.8083
  0
ARC
  8
0
  6
CONTINUOUS
 62
     7
 10
-310.2802
 20
-83.84836
 40
9.84738
 50
251.3039
 51
288.696
  0
ARC
  8
0
  6
CONTINUOUS
 62
     7
 10
-303.5933
 20
-83.84839
 40
9.84738
 50
251.3039
 51
288.696
  0
ARC
  8
0
  6
CONTINUOUS
 62
     7
 10
-45.43674
 20
-18.00012
 40
2.7
 50
42.20544
 51
317.7946
  0
ARC
  8
0
  6
CONTINUOUS
 62
     7
 10
-56.43674
 20
-0.00012
 40
2.7
 50
0.0
 51
137.7946
  0
ARC
  8
0
  6
CONTINUOUS
 62
     7
 10
-56.43674
 20
-0.00012
 40
2.7
 50
222.2054
 51
0.0
  0
CIRCLE
  8
0
  6
CONTINUOUS
 62
     7
 10
-56.43674
 20
-0.00012
 40
1.4
  0
CIRCLE
  8
0
  6
CONTINUOUS
 62
     7
 10
-45.43674
 20
-18.00012
 40
1.4
  0
CIRCLE
  8
0
  6
CONTINUOUS
 62
     7
 10
-53.93674
 20
-14.00012
 40
2.5
  0
CIRCLE
  8
0
  6
CONTINUOUS
 62
     7
 10
-50.93674
 20
-46.50012
 40
1.5
  0
CIRCLE
  8
0
  6
CONTINUOUS
 62
     7
 10
-50.93674
 20
20.49988
 40
1.5
  0
CIRCLE
  8
0
  6
CONTINUOUS
 62
     7
 10
-47.93674
 20
-4.00012
 40
2.5
  0
CIRCLE
  8
0
  6
CONTINUOUS
 62
     7
 10
-53.93674
 20
-14.00012
 40
1.75001
  0
CIRCLE
  8
0
  6
CONTINUOUS
 62
     7
 10
-47.93674
 20
-4.00012
 40
1.75001
  0
ARC
  8
0
  6
CONTINUOUS
 62
     7
 10
-57.83676
 20
34.09988
 40
0.5
 50
180.0
 51
270.0
  0
ARC
  8
0
  6
CONTINUOUS
 62
     7
 10
-44.03671
 20
34.09988
 40
0.5
 50
270.0
 51
0.0
  0
ARC
  8
0
  6
CONTINUOUS
 62
     7
 10
-57.83676
 20
47.89987
 40
0.5
 50
89.99999
 51
180.0
  0
ARC
  8
0
  6
CONTINUOUS
 62
     7
 10
-44.03671
 20
47.89987
 40
0.5
 50
0.0
 51
89.99999
  0
CIRCLE
  8
0
  6
CONTINUOUS
 62
     7
 10
-50.93674
 20
40.99988
 40
2.8
  0
ARC
  8
0
  6
CONTINUOUS
 62
     7
 10
-50.93674
 20
42.27267
 40
0.6
 50
225.0
 51
315.0
  0
ARC
  8
0
  6
CONTINUOUS
 62
     7
 10
-52.2095
 20
40.99988
 40
0.6
 50
315.0
 51
45.0
  0
ARC
  8
0
  6
CONTINUOUS
 62
     7
 10
-49.66397
 20
40.99988
 40
0.6
 50
135.0
 51
225.0
  0
ARC
  8
0
  6
CONTINUOUS
 62
     7
 10
-50.93674
 20
39.72708
 40
0.6
 50
45.0
 51
135.0
  0
CIRCLE
  8
0
  6
CONTINUOUS
 62
     7
 10
-50.93674
 20
40.99988
 40
3.25
  0
ARC
  8
0
  6
CONTINUOUS
 62
     7
 10
-47.59329
 20
57.84836
 40
9.84738
 50
71.30401
 51
108.696
  0
ARC
  8
0
  6
CONTINUOUS
 62
     7
 10
-54.28018
 20
57.84836
 40
9.84738
 50
71.30401
 51
108.696
  0
ARC
  8
0
  6
CONTINUOUS
 62
     7
 10
-44.03671
 20
-60.10025
 40
0.5
 50
0.0
 51
89.99999
  0
ARC
  8
0
  6
CONTINUOUS
 62
     7
 10
-57.83676
 20
-60.10025
 40
0.5
 50
89.99999
 51
180.0
  0
ARC
  8
0
  6
CONTINUOUS
 62
     7
 10
-44.03671
 20
-73.90024
 40
0.5
 50
270.0
 51
0.0
  0
ARC
  8
0
  6
CONTINUOUS
 62
     7
 10
-57.8367
 20
-73.90024
 40
0.5
 50
180.0
 51
270.0
  0
CIRCLE
  8
0
  6
CONTINUOUS
 62
     7
 10
-50.93674
 20
-67.00024
 40
2.8
  0
ARC
  8
0
  6
CONTINUOUS
 62
     7
 10
-50.93674
 20
-68.27304
 40
0.6
 50
45.0
 51
135.0
  0
ARC
  8
0
  6
CONTINUOUS
 62
     7
 10
-49.66397
 20
-67.00024
 40
0.6
 50
135.0
 51
225.0
  0
ARC
  8
0
  6
CONTINUOUS
 62
     7
 10
-52.2095
 20
-67.00024
 40
0.6
 50
315.0
 51
45.0
  0
ARC
  8
0
  6
CONTINUOUS
 62
     7
 10
-50.93674
 20
-65.72745
 40
0.6
 50
225.0
 51
315.0
  0
CIRCLE
  8
0
  6
CONTINUOUS
 62
     7
 10
-50.93674
 20
-67.00024
 40
3.25
  0
ARC
  8
0
  6
CONTINUOUS
 62
     7
 10
-54.28018
 20
-83.84872
 40
9.84738
 50
251.304
 51
288.696
  0
ARC
  8
0
  6
CONTINUOUS
 62
     7
 10
-47.59329
 20
-83.84872
 40
9.84738
 50
251.304
 51
288.696
  0
ARC
  8
0
  6
CONTINUOUS
 62
     7
 10
-185.4368
 20
-173.5
 40
3.0
 50
89.99999
 51
180.0
  0
ARC
  8
0
  6
CONTINUOUS
 62
     7
 10
-203.4368
 20
-164.5
 40
3.0
 50
270.0
 51
0.0
  0
ARC
  8
0
  6
CONTINUOUS
 62
     7
 10
-185.4368
 20
-173.5
 40
2.55
 50
276.7564
 51
263.2436
  0
ARC
  8
0
  6
CONTINUOUS
 62
     7
 10
-203.4368
 20
-164.5
 40
2.55
 50
96.7564
 51
83.24359
  0
CIRCLE
  8
0
  6
CONTINUOUS
 62
     7
 10
-185.4368
 20
-173.5
 40
2.25
  0
ARC
  8
0
  6
CONTINUOUS
 62
     7
 10
-185.4368
 20
-172.3969
 40
0.51999
 50
225.0
 51
315.0
  0
ARC
  8
0
  6
CONTINUOUS
 62
     7
 10
-186.5399
 20
-173.5
 40
0.51999
 50
315.0
 51
45.0
  0
ARC
  8
0
  6
CONTINUOUS
 62
     7
 10
-184.3337
 20
-173.5
 40
0.51999
 50
135.0
 51
225.0
  0
ARC
  8
0
  6
CONTINUOUS
 62
     7
 10
-185.4368
 20
-174.603
 40
0.51999
 50
45.0
 51
135.0
  0
CIRCLE
  8
0
  6
CONTINUOUS
 62
     7
 10
-203.4368
 20
-164.5
 40
2.25
  0
ARC
  8
0
  6
CONTINUOUS
 62
     7
 10
-203.4368
 20
-163.3969
 40
0.51999
 50
225.0
 51
315.0
  0
ARC
  8
0
  6
CONTINUOUS
 62
     7
 10
-204.5399
 20
-164.5
 40
0.51999
 50
315.0
 51
45.0
  0
ARC
  8
0
  6
CONTINUOUS
 62
     7
 10
-202.3337
 20
-164.5
 40
0.51999
 50
135.0
 51
225.0
  0
ARC
  8
0
  6
CONTINUOUS
 62
     7
 10
-203.4368
 20
-165.603
 40
0.51999
 50
45.0
 51
135.0
  0
ARC
  8
0
  6
CONTINUOUS
 62
     7
 10
-205.9368
 20
-162.0
 40
0.5
 50
89.99999
 51
180.0
  0
ARC
  8
0
  6
CONTINUOUS
 62
     7
 10
-205.9368
 20
-176.0
 40
0.5
 50
180.0
 51
270.0
  0
ARC
  8
0
  6
CONTINUOUS
 62
     7
 10
-152.9368
 20
-162.1
 40
0.5
 50
0.0
 51
89.99999
  0
ARC
  8
0
  6
CONTINUOUS
 62
     7
 10
-152.9368
 20
-175.8999
 40
0.5
 50
270.0
 51
0.0
  0
ARC
  8
0
  6
CONTINUOUS
 62
     7
 10
-155.0368
 20
-169.0
 40
5.0
 50
330.5077
 51
29.49228
  0
ARC
  8
0
  6
CONTINUOUS
 62
     7
 10
-151.265
 20
-171.1333
 40
0.66667
 50
270.0
 51
330.5077
  0
ARC
  8
0
  6
CONTINUOUS
 62
     7
 10
-151.265
 20
-166.8666
 40
0.66666
 50
29.49227
 51
89.99999
  0
ARC
  8
0
  6
CONTINUOUS
 62
     7
 10
172.4368
 20
0.0
 40
2.7
 50
222.2054
 51
0.0
  0
ARC
  8
0
  6
CONTINUOUS
 62
     7
 10
172.4368
 20
0.0
 40
2.7
 50
0.0
 51
137.7946
  0
ARC
  8
0
  6
CONTINUOUS
 62
     7
 10
183.4368
 20
-18.0
 40
2.7
 50
42.20544
 51
317.7946
  0
CIRCLE
  8
0
  6
CONTINUOUS
 62
     7
 10
183.4368
 20
-18.0
 40
1.4
  0
CIRCLE
  8
0
  6
CONTINUOUS
 62
     7
 10
172.4368
 20
0.0
 40
1.4
  0
CIRCLE
  8
0
  6
CONTINUOUS
 62
     7
 10
177.9368
 20
18.50002
 40
1.65
  0
CIRCLE
  8
0
  6
CONTINUOUS
 62
     7
 10
177.9368
 20
-48.50002
 40
1.65
  0
CIRCLE
  8
0
  6
CONTINUOUS
 62
     7
 10
177.9368
 20
39.0
 40
3.25
  0
ARC
  8
0
  6
CONTINUOUS
 62
     7
 10
174.5933
 20
55.84848
 40
9.84738
 50
71.30403
 51
108.696
  0
ARC
  8
0
  6
CONTINUOUS
 62
     7
 10
177.9368
 20
37.7272
 40
0.6
 50
44.99949
 51
135.0005
  0
ARC
  8
0
  6
CONTINUOUS
 62
     7
 10
181.2802
 20
55.84846
 40
9.84738
 50
71.30403
 51
108.696
  0
ARC
  8
0
  6
CONTINUOUS
 62
     7
 10
171.0368
 20
32.10001
 40
0.5
 50
180.0
 51
270.0
  0
ARC
  8
0
  6
CONTINUOUS
 62
     7
 10
184.8368
 20
32.10001
 40
0.5
 50
270.0
 51
0.0
  0
ARC
  8
0
  6
CONTINUOUS
 62
     7
 10
171.0368
 20
45.89999
 40
0.5
 50
89.99999
 51
180.0
  0
ARC
  8
0
  6
CONTINUOUS
 62
     7
 10
184.8368
 20
45.89999
 40
0.5
 50
0.0
 51
89.99999
  0
CIRCLE
  8
0
  6
CONTINUOUS
 62
     7
 10
177.9368
 20
39.0
 40
2.8
  0
ARC
  8
0
  6
CONTINUOUS
 62
     7
 10
177.9368
 20
40.2728
 40
0.6
 50
224.9995
 51
315.0005
  0
ARC
  8
0
  6
CONTINUOUS
 62
     7
 10
176.664
 20
39.0
 40
0.6
 50
315.0005
 51
44.99949
  0
ARC
  8
0
  6
CONTINUOUS
 62
     7
 10
179.2096
 20
39.0
 40
0.6
 50
135.0005
 51
224.9995
  0
CIRCLE
  8
0
  6
CONTINUOUS
 62
     7
 10
177.9368
 20
-69.00002
 40
3.25
  0
ARC
  8
0
  6
CONTINUOUS
 62
     7
 10
181.2802
 20
-85.84846
 40
9.84738
 50
251.304
 51
288.696
  0
ARC
  8
0
  6
CONTINUOUS
 62
     7
 10
177.9368
 20
-67.72719
 40
0.6
 50
224.9995
 51
315.0005
  0
ARC
  8
0
  6
CONTINUOUS
 62
     7
 10
174.5933
 20
-85.84846
 40
9.84738
 50
251.304
 51
288.696
  0
ARC
  8
0
  6
CONTINUOUS
 62
     7
 10
184.8368
 20
-62.09999
 40
0.5
 50
0.0
 51
89.99999
  0
ARC
  8
0
  6
CONTINUOUS
 62
     7
 10
171.0368
 20
-62.09999
 40
0.5
 50
89.99999
 51
180.0
  0
ARC
  8
0
  6
CONTINUOUS
 62
     7
 10
184.8368
 20
-75.90001
 40
0.5
 50
270.0
 51
0.0
  0
ARC
  8
0
  6
CONTINUOUS
 62
     7
 10
171.0368
 20
-75.89998
 40
0.5
 50
180.0
 51
270.0
  0
CIRCLE
  8
0
  6
CONTINUOUS
 62
     7
 10
177.9368
 20
-69.00002
 40
2.8
  0
ARC
  8
0
  6
CONTINUOUS
 62
     7
 10
177.9368
 20
-70.27278
 40
0.6
 50
44.99949
 51
135.0005
  0
ARC
  8
0
  6
CONTINUOUS
 62
     7
 10
179.2096
 20
-69.00002
 40
0.6
 50
135.0005
 51
224.9995
  0
ARC
  8
0
  6
CONTINUOUS
 62
     7
 10
176.664
 20
-69.00002
 40
0.6
 50
315.0005
 51
44.99949
  0
ARC
  8
0
  6
CONTINUOUS
 62
     7
 10
173.4367
 20
124.0
 40
3.0
 50
0.0
 51
89.99999
  0
ARC
  8
0
  6
CONTINUOUS
 62
     7
 10
182.4367
 20
142.0
 40
3.0
 50
180.0
 51
270.0
  0
ARC
  8
0
  6
CONTINUOUS
 62
     7
 10
173.4367
 20
124.0
 40
2.55
 50
186.7562
 51
173.2436
  0
ARC
  8
0
  6
CONTINUOUS
 62
     7
 10
182.4367
 20
142.0
 40
2.55
 50
6.75641
 51
353.2436
  0
CIRCLE
  8
0
  6
CONTINUOUS
 62
     7
 10
173.4367
 20
124.0
 40
2.25
  0
ARC
  8
0
  6
CONTINUOUS
 62
     7
 10
174.5398
 20
124.0
 40
0.52
 50
134.9994
 51
225.0006
  0
ARC
  8
0
  6
CONTINUOUS
 62
     7
 10
173.4367
 20
125.1031
 40
0.52
 50
225.0006
 51
314.9994
  0
ARC
  8
0
  6
CONTINUOUS
 62
     7
 10
173.4367
 20
122.8969
 40
0.52
 50
45.0006
 51
134.9994
  0
ARC
  8
0
  6
CONTINUOUS
 62
     7
 10
172.3336
 20
124.0
 40
0.52
 50
314.9994
 51
45.0006
  0
CIRCLE
  8
0
  6
CONTINUOUS
 62
     7
 10
182.4367
 20
142.0
 40
2.25
  0
ARC
  8
0
  6
CONTINUOUS
 62
     7
 10
183.5398
 20
142.0
 40
0.51999
 50
135.0
 51
225.0
  0
ARC
  8
0
  6
CONTINUOUS
 62
     7
 10
182.4367
 20
143.1031
 40
0.51999
 50
225.0
 51
315.0
  0
ARC
  8
0
  6
CONTINUOUS
 62
     7
 10
182.4367
 20
140.8969
 40
0.51999
 50
45.0
 51
135.0
  0
ARC
  8
0
  6
CONTINUOUS
 62
     7
 10
181.3336
 20
142.0
 40
0.51999
 50
315.0
 51
45.0
  0
ARC
  8
0
  6
CONTINUOUS
 62
     7
 10
184.9367
 20
144.5
 40
0.5
 50
0.0
 51
89.99999
  0
ARC
  8
0
  6
CONTINUOUS
 62
     7
 10
170.9367
 20
144.5
 40
0.5
 50
89.99999
 51
180.0
  0
CIRCLE
  8
0
  6
CONTINUOUS
 62
     7
 10
177.9367
 20
98.40002
 40
7.4
  0
CIRCLE
  8
0
  6
CONTINUOUS
 62
     7
 10
177.9367
 20
98.40002
 40
3.8
  0
CIRCLE
  8
0
  6
CONTINUOUS
 62
     7
 10
177.9367
 20
98.40002
 40
5.8
  0
ARC
  8
0
  6
CONTINUOUS
 62
     7
 10
171.0367
 20
91.50003
 40
0.5
 50
180.0
 51
270.0
  0
ARC
  8
0
  6
CONTINUOUS
 62
     7
 10
177.9367
 20
93.60002
 40
5.0
 50
240.5077
 51
299.4923
  0
ARC
  8
0
  6
CONTINUOUS
 62
     7
 10
180.0701
 20
89.8282
 40
0.66667
 50
299.4919
 51
0.0
  0
ARC
  8
0
  6
CONTINUOUS
 62
     7
 10
175.8034
 20
89.8282
 40
0.66667
 50
180.0
 51
240.508
  0
ARC
  8
0
  6
CONTINUOUS
 62
     7
 10
184.8367
 20
91.50003
 40
0.5
 50
270.0
 51
0.0
  0
ARC
  8
0
  6
CONTINUOUS
 62
     7
 10
77.60861
 20
41.13333
 40
0.66667
 50
29.49223
 51
89.99999
  0
ARC
  8
0
  6
CONTINUOUS
 62
     7
 10
69.03677
 20
53.39838
 40
12.29748
 50
73.28473
 51
106.7153
  0
ARC
  8
0
  6
CONTINUOUS
 62
     7
 10
74.66714
 20
62.42261
 40
3.27324
 50
62.72881
 51
122.7273
  0
ARC
  8
0
  6
CONTINUOUS
 62
     7
 10
63.40646
 20
62.42259
 40
3.27327
 50
57.27274
 51
117.2729
  0
ARC
  8
0
  6
CONTINUOUS
 62
     7
 10
43.4368
 20
44.5
 40
6.0
 50
73.80869
 51
106.1913
  0
ARC
  8
0
  6
CONTINUOUS
 62
     7
 10
44.88681
 20
49.49374
 40
0.8
 50
0.0
 51
73.80872
  0
ARC
  8
0
  6
CONTINUOUS
 62
     7
 10
41.98679
 20
49.49374
 40
0.8
 50
106.1913
 51
180.0
  0
ARC
  8
0
  6
CONTINUOUS
 62
     7
 10
25.4368
 20
44.49998
 40
6.0
 50
73.80865
 51
106.1913
  0
ARC
  8
0
  6
CONTINUOUS
 62
     7
 10
23.98679
 20
49.49373
 40
0.8
 50
106.1914
 51
118.0138
  0
ARC
  8
0
  6
CONTINUOUS
 62
     7
 10
26.88681
 20
49.49373
 40
0.8
 50
61.98621
 51
73.80872
  0
ARC
  8
0
  6
CONTINUOUS
 62
     7
 10
75.9368
 20
32.10001
 40
0.5
 50
270.0
 51
0.0
  0
ARC
  8
0
  6
CONTINUOUS
 62
     7
 10
75.9368
 20
45.89999
 40
0.5
 50
0.0
 51
89.99999
  0
ARC
  8
0
  6
CONTINUOUS
 62
     7
 10
73.83682
 20
39.0
 40
5.0
 50
330.5076
 51
29.49236
  0
ARC
  8
0
  6
CONTINUOUS
 62
     7
 10
77.60861
 20
36.86667
 40
0.66667
 50
270.0
 51
330.5078
  0
ARC
  8
0
  6
CONTINUOUS
 62
     7
 10
74.66714
 20
-92.42262
 40
3.27325
 50
237.2725
 51
297.2712
  0
ARC
  8
0
  6
CONTINUOUS
 62
     7
 10
77.60861
 20
-71.13335
 40
0.66666
 50
270.0
 51
330.5075
  0
ARC
  8
0
  6
CONTINUOUS
 62
     7
 10
77.60861
 20
-66.86665
 40
0.66667
 50
29.49195
 51
89.99999
  0
ARC
  8
0
  6
CONTINUOUS
 62
     7
 10
69.03677
 20
-83.39839
 40
12.29748
 50
253.2847
 51
286.7152
  0
ARC
  8
0
  6
CONTINUOUS
 62
     7
 10
63.4064
 20
-92.42259
 40
3.27326
 50
242.727
 51
302.7273
  0
ARC
  8
0
  6
CONTINUOUS
 62
     7
 10
25.4368
 20
-74.50002
 40
6.0
 50
253.8087
 51
286.1913
  0
ARC
  8
0
  6
CONTINUOUS
 62
     7
 10
23.98679
 20
-79.49373
 40
0.8
 50
180.0
 51
253.8088
  0
ARC
  8
0
  6
CONTINUOUS
 62
     7
 10
26.88681
 20
-79.49373
 40
0.8
 50
286.1915
 51
0.0
  0
ARC
  8
0
  6
CONTINUOUS
 62
     7
 10
43.4368
 20
-74.49998
 40
6.0
 50
253.8087
 51
286.1913
  0
ARC
  8
0
  6
CONTINUOUS
 62
     7
 10
44.88681
 20
-79.49373
 40
0.8
 50
286.1913
 51
298.0138
  0
ARC
  8
0
  6
CONTINUOUS
 62
     7
 10
41.98679
 20
-79.49373
 40
0.8
 50
241.9862
 51
253.8088
  0
ARC
  8
0
  6
CONTINUOUS
 62
     7
 10
75.9368
 20
-62.10002
 40
0.5
 50
0.0
 51
89.99999
  0
ARC
  8
0
  6
CONTINUOUS
 62
     7
 10
75.9368
 20
-75.90001
 40
0.5
 50
270.0
 51
0.0
  0
ARC
  8
0
  6
CONTINUOUS
 62
     7
 10
75.9368
 20
-62.10002
 40
0.5
 50
0.0
 51
89.99999
  0
ARC
  8
0
  6
CONTINUOUS
 62
     7
 10
75.9368
 20
-75.90001
 40
0.5
 50
270.0
 51
0.0
  0
ARC
  8
0
  6
CONTINUOUS
 62
     7
 10
73.83676
 20
-69.00002
 40
5.0
 50
330.5076
 51
29.49228
  0
ARC
  8
0
  6
CONTINUOUS
 62
     7
 10
280.2064
 20
62.42264
 40
3.27324
 50
57.27263
 51
117.2712
  0
ARC
  8
0
  6
CONTINUOUS
 62
     7
 10
277.265
 20
41.13336
 40
0.66667
 50
89.99999
 51
150.5081
  0
ARC
  8
0
  6
CONTINUOUS
 62
     7
 10
277.265
 20
36.8667
 40
0.66668
 50
209.4919
 51
270.0
  0
ARC
  8
0
  6
CONTINUOUS
 62
     7
 10
285.8368
 20
53.39841
 40
12.29748
 50
73.2847
 51
106.7152
  0
ARC
  8
0
  6
CONTINUOUS
 62
     7
 10
291.4671
 20
62.42262
 40
3.27326
 50
62.72702
 51
122.7271
  0
ARC
  8
0
  6
CONTINUOUS
 62
     7
 10
329.4368
 20
44.50003
 40
6.0
 50
73.80876
 51
106.1912
  0
ARC
  8
0
  6
CONTINUOUS
 62
     7
 10
330.8868
 20
49.49377
 40
0.79999
 50
0.0
 51
73.8082
  0
ARC
  8
0
  6
CONTINUOUS
 62
     7
 10
327.9868
 20
49.49377
 40
0.8
 50
106.1918
 51
180.0
  0
ARC
  8
0
  6
CONTINUOUS
 62
     7
 10
311.4368
 20
44.50002
 40
6.0
 50
73.80876
 51
106.1912
  0
ARC
  8
0
  6
CONTINUOUS
 62
     7
 10
309.9868
 20
49.49376
 40
0.8
 50
106.1918
 51
118.0148
  0
ARC
  8
0
  6
CONTINUOUS
 62
     7
 10
312.8868
 20
49.49376
 40
0.80001
 50
61.98524
 51
73.8082
  0
ARC
  8
0
  6
CONTINUOUS
 62
     7
 10
278.9368
 20
32.10004
 40
0.5
 50
180.0
 51
270.0
  0
ARC
  8
0
  6
CONTINUOUS
 62
     7
 10
278.9368
 20
45.90002
 40
0.5
 50
89.99999
 51
180.0
  0
ARC
  8
0
  6
CONTINUOUS
 62
     7
 10
278.9368
 20
32.10004
 40
0.5
 50
180.0
 51
270.0
  0
ARC
  8
0
  6
CONTINUOUS
 62
     7
 10
278.9368
 20
45.90002
 40
0.5
 50
89.99999
 51
180.0
  0
ARC
  8
0
  6
CONTINUOUS
 62
     7
 10
281.0368
 20
39.00003
 40
5.00001
 50
150.5076
 51
209.4923
  0
ARC
  8
0
  6
CONTINUOUS
 62
     7
 10
277.2649
 20
-71.13332
 40
0.66668
 50
209.4922
 51
270.0
  0
ARC
  8
0
  6
CONTINUOUS
 62
     7
 10
285.8368
 20
-83.39833
 40
12.29749
 50
253.2847
 51
286.7153
  0
ARC
  8
0
  6
CONTINUOUS
 62
     7
 10
280.2064
 20
-92.42256
 40
3.27325
 50
242.7287
 51
302.7274
  0
ARC
  8
0
  6
CONTINUOUS
 62
     7
 10
291.4671
 20
-92.42256
 40
3.27326
 50
237.2728
 51
297.273
  0
ARC
  8
0
  6
CONTINUOUS
 62
     7
 10
311.4368
 20
-74.49995
 40
6.0
 50
253.8088
 51
286.1912
  0
ARC
  8
0
  6
CONTINUOUS
 62
     7
 10
309.9868
 20
-79.49373
 40
0.79999
 50
180.0
 51
253.8083
  0
ARC
  8
0
  6
CONTINUOUS
 62
     7
 10
312.8867
 20
-79.49373
 40
0.8
 50
286.1919
 51
0.0
  0
ARC
  8
0
  6
CONTINUOUS
 62
     7
 10
329.4368
 20
-74.49995
 40
6.0
 50
253.8088
 51
286.1912
  0
ARC
  8
0
  6
CONTINUOUS
 62
     7
 10
330.8867
 20
-79.4937
 40
0.8
 50
286.1919
 51
298.0148
  0
ARC
  8
0
  6
CONTINUOUS
 62
     7
 10
327.9868
 20
-79.4937
 40
0.79999
 50
241.9872
 51
253.8083
  0
ARC
  8
0
  6
CONTINUOUS
 62
     7
 10
278.9368
 20
-62.09996
 40
0.5
 50
89.99999
 51
180.0
  0
ARC
  8
0
  6
CONTINUOUS
 62
     7
 10
278.9368
 20
-75.89998
 40
0.5
 50
180.0
 51
270.0
  0
ARC
  8
0
  6
CONTINUOUS
 62
     7
 10
281.0368
 20
-68.99995
 40
5.0
 50
150.5077
 51
209.4924
  0
ARC
  8
0
  6
CONTINUOUS
 62
     7
 10
277.2649
 20
-66.86662
 40
0.66666
 50
89.99999
 51
150.5084
  0
ARC
  8
0
  6
CONTINUOUS
 62
     7
 10
182.4368
 20
-160.0
 40
3.0
 50
180.0
 51
270.0
  0
ARC
  8
0
  6
CONTINUOUS
 62
     7
 10
173.4368
 20
-178.0
 40
3.0
 50
0.0
 51
89.99999
  0
ARC
  8
0
  6
CONTINUOUS
 62
     7
 10
182.4368
 20
-160.0
 40
2.55
 50
6.75641
 51
353.2436
  0
ARC
  8
0
  6
CONTINUOUS
 62
     7
 10
173.4368
 20
-178.0
 40
2.55
 50
186.7564
 51
173.2436
  0
CIRCLE
  8
0
  6
CONTINUOUS
 62
     7
 10
182.4368
 20
-160.0
 40
2.25
  0
ARC
  8
0
  6
CONTINUOUS
 62
     7
 10
181.3337
 20
-160.0
 40
0.51999
 50
315.0
 51
45.0
  0
ARC
  8
0
  6
CONTINUOUS
 62
     7
 10
182.4368
 20
-161.103
 40
0.51999
 50
45.0
 51
135.0
  0
ARC
  8
0
  6
CONTINUOUS
 62
     7
 10
182.4368
 20
-158.8969
 40
0.51999
 50
225.0
 51
315.0
  0
ARC
  8
0
  6
CONTINUOUS
 62
     7
 10
183.5399
 20
-160.0
 40
0.51999
 50
135.0
 51
225.0
  0
CIRCLE
  8
0
  6
CONTINUOUS
 62
     7
 10
173.4368
 20
-178.0
 40
2.25
  0
ARC
  8
0
  6
CONTINUOUS
 62
     7
 10
172.3337
 20
-178.0
 40
0.51999
 50
315.0
 51
45.0
  0
ARC
  8
0
  6
CONTINUOUS
 62
     7
 10
173.4368
 20
-179.103
 40
0.51999
 50
45.0
 51
135.0
  0
ARC
  8
0
  6
CONTINUOUS
 62
     7
 10
173.4368
 20
-176.8969
 40
0.51999
 50
225.0
 51
315.0
  0
ARC
  8
0
  6
CONTINUOUS
 62
     7
 10
174.5399
 20
-178.0
 40
0.51999
 50
135.0
 51
225.0
  0
ARC
  8
0
  6
CONTINUOUS
 62
     7
 10
170.9368
 20
-180.5
 40
0.5
 50
180.0
 51
270.0
  0
ARC
  8
0
  6
CONTINUOUS
 62
     7
 10
184.9368
 20
-180.5
 40
0.5
 50
270.0
 51
0.0
  0
CIRCLE
  8
0
  6
CONTINUOUS
 62
     7
 10
177.9368
 20
-134.3999
 40
7.4
  0
CIRCLE
  8
0
  6
CONTINUOUS
 62
     7
 10
177.9368
 20
-134.3999
 40
3.8
  0
CIRCLE
  8
0
  6
CONTINUOUS
 62
     7
 10
177.9368
 20
-134.3999
 40
5.8
  0
ARC
  8
0
  6
CONTINUOUS
 62
     7
 10
184.8368
 20
-127.5
 40
0.5
 50
0.0
 51
89.99999
  0
ARC
  8
0
  6
CONTINUOUS
 62
     7
 10
177.9368
 20
-129.6
 40
5.0
 50
60.50768
 51
119.4923
  0
ARC
  8
0
  6
CONTINUOUS
 62
     7
 10
175.8034
 20
-125.8281
 40
0.66667
 50
119.4919
 51
180.0
  0
ARC
  8
0
  6
CONTINUOUS
 62
     7
 10
180.0701
 20
-125.8281
 40
0.66667
 50
0.0
 51
60.50805
  0
ARC
  8
0
  6
CONTINUOUS
 62
     7
 10
171.0368
 20
-127.5
 40
0.5
 50
89.99999
 51
180.0
  0
TEXT
  8
0
  6
CONTINUOUS
 62
     7
 10
-350.9787
 20
200.5946
 40
8.5
  1
MODEL : 113-4E2-39
 41
0.8
  7
STANDARD
  0
TEXT
  8
0
  6
CONTINUOUS
 62
     7
 10
229.0661
 20
236.2625
 40
8.5
  1
DATE : NOV ,1989
 41
0.8
  7
STANDARD
  0
TEXT
  8
0
  6
CONTINUOUS
 62
     7
 10
-370.6519
 20
235.5575
 40
10.0
  1
110 CONNECTOR -39
 41
0.73013
  7
STANDARD
  0
TEXT
  8
0
  6
CONTINUOUS
 62
     7
 10
19.88928
 20
200.5946
 40
8.5
  1
MODEL : A113-4E2-39
 41
0.8
  7
STANDARD
  0
TEXT
  8
0
  6
CONTINUOUS
 62
     7
 10
-313.4374
 20
-4.08157
 40
2.0
  1
R1
 41
0.8
  7
STANDARD
  0
TEXT
  8
0
  6
CONTINUOUS
 62
     7
 10
-310.7472
 20
-13.14352
 40
2.0
  1
P
 41
0.8
  7
STANDARD
  0
TEXT
  8
0
  6
CONTINUOUS
 62
     7
 10
-303.3843
 20
-15.83377
 40
2.0
  1
R2
 41
0.8
  7
STANDARD
  0
TEXT
  8
0
  6
CONTINUOUS
 62
     7
 10
-46.90057
 20
-1.30002
 40
2.0
  1
A
 41
0.8
  7
STANDARD
  0
TEXT
  8
0
  6
CONTINUOUS
 62
     7
 10
-57.30767
 20
-18.31476
 40
2.0
  1
B
 41
0.8
  7
STANDARD
  0
ENDSEC
  0
EOF
