  0
SECTION
  2
HEADER
  9
$ACADVER
  1
AC1002
  9
$INSBASE
 10
0.0
 20
0.0
  9
$EXTMIN
 10
-185.4368
 20
-127.2792
  9
$EXTMAX
 10
185.4368
 20
127.2792
  9
$LIMMIN
 10
0.0
 20
0.0
  9
$LIMMAX
 10
12.0
 20
9.0
  9
$VIEWCTR
 10
14.30458208
 20
0.0
  9
$VIEWSIZE
 40
254.5584
  9
$SNAPMODE
 70
     0
  9
$SNAPUNIT
 10
1.0
 20
1.0
  9
$SNAPBASE
 10
0.0
 20
0.0
  9
$SNAPANG
 50
0.0
  9
$SNAPSTYLE
 70
     0
  9
$SNAPISOPAIR
 70
     0
  9
$GRIDMODE
 70
     0
  9
$GRIDUNIT
 10
0.0
 20
0.0
  9
$ORTHOMODE
 70
     0
  9
$REGENMODE
 70
     1
  9
$FILLMODE
 70
     1
  9
$QTEXTMODE
 70
     0
  9
$DRAGMODE
 70
     2
  9
$LTSCALE
 40
1.0
  9
$OSMODE
 70
     0
  9
$ATTMODE
 70
     1
  9
$TEXTSIZE
 40
0.2
  9
$TRACEWID
 40
0.05
  9
$TEXTSTYLE
  7
AAA
  9
$CLAYER
  8
0
  9
$CELTYPE
  6
BYLAYER
  9
$CECOLOR
 62
   256
  9
$DIMSCALE
 40
1.0
  9
$DIMASZ
 40
0.18
  9
$DIMEXO
 40
0.0625
  9
$DIMDLI
 40
0.38
  9
$DIMRND
 40
0.0
  9
$DIMDLE
 40
0.0
  9
$DIMEXE
 40
0.18
  9
$DIMTP
 40
0.0
  9
$DIMTM
 40
0.0
  9
$DIMTXT
 40
0.18
  9
$DIMCEN
 40
0.09
  9
$DIMTSZ
 40
0.0
  9
$DIMTOL
 70
     0
  9
$DIMLIM
 70
     0
  9
$DIMTIH
 70
     1
  9
$DIMTOH
 70
     1
  9
$DIMSE1
 70
     0
  9
$DIMSE2
 70
     0
  9
$DIMTAD
 70
     0
  9
$DIMZIN
 70
     0
  9
$DIMBLK
  1

  9
$LUNITS
 70
     2
  9
$LUPREC
 70
     4
  9
$AXISMODE
 70
     0
  9
$AXISUNIT
 10
0.0
 20
0.0
  9
$SKETCHINC
 40
0.1
  9
$FILLETRAD
 40
0.0
  9
$AUNITS
 70
     0
  9
$AUPREC
 70
     0
  9
$MENU
  1
ACAD
  9
$ELEVATION
 40
0.0
  9
$THICKNESS
 40
0.0
  9
$VIEWDIR
 10
0.0
 20
0.0
 30
1.0
  9
$LIMCHECK
 70
     0
  9
$BLIPMODE
 70
     1
  9
$CHAMFERA
 40
0.0
  9
$CHAMFERB
 40
0.0
  9
$FASTZOOM
 70
     1
  9
$SKPOLY
 70
     0
  9
$TDCREATE
 40
2447863.5617477344
  9
$TDUPDATE
 40
2447863.5617477344
  9
$TDINDWG
 40
0.0057638889
  9
$TDUSRTIMER
 40
0.0057638889
  9
$USRTIMER
 70
     1
  9
$ANGBASE
 50
0.0
  9
$ANGDIR
 70
     0
  9
$PDMODE
 70
     0
  9
$PDSIZE
 40
0.0
  9
$PLINEWID
 40
0.0
  9
$COORDS
 70
     0
  9
$USERI1
 70
     0
  9
$USERI2
 70
     0
  9
$USERI3
 70
     0
  9
$USERI4
 70
     0
  9
$USERI5
 70
     0
  9
$USERR1
 40
0.0
  9
$USERR2
 40
0.0
  9
$USERR3
 40
0.0
  9
$USERR4
 40
0.0
  9
$USERR5
 40
0.0
  0
ENDSEC
  0
SECTION
  2
TABLES
  0
TABLE
  2
LTYPE
 70
     3
  0
LTYPE
  2
CONTINUOUS
 70
    64
  3
SOLID
 72
    65
 73
     0
 40
0.0
  0
LTYPE
  2
CENTER
 70
    64
  3
CENTER
 72
    65
 73
     4
 40
2.0
 49
1.25
 49
-0.25
 49
0.25
 49
-0.25
  0
LTYPE
  2
PHANTOM
 70
    64
  3
PHANTOM
 72
    65
 73
     6
 40
2.5
 49
1.25
 49
-0.25
 49
0.25
 49
-0.25
 49
0.25
 49
-0.25
  0
ENDTAB
  0
TABLE
  2
LAYER
 70
     1
  0
LAYER
  2
0
 70
    64
 62
     7
  6
CONTINUOUS
  0
ENDTAB
  0
TABLE
  2
STYLE
 70
     2
  0
STYLE
  2
AAA
 70
     0
 40
0.0
 41
1.0
 50
0.0
 71
     0
 42
0.2
  3
TXT
  4

  0
STYLE
  2
STANDARD
 70
    64
 40
0.0
 41
1.0
 50
0.0
 71
     0
 42
0.2
  3
TXT
  4
BIGFONT
  0
ENDTAB
  0
TABLE
  2
VIEW
 70
     0
  0
ENDTAB
  0
ENDSEC
  0
SECTION
  2
BLOCKS
  0
ENDSEC
  0
SECTION
  2
ENTITIES
  0
POINT
  8
0
  6
CONTINUOUS
 62
     7
 10
-100.0
 20
5.00001
  0
POINT
  8
0
  6
CONTINUOUS
 62
     7
 10
-108.5
 20
6.00001
  0
POINT
  8
0
  6
CONTINUOUS
 62
     7
 10
-105.5
 20
-3.99999
  0
POINT
  8
0
  6
CONTINUOUS
 62
     7
 10
-102.5
 20
-13.99999
  0
POINT
  8
0
  6
CONTINUOUS
 62
     7
 10
-25.0
 20
85.0
  0
POINT
  8
0
  6
CONTINUOUS
 62
     7
 10
-1.0
 20
85.0
  0
POINT
  8
0
  6
CONTINUOUS
 62
     7
 10
-24.99999
 20
5.0
  0
POINT
  8
0
  6
CONTINUOUS
 62
     7
 10
-0.99999
 20
5.0
  0
POINT
  8
0
  6
CONTINUOUS
 62
     7
 10
-0.99999
 20
23.50001
  0
POINT
  8
0
  6
CONTINUOUS
 62
     7
 10
-0.99999
 20
-31.5
  0
POINT
  8
0
  6
CONTINUOUS
 62
     7
 10
85.00002
 20
5.0
  0
POINT
  8
0
  6
CONTINUOUS
 62
     7
 10
98.00002
 20
5.0
  0
POINT
  8
0
  6
CONTINUOUS
 62
     7
 10
93.50002
 20
1.0
  0
POINT
  8
0
  6
CONTINUOUS
 62
     7
 10
87.50002
 20
-9.0
  0
POINT
  8
0
  6
CONTINUOUS
 62
     7
 10
90.50002
 20
23.5
  0
POINT
  8
0
  6
CONTINUOUS
 62
     7
 10
90.50002
 20
-31.5
  0
POINT
  8
0
  6
CONTINUOUS
 62
     7
 10
-24.99998
 20
-85.99998
  0
POINT
  8
0
  6
CONTINUOUS
 62
     7
 10
-0.99998
 20
-85.99998
  0
LINE
  8
0
  6
CONTINUOUS
 62
     7
 10
-185.4368
 20
-127.2792
 11
-185.4368
 21
127.2792
  0
LINE
  8
0
  6
CONTINUOUS
 62
     7
 10
185.4368
 20
127.2792
 11
185.4368
 21
-127.2792
  0
LINE
  8
0
  6
CONTINUOUS
 62
     7
 10
-185.4368
 20
-127.2792
 11
185.4368
 21
-127.2792
  0
LINE
  8
0
  6
CONTINUOUS
 62
     7
 10
-185.4368
 20
127.2792
 11
185.4368
 21
127.2792
  0
LINE
  8
0
  6
CONTINUOUS
 62
     7
 10
-185.4368
 20
112.9782
 11
-109.1646
 21
112.9782
  0
LINE
  8
0
  6
CONTINUOUS
 62
     7
 10
-109.1646
 20
112.9782
 11
-109.1646
 21
127.2792
  0
LINE
  8
0
  6
CONTINUOUS
 62
     7
 10
109.1646
 20
-112.9782
 11
185.4368
 21
-112.9782
  0
LINE
  8
0
  6
CONTINUOUS
 62
     7
 10
129.1908
 20
-116.4169
 11
136.5177
 21
-116.4169
  0
LINE
  8
0
  6
CONTINUOUS
 62
     7
 10
129.1908
 20
-122.9143
 11
135.4118
 21
-122.9143
  0
LINE
  8
0
  6
CONTINUOUS
 62
     7
 10
129.1908
 20
-124.5732
 11
137.6237
 21
-124.5732
  0
LINE
  8
0
  6
CONTINUOUS
 62
     7
 10
129.1908
 20
-118.0758
 11
135.4118
 21
-118.0758
  0
LINE
  8
0
  6
CONTINUOUS
 62
     7
 10
129.1908
 20
-116.4169
 11
129.1908
 21
-118.0758
  0
LINE
  8
0
  6
CONTINUOUS
 62
     7
 10
137.6237
 20
-117.5228
 11
137.6237
 21
-124.5732
  0
LINE
  8
0
  6
CONTINUOUS
 62
     7
 10
135.4118
 20
-118.0758
 11
135.4118
 21
-122.9143
  0
LINE
  8
0
  6
CONTINUOUS
 62
     7
 10
138.8678
 20
-116.4169
 11
138.8678
 21
-118.0758
  0
LINE
  8
0
  6
CONTINUOUS
 62
     7
 10
146.7477
 20
-118.0758
 11
146.7477
 21
-123.4673
  0
LINE
  8
0
  6
CONTINUOUS
 62
     7
 10
144.5358
 20
-118.0758
 11
144.5358
 21
-122.9143
  0
LINE
  8
0
  6
CONTINUOUS
 62
     7
 10
129.1908
 20
-122.9143
 11
129.1908
 21
-124.5732
  0
LINE
  8
0
  6
CONTINUOUS
 62
     7
 10
138.8678
 20
-116.4169
 11
141.0533
 21
-116.4169
  0
LINE
  8
0
  6
CONTINUOUS
 62
     7
 10
138.8678
 20
-124.5732
 11
140.5853
 21
-124.5732
  0
LINE
  8
0
  6
CONTINUOUS
 62
     7
 10
138.8677
 20
-124.5732
 11
140.6088
 21
-118.0757
  0
LINE
  8
0
  6
CONTINUOUS
 62
     7
 10
138.8678
 20
-118.0758
 11
140.6088
 21
-118.0758
  0
LINE
  8
0
  6
CONTINUOUS
 62
     7
 10
140.5854
 20
-124.5734
 11
142.3264
 21
-118.0759
  0
LINE
  8
0
  6
CONTINUOUS
 62
     7
 10
142.8769
 20
-122.9143
 11
144.5358
 21
-122.9143
  0
LINE
  8
0
  6
CONTINUOUS
 62
     7
 10
142.8769
 20
-122.9143
 11
143.3214
 21
-124.5732
  0
LINE
  8
0
  6
CONTINUOUS
 62
     7
 10
143.3214
 20
-124.5732
 11
145.6418
 21
-124.5732
  0
LINE
  8
0
  6
CONTINUOUS
 62
     7
 10
142.3263
 20
-118.0758
 11
144.5358
 21
-118.0758
  0
LINE
  8
0
  6
CONTINUOUS
 62
     7
 10
142.7708
 20
-116.4169
 11
145.0888
 21
-116.4169
  0
LINE
  8
0
  6
CONTINUOUS
 62
     7
 10
141.0534
 20
-116.4169
 11
141.3831
 21
-115.1866
  0
LINE
  8
0
  6
CONTINUOUS
 62
     7
 10
142.7707
 20
-116.4168
 11
143.1003
 21
-115.1864
  0
LINE
  8
0
  6
CONTINUOUS
 62
     7
 10
148.1301
 20
-116.4169
 11
150.7568
 21
-116.4169
  0
LINE
  8
0
  6
CONTINUOUS
 62
     7
 10
148.1301
 20
-118.0758
 11
154.581
 21
-118.0758
  0
LINE
  8
0
  6
CONTINUOUS
 62
     7
 10
150.7568
 20
-124.5732
 11
152.9686
 21
-124.5732
  0
LINE
  8
0
  6
CONTINUOUS
 62
     7
 10
148.1301
 20
-116.4169
 11
148.1301
 21
-118.0758
  0
LINE
  8
0
  6
CONTINUOUS
 62
     7
 10
156.2865
 20
-121.0839
 11
156.2865
 21
-122.9143
  0
LINE
  8
0
  6
CONTINUOUS
 62
     7
 10
148.13
 20
-122.9142
 11
150.7567
 21
-121.6894
  0
LINE
  8
0
  6
CONTINUOUS
 62
     7
 10
148.1303
 20
-121.0841
 11
154.5812
 21
-118.0759
  0
LINE
  8
0
  6
CONTINUOUS
 62
     7
 10
148.1301
 20
-121.0839
 11
148.1301
 21
-122.9143
  0
LINE
  8
0
  6
CONTINUOUS
 62
     7
 10
152.9686
 20
-121.3672
 11
156.2865
 21
-122.9143
  0
LINE
  8
0
  6
CONTINUOUS
 62
     7
 10
154.1712
 20
-120.0975
 11
156.2867
 21
-121.084
  0
LINE
  8
0
  6
CONTINUOUS
 62
     7
 10
156.2865
 20
-117.5228
 11
156.2865
 21
-118.4064
  0
LINE
  8
0
  6
CONTINUOUS
 62
     7
 10
150.7568
 20
-115.1865
 11
150.7568
 21
-116.4169
  0
LINE
  8
0
  6
CONTINUOUS
 62
     7
 10
152.9686
 20
-115.1865
 11
152.9686
 21
-116.4169
  0
LINE
  8
0
  6
CONTINUOUS
 62
     7
 10
152.9686
 20
-116.4169
 11
155.1806
 21
-116.4169
  0
LINE
  8
0
  6
CONTINUOUS
 62
     7
 10
150.7568
 20
-121.6895
 11
150.7568
 21
-124.5732
  0
LINE
  8
0
  6
CONTINUOUS
 62
     7
 10
152.9686
 20
-121.3672
 11
152.9686
 21
-124.5732
  0
LINE
  8
0
  6
CONTINUOUS
 62
     7
 10
154.1712
 20
-120.0976
 11
155.6482
 21
-119.4089
  0
LINE
  8
0
  6
CONTINUOUS
 62
     7
 10
163.7517
 20
-115.6842
 11
165.4106
 21
-115.6842
  0
LINE
  8
0
  6
CONTINUOUS
 62
     7
 10
156.9777
 20
-119.1109
 11
156.9777
 21
-120.8962
  0
LINE
  8
0
  6
CONTINUOUS
 62
     7
 10
165.4106
 20
-115.6842
 11
165.4106
 21
-116.4169
  0
LINE
  8
0
  6
CONTINUOUS
 62
     7
 10
163.7517
 20
-115.6842
 11
163.7517
 21
-116.0417
  0
LINE
  8
0
  6
CONTINUOUS
 62
     7
 10
161.5397
 20
-119.0819
 11
161.5397
 21
-124.5732
  0
LINE
  8
0
  6
CONTINUOUS
 62
     7
 10
156.9778
 20
-119.111
 11
163.4031
 21
-116.5556
  0
LINE
  8
0
  6
CONTINUOUS
 62
     7
 10
156.9778
 20
-120.8963
 11
161.5398
 21
-119.0819
  0
LINE
  8
0
  6
CONTINUOUS
 62
     7
 10
161.5397
 20
-124.5732
 11
163.7517
 21
-124.5732
  0
LINE
  8
0
  6
CONTINUOUS
 62
     7
 10
163.7517
 20
-118.2022
 11
163.7517
 21
-124.5732
  0
LINE
  8
0
  6
CONTINUOUS
 62
     7
 10
163.7518
 20
-118.2023
 11
164.3649
 21
-117.9584
  0
LINE
  8
0
  6
CONTINUOUS
 62
     7
 10
141.2497
 20
-115.1865
 11
143.1004
 21
-115.1865
  0
LINE
  8
0
  6
CONTINUOUS
 62
     7
 10
145.8491
 20
-115.1865
 11
146.5541
 21
-115.1865
  0
LINE
  8
0
  6
CONTINUOUS
 62
     7
 10
150.7568
 20
-115.1865
 11
152.9686
 21
-115.1865
  0
LINE
  8
0
  6
CONTINUOUS
 62
     7
 10
145.8491
 20
-116.2925
 11
146.5541
 21
-116.2925
  0
LINE
  8
0
  6
CONTINUOUS
 62
     7
 10
145.8491
 20
-115.1865
 11
145.8491
 21
-116.2925
  0
LINE
  8
0
  6
CONTINUOUS
 62
     7
 10
146.5541
 20
-115.1865
 11
146.5541
 21
-116.2925
  0
LINE
  8
0
  6
CONTINUOUS
 62
     7
 10
146.9689
 20
-115.1865
 11
146.9689
 21
-116.2925
  0
LINE
  8
0
  6
CONTINUOUS
 62
     7
 10
147.7569
 20
-115.1865
 11
147.7569
 21
-116.2925
  0
LINE
  8
0
  6
CONTINUOUS
 62
     7
 10
146.9689
 20
-115.1865
 11
147.7569
 21
-115.1865
  0
LINE
  8
0
  6
CONTINUOUS
 62
     7
 10
146.9689
 20
-116.2925
 11
147.7569
 21
-116.2925
  0
LINE
  8
0
  6
CONTINUOUS
 62
     7
 10
109.1646
 20
112.9782
 11
185.4368
 21
112.9782
  0
LINE
  8
0
  6
CONTINUOUS
 62
     7
 10
109.1646
 20
127.2792
 11
109.1646
 21
112.9782
  0
LINE
  8
0
  6
CONTINUOUS
 62
     7
 10
109.1646
 20
-112.9782
 11
109.1646
 21
-127.2792
  0
LINE
  8
0
  6
CENTER
 62
     2
 10
11.81416
 20
90.5
 11
-27.0
 21
90.5
  0
LINE
  8
0
  6
CENTER
 62
     2
 10
24.0
 20
89.20001
 11
-3.99999
 21
89.20001
  0
LINE
  8
0
  6
CONTINUOUS
 62
     7
 10
11.0
 20
90.04999
 11
6.65588
 21
90.04999
  0
LINE
  8
0
  6
CONTINUOUS
 62
     7
 10
11.0
 20
88.35001
 11
6.20036
 21
88.35001
  0
LINE
  8
0
  6
CONTINUOUS
 62
     7
 10
21.0
 20
89.51999
 11
11.0
 21
89.51999
  0
LINE
  8
0
  6
CONTINUOUS
 62
     7
 10
21.0
 20
88.88
 11
11.0
 21
88.88
  0
LINE
  8
0
  6
CONTINUOUS
 62
     7
 10
11.0
 20
88.35001
 11
11.0
 21
90.05002
  0
LINE
  8
0
  6
CONTINUOUS
 62
     7
 10
21.0
 20
88.88
 11
21.0
 21
89.52002
  0
LINE
  8
0
  6
CENTER
 62
     2
 10
23.89096
 20
91.79999
 11
-3.99999
 21
91.79999
  0
LINE
  8
0
  6
CONTINUOUS
 62
     7
 10
11.0
 20
92.64999
 11
7.35255
 21
92.64999
  0
LINE
  8
0
  6
CONTINUOUS
 62
     7
 10
11.0
 20
90.95
 11
6.89703
 21
90.95
  0
LINE
  8
0
  6
CONTINUOUS
 62
     7
 10
21.0
 20
92.12
 11
11.0
 21
92.12
  0
LINE
  8
0
  6
CONTINUOUS
 62
     7
 10
21.0
 20
91.48
 11
11.0
 21
91.48
  0
LINE
  8
0
  6
CONTINUOUS
 62
     7
 10
11.0
 20
90.95001
 11
11.0
 21
92.64999
  0
LINE
  8
0
  6
CONTINUOUS
 62
     7
 10
21.0
 20
91.48001
 11
21.0
 21
92.12001
  0
LINE
  8
0
  6
PHANTOM
 62
     2
 10
6.33555
 20
94.64997
 11
4.11157
 21
86.34998
  0
LINE
  8
0
  6
PHANTOM
 62
     2
 10
7.88845
 20
94.64999
 11
5.66447
 21
86.35001
  0
LINE
  8
0
  6
CONTINUOUS
 62
     7
 10
5.79964
 20
92.64999
 11
1.0
 21
92.64999
  0
LINE
  8
0
  6
CONTINUOUS
 62
     7
 10
5.34412
 20
90.95
 11
1.0
 21
90.95
  0
LINE
  8
0
  6
CONTINUOUS
 62
     7
 10
5.10297
 20
90.04999
 11
1.0
 21
90.04999
  0
LINE
  8
0
  6
CONTINUOUS
 62
     7
 10
4.64745
 20
88.35001
 11
1.0
 21
88.35001
  0
LINE
  8
0
  6
CONTINUOUS
 62
     7
 10
-0.98418
 20
93.47595
 11
0.51582
 21
93.47595
  0
LINE
  8
0
  6
CONTINUOUS
 62
     7
 10
1.01582
 20
92.97595
 11
1.01582
 21
87.97595
  0
LINE
  8
0
  6
CONTINUOUS
 62
     7
 10
-0.98418
 20
87.47595
 11
0.51582
 21
87.47595
  0
LINE
  8
0
  6
CENTER
 62
     2
 10
-13.00005
 20
80.55165
 11
-13.00005
 21
100.4878
  0
LINE
  8
0
  6
CONTINUOUS
 62
     7
 10
-4.00005
 20
89.0
 11
-1.00005
 21
89.0
  0
LINE
  8
0
  6
CONTINUOUS
 62
     7
 10
-22.00005
 20
92.0
 11
-25.00005
 21
92.0
  0
LINE
  8
0
  6
CONTINUOUS
 62
     7
 10
-19.00005
 20
95.0
 11
-19.00005
 21
98.0
  0
LINE
  8
0
  6
CONTINUOUS
 62
     7
 10
-7.00005
 20
86.0
 11
-7.00005
 21
83.0
  0
LINE
  8
0
  6
CONTINUOUS
 62
     7
 10
-24.00005
 20
92.0
 11
-24.00005
 21
84.0
  0
LINE
  8
0
  6
CONTINUOUS
 62
     7
 10
-2.00005
 20
97.0
 11
-2.00005
 21
89.0
  0
LINE
  8
0
  6
CONTINUOUS
 62
     7
 10
-19.00005
 20
97.0
 11
-2.00005
 21
97.0
  0
LINE
  8
0
  6
CONTINUOUS
 62
     7
 10
-24.00005
 20
84.0
 11
-7.00005
 21
84.0
  0
LINE
  8
0
  6
CONTINUOUS
 62
     7
 10
-3.70004
 20
83.7701
 11
-3.70004
 21
83.46771
  0
LINE
  8
0
  6
CONTINUOUS
 62
     7
 10
-4.30004
 20
83.7701
 11
-4.30004
 21
83.46771
  0
LINE
  8
0
  6
CONTINUOUS
 62
     7
 10
-4.46081
 20
83.49197
 11
-4.46081
 21
83.79769
  0
LINE
  8
0
  6
CONTINUOUS
 62
     7
 10
-22.30004
 20
97.22991
 11
-22.30004
 21
97.5323
  0
LINE
  8
0
  6
CONTINUOUS
 62
     7
 10
-21.70004
 20
97.2299
 11
-21.70004
 21
97.53229
  0
LINE
  8
0
  6
CONTINUOUS
 62
     7
 10
-21.53928
 20
97.50802
 11
-21.53928
 21
97.20231
  0
LINE
  8
0
  6
CONTINUOUS
 62
     7
 10
-5.10313
 20
85.26462
 11
-4.73543
 21
85.63232
  0
LINE
  8
0
  6
CONTINUOUS
 62
     7
 10
-4.73543
 20
84.89692
 11
-4.36773
 21
85.26462
  0
LINE
  8
0
  6
CONTINUOUS
 62
     7
 10
-5.10312
 20
85.26463
 11
-4.73542
 21
84.89693
  0
LINE
  8
0
  6
CONTINUOUS
 62
     7
 10
-3.26463
 20
87.10311
 11
-2.89693
 21
86.73541
  0
LINE
  8
0
  6
CONTINUOUS
 62
     7
 10
-5.76421
 20
87.39651
 11
-4.73542
 21
86.36772
  0
LINE
  8
0
  6
CONTINUOUS
 62
     7
 10
-5.39653
 20
87.76421
 11
-4.36773
 21
86.73541
  0
LINE
  8
0
  6
CONTINUOUS
 62
     7
 10
-3.63234
 20
86.7354
 11
-3.26465
 21
87.1031
  0
LINE
  8
0
  6
CONTINUOUS
 62
     7
 10
-3.26465
 20
86.36771
 11
-2.89695
 21
86.7354
  0
LINE
  8
0
  6
CONTINUOUS
 62
     7
 10
-3.63234
 20
85.26464
 11
-2.60355
 21
84.23585
  0
LINE
  8
0
  6
CONTINUOUS
 62
     7
 10
-3.26465
 20
85.63233
 11
-2.23586
 21
84.60354
  0
LINE
  8
0
  6
CONTINUOUS
 62
     7
 10
-23.10314
 20
94.26463
 11
-22.73545
 21
94.63232
  0
LINE
  8
0
  6
CONTINUOUS
 62
     7
 10
-22.73545
 20
93.89693
 11
-22.36776
 21
94.26462
  0
LINE
  8
0
  6
CONTINUOUS
 62
     7
 10
-23.10312
 20
94.26462
 11
-22.73543
 21
93.89692
  0
LINE
  8
0
  6
CONTINUOUS
 62
     7
 10
-21.26465
 20
96.10311
 11
-20.89696
 21
95.73542
  0
LINE
  8
0
  6
CONTINUOUS
 62
     7
 10
-23.76422
 20
96.3965
 11
-22.73543
 21
95.36771
  0
LINE
  8
0
  6
CONTINUOUS
 62
     7
 10
-23.39651
 20
96.7642
 11
-22.36773
 21
95.7354
  0
LINE
  8
0
  6
CONTINUOUS
 62
     7
 10
-21.63236
 20
95.73541
 11
-21.26467
 21
96.1031
  0
LINE
  8
0
  6
CONTINUOUS
 62
     7
 10
-21.26467
 20
95.3677
 11
-20.89697
 21
95.7354
  0
LINE
  8
0
  6
CONTINUOUS
 62
     7
 10
-21.63234
 20
94.26463
 11
-20.60355
 21
93.23583
  0
LINE
  8
0
  6
CONTINUOUS
 62
     7
 10
-21.26464
 20
94.63232
 11
-20.23585
 21
93.60353
  0
LINE
  8
0
  6
CENTER
 62
     2
 10
-4.00005
 20
90.0
 11
-4.00005
 21
82.0
  0
LINE
  8
0
  6
CENTER
 62
     2
 10
-22.00005
 20
99.0
 11
-22.00005
 21
91.0
  0
LINE
  8
0
  6
CENTER
 62
     2
 10
-26.00005
 20
95.0
 11
-18.00005
 21
95.0
  0
LINE
  8
0
  6
CENTER
 62
     2
 10
-8.00005
 20
86.0
 11
-0.00005
 21
86.0
  0
LINE
  8
0
  6
CONTINUOUS
 62
     7
 10
-25.00005
 20
97.5
 11
-25.00005
 21
83.5
  0
LINE
  8
0
  6
CONTINUOUS
 62
     7
 10
-24.50005
 20
98.0
 11
-1.00005
 21
98.0
  0
LINE
  8
0
  6
CONTINUOUS
 62
     7
 10
-24.50005
 20
83.0
 11
-1.00005
 21
83.0
  0
LINE
  8
0
  6
CONTINUOUS
 62
     7
 10
-1.00005
 20
98.0
 11
-1.00005
 21
83.0
  0
LINE
  8
0
  6
CONTINUOUS
 62
     7
 10
-113.0
 20
53.19999
 11
-113.0
 21
10.00001
  0
LINE
  8
0
  6
CONTINUOUS
 62
     7
 10
-113.0
 20
27.00001
 11
-98.00003
 21
27.00001
  0
LINE
  8
0
  6
CONTINUOUS
 62
     7
 10
-98.00002
 20
53.19999
 11
-98.00002
 21
10.00001
  0
LINE
  8
0
  6
CONTINUOUS
 62
     7
 10
-107.0
 20
55.2
 11
-107.0
 21
53.19999
  0
LINE
  8
0
  6
CONTINUOUS
 62
     7
 10
-99.00002
 20
-57.19999
 11
-112.0
 21
-57.19999
  0
LINE
  8
0
  6
CONTINUOUS
 62
     7
 10
-99.00002
 20
-53.19999
 11
-112.0
 21
-53.19999
  0
LINE
  8
0
  6
CONTINUOUS
 62
     7
 10
-112.0
 20
-57.19999
 11
-112.0
 21
-53.19999
  0
LINE
  8
0
  6
CONTINUOUS
 62
     7
 10
-99.00002
 20
-57.19999
 11
-99.00002
 21
-53.19999
  0
LINE
  8
0
  6
CONTINUOUS
 62
     7
 10
-99.71208
 20
-56.30677
 11
-102.0538
 21
-56.30677
  0
LINE
  8
0
  6
CONTINUOUS
 62
     7
 10
-99.71208
 20
-54.23019
 11
-101.7003
 21
-54.23019
  0
LINE
  8
0
  6
CONTINUOUS
 62
     7
 10
-99.71208
 20
-53.69999
 11
-102.4072
 21
-53.69999
  0
LINE
  8
0
  6
CONTINUOUS
 62
     7
 10
-99.71208
 20
-55.77657
 11
-101.7003
 21
-55.77657
  0
LINE
  8
0
  6
CONTINUOUS
 62
     7
 10
-99.71209
 20
-56.30677
 11
-99.71209
 21
-55.77657
  0
LINE
  8
0
  6
CONTINUOUS
 62
     7
 10
-102.4072
 20
-55.9533
 11
-102.4072
 21
-53.69999
  0
LINE
  8
0
  6
CONTINUOUS
 62
     7
 10
-101.7003
 20
-55.77657
 11
-101.7003
 21
-54.23019
  0
LINE
  8
0
  6
CONTINUOUS
 62
     7
 10
-102.8049
 20
-56.30677
 11
-102.8049
 21
-55.77657
  0
LINE
  8
0
  6
CONTINUOUS
 62
     7
 10
-105.3233
 20
-55.77657
 11
-105.3233
 21
-54.05344
  0
LINE
  8
0
  6
CONTINUOUS
 62
     7
 10
-104.6164
 20
-55.77657
 11
-104.6164
 21
-54.23019
  0
LINE
  8
0
  6
CONTINUOUS
 62
     7
 10
-99.71209
 20
-54.23019
 11
-99.71209
 21
-53.69999
  0
LINE
  8
0
  6
CONTINUOUS
 62
     7
 10
-102.8049
 20
-56.30677
 11
-103.5034
 21
-56.30677
  0
LINE
  8
0
  6
CONTINUOUS
 62
     7
 10
-102.8049
 20
-53.69999
 11
-103.3538
 21
-53.69999
  0
LINE
  8
0
  6
CONTINUOUS
 62
     7
 10
-102.8049
 20
-53.69999
 11
-103.3614
 21
-55.77657
  0
LINE
  8
0
  6
CONTINUOUS
 62
     7
 10
-102.8049
 20
-55.77657
 11
-103.3613
 21
-55.77657
  0
LINE
  8
0
  6
CONTINUOUS
 62
     7
 10
-103.3538
 20
-53.69996
 11
-103.9102
 21
-55.77655
  0
LINE
  8
0
  6
CONTINUOUS
 62
     7
 10
-104.0862
 20
-54.23019
 11
-104.6164
 21
-54.23019
  0
LINE
  8
0
  6
CONTINUOUS
 62
     7
 10
-104.0861
 20
-54.23018
 11
-104.2282
 21
-53.69999
  0
LINE
  8
0
  6
CONTINUOUS
 62
     7
 10
-104.2282
 20
-53.69999
 11
-104.9698
 21
-53.69999
  0
LINE
  8
0
  6
CONTINUOUS
 62
     7
 10
-103.9102
 20
-55.77657
 11
-104.6164
 21
-55.77657
  0
LINE
  8
0
  6
CONTINUOUS
 62
     7
 10
-104.0523
 20
-56.30677
 11
-104.7931
 21
-56.30677
  0
LINE
  8
0
  6
CONTINUOUS
 62
     7
 10
-103.5034
 20
-56.30676
 11
-103.6088
 21
-56.69998
  0
LINE
  8
0
  6
CONTINUOUS
 62
     7
 10
-104.0523
 20
-56.30677
 11
-104.1576
 21
-56.70001
  0
LINE
  8
0
  6
CONTINUOUS
 62
     7
 10
-105.7651
 20
-56.30677
 11
-106.6046
 21
-56.30677
  0
LINE
  8
0
  6
CONTINUOUS
 62
     7
 10
-105.7651
 20
-55.77657
 11
-107.8268
 21
-55.77657
  0
LINE
  8
0
  6
CONTINUOUS
 62
     7
 10
-106.6046
 20
-53.69999
 11
-107.3115
 21
-53.69999
  0
LINE
  8
0
  6
CONTINUOUS
 62
     7
 10
-105.7651
 20
-56.30677
 11
-105.7651
 21
-55.77657
  0
LINE
  8
0
  6
CONTINUOUS
 62
     7
 10
-108.3719
 20
-54.81518
 11
-108.3719
 21
-54.23019
  0
LINE
  8
0
  6
CONTINUOUS
 62
     7
 10
-105.7651
 20
-54.23016
 11
-106.6046
 21
-54.62162
  0
LINE
  8
0
  6
CONTINUOUS
 62
     7
 10
-105.7652
 20
-54.81514
 11
-107.8269
 21
-55.77654
  0
LINE
  8
0
  6
CONTINUOUS
 62
     7
 10
-105.7651
 20
-54.81518
 11
-105.7651
 21
-54.23019
  0
LINE
  8
0
  6
CONTINUOUS
 62
     7
 10
-107.3115
 20
-54.72465
 11
-108.3719
 21
-54.23018
  0
LINE
  8
0
  6
CONTINUOUS
 62
     7
 10
-107.6958
 20
-55.13043
 11
-108.3719
 21
-54.81516
  0
LINE
  8
0
  6
CONTINUOUS
 62
     7
 10
-108.3719
 20
-55.9533
 11
-108.3719
 21
-55.67092
  0
LINE
  8
0
  6
CONTINUOUS
 62
     7
 10
-106.6046
 20
-56.69999
 11
-106.6046
 21
-56.30677
  0
LINE
  8
0
  6
CONTINUOUS
 62
     7
 10
-107.3115
 20
-56.69999
 11
-107.3115
 21
-56.30677
  0
LINE
  8
0
  6
CONTINUOUS
 62
     7
 10
-107.3115
 20
-56.30677
 11
-108.0184
 21
-56.30677
  0
LINE
  8
0
  6
CONTINUOUS
 62
     7
 10
-106.6046
 20
-54.62164
 11
-106.6046
 21
-53.69999
  0
LINE
  8
0
  6
CONTINUOUS
 62
     7
 10
-107.3115
 20
-54.72463
 11
-107.3115
 21
-53.69999
  0
LINE
  8
0
  6
CONTINUOUS
 62
     7
 10
-107.6958
 20
-55.13039
 11
-108.1679
 21
-55.35049
  0
LINE
  8
0
  6
CONTINUOUS
 62
     7
 10
-110.7578
 20
-56.54093
 11
-111.2879
 21
-56.54093
  0
LINE
  8
0
  6
CONTINUOUS
 62
     7
 10
-108.5928
 20
-55.44575
 11
-108.5928
 21
-54.87516
  0
LINE
  8
0
  6
CONTINUOUS
 62
     7
 10
-111.288
 20
-56.54093
 11
-111.288
 21
-56.30677
  0
LINE
  8
0
  6
CONTINUOUS
 62
     7
 10
-110.7578
 20
-56.54093
 11
-110.7578
 21
-56.42667
  0
LINE
  8
0
  6
CONTINUOUS
 62
     7
 10
-110.0508
 20
-55.45502
 11
-110.0508
 21
-53.69999
  0
LINE
  8
0
  6
CONTINUOUS
 62
     7
 10
-108.5928
 20
-55.44572
 11
-110.6464
 21
-56.26244
  0
LINE
  8
0
  6
CONTINUOUS
 62
     7
 10
-108.5928
 20
-54.87515
 11
-110.0508
 21
-55.45503
  0
LINE
  8
0
  6
CONTINUOUS
 62
     7
 10
-110.0508
 20
-53.69999
 11
-110.7578
 21
-53.69999
  0
LINE
  8
0
  6
CONTINUOUS
 62
     7
 10
-110.7578
 20
-55.73618
 11
-110.7578
 21
-53.69999
  0
LINE
  8
0
  6
CONTINUOUS
 62
     7
 10
-110.7578
 20
-55.73613
 11
-110.9538
 21
-55.81405
  0
LINE
  8
0
  6
CONTINUOUS
 62
     7
 10
-103.6087
 20
-56.69999
 11
-104.1576
 21
-56.69999
  0
LINE
  8
0
  6
CONTINUOUS
 62
     7
 10
-105.0361
 20
-56.69999
 11
-105.2621
 21
-56.69999
  0
LINE
  8
0
  6
CONTINUOUS
 62
     7
 10
-106.6046
 20
-56.69999
 11
-107.3115
 21
-56.69999
  0
LINE
  8
0
  6
CONTINUOUS
 62
     7
 10
-105.0361
 20
-56.34653
 11
-105.2621
 21
-56.34653
  0
LINE
  8
0
  6
CONTINUOUS
 62
     7
 10
-105.0361
 20
-56.69999
 11
-105.0361
 21
-56.34653
  0
LINE
  8
0
  6
CONTINUOUS
 62
     7
 10
-105.2621
 20
-56.69999
 11
-105.2621
 21
-56.34653
  0
LINE
  8
0
  6
CONTINUOUS
 62
     7
 10
-105.4198
 20
-56.69999
 11
-105.4198
 21
-56.34653
  0
LINE
  8
0
  6
CONTINUOUS
 62
     7
 10
-105.6458
 20
-56.69999
 11
-105.6458
 21
-56.34653
  0
LINE
  8
0
  6
CONTINUOUS
 62
     7
 10
-105.4198
 20
-56.69999
 11
-105.6458
 21
-56.69999
  0
LINE
  8
0
  6
CONTINUOUS
 62
     7
 10
-105.4198
 20
-56.34653
 11
-105.6458
 21
-56.34653
  0
LINE
  8
0
  6
CONTINUOUS
 62
     7
 10
-113.0
 20
53.19999
 11
-112.0
 21
55.19999
  0
LINE
  8
0
  6
CONTINUOUS
 62
     7
 10
-112.25
 20
54.49375
 11
-112.25
 21
53.80001
  0
LINE
  8
0
  6
CENTER
 62
     2
 10
-110.0
 20
58.2
 11
-110.0
 21
50.2
  0
LINE
  8
0
  6
CONTINUOUS
 62
     7
 10
-112.0
 20
55.2
 11
-111.8258
 21
55.2
  0
LINE
  8
0
  6
CONTINUOUS
 62
     7
 10
-107.75
 20
54.49374
 11
-107.75
 21
53.8
  0
LINE
  8
0
  6
CONTINUOUS
 62
     7
 10
-108.1743
 20
55.2
 11
-99.00003
 21
55.2
  0
LINE
  8
0
  6
CENTER
 62
     2
 10
-101.0
 20
58.2
 11
-101.0
 21
50.2
  0
LINE
  8
0
  6
CONTINUOUS
 62
     7
 10
-98.00001
 20
53.20002
 11
-99.00001
 21
55.20002
  0
LINE
  8
0
  6
CONTINUOUS
 62
     7
 10
-113.0
 20
53.19999
 11
-98.00003
 21
53.19999
  0
LINE
  8
0
  6
CONTINUOUS
 62
     7
 10
-113.0
 20
52.2
 11
-98.00003
 21
52.2
  0
LINE
  8
0
  6
CONTINUOUS
 62
     7
 10
-107.45
 20
53.8
 11
-112.55
 21
53.8
  0
LINE
  8
0
  6
CONTINUOUS
 62
     7
 10
-107.45
 20
53.8
 11
-107.45
 21
53.19999
  0
LINE
  8
0
  6
CONTINUOUS
 62
     7
 10
-112.55
 20
53.8
 11
-112.55
 21
53.19999
  0
LINE
  8
0
  6
CONTINUOUS
 62
     7
 10
-113.0
 20
10.00001
 11
-98.00002
 21
10.00001
  0
LINE
  8
0
  6
CONTINUOUS
 62
     7
 10
-113.0
 20
-17.99999
 11
-98.00002
 21
-17.99999
  0
LINE
  8
0
  6
CENTER
 62
     2
 10
-105.5
 20
58.00001
 11
-105.5
 21
-66.76194
  0
LINE
  8
0
  6
CENTER
 62
     2
 10
-110.2449
 20
18.70001
 11
-100.5236
 21
18.70001
  0
LINE
  8
0
  6
CENTER
 62
     2
 10
-112.2869
 20
6.00001
 11
-104.6667
 21
6.00001
  0
LINE
  8
0
  6
CENTER
 62
     2
 10
-109.6667
 20
-3.99999
 11
-101.3334
 21
-3.99999
  0
LINE
  8
0
  6
CENTER
 62
     2
 10
-106.0
 20
-13.99999
 11
-98.88424
 21
-13.99999
  0
LINE
  8
0
  6
CENTER
 62
     2
 10
-102.5
 20
-10.36872
 11
-102.5
 21
-17.50147
  0
LINE
  8
0
  6
CENTER
 62
     2
 10
-108.5
 20
9.47641
 11
-108.5
 21
2.55311
  0
LINE
  8
0
  6
CENTER
 62
     2
 10
-102.6667
 20
5.00001
 11
-98.00002
 21
5.00001
  0
LINE
  8
0
  6
CENTER
 62
     2
 10
-113.0
 20
-12.99999
 11
-108.6055
 21
-12.99999
  0
LINE
  8
0
  6
CENTER
 62
     2
 10
-100.0
 20
7.34809
 11
-100.0
 21
2.57376
  0
LINE
  8
0
  6
CENTER
 62
     2
 10
-111.0
 20
-10.59881
 11
-111.0
 21
-15.4882
  0
LINE
  8
0
  6
CONTINUOUS
 62
     7
 10
-106.9142
 20
17.2858
 11
-104.0858
 21
20.11423
  0
LINE
  8
0
  6
CONTINUOUS
 62
     7
 10
-106.0177
 20
16.76816
 11
-103.5682
 21
19.21766
  0
LINE
  8
0
  6
CONTINUOUS
 62
     7
 10
-107.4319
 20
18.18239
 11
-104.9824
 21
20.63189
  0
LINE
  8
0
  6
CONTINUOUS
 62
     7
 10
-106.9143
 20
20.1142
 11
-104.0858
 21
17.28577
  0
LINE
  8
0
  6
CONTINUOUS
 62
     7
 10
-107.4319
 20
19.21765
 11
-104.9824
 21
16.76816
  0
LINE
  8
0
  6
CONTINUOUS
 62
     7
 10
-106.0177
 20
20.63186
 11
-103.5682
 21
18.18236
  0
LINE
  8
0
  6
CONTINUOUS
 62
     7
 10
-113.0
 20
-61.19997
 11
-113.0
 21
10.00001
  0
LINE
  8
0
  6
CONTINUOUS
 62
     7
 10
-113.0
 20
-34.99999
 11
-98.00002
 21
-34.99999
  0
LINE
  8
0
  6
CONTINUOUS
 62
     7
 10
-98.00002
 20
-61.19997
 11
-98.00002
 21
10.00001
  0
LINE
  8
0
  6
CONTINUOUS
 62
     7
 10
-104.0
 20
-63.19999
 11
-104.0
 21
-61.19997
  0
LINE
  8
0
  6
CONTINUOUS
 62
     7
 10
-98.00004
 20
-61.19997
 11
-99.00005
 21
-63.19997
  0
LINE
  8
0
  6
CONTINUOUS
 62
     7
 10
-98.75005
 20
-62.49374
 11
-98.75005
 21
-61.8
  0
LINE
  8
0
  6
CENTER
 62
     2
 10
-101.0
 20
-66.19999
 11
-101.0
 21
-58.19999
  0
LINE
  8
0
  6
CONTINUOUS
 62
     7
 10
-99.00002
 20
-63.19999
 11
-99.17426
 21
-63.19999
  0
LINE
  8
0
  6
CONTINUOUS
 62
     7
 10
-103.2501
 20
-62.49372
 11
-103.2501
 21
-61.79998
  0
LINE
  8
0
  6
CONTINUOUS
 62
     7
 10
-102.8258
 20
-63.19999
 11
-112.0
 21
-63.19999
  0
LINE
  8
0
  6
CENTER
 62
     2
 10
-110.0
 20
-66.19999
 11
-110.0
 21
-58.19999
  0
LINE
  8
0
  6
CONTINUOUS
 62
     7
 10
-113.0
 20
-61.20001
 11
-112.0
 21
-63.20001
  0
LINE
  8
0
  6
CONTINUOUS
 62
     7
 10
-98.00001
 20
-61.19997
 11
-113.0
 21
-61.19997
  0
LINE
  8
0
  6
CONTINUOUS
 62
     7
 10
-98.00002
 20
-60.19999
 11
-113.0
 21
-60.19999
  0
LINE
  8
0
  6
CONTINUOUS
 62
     7
 10
-103.55
 20
-61.79998
 11
-98.45
 21
-61.79998
  0
LINE
  8
0
  6
CONTINUOUS
 62
     7
 10
-103.55
 20
-61.79998
 11
-103.55
 21
-61.19997
  0
LINE
  8
0
  6
CONTINUOUS
 62
     7
 10
-98.45002
 20
-61.79998
 11
-98.45002
 21
-61.19997
  0
LINE
  8
0
  6
CENTER
 62
     2
 10
-110.2449
 20
-26.69999
 11
-100.5236
 21
-26.69999
  0
LINE
  8
0
  6
CONTINUOUS
 62
     7
 10
-106.9142
 20
-25.28579
 11
-104.0858
 21
-28.11422
  0
LINE
  8
0
  6
CONTINUOUS
 62
     7
 10
-106.0177
 20
-24.76815
 11
-103.5682
 21
-27.21764
  0
LINE
  8
0
  6
CONTINUOUS
 62
     7
 10
-107.4319
 20
-26.18238
 11
-104.9824
 21
-28.63188
  0
LINE
  8
0
  6
CONTINUOUS
 62
     7
 10
-106.9142
 20
-28.11417
 11
-104.0858
 21
-25.28574
  0
LINE
  8
0
  6
CONTINUOUS
 62
     7
 10
-107.4319
 20
-27.21763
 11
-104.9824
 21
-24.76813
  0
LINE
  8
0
  6
CONTINUOUS
 62
     7
 10
-106.0177
 20
-28.63184
 11
-103.5682
 21
-26.18234
  0
LINE
  8
0
  6
CONTINUOUS
 62
     7
 10
-112.0
 20
49.2
 11
-99.00003
 21
49.2
  0
LINE
  8
0
  6
CONTINUOUS
 62
     7
 10
-112.0
 20
45.2
 11
-99.00003
 21
45.2
  0
LINE
  8
0
  6
CONTINUOUS
 62
     7
 10
-99.00002
 20
49.2
 11
-99.00002
 21
45.2
  0
LINE
  8
0
  6
CONTINUOUS
 62
     7
 10
-112.0
 20
49.2
 11
-112.0
 21
45.2
  0
LINE
  8
0
  6
CONTINUOUS
 62
     7
 10
-111.288
 20
48.30679
 11
-108.9463
 21
48.30679
  0
LINE
  8
0
  6
CONTINUOUS
 62
     7
 10
-111.288
 20
46.2302
 11
-109.2997
 21
46.2302
  0
LINE
  8
0
  6
CONTINUOUS
 62
     7
 10
-111.288
 20
45.7
 11
-108.5928
 21
45.7
  0
LINE
  8
0
  6
CONTINUOUS
 62
     7
 10
-111.288
 20
47.77659
 11
-109.2997
 21
47.77659
  0
LINE
  8
0
  6
CONTINUOUS
 62
     7
 10
-111.288
 20
48.30679
 11
-111.288
 21
47.77659
  0
LINE
  8
0
  6
CONTINUOUS
 62
     7
 10
-108.5928
 20
47.95332
 11
-108.5928
 21
45.7
  0
LINE
  8
0
  6
CONTINUOUS
 62
     7
 10
-109.2997
 20
47.77659
 11
-109.2997
 21
46.2302
  0
LINE
  8
0
  6
CONTINUOUS
 62
     7
 10
-108.1952
 20
48.30679
 11
-108.1952
 21
47.77659
  0
LINE
  8
0
  6
CONTINUOUS
 62
     7
 10
-105.6768
 20
47.77659
 11
-105.6768
 21
46.05346
  0
LINE
  8
0
  6
CONTINUOUS
 62
     7
 10
-106.3837
 20
47.77659
 11
-106.3837
 21
46.2302
  0
LINE
  8
0
  6
CONTINUOUS
 62
     7
 10
-111.288
 20
46.2302
 11
-111.288
 21
45.7
  0
LINE
  8
0
  6
CONTINUOUS
 62
     7
 10
-108.1952
 20
48.30679
 11
-107.4967
 21
48.30679
  0
LINE
  8
0
  6
CONTINUOUS
 62
     7
 10
-108.1952
 20
45.7
 11
-107.6463
 21
45.7
  0
LINE
  8
0
  6
CONTINUOUS
 62
     7
 10
-108.1951
 20
45.7
 11
-107.6387
 21
47.77658
  0
LINE
  8
0
  6
CONTINUOUS
 62
     7
 10
-108.1952
 20
47.77659
 11
-107.6387
 21
47.77659
  0
LINE
  8
0
  6
CONTINUOUS
 62
     7
 10
-107.6463
 20
45.69998
 11
-107.0899
 21
47.77657
  0
LINE
  8
0
  6
CONTINUOUS
 62
     7
 10
-106.9139
 20
46.2302
 11
-106.3837
 21
46.2302
  0
LINE
  8
0
  6
CONTINUOUS
 62
     7
 10
-106.9139
 20
46.23018
 11
-106.7719
 21
45.7
  0
LINE
  8
0
  6
CONTINUOUS
 62
     7
 10
-106.7718
 20
45.7
 11
-106.0302
 21
45.7
  0
LINE
  8
0
  6
CONTINUOUS
 62
     7
 10
-107.0899
 20
47.77659
 11
-106.3837
 21
47.77659
  0
LINE
  8
0
  6
CONTINUOUS
 62
     7
 10
-106.9478
 20
48.30679
 11
-106.207
 21
48.30679
  0
LINE
  8
0
  6
CONTINUOUS
 62
     7
 10
-107.4966
 20
48.30678
 11
-107.3913
 21
48.7
  0
LINE
  8
0
  6
CONTINUOUS
 62
     7
 10
-106.9478
 20
48.30679
 11
-106.8424
 21
48.70003
  0
LINE
  8
0
  6
CONTINUOUS
 62
     7
 10
-105.2349
 20
48.30679
 11
-104.3955
 21
48.30679
  0
LINE
  8
0
  6
CONTINUOUS
 62
     7
 10
-105.2349
 20
47.77659
 11
-103.1732
 21
47.77659
  0
LINE
  8
0
  6
CONTINUOUS
 62
     7
 10
-104.3955
 20
45.7
 11
-103.6885
 21
45.7
  0
LINE
  8
0
  6
CONTINUOUS
 62
     7
 10
-105.2349
 20
48.30679
 11
-105.2349
 21
47.77659
  0
LINE
  8
0
  6
CONTINUOUS
 62
     7
 10
-102.6282
 20
46.81519
 11
-102.6282
 21
46.2302
  0
LINE
  8
0
  6
CONTINUOUS
 62
     7
 10
-105.235
 20
46.23018
 11
-104.3955
 21
46.62164
  0
LINE
  8
0
  6
CONTINUOUS
 62
     7
 10
-105.2349
 20
46.81516
 11
-103.1732
 21
47.77657
  0
LINE
  8
0
  6
CONTINUOUS
 62
     7
 10
-105.2349
 20
46.81519
 11
-105.2349
 21
46.2302
  0
LINE
  8
0
  6
CONTINUOUS
 62
     7
 10
-103.6886
 20
46.72467
 11
-102.6282
 21
46.23021
  0
LINE
  8
0
  6
CONTINUOUS
 62
     7
 10
-103.3042
 20
47.13044
 11
-102.6281
 21
46.81516
  0
LINE
  8
0
  6
CONTINUOUS
 62
     7
 10
-102.6282
 20
47.95332
 11
-102.6282
 21
47.67094
  0
LINE
  8
0
  6
CONTINUOUS
 62
     7
 10
-104.3955
 20
48.7
 11
-104.3955
 21
48.30679
  0
LINE
  8
0
  6
CONTINUOUS
 62
     7
 10
-103.6885
 20
48.7
 11
-103.6885
 21
48.30679
  0
LINE
  8
0
  6
CONTINUOUS
 62
     7
 10
-103.6885
 20
48.30679
 11
-102.9816
 21
48.30679
  0
LINE
  8
0
  6
CONTINUOUS
 62
     7
 10
-104.3955
 20
46.62165
 11
-104.3955
 21
45.7
  0
LINE
  8
0
  6
CONTINUOUS
 62
     7
 10
-103.6885
 20
46.72465
 11
-103.6885
 21
45.7
  0
LINE
  8
0
  6
CONTINUOUS
 62
     7
 10
-103.3042
 20
47.13041
 11
-102.8322
 21
47.35051
  0
LINE
  8
0
  6
CONTINUOUS
 62
     7
 10
-100.2423
 20
48.54095
 11
-99.7121
 21
48.54095
  0
LINE
  8
0
  6
CONTINUOUS
 62
     7
 10
-102.4072
 20
47.44576
 11
-102.4072
 21
46.87518
  0
LINE
  8
0
  6
CONTINUOUS
 62
     7
 10
-99.71209
 20
48.54095
 11
-99.71209
 21
48.30679
  0
LINE
  8
0
  6
CONTINUOUS
 62
     7
 10
-100.2423
 20
48.54095
 11
-100.2423
 21
48.42669
  0
LINE
  8
0
  6
CONTINUOUS
 62
     7
 10
-100.9492
 20
47.45504
 11
-100.9492
 21
45.7
  0
LINE
  8
0
  6
CONTINUOUS
 62
     7
 10
-102.4072
 20
47.44574
 11
-100.3537
 21
48.26246
  0
LINE
  8
0
  6
CONTINUOUS
 62
     7
 10
-102.4072
 20
46.87518
 11
-100.9492
 21
47.45506
  0
LINE
  8
0
  6
CONTINUOUS
 62
     7
 10
-100.9492
 20
45.7
 11
-100.2423
 21
45.7
  0
LINE
  8
0
  6
CONTINUOUS
 62
     7
 10
-100.2423
 20
47.7362
 11
-100.2423
 21
45.7
  0
LINE
  8
0
  6
CONTINUOUS
 62
     7
 10
-100.2422
 20
47.73614
 11
-100.0463
 21
47.81407
  0
LINE
  8
0
  6
CONTINUOUS
 62
     7
 10
-107.3913
 20
48.7
 11
-106.8424
 21
48.7
  0
LINE
  8
0
  6
CONTINUOUS
 62
     7
 10
-105.9639
 20
48.7
 11
-105.738
 21
48.7
  0
LINE
  8
0
  6
CONTINUOUS
 62
     7
 10
-104.3955
 20
48.7
 11
-103.6885
 21
48.7
  0
LINE
  8
0
  6
CONTINUOUS
 62
     7
 10
-105.9639
 20
48.34655
 11
-105.738
 21
48.34655
  0
LINE
  8
0
  6
CONTINUOUS
 62
     7
 10
-105.9639
 20
48.7
 11
-105.9639
 21
48.34655
  0
LINE
  8
0
  6
CONTINUOUS
 62
     7
 10
-105.7379
 20
48.7
 11
-105.7379
 21
48.34655
  0
LINE
  8
0
  6
CONTINUOUS
 62
     7
 10
-105.5802
 20
48.7
 11
-105.5802
 21
48.34655
  0
LINE
  8
0
  6
CONTINUOUS
 62
     7
 10
-105.3542
 20
48.7
 11
-105.3542
 21
48.34655
  0
LINE
  8
0
  6
CONTINUOUS
 62
     7
 10
-105.5802
 20
48.7
 11
-105.3542
 21
48.7
  0
LINE
  8
0
  6
CONTINUOUS
 62
     7
 10
-105.5802
 20
48.34655
 11
-105.3542
 21
48.34655
  0
LINE
  8
0
  6
CONTINUOUS
 62
     7
 10
-24.99999
 20
52.2
 11
-0.99999
 21
52.2
  0
LINE
  8
0
  6
CONTINUOUS
 62
     7
 10
-24.99999
 20
27.00001
 11
-0.99999
 21
27.00001
  0
LINE
  8
0
  6
CONTINUOUS
 62
     7
 10
-24.99999
 20
53.2
 11
-24.99999
 21
10.00001
  0
LINE
  8
0
  6
CONTINUOUS
 62
     7
 10
-0.99999
 20
53.2
 11
-0.99999
 21
46.7
  0
LINE
  8
0
  6
CONTINUOUS
 62
     7
 10
-23.99999
 20
55.2
 11
-5.82576
 21
55.2
  0
LINE
  8
0
  6
CONTINUOUS
 62
     7
 10
-24.99999
 20
53.2
 11
-0.99999
 21
53.2
  0
LINE
  8
0
  6
CONTINUOUS
 62
     7
 10
-24.99998
 20
53.2
 11
-23.99998
 21
55.2
  0
LINE
  8
0
  6
CONTINUOUS
 62
     7
 10
-1.00001
 20
53.19999
 11
-2.00001
 21
55.19999
  0
LINE
  8
0
  6
CONTINUOUS
 62
     7
 10
-6.99999
 20
55.2
 11
-6.99999
 21
53.2
  0
LINE
  8
0
  6
CENTER
 62
     2
 10
-3.99999
 20
58.2
 11
-3.99999
 21
49.2
  0
LINE
  8
0
  6
CONTINUOUS
 62
     7
 10
-1.44999
 20
53.80001
 11
-6.54999
 21
53.80001
  0
LINE
  8
0
  6
CONTINUOUS
 62
     7
 10
-4.29999
 20
53.2
 11
-4.46076
 21
53.8
  0
LINE
  8
0
  6
CONTINUOUS
 62
     7
 10
-3.69992
 20
53.80002
 11
-3.53915
 21
53.20003
  0
LINE
  8
0
  6
CONTINUOUS
 62
     7
 10
-1.44999
 20
53.8
 11
-1.44999
 21
53.2
  0
LINE
  8
0
  6
CONTINUOUS
 62
     7
 10
-6.54999
 20
53.8
 11
-6.54999
 21
53.2
  0
LINE
  8
0
  6
CONTINUOUS
 62
     7
 10
-1.74996
 20
54.49374
 11
-1.74996
 21
53.8
  0
LINE
  8
0
  6
CONTINUOUS
 62
     7
 10
-6.24996
 20
54.49374
 11
-6.24996
 21
53.8
  0
LINE
  8
0
  6
CONTINUOUS
 62
     7
 10
-2.17421
 20
55.2
 11
-1.99999
 21
55.2
  0
LINE
  8
0
  6
CENTER
 62
     2
 10
-21.99999
 20
58.2
 11
-21.99999
 21
49.2
  0
LINE
  8
0
  6
CENTER
 62
     2
 10
24.00001
 20
45.00001
 11
-3.99998
 21
45.00001
  0
LINE
  8
0
  6
CONTINUOUS
 62
     7
 10
11.00001
 20
45.85
 11
7.00423
 21
45.85
  0
LINE
  8
0
  6
CONTINUOUS
 62
     7
 10
11.00001
 20
44.15
 11
6.54871
 21
44.15
  0
LINE
  8
0
  6
CONTINUOUS
 62
     7
 10
21.00001
 20
45.32
 11
11.00001
 21
45.32
  0
LINE
  8
0
  6
CONTINUOUS
 62
     7
 10
21.00001
 20
44.68
 11
11.00001
 21
44.68
  0
LINE
  8
0
  6
CONTINUOUS
 62
     7
 10
11.00001
 20
44.15001
 11
11.00001
 21
45.85001
  0
LINE
  8
0
  6
CONTINUOUS
 62
     7
 10
21.00001
 20
44.68001
 11
21.00001
 21
45.32001
  0
LINE
  8
0
  6
PHANTOM
 62
     2
 10
7.54013
 20
47.85
 11
6.01282
 21
42.15001
  0
LINE
  8
0
  6
PHANTOM
 62
     2
 10
5.98722
 20
47.84999
 11
4.45991
 21
42.15001
  0
LINE
  8
0
  6
CONTINUOUS
 62
     7
 10
5.45131
 20
45.85
 11
1.00001
 21
45.85
  0
LINE
  8
0
  6
CONTINUOUS
 62
     7
 10
4.9958
 20
44.15
 11
1.00001
 21
44.15
  0
LINE
  8
0
  6
CONTINUOUS
 62
     7
 10
-24.99999
 20
10.00001
 11
-0.99999
 21
10.00001
  0
LINE
  8
0
  6
CENTER
 62
     2
 10
-12.99999
 20
58.00001
 11
-12.99999
 21
-67.34011
  0
LINE
  8
0
  6
CENTER
 62
     2
 10
-19.99999
 20
5.0
 11
-19.99999
 21
-12.33333
  0
LINE
  8
0
  6
CENTER
 62
     2
 10
-23.16666
 20
-8.99999
 11
-16.49999
 21
-8.99999
  0
LINE
  8
0
  6
CENTER
 62
     2
 10
-23.49999
 20
1.00001
 11
-16.83332
 21
1.00001
  0
LINE
  8
0
  6
CENTER
 62
     2
 10
-5.04273
 20
5.0
 11
-0.01047
 21
5.0
  0
LINE
  8
0
  6
CONTINUOUS
 62
     7
 10
-0.99999
 20
43.30001
 11
-0.99999
 21
10.00001
  0
LINE
  8
0
  6
CONTINUOUS
 62
     7
 10
-3.99999
 20
6.81384
 11
-0.99999
 21
6.81384
  0
LINE
  8
0
  6
CONTINUOUS
 62
     7
 10
-3.99999
 20
3.18617
 11
-0.99999
 21
3.18617
  0
LINE
  8
0
  6
CONTINUOUS
 62
     7
 10
-3.99999
 20
6.81384
 11
-3.99999
 21
3.18617
  0
LINE
  8
0
  6
CONTINUOUS
 62
     7
 10
-0.99999
 20
46.7
 11
-0.99999
 21
43.30001
  0
LINE
  8
0
  6
CONTINUOUS
 62
     7
 10
0.50001
 20
43.30001
 11
-0.99999
 21
43.30001
  0
LINE
  8
0
  6
CONTINUOUS
 62
     7
 10
1.00001
 20
43.80001
 11
1.00001
 21
46.2
  0
LINE
  8
0
  6
CONTINUOUS
 62
     7
 10
0.50001
 20
46.7
 11
-0.99999
 21
46.7
  0
LINE
  8
0
  6
CONTINUOUS
 62
     7
 10
-0.99999
 20
-60.2
 11
-24.99999
 21
-60.2
  0
LINE
  8
0
  6
CONTINUOUS
 62
     7
 10
-24.99999
 20
-35.0
 11
-0.99999
 21
-35.0
  0
LINE
  8
0
  6
CONTINUOUS
 62
     7
 10
-24.99999
 20
-61.2
 11
-24.99999
 21
10.00001
  0
LINE
  8
0
  6
CONTINUOUS
 62
     7
 10
-0.99999
 20
-61.2
 11
-0.99999
 21
-54.89999
  0
LINE
  8
0
  6
CONTINUOUS
 62
     7
 10
-1.99999
 20
-63.2
 11
-20.17422
 21
-63.2
  0
LINE
  8
0
  6
CONTINUOUS
 62
     7
 10
-0.99999
 20
-61.2
 11
-24.99999
 21
-61.2
  0
LINE
  8
0
  6
CONTINUOUS
 62
     7
 10
-1.0
 20
-61.19999
 11
-2.0
 21
-63.19998
  0
LINE
  8
0
  6
CONTINUOUS
 62
     7
 10
-24.99997
 20
-61.19998
 11
-23.99997
 21
-63.19997
  0
LINE
  8
0
  6
CONTINUOUS
 62
     7
 10
-18.99999
 20
-63.2
 11
-18.99999
 21
-61.2
  0
LINE
  8
0
  6
CENTER
 62
     2
 10
-21.99999
 20
-66.2
 11
-21.99999
 21
-57.2
  0
LINE
  8
0
  6
CONTINUOUS
 62
     7
 10
-24.54999
 20
-61.8
 11
-19.44999
 21
-61.8
  0
LINE
  8
0
  6
CONTINUOUS
 62
     7
 10
-21.69998
 20
-61.19997
 11
-21.53921
 21
-61.79998
  0
LINE
  8
0
  6
CONTINUOUS
 62
     7
 10
-22.30005
 20
-61.8
 11
-22.46082
 21
-61.20001
  0
LINE
  8
0
  6
CONTINUOUS
 62
     7
 10
-24.54999
 20
-61.79999
 11
-24.54999
 21
-61.2
  0
LINE
  8
0
  6
CONTINUOUS
 62
     7
 10
-19.44999
 20
-61.79999
 11
-19.44999
 21
-61.2
  0
LINE
  8
0
  6
CONTINUOUS
 62
     7
 10
-24.25002
 20
-62.49373
 11
-24.25002
 21
-61.79999
  0
LINE
  8
0
  6
CONTINUOUS
 62
     7
 10
-19.75002
 20
-62.49373
 11
-19.75002
 21
-61.79999
  0
LINE
  8
0
  6
CONTINUOUS
 62
     7
 10
-23.82576
 20
-63.2
 11
-23.99999
 21
-63.2
  0
LINE
  8
0
  6
CENTER
 62
     2
 10
-3.99999
 20
-66.2
 11
-3.99999
 21
-57.2
  0
LINE
  8
0
  6
CENTER
 62
     2
 10
24.00001
 20
-53.0
 11
-3.99998
 21
-53.0
  0
LINE
  8
0
  6
CONTINUOUS
 62
     7
 10
11.00001
 20
-52.15001
 11
7.00423
 21
-52.15001
  0
LINE
  8
0
  6
CONTINUOUS
 62
     7
 10
11.00001
 20
-53.85001
 11
6.54871
 21
-53.85001
  0
LINE
  8
0
  6
CONTINUOUS
 62
     7
 10
21.00001
 20
-52.68001
 11
11.00001
 21
-52.68001
  0
LINE
  8
0
  6
CONTINUOUS
 62
     7
 10
21.00001
 20
-53.32001
 11
11.00001
 21
-53.32001
  0
LINE
  8
0
  6
CONTINUOUS
 62
     7
 10
11.00001
 20
-53.85001
 11
11.00001
 21
-52.15001
  0
LINE
  8
0
  6
CONTINUOUS
 62
     7
 10
21.00001
 20
-53.32001
 11
21.00001
 21
-52.68001
  0
LINE
  8
0
  6
PHANTOM
 62
     2
 10
7.54012
 20
-50.15
 11
6.01281
 21
-55.85001
  0
LINE
  8
0
  6
PHANTOM
 62
     2
 10
5.98722
 20
-50.15002
 11
4.45992
 21
-55.85002
  0
LINE
  8
0
  6
CONTINUOUS
 62
     7
 10
5.45131
 20
-52.15001
 11
1.00001
 21
-52.15001
  0
LINE
  8
0
  6
CONTINUOUS
 62
     7
 10
4.9958
 20
-53.85001
 11
1.00001
 21
-53.85001
  0
LINE
  8
0
  6
CONTINUOUS
 62
     7
 10
-24.99999
 20
-17.99999
 11
-0.99999
 21
-17.99999
  0
LINE
  8
0
  6
CONTINUOUS
 62
     7
 10
-0.99999
 20
-51.3
 11
-0.99999
 21
10.00001
  0
LINE
  8
0
  6
CONTINUOUS
 62
     7
 10
-0.99999
 20
-54.89999
 11
-0.99999
 21
-51.3
  0
LINE
  8
0
  6
CONTINUOUS
 62
     7
 10
0.50001
 20
-51.3
 11
-0.99999
 21
-51.3
  0
LINE
  8
0
  6
CONTINUOUS
 62
     7
 10
1.00001
 20
-51.8
 11
1.00001
 21
-54.2
  0
LINE
  8
0
  6
CONTINUOUS
 62
     7
 10
0.50001
 20
-54.89999
 11
-0.99999
 21
-54.89999
  0
LINE
  8
0
  6
CONTINUOUS
 62
     7
 10
83.00002
 20
53.19999
 11
83.00002
 21
-61.19998
  0
LINE
  8
0
  6
CONTINUOUS
 62
     7
 10
83.00002
 20
52.2
 11
98.00002
 21
52.2
  0
LINE
  8
0
  6
CONTINUOUS
 62
     7
 10
98.00002
 20
53.19999
 11
98.00002
 21
-61.19998
  0
LINE
  8
0
  6
CONTINUOUS
 62
     7
 10
83.00002
 20
27.0
 11
98.00002
 21
27.0
  0
LINE
  8
0
  6
CONTINUOUS
 62
     7
 10
83.00002
 20
53.19999
 11
98.00002
 21
53.19999
  0
LINE
  8
0
  6
CONTINUOUS
 62
     7
 10
84.00002
 20
55.2
 11
84.17427
 21
55.2
  0
LINE
  8
0
  6
CONTINUOUS
 62
     7
 10
97.99999
 20
53.19999
 11
96.99999
 21
55.19999
  0
LINE
  8
0
  6
CONTINUOUS
 62
     7
 10
83.00001
 20
53.20001
 11
84.0
 21
55.2
  0
LINE
  8
0
  6
CENTER
 62
     2
 10
86.00002
 20
58.2
 11
86.00002
 21
49.2
  0
LINE
  8
0
  6
CONTINUOUS
 62
     7
 10
88.55002
 20
53.79999
 11
83.45001
 21
53.79999
  0
LINE
  8
0
  6
CONTINUOUS
 62
     7
 10
83.45001
 20
53.79999
 11
83.45001
 21
53.19999
  0
LINE
  8
0
  6
CONTINUOUS
 62
     7
 10
83.75005
 20
54.49373
 11
83.75005
 21
53.79999
  0
LINE
  8
0
  6
CONTINUOUS
 62
     7
 10
87.82576
 20
55.2
 11
97.00002
 21
55.2
  0
LINE
  8
0
  6
CENTER
 62
     2
 10
95.00002
 20
58.2
 11
95.00002
 21
49.2
  0
LINE
  8
0
  6
CONTINUOUS
 62
     7
 10
88.55002
 20
53.79999
 11
88.55002
 21
53.19999
  0
LINE
  8
0
  6
CONTINUOUS
 62
     7
 10
88.25002
 20
54.49373
 11
88.25002
 21
53.79999
  0
LINE
  8
0
  6
CONTINUOUS
 62
     7
 10
89.00002
 20
55.2
 11
89.00002
 21
53.19999
  0
LINE
  8
0
  6
CENTER
 62
     2
 10
89.20001
 20
48.0
 11
89.20001
 21
42.0
  0
LINE
  8
0
  6
CENTER
 62
     2
 10
91.80002
 20
48.0
 11
91.80002
 21
42.0
  0
LINE
  8
0
  6
CENTER
 62
     2
 10
86.50002
 20
45.0
 11
94.50002
 21
45.0
  0
LINE
  8
0
  6
CONTINUOUS
 62
     7
 10
83.00002
 20
10.0
 11
98.00002
 21
10.0
  0
LINE
  8
0
  6
CONTINUOUS
 62
     7
 10
83.00002
 20
-18.0
 11
98.00002
 21
-18.0
  0
LINE
  8
0
  6
CENTER
 62
     2
 10
90.50002
 20
57.0
 11
90.50002
 21
-66.48268
  0
LINE
  8
0
  6
CENTER
 62
     2
 10
90.03542
 20
1.0
 11
96.98526
 21
1.0
  0
LINE
  8
0
  6
CENTER
 62
     2
 10
84.18291
 20
-9.0
 11
91.13275
 21
-9.0
  0
LINE
  8
0
  6
CENTER
 62
     2
 10
93.50002
 20
4.59882
 11
93.50002
 21
-3.17404
  0
LINE
  8
0
  6
CENTER
 62
     2
 10
87.50002
 20
-5.55162
 11
87.50002
 21
-12.50148
  0
LINE
  8
0
  6
CENTER
 62
     2
 10
92.41299
 20
-13.0
 11
98.63129
 21
-13.0
  0
LINE
  8
0
  6
CENTER
 62
     2
 10
96.00002
 20
-9.48378
 11
96.00002
 21
-16.43362
  0
LINE
  8
0
  6
CENTER
 62
     2
 10
85.00002
 20
8.62243
 11
85.00002
 21
1.30678
  0
LINE
  8
0
  6
CENTER
 62
     2
 10
88.11507
 20
23.5
 11
92.96167
 21
23.5
  0
LINE
  8
0
  6
CENTER
 62
     2
 10
82.3734
 20
5.0
 11
88.66373
 21
5.0
  0
LINE
  8
0
  6
CONTINUOUS
 62
     7
 10
89.20001
 20
43.30001
 11
91.80002
 21
43.30001
  0
LINE
  8
0
  6
CONTINUOUS
 62
     7
 10
89.20001
 20
46.7
 11
91.80002
 21
46.7
  0
LINE
  8
0
  6
CONTINUOUS
 62
     7
 10
98.00002
 20
-60.19999
 11
83.00002
 21
-60.19999
  0
LINE
  8
0
  6
CONTINUOUS
 62
     7
 10
83.00002
 20
-35.0
 11
98.00002
 21
-35.0
  0
LINE
  8
0
  6
CONTINUOUS
 62
     7
 10
98.00002
 20
-61.19998
 11
83.00002
 21
-61.19998
  0
LINE
  8
0
  6
CONTINUOUS
 62
     7
 10
97.00002
 20
-63.19999
 11
96.82576
 21
-63.19999
  0
LINE
  8
0
  6
CONTINUOUS
 62
     7
 10
83.00004
 20
-61.19998
 11
84.00004
 21
-63.19998
  0
LINE
  8
0
  6
CONTINUOUS
 62
     7
 10
98.00001
 20
-61.2
 11
97.00002
 21
-63.19999
  0
LINE
  8
0
  6
CENTER
 62
     2
 10
95.00002
 20
-66.19999
 11
95.00002
 21
-57.2
  0
LINE
  8
0
  6
CONTINUOUS
 62
     7
 10
92.45001
 20
-61.79998
 11
97.55002
 21
-61.79998
  0
LINE
  8
0
  6
CONTINUOUS
 62
     7
 10
97.55002
 20
-61.79998
 11
97.55002
 21
-61.19998
  0
LINE
  8
0
  6
CONTINUOUS
 62
     7
 10
97.24998
 20
-62.49372
 11
97.24998
 21
-61.79998
  0
LINE
  8
0
  6
CONTINUOUS
 62
     7
 10
93.17427
 20
-63.19999
 11
84.00002
 21
-63.19999
  0
LINE
  8
0
  6
CENTER
 62
     2
 10
86.00002
 20
-66.19999
 11
86.00002
 21
-57.2
  0
LINE
  8
0
  6
CONTINUOUS
 62
     7
 10
92.45001
 20
-61.79998
 11
92.45001
 21
-61.19998
  0
LINE
  8
0
  6
CONTINUOUS
 62
     7
 10
92.75002
 20
-62.49372
 11
92.75002
 21
-61.79998
  0
LINE
  8
0
  6
CONTINUOUS
 62
     7
 10
92.00002
 20
-63.19999
 11
92.00002
 21
-61.19998
  0
LINE
  8
0
  6
CENTER
 62
     2
 10
89.20001
 20
-56.2
 11
89.20001
 21
-50.0
  0
LINE
  8
0
  6
CENTER
 62
     2
 10
91.80002
 20
-56.2
 11
91.80002
 21
-50.0
  0
LINE
  8
0
  6
CENTER
 62
     2
 10
86.50002
 20
-53.0
 11
94.50002
 21
-53.0
  0
LINE
  8
0
  6
CENTER
 62
     2
 10
88.11507
 20
-31.5
 11
92.96167
 21
-31.5
  0
LINE
  8
0
  6
CONTINUOUS
 62
     7
 10
89.20001
 20
-51.3
 11
91.80002
 21
-51.3
  0
LINE
  8
0
  6
CONTINUOUS
 62
     7
 10
89.20001
 20
-54.69999
 11
91.80002
 21
-54.69999
  0
LINE
  8
0
  6
CENTER
 62
     2
 10
11.81418
 20
-91.49998
 11
-26.99998
 21
-91.49998
  0
LINE
  8
0
  6
CENTER
 62
     2
 10
24.00002
 20
-92.79996
 11
-3.99998
 21
-92.79996
  0
LINE
  8
0
  6
CONTINUOUS
 62
     7
 10
11.00002
 20
-91.94999
 11
6.6559
 21
-91.94999
  0
LINE
  8
0
  6
CONTINUOUS
 62
     7
 10
11.00002
 20
-93.64997
 11
6.20038
 21
-93.64997
  0
LINE
  8
0
  6
CONTINUOUS
 62
     7
 10
21.00002
 20
-92.47999
 11
11.00002
 21
-92.47999
  0
LINE
  8
0
  6
CONTINUOUS
 62
     7
 10
21.00002
 20
-93.11997
 11
11.00002
 21
-93.11997
  0
LINE
  8
0
  6
CONTINUOUS
 62
     7
 10
11.00002
 20
-93.64997
 11
11.00002
 21
-91.94996
  0
LINE
  8
0
  6
CONTINUOUS
 62
     7
 10
21.00002
 20
-93.11997
 11
21.00002
 21
-92.47996
  0
LINE
  8
0
  6
CENTER
 62
     2
 10
23.89098
 20
-90.19999
 11
-3.99998
 21
-90.19999
  0
LINE
  8
0
  6
CONTINUOUS
 62
     7
 10
11.00002
 20
-89.34998
 11
7.35256
 21
-89.34998
  0
LINE
  8
0
  6
CONTINUOUS
 62
     7
 10
11.00002
 20
-91.04998
 11
6.89705
 21
-91.04998
  0
LINE
  8
0
  6
CONTINUOUS
 62
     7
 10
21.00002
 20
-89.87998
 11
11.00002
 21
-89.87998
  0
LINE
  8
0
  6
CONTINUOUS
 62
     7
 10
21.00002
 20
-90.51998
 11
11.00002
 21
-90.51998
  0
LINE
  8
0
  6
CONTINUOUS
 62
     7
 10
11.00002
 20
-91.04996
 11
11.00002
 21
-89.34998
  0
LINE
  8
0
  6
CONTINUOUS
 62
     7
 10
21.00002
 20
-90.51997
 11
21.00002
 21
-89.87997
  0
LINE
  8
0
  6
PHANTOM
 62
     2
 10
6.33557
 20
-87.34998
 11
4.11159
 21
-95.64998
  0
LINE
  8
0
  6
PHANTOM
 62
     2
 10
7.88846
 20
-87.34998
 11
5.66448
 21
-95.64996
  0
LINE
  8
0
  6
CONTINUOUS
 62
     7
 10
5.79965
 20
-89.34998
 11
1.00002
 21
-89.34998
  0
LINE
  8
0
  6
CONTINUOUS
 62
     7
 10
5.34413
 20
-91.04998
 11
1.00002
 21
-91.04998
  0
LINE
  8
0
  6
CONTINUOUS
 62
     7
 10
5.10298
 20
-91.94999
 11
1.00002
 21
-91.94999
  0
LINE
  8
0
  6
CONTINUOUS
 62
     7
 10
4.64747
 20
-93.64997
 11
1.00002
 21
-93.64997
  0
LINE
  8
0
  6
CONTINUOUS
 62
     7
 10
-0.98417
 20
-88.52402
 11
0.51583
 21
-88.52402
  0
LINE
  8
0
  6
CONTINUOUS
 62
     7
 10
1.01583
 20
-89.02402
 11
1.01583
 21
-94.02402
  0
LINE
  8
0
  6
CONTINUOUS
 62
     7
 10
-0.98417
 20
-94.52402
 11
0.51583
 21
-94.52402
  0
LINE
  8
0
  6
CENTER
 62
     2
 10
-13.00003
 20
-101.4483
 11
-13.00003
 21
-81.51219
  0
LINE
  8
0
  6
CONTINUOUS
 62
     7
 10
-4.00003
 20
-92.99998
 11
-1.00003
 21
-92.99998
  0
LINE
  8
0
  6
CONTINUOUS
 62
     7
 10
-22.00003
 20
-89.99998
 11
-25.00003
 21
-89.99998
  0
LINE
  8
0
  6
CONTINUOUS
 62
     7
 10
-19.00003
 20
-86.99998
 11
-19.00003
 21
-83.99998
  0
LINE
  8
0
  6
CONTINUOUS
 62
     7
 10
-7.00003
 20
-95.99998
 11
-7.00003
 21
-98.99998
  0
LINE
  8
0
  6
CONTINUOUS
 62
     7
 10
-24.00003
 20
-89.99998
 11
-24.00003
 21
-97.99998
  0
LINE
  8
0
  6
CONTINUOUS
 62
     7
 10
-2.00003
 20
-84.99998
 11
-2.00003
 21
-92.99998
  0
LINE
  8
0
  6
CONTINUOUS
 62
     7
 10
-19.00003
 20
-84.99998
 11
-2.00003
 21
-84.99998
  0
LINE
  8
0
  6
CONTINUOUS
 62
     7
 10
-24.00003
 20
-97.99998
 11
-7.00003
 21
-97.99998
  0
LINE
  8
0
  6
CONTINUOUS
 62
     7
 10
-3.70003
 20
-98.22989
 11
-3.70003
 21
-98.53226
  0
LINE
  8
0
  6
CONTINUOUS
 62
     7
 10
-4.30003
 20
-98.22987
 11
-4.30003
 21
-98.53226
  0
LINE
  8
0
  6
CONTINUOUS
 62
     7
 10
-4.4608
 20
-98.508
 11
-4.4608
 21
-98.20228
  0
LINE
  8
0
  6
CONTINUOUS
 62
     7
 10
-22.30002
 20
-84.77007
 11
-22.30002
 21
-84.46768
  0
LINE
  8
0
  6
CONTINUOUS
 62
     7
 10
-21.70003
 20
-84.77007
 11
-21.70003
 21
-84.46768
  0
LINE
  8
0
  6
CONTINUOUS
 62
     7
 10
-21.53926
 20
-84.49195
 11
-21.53926
 21
-84.79766
  0
LINE
  8
0
  6
CONTINUOUS
 62
     7
 10
-5.1031
 20
-96.73536
 11
-4.73541
 21
-96.36767
  0
LINE
  8
0
  6
CONTINUOUS
 62
     7
 10
-4.73542
 20
-97.10308
 11
-4.36772
 21
-96.73538
  0
LINE
  8
0
  6
CONTINUOUS
 62
     7
 10
-5.1031
 20
-96.73535
 11
-4.73541
 21
-97.10305
  0
LINE
  8
0
  6
CONTINUOUS
 62
     7
 10
-3.26462
 20
-94.89687
 11
-2.89692
 21
-95.26457
  0
LINE
  8
0
  6
CONTINUOUS
 62
     7
 10
-5.7642
 20
-94.60348
 11
-4.73541
 21
-95.63226
  0
LINE
  8
0
  6
CONTINUOUS
 62
     7
 10
-5.39651
 20
-94.23579
 11
-4.36772
 21
-95.26457
  0
LINE
  8
0
  6
CONTINUOUS
 62
     7
 10
-3.63232
 20
-95.26458
 11
-3.26463
 21
-94.89689
  0
LINE
  8
0
  6
CONTINUOUS
 62
     7
 10
-3.26463
 20
-95.63229
 11
-2.89693
 21
-95.26459
  0
LINE
  8
0
  6
CONTINUOUS
 62
     7
 10
-3.63233
 20
-96.73534
 11
-2.60353
 21
-97.76414
  0
LINE
  8
0
  6
CONTINUOUS
 62
     7
 10
-3.26464
 20
-96.36766
 11
-2.23585
 21
-97.39645
  0
LINE
  8
0
  6
CONTINUOUS
 62
     7
 10
-23.10313
 20
-87.73536
 11
-22.73544
 21
-87.36766
  0
LINE
  8
0
  6
CONTINUOUS
 62
     7
 10
-22.73543
 20
-88.10306
 11
-22.36774
 21
-87.73536
  0
LINE
  8
0
  6
CONTINUOUS
 62
     7
 10
-23.10311
 20
-87.73537
 11
-22.73542
 21
-88.10307
  0
LINE
  8
0
  6
CONTINUOUS
 62
     7
 10
-21.26463
 20
-85.89688
 11
-20.89694
 21
-86.26457
  0
LINE
  8
0
  6
CONTINUOUS
 62
     7
 10
-23.7642
 20
-85.60349
 11
-22.73541
 21
-86.63228
  0
LINE
  8
0
  6
CONTINUOUS
 62
     7
 10
-23.3965
 20
-85.23578
 11
-22.36772
 21
-86.26457
  0
LINE
  8
0
  6
CONTINUOUS
 62
     7
 10
-21.63235
 20
-86.26457
 11
-21.26465
 21
-85.89688
  0
LINE
  8
0
  6
CONTINUOUS
 62
     7
 10
-21.26465
 20
-86.63228
 11
-20.89695
 21
-86.26458
  0
LINE
  8
0
  6
CONTINUOUS
 62
     7
 10
-21.63233
 20
-87.73536
 11
-20.60354
 21
-88.76415
  0
LINE
  8
0
  6
CONTINUOUS
 62
     7
 10
-21.26463
 20
-87.36765
 11
-20.23584
 21
-88.39645
  0
LINE
  8
0
  6
CENTER
 62
     2
 10
-4.00003
 20
-91.99998
 11
-4.00003
 21
-99.99998
  0
LINE
  8
0
  6
CENTER
 62
     2
 10
-22.00003
 20
-82.99998
 11
-22.00003
 21
-90.99998
  0
LINE
  8
0
  6
CENTER
 62
     2
 10
-26.00003
 20
-86.99998
 11
-18.00003
 21
-86.99998
  0
LINE
  8
0
  6
CENTER
 62
     2
 10
-8.00003
 20
-95.99998
 11
-0.00003
 21
-95.99998
  0
LINE
  8
0
  6
CONTINUOUS
 62
     7
 10
-25.00003
 20
-84.49998
 11
-25.00003
 21
-98.49998
  0
LINE
  8
0
  6
CONTINUOUS
 62
     7
 10
-24.50003
 20
-83.99998
 11
-1.00003
 21
-83.99998
  0
LINE
  8
0
  6
CONTINUOUS
 62
     7
 10
-24.50003
 20
-98.99998
 11
-1.00003
 21
-98.99998
  0
LINE
  8
0
  6
CONTINUOUS
 62
     7
 10
-1.00003
 20
-83.99998
 11
-1.00003
 21
-98.99998
  0
ARC
  8
0
  6
CONTINUOUS
 62
     7
 10
136.5177
 20
-117.5228
 40
1.10594
 50
0.0
 51
89.99999
  0
ARC
  8
0
  6
CONTINUOUS
 62
     7
 10
145.6418
 20
-123.4673
 40
1.10595
 50
270.0
 51
0.0
  0
ARC
  8
0
  6
CONTINUOUS
 62
     7
 10
145.0888
 20
-118.0758
 40
1.65892
 50
0.0
 51
89.99999
  0
ARC
  8
0
  6
CONTINUOUS
 62
     7
 10
155.1806
 20
-117.5228
 40
1.10594
 50
0.0
 51
89.99999
  0
ARC
  8
0
  6
CONTINUOUS
 62
     7
 10
155.1806
 20
-118.4064
 40
1.10595
 50
295.0
 51
0.0
  0
ARC
  8
0
  6
CONTINUOUS
 62
     7
 10
163.7517
 20
-116.4169
 40
1.65892
 50
291.6884
 51
0.0
  0
ARC
  8
0
  6
CONTINUOUS
 62
     7
 10
163.1987
 20
-116.0417
 40
0.55297
 50
291.689
 51
0.0
  0
ARC
  8
0
  6
CONTINUOUS
 62
     7
 10
0.51582
 20
92.97595
 40
0.5
 50
0.0
 51
89.99998
  0
ARC
  8
0
  6
CONTINUOUS
 62
     7
 10
0.51582
 20
87.97595
 40
0.5
 50
270.0
 51
0.0
  0
ARC
  8
0
  6
CONTINUOUS
 62
     7
 10
-4.00005
 20
86.0
 40
3.0
 50
89.99998
 51
180.0
  0
ARC
  8
0
  6
CONTINUOUS
 62
     7
 10
-22.00005
 20
95.0
 40
3.0
 50
270.0
 51
0.0
  0
ARC
  8
0
  6
CONTINUOUS
 62
     7
 10
-4.00005
 20
86.0
 40
2.55
 50
276.7563
 51
263.2437
  0
ARC
  8
0
  6
CONTINUOUS
 62
     7
 10
-22.00005
 20
95.0
 40
2.55
 50
96.75634
 51
83.2437
  0
CIRCLE
  8
0
  6
CONTINUOUS
 62
     7
 10
-4.00005
 20
86.0
 40
2.25
  0
ARC
  8
0
  6
CONTINUOUS
 62
     7
 10
-4.00005
 20
87.10309
 40
0.52
 50
225.0002
 51
314.9998
  0
ARC
  8
0
  6
CONTINUOUS
 62
     7
 10
-5.10313
 20
86.0
 40
0.52
 50
314.9998
 51
45.00026
  0
ARC
  8
0
  6
CONTINUOUS
 62
     7
 10
-2.89696
 20
86.0
 40
0.52
 50
134.9997
 51
225.0002
  0
ARC
  8
0
  6
CONTINUOUS
 62
     7
 10
-4.00005
 20
84.89691
 40
0.52
 50
45.00024
 51
134.9997
  0
CIRCLE
  8
0
  6
CONTINUOUS
 62
     7
 10
-22.00005
 20
95.0
 40
2.25
  0
ARC
  8
0
  6
CONTINUOUS
 62
     7
 10
-22.00005
 20
96.10309
 40
0.52
 50
225.0003
 51
314.9997
  0
ARC
  8
0
  6
CONTINUOUS
 62
     7
 10
-23.10313
 20
95.0
 40
0.52
 50
314.9997
 51
45.0003
  0
ARC
  8
0
  6
CONTINUOUS
 62
     7
 10
-20.89696
 20
95.0
 40
0.52
 50
134.9997
 51
225.0001
  0
ARC
  8
0
  6
CONTINUOUS
 62
     7
 10
-22.00005
 20
93.89691
 40
0.52
 50
45.0003
 51
134.9997
  0
ARC
  8
0
  6
CONTINUOUS
 62
     7
 10
-24.50005
 20
97.5
 40
0.5
 50
89.99999
 51
180.0
  0
ARC
  8
0
  6
CONTINUOUS
 62
     7
 10
-24.50005
 20
83.5
 40
0.5
 50
180.0
 51
270.0
  0
ARC
  8
0
  6
CONTINUOUS
 62
     7
 10
-102.0538
 20
-55.9533
 40
0.35346
 50
180.0
 51
270.0
  0
ARC
  8
0
  6
CONTINUOUS
 62
     7
 10
-104.9698
 20
-54.05344
 40
0.35346
 50
89.99999
 51
180.0
  0
ARC
  8
0
  6
CONTINUOUS
 62
     7
 10
-104.7931
 20
-55.77657
 40
0.53019
 50
180.0
 51
270.0
  0
ARC
  8
0
  6
CONTINUOUS
 62
     7
 10
-108.0184
 20
-55.9533
 40
0.35346
 50
180.0
 51
270.0
  0
ARC
  8
0
  6
CONTINUOUS
 62
     7
 10
-108.0184
 20
-55.67092
 40
0.35346
 50
114.9994
 51
180.0
  0
ARC
  8
0
  6
CONTINUOUS
 62
     7
 10
-110.7578
 20
-56.30677
 40
0.53019
 50
111.6884
 51
180.0
  0
ARC
  8
0
  6
CONTINUOUS
 62
     7
 10
-110.581
 20
-56.42667
 40
0.17673
 50
111.6893
 51
180.0
  0
ARC
  8
0
  6
CONTINUOUS
 62
     7
 10
-111.45
 20
54.49374
 40
0.8
 50
106.1913
 51
180.0
  0
ARC
  8
0
  6
CONTINUOUS
 62
     7
 10
-110.0
 20
49.49999
 40
6.0
 50
73.80869
 51
106.1913
  0
ARC
  8
0
  6
CONTINUOUS
 62
     7
 10
-108.55
 20
54.49374
 40
0.8
 50
0.0
 51
73.80872
  0
ARC
  8
0
  6
CONTINUOUS
 62
     7
 10
-101.0
 20
49.49999
 40
6.0
 50
73.80862
 51
106.1913
  0
ARC
  8
0
  6
CONTINUOUS
 62
     7
 10
-102.45
 20
54.49374
 40
0.8
 50
106.1913
 51
118.0138
  0
ARC
  8
0
  6
CONTINUOUS
 62
     7
 10
-99.55003
 20
54.49374
 40
0.8
 50
61.98621
 51
73.80872
  0
CIRCLE
  8
0
  6
CONTINUOUS
 62
     7
 10
-108.5
 20
6.00001
 40
1.75
  0
CIRCLE
  8
0
  6
CONTINUOUS
 62
     7
 10
-105.5
 20
-3.99999
 40
1.75
  0
CIRCLE
  8
0
  6
CONTINUOUS
 62
     7
 10
-102.5
 20
-13.99999
 40
1.75
  0
CIRCLE
  8
0
  6
CONTINUOUS
 62
     7
 10
-108.5
 20
6.00001
 40
2.5
  0
CIRCLE
  8
0
  6
CONTINUOUS
 62
     7
 10
-105.5
 20
-3.99999
 40
2.5
  0
CIRCLE
  8
0
  6
CONTINUOUS
 62
     7
 10
-102.5
 20
-13.99999
 40
2.5
  0
CIRCLE
  8
0
  6
CONTINUOUS
 62
     7
 10
-111.0
 20
-12.99999
 40
1.4
  0
CIRCLE
  8
0
  6
CONTINUOUS
 62
     7
 10
-100.0
 20
5.00001
 40
1.4
  0
CIRCLE
  8
0
  6
CONTINUOUS
 62
     7
 10
-105.5
 20
18.7
 40
2.0
  0
CIRCLE
  8
0
  6
CONTINUOUS
 62
     7
 10
-105.5
 20
18.7
 40
2.65
  0
CIRCLE
  8
0
  6
CONTINUOUS
 62
     7
 10
-105.5
 20
-26.69999
 40
2.0
  0
ARC
  8
0
  6
CONTINUOUS
 62
     7
 10
-111.45
 20
-62.49372
 40
0.8
 50
241.9862
 51
253.8087
  0
CIRCLE
  8
0
  6
CONTINUOUS
 62
     7
 10
-105.5
 20
-26.69999
 40
2.65
  0
ARC
  8
0
  6
CONTINUOUS
 62
     7
 10
-99.55001
 20
-62.49372
 40
0.8
 50
286.1913
 51
0.0
  0
ARC
  8
0
  6
CONTINUOUS
 62
     7
 10
-101.0
 20
-57.49998
 40
6.0
 50
253.8087
 51
286.1914
  0
ARC
  8
0
  6
CONTINUOUS
 62
     7
 10
-102.45
 20
-62.49372
 40
0.8
 50
180.0
 51
253.8087
  0
ARC
  8
0
  6
CONTINUOUS
 62
     7
 10
-110.0
 20
-57.49998
 40
6.0
 50
253.8087
 51
286.1914
  0
ARC
  8
0
  6
CONTINUOUS
 62
     7
 10
-108.55
 20
-62.49372
 40
0.8
 50
286.1913
 51
298.0138
  0
ARC
  8
0
  6
CONTINUOUS
 62
     7
 10
-100.419
 20
48.42669
 40
0.17673
 50
291.6893
 51
0.0
  0
ARC
  8
0
  6
CONTINUOUS
 62
     7
 10
-108.9463
 20
47.95332
 40
0.35346
 50
0.0
 51
89.99999
  0
ARC
  8
0
  6
CONTINUOUS
 62
     7
 10
-106.0302
 20
46.05346
 40
0.35346
 50
270.0
 51
0.0
  0
ARC
  8
0
  6
CONTINUOUS
 62
     7
 10
-106.207
 20
47.77659
 40
0.53019
 50
0.0
 51
89.99999
  0
ARC
  8
0
  6
CONTINUOUS
 62
     7
 10
-102.9816
 20
47.95332
 40
0.35346
 50
0.0
 51
89.99999
  0
ARC
  8
0
  6
CONTINUOUS
 62
     7
 10
-102.9816
 20
47.67094
 40
0.35346
 50
294.9994
 51
0.0
  0
ARC
  8
0
  6
CONTINUOUS
 62
     7
 10
-100.2423
 20
48.30679
 40
0.53019
 50
291.6884
 51
0.0
  0
ARC
  8
0
  6
CONTINUOUS
 62
     7
 10
-3.99999
 20
49.50001
 40
6.0
 50
73.80868
 51
106.1913
  0
ARC
  8
0
  6
CONTINUOUS
 62
     7
 10
-2.54999
 20
54.49375
 40
0.8
 50
0.0
 51
73.80867
  0
ARC
  8
0
  6
CONTINUOUS
 62
     7
 10
-5.44999
 20
54.49375
 40
0.8
 50
106.1913
 51
180.0
  0
ARC
  8
0
  6
CONTINUOUS
 62
     7
 10
-21.99999
 20
49.49999
 40
6.0
 50
73.80865
 51
106.1913
  0
ARC
  8
0
  6
CONTINUOUS
 62
     7
 10
-23.44999
 20
54.49374
 40
0.8
 50
106.1914
 51
118.0138
  0
ARC
  8
0
  6
CONTINUOUS
 62
     7
 10
-20.54999
 20
54.49374
 40
0.8
 50
61.98621
 51
73.80872
  0
CIRCLE
  8
0
  6
CONTINUOUS
 62
     7
 10
-19.99999
 20
1.00001
 40
1.6
  0
CIRCLE
  8
0
  6
CONTINUOUS
 62
     7
 10
-19.99999
 20
-8.99999
 40
1.6
  0
ARC
  8
0
  6
CONTINUOUS
 62
     7
 10
0.50001
 20
43.80001
 40
0.5
 50
270.0
 51
0.0
  0
ARC
  8
0
  6
CONTINUOUS
 62
     7
 10
0.50001
 20
46.2
 40
0.5
 50
0.0
 51
89.99992
  0
ARC
  8
0
  6
CONTINUOUS
 62
     7
 10
-21.99999
 20
-57.5
 40
6.0
 50
253.8088
 51
286.1914
  0
ARC
  8
0
  6
CONTINUOUS
 62
     7
 10
-23.44999
 20
-62.49374
 40
0.8
 50
180.0
 51
253.8087
  0
ARC
  8
0
  6
CONTINUOUS
 62
     7
 10
-20.54999
 20
-62.49374
 40
0.8
 50
286.1914
 51
0.0
  0
ARC
  8
0
  6
CONTINUOUS
 62
     7
 10
-3.99999
 20
-57.49998
 40
6.0
 50
253.8087
 51
286.1914
  0
ARC
  8
0
  6
CONTINUOUS
 62
     7
 10
-2.54999
 20
-62.49373
 40
0.8
 50
286.1914
 51
298.0139
  0
ARC
  8
0
  6
CONTINUOUS
 62
     7
 10
-5.44999
 20
-62.49373
 40
0.8
 50
241.9863
 51
253.8088
  0
ARC
  8
0
  6
CONTINUOUS
 62
     7
 10
0.50001
 20
-51.8
 40
0.5
 50
0.0
 51
89.99998
  0
ARC
  8
0
  6
CONTINUOUS
 62
     7
 10
0.50001
 20
-54.39999
 40
0.5
 50
270.0
 51
0.0
  0
ARC
  8
0
  6
CONTINUOUS
 62
     7
 10
86.00002
 20
49.49999
 40
6.0
 50
73.80869
 51
106.1913
  0
ARC
  8
0
  6
CONTINUOUS
 62
     7
 10
87.45001
 20
54.49373
 40
0.8
 50
0.0
 51
73.80872
  0
ARC
  8
0
  6
CONTINUOUS
 62
     7
 10
84.55002
 20
54.49373
 40
0.8
 50
106.1913
 51
180.0
  0
ARC
  8
0
  6
CONTINUOUS
 62
     7
 10
95.00002
 20
49.49999
 40
6.0
 50
73.80862
 51
106.1913
  0
ARC
  8
0
  6
CONTINUOUS
 62
     7
 10
93.55002
 20
54.49373
 40
0.8
 50
106.1913
 51
118.0138
  0
ARC
  8
0
  6
CONTINUOUS
 62
     7
 10
96.45001
 20
54.49373
 40
0.8
 50
61.98621
 51
73.80872
  0
CIRCLE
  8
0
  6
CONTINUOUS
 62
     7
 10
87.50002
 20
-9.0
 40
1.75
  0
CIRCLE
  8
0
  6
CONTINUOUS
 62
     7
 10
93.50002
 20
1.0
 40
1.75
  0
CIRCLE
  8
0
  6
CONTINUOUS
 62
     7
 10
93.50002
 20
1.0
 40
2.5
  0
CIRCLE
  8
0
  6
CONTINUOUS
 62
     7
 10
87.50002
 20
-9.0
 40
2.5
  0
CIRCLE
  8
0
  6
CONTINUOUS
 62
     7
 10
85.00002
 20
5.0
 40
1.4
  0
CIRCLE
  8
0
  6
CONTINUOUS
 62
     7
 10
96.00002
 20
-13.0
 40
1.4
  0
ARC
  8
0
  6
CONTINUOUS
 62
     7
 10
96.00002
 20
-13.0
 40
2.7
 50
42.20544
 51
317.7946
  0
ARC
  8
0
  6
CONTINUOUS
 62
     7
 10
85.00002
 20
5.0
 40
2.7
 50
0.0
 51
137.7946
  0
ARC
  8
0
  6
CONTINUOUS
 62
     7
 10
85.00002
 20
5.0
 40
2.7
 50
222.2054
 51
0.0
  0
CIRCLE
  8
0
  6
CONTINUOUS
 62
     7
 10
90.50002
 20
23.5
 40
1.65
  0
ARC
  8
0
  6
CONTINUOUS
 62
     7
 10
89.20001
 20
45.0
 40
1.7
 50
89.99999
 51
270.0
  0
CIRCLE
  8
0
  6
CONTINUOUS
 62
     7
 10
89.20001
 20
45.0
 40
0.85
  0
ARC
  8
0
  6
CONTINUOUS
 62
     7
 10
91.80002
 20
45.0
 40
1.7
 50
270.0
 51
89.99999
  0
CIRCLE
  8
0
  6
CONTINUOUS
 62
     7
 10
91.80002
 20
45.0
 40
0.85
  0
CIRCLE
  8
0
  6
CONTINUOUS
 62
     7
 10
91.80002
 20
-53.0
 40
0.85
  0
ARC
  8
0
  6
CONTINUOUS
 62
     7
 10
91.80002
 20
-53.0
 40
1.7
 50
270.0
 51
89.99999
  0
ARC
  8
0
  6
CONTINUOUS
 62
     7
 10
95.00002
 20
-57.49998
 40
6.0
 50
253.8088
 51
286.1915
  0
ARC
  8
0
  6
CONTINUOUS
 62
     7
 10
93.55002
 20
-62.49372
 40
0.8
 50
180.0
 51
253.8087
  0
ARC
  8
0
  6
CONTINUOUS
 62
     7
 10
96.45001
 20
-62.49372
 40
0.8
 50
286.1913
 51
0.0
  0
ARC
  8
0
  6
CONTINUOUS
 62
     7
 10
86.00002
 20
-57.49998
 40
6.0
 50
253.8088
 51
286.1915
  0
ARC
  8
0
  6
CONTINUOUS
 62
     7
 10
87.45001
 20
-62.49372
 40
0.8
 50
286.1913
 51
298.0138
  0
ARC
  8
0
  6
CONTINUOUS
 62
     7
 10
84.55002
 20
-62.49372
 40
0.8
 50
241.9862
 51
253.8087
  0
CIRCLE
  8
0
  6
CONTINUOUS
 62
     7
 10
90.50002
 20
-31.5
 40
1.65
  0
ARC
  8
0
  6
CONTINUOUS
 62
     7
 10
89.20001
 20
-53.0
 40
1.7
 50
89.99999
 51
270.0
  0
CIRCLE
  8
0
  6
CONTINUOUS
 62
     7
 10
89.20001
 20
-53.0
 40
0.85
  0
ARC
  8
0
  6
CONTINUOUS
 62
     7
 10
0.51583
 20
-89.02402
 40
0.5
 50
0.0
 51
89.99998
  0
ARC
  8
0
  6
CONTINUOUS
 62
     7
 10
0.51583
 20
-94.02402
 40
0.5
 50
270.0
 51
0.0
  0
ARC
  8
0
  6
CONTINUOUS
 62
     7
 10
-4.00003
 20
-95.99998
 40
3.0
 50
89.99998
 51
180.0
  0
ARC
  8
0
  6
CONTINUOUS
 62
     7
 10
-22.00003
 20
-86.99998
 40
3.0
 50
270.0
 51
0.0
  0
ARC
  8
0
  6
CONTINUOUS
 62
     7
 10
-4.00003
 20
-95.99998
 40
2.55
 50
276.7563
 51
263.2437
  0
ARC
  8
0
  6
CONTINUOUS
 62
     7
 10
-22.00003
 20
-86.99998
 40
2.55
 50
96.75634
 51
83.2437
  0
CIRCLE
  8
0
  6
CONTINUOUS
 62
     7
 10
-4.00003
 20
-95.99998
 40
2.25
  0
ARC
  8
0
  6
CONTINUOUS
 62
     7
 10
-4.00003
 20
-94.89689
 40
0.52
 50
225.0002
 51
314.9998
  0
ARC
  8
0
  6
CONTINUOUS
 62
     7
 10
-5.10312
 20
-95.99998
 40
0.52
 50
314.9998
 51
45.00026
  0
ARC
  8
0
  6
CONTINUOUS
 62
     7
 10
-2.89694
 20
-95.99998
 40
0.52
 50
134.9997
 51
225.0002
  0
ARC
  8
0
  6
CONTINUOUS
 62
     7
 10
-4.00003
 20
-97.10307
 40
0.52
 50
45.00024
 51
134.9997
  0
CIRCLE
  8
0
  6
CONTINUOUS
 62
     7
 10
-22.00003
 20
-86.99998
 40
2.25
  0
ARC
  8
0
  6
CONTINUOUS
 62
     7
 10
-22.00003
 20
-85.89689
 40
0.52
 50
225.0003
 51
314.9997
  0
ARC
  8
0
  6
CONTINUOUS
 62
     7
 10
-23.10312
 20
-86.99998
 40
0.52
 50
314.9997
 51
45.0003
  0
ARC
  8
0
  6
CONTINUOUS
 62
     7
 10
-20.89694
 20
-86.99998
 40
0.52
 50
134.9997
 51
225.0001
  0
ARC
  8
0
  6
CONTINUOUS
 62
     7
 10
-22.00003
 20
-88.10307
 40
0.52
 50
45.0003
 51
134.9997
  0
ARC
  8
0
  6
CONTINUOUS
 62
     7
 10
-24.50003
 20
-84.49998
 40
0.5
 50
89.99999
 51
180.0
  0
ARC
  8
0
  6
CONTINUOUS
 62
     7
 10
-24.50003
 20
-98.49998
 40
0.5
 50
180.0
 51
270.0
  0
TEXT
  8
0
  6
CONTINUOUS
 62
     7
 10
114.5353
 20
118.1347
 40
4.24264
  1
DATE : AUG ,1989
 41
0.8
  7
STANDARD
  0
TEXT
  8
0
  6
CONTINUOUS
 62
     7
 10
-163.965
 20
117.7787
 40
5.0
  1
110-4E2
 41
0.8
  7
STANDARD
  0
TEXT
  8
0
  6
CONTINUOUS
 62
     7
 10
-163.694
 20
90.14462
 40
5.0
  1
MODEL : 110-4E2
 41
0.8
  7
STANDARD
  0
TEXT
  8
0
  6
CONTINUOUS
 62
     7
 10
-112.2439
 20
1.00298
 40
2.0
  1
R1
 41
0.8
  7
STANDARD
  0
TEXT
  8
0
  6
CONTINUOUS
 62
     7
 10
-103.2335
 20
-2.5865
 40
2.0
  1
P
 41
0.8
  7
STANDARD
  0
TEXT
  8
0
  6
CONTINUOUS
 62
     7
 10
-101.6219
 20
-11.23055
 40
2.0
  1
R2
 41
0.8
  7
STANDARD
  0
TEXT
  8
0
  6
CONTINUOUS
 62
     7
 10
95.14162
 20
-2.53734
 40
2.0
  1
A
 41
0.8
  7
STANDARD
  0
TEXT
  8
0
  6
CONTINUOUS
 62
     7
 10
84.21243
 20
-13.13026
 40
2.0
  1
B
 41
0.8
  7
STANDARD
  0
ENDSEC
  0
EOF
