  0
SECTION
  2
HEADER
  9
$ACADVER
  1
AC1002
  9
$INSBASE
 10
0.0
 20
0.0
  9
$EXTMIN
 10
-370.8736
 20
-254.5585
  9
$EXTMAX
 10
370.8736
 20
254.5585
  9
$LIMMIN
 10
0.0
 20
0.0
  9
$LIMMAX
 10
12.0
 20
9.0
  9
$VIEWCTR
 10
28.6093211
 20
0.0
  9
$VIEWSIZE
 40
509.117
  9
$SNAPMODE
 70
     0
  9
$SNAPUNIT
 10
1.0
 20
1.0
  9
$SNAPBASE
 10
0.0
 20
0.0
  9
$SNAPANG
 50
0.0
  9
$SNAPSTYLE
 70
     0
  9
$SNAPISOPAIR
 70
     0
  9
$GRIDMODE
 70
     0
  9
$GRIDUNIT
 10
0.0
 20
0.0
  9
$ORTHOMODE
 70
     0
  9
$REGENMODE
 70
     1
  9
$FILLMODE
 70
     1
  9
$QTEXTMODE
 70
     0
  9
$DRAGMODE
 70
     2
  9
$LTSCALE
 40
1.0
  9
$OSMODE
 70
     0
  9
$ATTMODE
 70
     1
  9
$TEXTSIZE
 40
0.2
  9
$TRACEWID
 40
0.05
  9
$TEXTSTYLE
  7
AAA
  9
$CLAYER
  8
0
  9
$CELTYPE
  6
BYLAYER
  9
$CECOLOR
 62
   256
  9
$DIMSCALE
 40
1.0
  9
$DIMASZ
 40
0.18
  9
$DIMEXO
 40
0.0625
  9
$DIMDLI
 40
0.38
  9
$DIMRND
 40
0.0
  9
$DIMDLE
 40
0.0
  9
$DIMEXE
 40
0.18
  9
$DIMTP
 40
0.0
  9
$DIMTM
 40
0.0
  9
$DIMTXT
 40
0.18
  9
$DIMCEN
 40
0.09
  9
$DIMTSZ
 40
0.0
  9
$DIMTOL
 70
     0
  9
$DIMLIM
 70
     0
  9
$DIMTIH
 70
     1
  9
$DIMTOH
 70
     1
  9
$DIMSE1
 70
     0
  9
$DIMSE2
 70
     0
  9
$DIMTAD
 70
     0
  9
$DIMZIN
 70
     0
  9
$DIMBLK
  1

  9
$LUNITS
 70
     2
  9
$LUPREC
 70
     4
  9
$AXISMODE
 70
     0
  9
$AXISUNIT
 10
0.0
 20
0.0
  9
$SKETCHINC
 40
0.1
  9
$FILLETRAD
 40
0.0
  9
$AUNITS
 70
     0
  9
$AUPREC
 70
     0
  9
$MENU
  1
ACAD
  9
$ELEVATION
 40
0.0
  9
$THICKNESS
 40
0.0
  9
$VIEWDIR
 10
0.0
 20
0.0
 30
1.0
  9
$LIMCHECK
 70
     0
  9
$BLIPMODE
 70
     1
  9
$CHAMFERA
 40
0.0
  9
$CHAMFERB
 40
0.0
  9
$FASTZOOM
 70
     1
  9
$SKPOLY
 70
     0
  9
$TDCREATE
 40
2447872.3931250492
  9
$TDUPDATE
 40
2447872.3931250492
  9
$TDINDWG
 40
0.0012152778
  9
$TDUSRTIMER
 40
0.0012152778
  9
$USRTIMER
 70
     1
  9
$ANGBASE
 50
0.0
  9
$ANGDIR
 70
     0
  9
$PDMODE
 70
     0
  9
$PDSIZE
 40
0.0
  9
$PLINEWID
 40
0.0
  9
$COORDS
 70
     0
  9
$USERI1
 70
     0
  9
$USERI2
 70
     0
  9
$USERI3
 70
     0
  9
$USERI4
 70
     0
  9
$USERI5
 70
     0
  9
$USERR1
 40
0.0
  9
$USERR2
 40
0.0
  9
$USERR3
 40
0.0
  9
$USERR4
 40
0.0
  9
$USERR5
 40
0.0
  0
ENDSEC
  0
SECTION
  2
TABLES
  0
TABLE
  2
LTYPE
 70
     3
  0
LTYPE
  2
CONTINUOUS
 70
    64
  3
SOLID
 72
    65
 73
     0
 40
0.0
  0
LTYPE
  2
CENTER
 70
    64
  3
CENTER
 72
    65
 73
     4
 40
2.0
 49
1.25
 49
-0.25
 49
0.25
 49
-0.25
  0
LTYPE
  2
PHANTOM
 70
    64
  3
PHANTOM
 72
    65
 73
     6
 40
2.5
 49
1.25
 49
-0.25
 49
0.25
 49
-0.25
 49
0.25
 49
-0.25
  0
ENDTAB
  0
TABLE
  2
LAYER
 70
     1
  0
LAYER
  2
0
 70
    64
 62
     7
  6
CONTINUOUS
  0
ENDTAB
  0
TABLE
  2
STYLE
 70
     2
  0
STYLE
  2
AAA
 70
     0
 40
0.0
 41
1.0
 50
0.0
 71
     0
 42
0.2
  3
TXT
  4

  0
STYLE
  2
STANDARD
 70
    64
 40
0.0
 41
1.0
 50
0.0
 71
     0
 42
0.2
  3
TXT
  4
BIGFONT
  0
ENDTAB
  0
TABLE
  2
VIEW
 70
     0
  0
ENDTAB
  0
ENDSEC
  0
SECTION
  2
BLOCKS
  0
ENDSEC
  0
SECTION
  2
ENTITIES
  0
POINT
  8
0
  6
CONTINUOUS
 62
     7
 10
-206.4367
 20
147.5
  0
POINT
  8
0
  6
CONTINUOUS
 62
     7
 10
-182.4367
 20
147.5
  0
POINT
  8
0
  6
CONTINUOUS
 62
     7
 10
-185.4368
 20
148.5
  0
POINT
  8
0
  6
CONTINUOUS
 62
     7
 10
-206.4368
 20
0.0
  0
POINT
  8
0
  6
CONTINUOUS
 62
     7
 10
-182.4368
 20
0.0
  0
POINT
  8
0
  6
CONTINUOUS
 62
     7
 10
-185.4368
 20
-30.5
  0
POINT
  8
0
  6
CONTINUOUS
 62
     7
 10
-182.4368
 20
18.50002
  0
POINT
  8
0
  6
CONTINUOUS
 62
     7
 10
-56.43671
 20
-0.00003
  0
POINT
  8
0
  6
CONTINUOUS
 62
     7
 10
-43.43671
 20
-0.00003
  0
POINT
  8
0
  6
CONTINUOUS
 62
     7
 10
-55.43671
 20
-30.50003
  0
POINT
  8
0
  6
CONTINUOUS
 62
     7
 10
-47.93671
 20
-4.00003
  0
POINT
  8
0
  6
CONTINUOUS
 62
     7
 10
-53.93671
 20
-14.00003
  0
POINT
  8
0
  6
CONTINUOUS
 62
     7
 10
-50.93671
 20
18.49998
  0
POINT
  8
0
  6
CONTINUOUS
 62
     7
 10
-206.4367
 20
-143.4999
  0
POINT
  8
0
  6
CONTINUOUS
 62
     7
 10
-182.4367
 20
-143.4999
  0
POINT
  8
0
  6
CONTINUOUS
 62
     7
 10
-185.4367
 20
-144.4999
  0
POINT
  8
0
  6
CONTINUOUS
 62
     7
 10
-182.4367
 20
-148.9999
  0
POINT
  8
0
  6
CONTINUOUS
 62
     7
 10
-302.4368
 20
-30.5
  0
POINT
  8
0
  6
CONTINUOUS
 62
     7
 10
-309.9368
 20
1.0
  0
POINT
  8
0
  6
CONTINUOUS
 62
     7
 10
-306.9368
 20
-9.0
  0
POINT
  8
0
  6
CONTINUOUS
 62
     7
 10
-303.9368
 20
-19.0
  0
POINT
  8
0
  6
CONTINUOUS
 62
     7
 10
-301.4368
 20
0.0
  0
POINT
  8
0
  6
CONTINUOUS
 62
     7
 10
172.4368
 20
165.0
  0
POINT
  8
0
  6
CONTINUOUS
 62
     7
 10
185.4368
 20
165.0
  0
POINT
  8
0
  6
CONTINUOUS
 62
     7
 10
172.4368
 20
0.0
  0
POINT
  8
0
  6
CONTINUOUS
 62
     7
 10
185.4368
 20
0.0
  0
POINT
  8
0
  6
CONTINUOUS
 62
     7
 10
177.9368
 20
18.5
  0
POINT
  8
0
  6
CONTINUOUS
 62
     7
 10
172.4368
 20
-160.9999
  0
POINT
  8
0
  6
CONTINUOUS
 62
     7
 10
185.4368
 20
-160.9999
  0
POINT
  8
0
  6
CONTINUOUS
 62
     7
 10
177.9368
 20
-136.9999
  0
POINT
  8
0
  6
CONTINUOUS
 62
     7
 10
332.4367
 20
0.0
  0
POINT
  8
0
  6
CONTINUOUS
 62
     7
 10
308.4367
 20
18.5
  0
POINT
  8
0
  6
CONTINUOUS
 62
     7
 10
56.4368
 20
0.0
  0
POINT
  8
0
  6
CONTINUOUS
 62
     7
 10
32.4368
 20
0.0
  0
POINT
  8
0
  6
CONTINUOUS
 62
     7
 10
56.4368
 20
18.5
  0
LINE
  8
0
  6
CONTINUOUS
 62
     7
 10
218.3292
 20
-225.9564
 11
370.8736
 21
-225.9564
  0
LINE
  8
0
  6
CONTINUOUS
 62
     7
 10
-218.3292
 20
225.9564
 11
-218.3292
 21
254.5585
  0
LINE
  8
0
  6
CONTINUOUS
 62
     7
 10
-370.8736
 20
225.9564
 11
-218.3292
 21
225.9564
  0
LINE
  8
0
  6
CONTINUOUS
 62
     7
 10
-370.8736
 20
254.5585
 11
370.8736
 21
254.5585
  0
LINE
  8
0
  6
CONTINUOUS
 62
     7
 10
-370.8736
 20
-254.5585
 11
370.8736
 21
-254.5585
  0
LINE
  8
0
  6
CONTINUOUS
 62
     7
 10
370.8736
 20
254.5585
 11
370.8736
 21
-254.5585
  0
LINE
  8
0
  6
CONTINUOUS
 62
     7
 10
-370.8736
 20
-254.5585
 11
-370.8736
 21
254.5585
  0
LINE
  8
0
  6
CONTINUOUS
 62
     7
 10
218.3292
 20
-225.9564
 11
218.3292
 21
-254.5585
  0
LINE
  8
0
  6
CONTINUOUS
 62
     7
 10
218.3292
 20
254.5585
 11
218.3292
 21
225.9564
  0
LINE
  8
0
  6
CONTINUOUS
 62
     7
 10
218.3292
 20
225.9564
 11
370.8736
 21
225.9564
  0
LINE
  8
0
  6
CONTINUOUS
 62
     7
 10
258.3816
 20
-232.8337
 11
258.3816
 21
-236.1516
  0
LINE
  8
0
  6
CONTINUOUS
 62
     7
 10
258.3816
 20
-236.1516
 11
270.8235
 21
-236.1516
  0
LINE
  8
0
  6
CONTINUOUS
 62
     7
 10
258.3816
 20
-249.1465
 11
275.2473
 21
-249.1465
  0
LINE
  8
0
  6
CONTINUOUS
 62
     7
 10
258.3816
 20
-245.8286
 11
270.8235
 21
-245.8286
  0
LINE
  8
0
  6
CONTINUOUS
 62
     7
 10
258.3816
 20
-232.8337
 11
273.0354
 21
-232.8337
  0
LINE
  8
0
  6
CONTINUOUS
 62
     7
 10
270.8235
 20
-236.1516
 11
270.8235
 21
-245.8286
  0
LINE
  8
0
  6
CONTINUOUS
 62
     7
 10
275.2473
 20
-235.0457
 11
275.2473
 21
-249.1465
  0
LINE
  8
0
  6
CONTINUOUS
 62
     7
 10
258.3816
 20
-245.8286
 11
258.3816
 21
-249.1465
  0
LINE
  8
0
  6
CONTINUOUS
 62
     7
 10
293.4954
 20
-236.1516
 11
293.4954
 21
-246.9346
  0
LINE
  8
0
  6
CONTINUOUS
 62
     7
 10
277.7357
 20
-232.8337
 11
277.7357
 21
-236.1516
  0
LINE
  8
0
  6
CONTINUOUS
 62
     7
 10
293.9378
 20
-232.585
 11
295.5138
 21
-232.585
  0
LINE
  8
0
  6
CONTINUOUS
 62
     7
 10
293.9378
 20
-230.373
 11
295.5138
 21
-230.373
  0
LINE
  8
0
  6
CONTINUOUS
 62
     7
 10
295.5138
 20
-230.373
 11
295.5138
 21
-232.585
  0
LINE
  8
0
  6
CONTINUOUS
 62
     7
 10
293.9378
 20
-230.373
 11
293.9378
 21
-232.585
  0
LINE
  8
0
  6
CONTINUOUS
 62
     7
 10
293.1083
 20
-230.373
 11
293.1083
 21
-232.585
  0
LINE
  8
0
  6
CONTINUOUS
 62
     7
 10
282.7661
 20
-230.373
 11
286.2009
 21
-230.373
  0
LINE
  8
0
  6
CONTINUOUS
 62
     7
 10
285.5413
 20
-232.8335
 11
286.2006
 21
-230.3727
  0
LINE
  8
0
  6
CONTINUOUS
 62
     7
 10
282.1067
 20
-232.8337
 11
282.766
 21
-230.373
  0
LINE
  8
0
  6
CONTINUOUS
 62
     7
 10
285.5416
 20
-232.8337
 11
290.1776
 21
-232.8337
  0
LINE
  8
0
  6
CONTINUOUS
 62
     7
 10
284.6526
 20
-236.1516
 11
289.0716
 21
-236.1516
  0
LINE
  8
0
  6
CONTINUOUS
 62
     7
 10
286.6429
 20
-249.1465
 11
291.2836
 21
-249.1465
  0
LINE
  8
0
  6
CONTINUOUS
 62
     7
 10
285.7537
 20
-245.8286
 11
286.6427
 21
-249.1463
  0
LINE
  8
0
  6
CONTINUOUS
 62
     7
 10
285.7538
 20
-245.8286
 11
289.0716
 21
-245.8286
  0
LINE
  8
0
  6
CONTINUOUS
 62
     7
 10
281.1707
 20
-249.1466
 11
284.6527
 21
-236.1517
  0
LINE
  8
0
  6
CONTINUOUS
 62
     7
 10
277.7357
 20
-236.1516
 11
281.2177
 21
-236.1516
  0
LINE
  8
0
  6
CONTINUOUS
 62
     7
 10
277.7354
 20
-249.1462
 11
281.2175
 21
-236.1513
  0
LINE
  8
0
  6
CONTINUOUS
 62
     7
 10
277.7357
 20
-249.1465
 11
281.1706
 21
-249.1465
  0
LINE
  8
0
  6
CONTINUOUS
 62
     7
 10
277.7357
 20
-232.8337
 11
282.1067
 21
-232.8337
  0
LINE
  8
0
  6
CONTINUOUS
 62
     7
 10
289.0716
 20
-236.1516
 11
289.0716
 21
-245.8286
  0
LINE
  8
0
  6
CONTINUOUS
 62
     7
 10
291.5323
 20
-230.373
 11
293.1083
 21
-230.373
  0
LINE
  8
0
  6
CONTINUOUS
 62
     7
 10
291.5323
 20
-232.585
 11
293.1083
 21
-232.585
  0
LINE
  8
0
  6
CONTINUOUS
 62
     7
 10
291.5323
 20
-230.373
 11
291.5323
 21
-232.585
  0
LINE
  8
0
  6
CONTINUOUS
 62
     7
 10
301.5135
 20
-230.373
 11
305.9373
 21
-230.373
  0
LINE
  8
0
  6
CONTINUOUS
 62
     7
 10
308.3423
 20
-240.1951
 11
311.2962
 21
-238.8176
  0
LINE
  8
0
  6
CONTINUOUS
 62
     7
 10
305.9373
 20
-242.7344
 11
305.9373
 21
-249.1465
  0
LINE
  8
0
  6
CONTINUOUS
 62
     7
 10
301.5135
 20
-243.379
 11
301.5135
 21
-249.1465
  0
LINE
  8
0
  6
CONTINUOUS
 62
     7
 10
305.9373
 20
-232.8337
 11
310.3611
 21
-232.8337
  0
LINE
  8
0
  6
CONTINUOUS
 62
     7
 10
305.9373
 20
-230.373
 11
305.9373
 21
-232.8337
  0
LINE
  8
0
  6
CONTINUOUS
 62
     7
 10
301.5135
 20
-230.373
 11
301.5135
 21
-232.8337
  0
LINE
  8
0
  6
CONTINUOUS
 62
     7
 10
312.573
 20
-235.0457
 11
312.573
 21
-236.8128
  0
LINE
  8
0
  6
CONTINUOUS
 62
     7
 10
308.3424
 20
-240.195
 11
312.5734
 21
-242.168
  0
LINE
  8
0
  6
CONTINUOUS
 62
     7
 10
305.9373
 20
-242.7343
 11
312.5731
 21
-245.8286
  0
LINE
  8
0
  6
CONTINUOUS
 62
     7
 10
296.2603
 20
-242.1678
 11
296.2603
 21
-245.8286
  0
LINE
  8
0
  6
CONTINUOUS
 62
     7
 10
296.2607
 20
-242.1682
 11
309.1626
 21
-236.1519
  0
LINE
  8
0
  6
CONTINUOUS
 62
     7
 10
296.2603
 20
-245.8286
 11
301.5136
 21
-243.3789
  0
LINE
  8
0
  6
CONTINUOUS
 62
     7
 10
312.573
 20
-242.1678
 11
312.573
 21
-245.8286
  0
LINE
  8
0
  6
CONTINUOUS
 62
     7
 10
296.2603
 20
-232.8337
 11
296.2603
 21
-236.1516
  0
LINE
  8
0
  6
CONTINUOUS
 62
     7
 10
301.5135
 20
-249.1465
 11
305.9373
 21
-249.1465
  0
LINE
  8
0
  6
CONTINUOUS
 62
     7
 10
296.2603
 20
-236.1516
 11
309.1621
 21
-236.1516
  0
LINE
  8
0
  6
CONTINUOUS
 62
     7
 10
296.2603
 20
-232.8337
 11
301.5135
 21
-232.8337
  0
LINE
  8
0
  6
CONTINUOUS
 62
     7
 10
327.504
 20
-236.4047
 11
328.73
 21
-235.9171
  0
LINE
  8
0
  6
CONTINUOUS
 62
     7
 10
327.5034
 20
-236.4044
 11
327.5034
 21
-249.1465
  0
LINE
  8
0
  6
CONTINUOUS
 62
     7
 10
323.0795
 20
-249.1465
 11
327.5034
 21
-249.1465
  0
LINE
  8
0
  6
CONTINUOUS
 62
     7
 10
313.9553
 20
-241.7925
 11
323.0794
 21
-238.1637
  0
LINE
  8
0
  6
CONTINUOUS
 62
     7
 10
313.9555
 20
-238.222
 11
326.8062
 21
-233.1111
  0
LINE
  8
0
  6
CONTINUOUS
 62
     7
 10
323.0795
 20
-238.1638
 11
323.0795
 21
-249.1465
  0
LINE
  8
0
  6
CONTINUOUS
 62
     7
 10
327.5034
 20
-231.3684
 11
327.5034
 21
-232.0834
  0
LINE
  8
0
  6
CONTINUOUS
 62
     7
 10
330.8211
 20
-231.3684
 11
330.8211
 21
-232.8338
  0
LINE
  8
0
  6
CONTINUOUS
 62
     7
 10
313.9554
 20
-238.2219
 11
313.9554
 21
-241.7925
  0
LINE
  8
0
  6
CONTINUOUS
 62
     7
 10
327.5034
 20
-231.3684
 11
330.8211
 21
-231.3684
  0
LINE
  8
0
  6
CONTINUOUS
 62
     7
 10
0.0
 20
254.5585
 11
0.0
 21
-254.5585
  0
LINE
  8
0
  6
CONTINUOUS
 62
     7
 10
-206.4368
 20
22.00002
 11
-206.4368
 21
-30.0
  0
LINE
  8
0
  6
CONTINUOUS
 62
     7
 10
-206.4368
 20
5.0
 11
-182.4368
 21
5.0
  0
LINE
  8
0
  6
CONTINUOUS
 62
     7
 10
-206.4368
 20
-23.0
 11
-182.4368
 21
-23.0
  0
LINE
  8
0
  6
CONTINUOUS
 62
     7
 10
-205.9368
 20
-30.5
 11
-188.1868
 21
-30.5
  0
LINE
  8
0
  6
CENTER
 62
     2
 10
-194.4368
 20
53.00002
 11
-194.4368
 21
-34.53334
  0
LINE
  8
0
  6
CENTER
 62
     2
 10
-201.4368
 20
0.0
 11
-201.4368
 21
-17.33333
  0
LINE
  8
0
  6
CENTER
 62
     2
 10
-204.6034
 20
-14.0
 11
-197.9368
 21
-14.0
  0
LINE
  8
0
  6
CENTER
 62
     2
 10
-204.9368
 20
-4.0
 11
-198.2701
 21
-4.0
  0
LINE
  8
0
  6
CENTER
 62
     2
 10
-185.4368
 20
-24.54131
 11
-185.4368
 21
-31.4705
  0
LINE
  8
0
  6
CONTINUOUS
 62
     7
 10
-188.6368
 20
-26.0
 11
-188.6368
 21
-30.0
  0
LINE
  8
0
  6
CONTINUOUS
 62
     7
 10
-188.1868
 20
-25.5
 11
-182.6868
 21
-25.5
  0
LINE
  8
0
  6
CONTINUOUS
 62
     7
 10
-188.1868
 20
-25.5
 11
-188.1868
 21
-30.7
  0
LINE
  8
0
  6
CONTINUOUS
 62
     7
 10
-182.6868
 20
-25.5
 11
-182.6868
 21
-30.7
  0
LINE
  8
0
  6
CONTINUOUS
 62
     7
 10
-188.1868
 20
-30.7
 11
-182.6868
 21
-30.7
  0
LINE
  8
0
  6
CENTER
 62
     2
 10
-186.4795
 20
0.0
 11
-181.4473
 21
0.0
  0
LINE
  8
0
  6
CONTINUOUS
 62
     7
 10
-182.4368
 20
22.00002
 11
-182.4368
 21
-30.0
  0
LINE
  8
0
  6
CONTINUOUS
 62
     7
 10
-185.4368
 20
1.81383
 11
-182.4368
 21
1.81383
  0
LINE
  8
0
  6
CONTINUOUS
 62
     7
 10
-185.4368
 20
-1.81383
 11
-182.4368
 21
-1.81383
  0
LINE
  8
0
  6
CONTINUOUS
 62
     7
 10
-185.4368
 20
1.81383
 11
-185.4368
 21
-1.81383
  0
LINE
  8
0
  6
CONTINUOUS
 62
     7
 10
-183.9633
 20
-29.7
 11
-183.9633
 21
-30.7
  0
LINE
  8
0
  6
CONTINUOUS
 62
     7
 10
-183.1148
 20
-29.7
 11
-183.1148
 21
-30.7
  0
LINE
  8
0
  6
CONTINUOUS
 62
     7
 10
-183.9633
 20
-29.7
 11
-183.1148
 21
-29.7
  0
LINE
  8
0
  6
CONTINUOUS
 62
     7
 10
-206.4368
 20
47.2
 11
-182.4368
 21
47.2
  0
LINE
  8
0
  6
CONTINUOUS
 62
     7
 10
-206.4368
 20
22.00002
 11
-173.2368
 21
22.00002
  0
LINE
  8
0
  6
CONTINUOUS
 62
     7
 10
-206.4368
 20
48.2
 11
-206.4368
 21
21.99998
  0
LINE
  8
0
  6
CONTINUOUS
 62
     7
 10
-182.4368
 20
48.2
 11
-182.4368
 21
22.00002
  0
LINE
  8
0
  6
CONTINUOUS
 62
     7
 10
-172.4368
 20
45.7
 11
-172.4368
 21
22.8
  0
LINE
  8
0
  6
CONTINUOUS
 62
     7
 10
-205.4368
 20
50.2
 11
-187.2625
 21
50.2
  0
LINE
  8
0
  6
CONTINUOUS
 62
     7
 10
-206.4368
 20
48.2
 11
-182.4368
 21
48.2
  0
LINE
  8
0
  6
CONTINUOUS
 62
     7
 10
-206.4368
 20
48.2
 11
-205.4368
 21
50.20002
  0
LINE
  8
0
  6
CONTINUOUS
 62
     7
 10
-182.4368
 20
48.2
 11
-183.4368
 21
50.2
  0
LINE
  8
0
  6
CONTINUOUS
 62
     7
 10
-188.4368
 20
50.2
 11
-188.4368
 21
48.2
  0
LINE
  8
0
  6
CENTER
 62
     2
 10
-185.4368
 20
53.2
 11
-185.4368
 21
44.2
  0
LINE
  8
0
  6
CONTINUOUS
 62
     7
 10
-182.8868
 20
48.8
 11
-187.9868
 21
48.8
  0
LINE
  8
0
  6
CONTINUOUS
 62
     7
 10
-185.7368
 20
48.2
 11
-185.8976
 21
48.8
  0
LINE
  8
0
  6
CONTINUOUS
 62
     7
 10
-185.1366
 20
48.80007
 11
-184.9758
 21
48.20007
  0
LINE
  8
0
  6
CONTINUOUS
 62
     7
 10
-182.8868
 20
48.8
 11
-182.8868
 21
48.2
  0
LINE
  8
0
  6
CONTINUOUS
 62
     7
 10
-187.9868
 20
48.8
 11
-187.9868
 21
48.2
  0
LINE
  8
0
  6
CONTINUOUS
 62
     7
 10
-183.1868
 20
49.49376
 11
-183.1868
 21
48.8
  0
LINE
  8
0
  6
CONTINUOUS
 62
     7
 10
-187.6868
 20
49.49376
 11
-187.6868
 21
48.8
  0
LINE
  8
0
  6
CONTINUOUS
 62
     7
 10
-183.611
 20
50.2
 11
-183.4368
 21
50.2
  0
LINE
  8
0
  6
CENTER
 62
     2
 10
-203.4368
 20
53.2
 11
-203.4368
 21
44.2
  0
LINE
  8
0
  6
CENTER
 62
     2
 10
-177.9368
 20
71.00002
 11
-177.9368
 21
43.50002
  0
LINE
  8
0
  6
CONTINUOUS
 62
     7
 10
-178.7868
 20
58.00002
 11
-178.7868
 21
54.00423
  0
LINE
  8
0
  6
CONTINUOUS
 62
     7
 10
-177.0868
 20
58.00002
 11
-177.0868
 21
53.54869
  0
LINE
  8
0
  6
CONTINUOUS
 62
     7
 10
-178.2568
 20
68.00002
 11
-178.2568
 21
58.00002
  0
LINE
  8
0
  6
CONTINUOUS
 62
     7
 10
-177.6168
 20
68.00002
 11
-177.6168
 21
58.00002
  0
LINE
  8
0
  6
CONTINUOUS
 62
     7
 10
-177.0868
 20
58.00002
 11
-178.7868
 21
58.00002
  0
LINE
  8
0
  6
CONTINUOUS
 62
     7
 10
-177.6168
 20
67.99998
 11
-178.2568
 21
67.99998
  0
LINE
  8
0
  6
CONTINUOUS
 62
     7
 10
-182.4368
 20
46.50002
 11
-181.4368
 21
46.50002
  0
LINE
  8
0
  6
PHANTOM
 62
     2
 10
-180.7868
 20
52.9872
 11
-175.0868
 21
51.45989
  0
LINE
  8
0
  6
PHANTOM
 62
     2
 10
-180.7868
 20
54.54011
 11
-175.0868
 21
53.01279
  0
LINE
  8
0
  6
CONTINUOUS
 62
     7
 10
-177.0868
 20
51.9958
 11
-177.0868
 21
48.00002
  0
LINE
  8
0
  6
CONTINUOUS
 62
     7
 10
-178.7868
 20
52.45131
 11
-178.7868
 21
48.00002
  0
LINE
  8
0
  6
CONTINUOUS
 62
     7
 10
-174.4368
 20
46.50002
 11
-173.2368
 21
46.50002
  0
LINE
  8
0
  6
CONTINUOUS
 62
     7
 10
-181.4368
 20
47.50002
 11
-181.4368
 21
46.50002
  0
LINE
  8
0
  6
CONTINUOUS
 62
     7
 10
-174.9368
 20
48.00002
 11
-180.9368
 21
48.00002
  0
LINE
  8
0
  6
CONTINUOUS
 62
     7
 10
-174.4368
 20
47.50002
 11
-174.4368
 21
46.50002
  0
LINE
  8
0
  6
CONTINUOUS
 62
     7
 10
-181.4368
 20
46.50002
 11
-174.4368
 21
46.50002
  0
LINE
  8
0
  6
CENTER
 62
     2
 10
-169.6226
 20
153.0
 11
-208.4367
 21
153.0
  0
LINE
  8
0
  6
CENTER
 62
     2
 10
-194.4368
 20
143.0516
 11
-194.4368
 21
162.9878
  0
LINE
  8
0
  6
CONTINUOUS
 62
     7
 10
-182.4368
 20
160.5
 11
-182.4368
 21
145.5
  0
LINE
  8
0
  6
CONTINUOUS
 62
     7
 10
-185.4368
 20
151.5
 11
-182.4368
 21
151.5
  0
LINE
  8
0
  6
CONTINUOUS
 62
     7
 10
-203.4368
 20
154.5
 11
-206.4368
 21
154.5
  0
LINE
  8
0
  6
CONTINUOUS
 62
     7
 10
-200.4368
 20
157.5
 11
-200.4368
 21
160.5
  0
LINE
  8
0
  6
CONTINUOUS
 62
     7
 10
-188.4368
 20
148.5
 11
-188.4368
 21
145.5
  0
LINE
  8
0
  6
CONTINUOUS
 62
     7
 10
-205.4368
 20
154.5
 11
-205.4368
 21
146.5
  0
LINE
  8
0
  6
CONTINUOUS
 62
     7
 10
-183.4368
 20
159.5
 11
-183.4368
 21
151.5
  0
LINE
  8
0
  6
CONTINUOUS
 62
     7
 10
-200.4368
 20
159.5
 11
-183.4368
 21
159.5
  0
LINE
  8
0
  6
CONTINUOUS
 62
     7
 10
-205.4368
 20
146.5
 11
-188.4368
 21
146.5
  0
LINE
  8
0
  6
CONTINUOUS
 62
     7
 10
-185.1367
 20
146.2701
 11
-185.1367
 21
145.9677
  0
LINE
  8
0
  6
CONTINUOUS
 62
     7
 10
-185.7368
 20
146.2701
 11
-185.7368
 21
145.9677
  0
LINE
  8
0
  6
CONTINUOUS
 62
     7
 10
-185.8975
 20
145.992
 11
-185.8975
 21
146.2977
  0
LINE
  8
0
  6
CONTINUOUS
 62
     7
 10
-203.7368
 20
159.7299
 11
-203.7368
 21
160.0323
  0
LINE
  8
0
  6
CONTINUOUS
 62
     7
 10
-203.1367
 20
159.7299
 11
-203.1367
 21
160.0323
  0
LINE
  8
0
  6
CONTINUOUS
 62
     7
 10
-202.976
 20
160.008
 11
-202.976
 21
159.7023
  0
LINE
  8
0
  6
CONTINUOUS
 62
     7
 10
-186.5398
 20
147.7646
 11
-186.1722
 21
148.1323
  0
LINE
  8
0
  6
CONTINUOUS
 62
     7
 10
-186.1721
 20
147.3969
 11
-185.8045
 21
147.7646
  0
LINE
  8
0
  6
CONTINUOUS
 62
     7
 10
-186.5398
 20
147.7646
 11
-186.1721
 21
147.397
  0
LINE
  8
0
  6
CONTINUOUS
 62
     7
 10
-184.7014
 20
149.6031
 11
-184.3337
 21
149.2354
  0
LINE
  8
0
  6
CONTINUOUS
 62
     7
 10
-187.2009
 20
149.8965
 11
-186.1721
 21
148.8677
  0
LINE
  8
0
  6
CONTINUOUS
 62
     7
 10
-186.8332
 20
150.2642
 11
-185.8044
 21
149.2354
  0
LINE
  8
0
  6
CONTINUOUS
 62
     7
 10
-185.0691
 20
149.2354
 11
-184.7014
 21
149.6031
  0
LINE
  8
0
  6
CONTINUOUS
 62
     7
 10
-184.7014
 20
148.8677
 11
-184.3337
 21
149.2354
  0
LINE
  8
0
  6
CONTINUOUS
 62
     7
 10
-185.0691
 20
147.7646
 11
-184.0403
 21
146.7359
  0
LINE
  8
0
  6
CONTINUOUS
 62
     7
 10
-184.7014
 20
148.1323
 11
-183.6726
 21
147.1035
  0
LINE
  8
0
  6
CONTINUOUS
 62
     7
 10
-204.5399
 20
156.7646
 11
-204.1722
 21
157.1323
  0
LINE
  8
0
  6
CONTINUOUS
 62
     7
 10
-204.1722
 20
156.3969
 11
-203.8045
 21
156.7646
  0
LINE
  8
0
  6
CONTINUOUS
 62
     7
 10
-204.5398
 20
156.7647
 11
-204.1721
 21
156.397
  0
LINE
  8
0
  6
CONTINUOUS
 62
     7
 10
-202.7014
 20
158.6031
 11
-202.3337
 21
158.2354
  0
LINE
  8
0
  6
CONTINUOUS
 62
     7
 10
-205.2009
 20
158.8965
 11
-204.1722
 21
157.8677
  0
LINE
  8
0
  6
CONTINUOUS
 62
     7
 10
-204.8332
 20
159.2642
 11
-203.8044
 21
158.2354
  0
LINE
  8
0
  6
CONTINUOUS
 62
     7
 10
-203.0691
 20
158.2354
 11
-202.7014
 21
158.6031
  0
LINE
  8
0
  6
CONTINUOUS
 62
     7
 10
-202.7014
 20
157.8677
 11
-202.3337
 21
158.2354
  0
LINE
  8
0
  6
CONTINUOUS
 62
     7
 10
-203.0691
 20
156.7646
 11
-202.0403
 21
155.7358
  0
LINE
  8
0
  6
CONTINUOUS
 62
     7
 10
-202.7013
 20
157.1323
 11
-201.6725
 21
156.1035
  0
LINE
  8
0
  6
CENTER
 62
     2
 10
-185.4368
 20
152.5
 11
-185.4368
 21
144.5
  0
LINE
  8
0
  6
CENTER
 62
     2
 10
-203.4368
 20
161.5
 11
-203.4368
 21
153.5
  0
LINE
  8
0
  6
CENTER
 62
     2
 10
-207.4368
 20
157.5
 11
-199.4368
 21
157.5
  0
LINE
  8
0
  6
CENTER
 62
     2
 10
-189.4368
 20
148.5
 11
-181.4368
 21
148.5
  0
LINE
  8
0
  6
CONTINUOUS
 62
     7
 10
-205.9368
 20
160.5
 11
-182.4368
 21
160.5
  0
LINE
  8
0
  6
CONTINUOUS
 62
     7
 10
-206.4368
 20
160.0
 11
-206.4368
 21
146.0
  0
LINE
  8
0
  6
CONTINUOUS
 62
     7
 10
-205.9368
 20
145.5
 11
-182.4368
 21
145.5
  0
LINE
  8
0
  6
CONTINUOUS
 62
     7
 10
-182.4368
 20
160.0
 11
-173.2368
 21
160.0
  0
LINE
  8
0
  6
CONTINUOUS
 62
     7
 10
-172.4368
 20
159.2
 11
-172.4368
 21
146.8
  0
LINE
  8
0
  6
CONTINUOUS
 62
     7
 10
-182.4368
 20
146.0
 11
-173.2368
 21
146.0
  0
LINE
  8
0
  6
CENTER
 62
     2
 10
-177.9368
 20
159.2
 11
-177.9368
 21
146.8
  0
LINE
  8
0
  6
CENTER
 62
     2
 10
-181.9368
 20
154.5
 11
-173.9368
 21
154.5
  0
LINE
  8
0
  6
CENTER
 62
     2
 10
-181.9368
 20
151.5
 11
-173.9368
 21
151.5
  0
LINE
  8
0
  6
CONTINUOUS
 62
     7
 10
-181.4368
 20
154.0
 11
-181.4368
 21
152.0
  0
LINE
  8
0
  6
CONTINUOUS
 62
     7
 10
-174.4368
 20
154.0
 11
-174.4368
 21
152.0
  0
LINE
  8
0
  6
CONTINUOUS
 62
     7
 10
-314.4368
 20
21.99998
 11
-314.4368
 21
-30.0
  0
LINE
  8
0
  6
CONTINUOUS
 62
     7
 10
-299.4368
 20
21.99998
 11
-299.4368
 21
-30.0
  0
LINE
  8
0
  6
CONTINUOUS
 62
     7
 10
-314.4368
 20
5.0
 11
-299.4368
 21
5.0
  0
LINE
  8
0
  6
CONTINUOUS
 62
     7
 10
-314.4368
 20
-23.0
 11
-299.4368
 21
-23.0
  0
LINE
  8
0
  6
CONTINUOUS
 62
     7
 10
-308.6868
 20
-30.5
 11
-299.9368
 21
-30.5
  0
LINE
  8
0
  6
CENTER
 62
     2
 10
-306.9368
 20
60.70549
 11
-306.9368
 21
-35.2
  0
LINE
  8
0
  6
CENTER
 62
     2
 10
-311.6816
 20
13.7
 11
-301.9604
 21
13.7
  0
LINE
  8
0
  6
CENTER
 62
     2
 10
-313.7237
 20
1.0
 11
-306.1035
 21
1.0
  0
LINE
  8
0
  6
CENTER
 62
     2
 10
-311.1035
 20
-9.0
 11
-302.7701
 21
-9.0
  0
LINE
  8
0
  6
CENTER
 62
     2
 10
-307.4368
 20
-19.0
 11
-300.321
 21
-19.0
  0
LINE
  8
0
  6
CENTER
 62
     2
 10
-303.9368
 20
-15.36873
 11
-303.9368
 21
-22.50148
  0
LINE
  8
0
  6
CENTER
 62
     2
 10
-309.9368
 20
4.47639
 11
-309.9368
 21
-2.61946
  0
LINE
  8
0
  6
CENTER
 62
     2
 10
-304.1035
 20
0.0
 11
-299.4368
 21
0.0
  0
LINE
  8
0
  6
CENTER
 62
     2
 10
-314.4368
 20
-18.0
 11
-310.0422
 21
-18.0
  0
LINE
  8
0
  6
CENTER
 62
     2
 10
-301.4368
 20
2.34808
 11
-301.4368
 21
-2.42625
  0
LINE
  8
0
  6
CENTER
 62
     2
 10
-312.4368
 20
-15.59882
 11
-312.4368
 21
-20.4882
  0
LINE
  8
0
  6
CENTER
 62
     2
 10
-311.4368
 20
-24.3739
 11
-311.4368
 21
-31.80753
  0
LINE
  8
0
  6
CONTINUOUS
 62
     7
 10
-314.1868
 20
-25.5
 11
-308.7368
 21
-25.5
  0
LINE
  8
0
  6
CONTINUOUS
 62
     7
 10
-308.2368
 20
-26.0
 11
-308.2368
 21
-30.0
  0
LINE
  8
0
  6
CONTINUOUS
 62
     7
 10
-314.1868
 20
-25.5
 11
-314.1868
 21
-30.7
  0
LINE
  8
0
  6
CONTINUOUS
 62
     7
 10
-308.6868
 20
-25.5
 11
-308.6868
 21
-30.7
  0
LINE
  8
0
  6
CONTINUOUS
 62
     7
 10
-314.1868
 20
-30.7
 11
-308.6868
 21
-30.7
  0
LINE
  8
0
  6
CONTINUOUS
 62
     7
 10
-308.351
 20
12.2858
 11
-305.5226
 21
15.11423
  0
LINE
  8
0
  6
CONTINUOUS
 62
     7
 10
-307.4545
 20
11.76819
 11
-305.005
 21
14.21769
  0
LINE
  8
0
  6
CONTINUOUS
 62
     7
 10
-308.8687
 20
13.1824
 11
-306.4192
 21
15.6319
  0
LINE
  8
0
  6
CONTINUOUS
 62
     7
 10
-308.351
 20
15.11421
 11
-305.5226
 21
12.28578
  0
LINE
  8
0
  6
CONTINUOUS
 62
     7
 10
-308.8687
 20
14.21762
 11
-306.4192
 21
11.76812
  0
LINE
  8
0
  6
CONTINUOUS
 62
     7
 10
-307.4545
 20
15.63187
 11
-305.0049
 21
13.18236
  0
LINE
  8
0
  6
CONTINUOUS
 62
     7
 10
-312.9102
 20
-29.7
 11
-312.9102
 21
-30.7
  0
LINE
  8
0
  6
CONTINUOUS
 62
     7
 10
-313.7587
 20
-29.7
 11
-313.7587
 21
-30.7
  0
LINE
  8
0
  6
CONTINUOUS
 62
     7
 10
-313.7587
 20
-29.7
 11
-312.9102
 21
-29.7
  0
LINE
  8
0
  6
CONTINUOUS
 62
     7
 10
-314.4368
 20
48.2
 11
-314.4368
 21
21.99998
  0
LINE
  8
0
  6
CONTINUOUS
 62
     7
 10
-314.4368
 20
21.99998
 11
-299.4368
 21
21.99998
  0
LINE
  8
0
  6
CONTINUOUS
 62
     7
 10
-299.4368
 20
48.2
 11
-299.4368
 21
22.00002
  0
LINE
  8
0
  6
CONTINUOUS
 62
     7
 10
-308.4368
 20
50.2
 11
-308.4368
 21
48.2
  0
LINE
  8
0
  6
CONTINUOUS
 62
     7
 10
-313.4368
 20
44.2
 11
-300.4368
 21
44.2
  0
LINE
  8
0
  6
CONTINUOUS
 62
     7
 10
-313.4368
 20
40.2
 11
-300.4368
 21
40.2
  0
LINE
  8
0
  6
CONTINUOUS
 62
     7
 10
-300.4368
 20
44.2
 11
-300.4368
 21
40.2
  0
LINE
  8
0
  6
CONTINUOUS
 62
     7
 10
-313.4368
 20
44.2
 11
-313.4368
 21
40.2
  0
LINE
  8
0
  6
CONTINUOUS
 62
     7
 10
-312.7247
 20
43.30678
 11
-310.3831
 21
43.30678
  0
LINE
  8
0
  6
CONTINUOUS
 62
     7
 10
-312.7247
 20
41.23018
 11
-310.7365
 21
41.23018
  0
LINE
  8
0
  6
CONTINUOUS
 62
     7
 10
-312.7247
 20
40.7
 11
-310.0296
 21
40.7
  0
LINE
  8
0
  6
CONTINUOUS
 62
     7
 10
-312.7247
 20
42.7766
 11
-310.7365
 21
42.7766
  0
LINE
  8
0
  6
CONTINUOUS
 62
     7
 10
-312.7247
 20
43.30678
 11
-312.7247
 21
42.7766
  0
LINE
  8
0
  6
CONTINUOUS
 62
     7
 10
-310.0296
 20
42.95332
 11
-310.0296
 21
40.7
  0
LINE
  8
0
  6
CONTINUOUS
 62
     7
 10
-310.7365
 20
42.7766
 11
-310.7365
 21
41.23018
  0
LINE
  8
0
  6
CONTINUOUS
 62
     7
 10
-309.6319
 20
43.30678
 11
-309.6319
 21
42.7766
  0
LINE
  8
0
  6
CONTINUOUS
 62
     7
 10
-307.1135
 20
42.7766
 11
-307.1135
 21
41.05345
  0
LINE
  8
0
  6
CONTINUOUS
 62
     7
 10
-307.8204
 20
42.7766
 11
-307.8204
 21
41.23018
  0
LINE
  8
0
  6
CONTINUOUS
 62
     7
 10
-312.7247
 20
41.23018
 11
-312.7247
 21
40.7
  0
LINE
  8
0
  6
CONTINUOUS
 62
     7
 10
-309.632
 20
43.30678
 11
-308.9334
 21
43.30678
  0
LINE
  8
0
  6
CONTINUOUS
 62
     7
 10
-309.6319
 20
40.7
 11
-309.083
 21
40.7
  0
LINE
  8
0
  6
CONTINUOUS
 62
     7
 10
-309.6318
 20
40.69999
 11
-309.0754
 21
42.77658
  0
LINE
  8
0
  6
CONTINUOUS
 62
     7
 10
-309.632
 20
42.7766
 11
-309.0755
 21
42.7766
  0
LINE
  8
0
  6
CONTINUOUS
 62
     7
 10
-309.083
 20
40.69994
 11
-308.5266
 21
42.77653
  0
LINE
  8
0
  6
CONTINUOUS
 62
     7
 10
-308.3506
 20
41.23018
 11
-307.8204
 21
41.23018
  0
LINE
  8
0
  6
CONTINUOUS
 62
     7
 10
-308.3507
 20
41.23018
 11
-308.2086
 21
40.69999
  0
LINE
  8
0
  6
CONTINUOUS
 62
     7
 10
-308.2086
 20
40.7
 11
-307.467
 21
40.7
  0
LINE
  8
0
  6
CONTINUOUS
 62
     7
 10
-308.5266
 20
42.7766
 11
-307.8204
 21
42.7766
  0
LINE
  8
0
  6
CONTINUOUS
 62
     7
 10
-308.3846
 20
43.30678
 11
-307.6437
 21
43.30678
  0
LINE
  8
0
  6
CONTINUOUS
 62
     7
 10
-308.9334
 20
43.30679
 11
-308.8281
 21
43.69999
  0
LINE
  8
0
  6
CONTINUOUS
 62
     7
 10
-308.3845
 20
43.3068
 11
-308.2792
 21
43.70001
  0
LINE
  8
0
  6
CONTINUOUS
 62
     7
 10
-306.6717
 20
43.30678
 11
-305.8322
 21
43.30678
  0
LINE
  8
0
  6
CONTINUOUS
 62
     7
 10
-306.6717
 20
42.7766
 11
-304.61
 21
42.7766
  0
LINE
  8
0
  6
CONTINUOUS
 62
     7
 10
-305.8322
 20
40.7
 11
-305.1253
 21
40.7
  0
LINE
  8
0
  6
CONTINUOUS
 62
     7
 10
-306.6717
 20
43.30678
 11
-306.6717
 21
42.7766
  0
LINE
  8
0
  6
CONTINUOUS
 62
     7
 10
-304.0649
 20
41.8152
 11
-304.0649
 21
41.23018
  0
LINE
  8
0
  6
CONTINUOUS
 62
     7
 10
-306.6716
 20
41.23016
 11
-305.8322
 21
41.62162
  0
LINE
  8
0
  6
CONTINUOUS
 62
     7
 10
-306.6717
 20
41.81516
 11
-304.61
 21
42.77655
  0
LINE
  8
0
  6
CONTINUOUS
 62
     7
 10
-306.6717
 20
41.8152
 11
-306.6717
 21
41.23018
  0
LINE
  8
0
  6
CONTINUOUS
 62
     7
 10
-305.1253
 20
41.72465
 11
-304.0649
 21
41.2302
  0
LINE
  8
0
  6
CONTINUOUS
 62
     7
 10
-304.741
 20
42.13041
 11
-304.0648
 21
41.81513
  0
LINE
  8
0
  6
CONTINUOUS
 62
     7
 10
-304.0649
 20
42.95332
 11
-304.0649
 21
42.67094
  0
LINE
  8
0
  6
CONTINUOUS
 62
     7
 10
-305.8322
 20
43.7
 11
-305.8322
 21
43.30678
  0
LINE
  8
0
  6
CONTINUOUS
 62
     7
 10
-305.1253
 20
43.7
 11
-305.1253
 21
43.30678
  0
LINE
  8
0
  6
CONTINUOUS
 62
     7
 10
-305.1253
 20
43.30678
 11
-304.4184
 21
43.30678
  0
LINE
  8
0
  6
CONTINUOUS
 62
     7
 10
-305.8322
 20
41.62163
 11
-305.8322
 21
40.7
  0
LINE
  8
0
  6
CONTINUOUS
 62
     7
 10
-305.1253
 20
41.72466
 11
-305.1253
 21
40.7
  0
LINE
  8
0
  6
CONTINUOUS
 62
     7
 10
-304.741
 20
42.13037
 11
-304.2689
 21
42.35049
  0
LINE
  8
0
  6
CONTINUOUS
 62
     7
 10
-301.679
 20
43.54094
 11
-301.1489
 21
43.54094
  0
LINE
  8
0
  6
CONTINUOUS
 62
     7
 10
-303.844
 20
42.44576
 11
-303.844
 21
41.87517
  0
LINE
  8
0
  6
CONTINUOUS
 62
     7
 10
-301.1489
 20
43.54094
 11
-301.1489
 21
43.30678
  0
LINE
  8
0
  6
CONTINUOUS
 62
     7
 10
-301.679
 20
43.54094
 11
-301.679
 21
43.42668
  0
LINE
  8
0
  6
CONTINUOUS
 62
     7
 10
-302.386
 20
42.45503
 11
-302.386
 21
40.7
  0
LINE
  8
0
  6
CONTINUOUS
 62
     7
 10
-303.8439
 20
42.44569
 11
-301.7904
 21
43.2624
  0
LINE
  8
0
  6
CONTINUOUS
 62
     7
 10
-303.844
 20
41.87517
 11
-302.386
 21
42.45507
  0
LINE
  8
0
  6
CONTINUOUS
 62
     7
 10
-302.386
 20
40.7
 11
-301.679
 21
40.7
  0
LINE
  8
0
  6
CONTINUOUS
 62
     7
 10
-301.679
 20
42.73619
 11
-301.679
 21
40.7
  0
LINE
  8
0
  6
CONTINUOUS
 62
     7
 10
-301.6789
 20
42.73611
 11
-301.483
 21
42.81402
  0
LINE
  8
0
  6
CONTINUOUS
 62
     7
 10
-308.8281
 20
43.7
 11
-308.2792
 21
43.7
  0
LINE
  8
0
  6
CONTINUOUS
 62
     7
 10
-307.4007
 20
43.7
 11
-307.1747
 21
43.7
  0
LINE
  8
0
  6
CONTINUOUS
 62
     7
 10
-305.8322
 20
43.7
 11
-305.1253
 21
43.7
  0
LINE
  8
0
  6
CONTINUOUS
 62
     7
 10
-307.4007
 20
43.34654
 11
-307.1747
 21
43.34654
  0
LINE
  8
0
  6
CONTINUOUS
 62
     7
 10
-307.4007
 20
43.7
 11
-307.4007
 21
43.34654
  0
LINE
  8
0
  6
CONTINUOUS
 62
     7
 10
-307.1747
 20
43.7
 11
-307.1747
 21
43.34654
  0
LINE
  8
0
  6
CONTINUOUS
 62
     7
 10
-307.017
 20
43.7
 11
-307.017
 21
43.34654
  0
LINE
  8
0
  6
CONTINUOUS
 62
     7
 10
-306.791
 20
43.7
 11
-306.791
 21
43.34654
  0
LINE
  8
0
  6
CONTINUOUS
 62
     7
 10
-307.017
 20
43.7
 11
-306.791
 21
43.7
  0
LINE
  8
0
  6
CONTINUOUS
 62
     7
 10
-307.017
 20
43.34654
 11
-306.791
 21
43.34654
  0
LINE
  8
0
  6
CENTER
 62
     2
 10
-305.4368
 20
70.99998
 11
-305.4368
 21
45.2
  0
LINE
  8
0
  6
CENTER
 62
     2
 10
-308.4368
 20
70.99998
 11
-308.4368
 21
45.2
  0
LINE
  8
0
  6
CONTINUOUS
 62
     7
 10
-307.5868
 20
57.99998
 11
-307.5868
 21
55.05061
  0
LINE
  8
0
  6
CONTINUOUS
 62
     7
 10
-309.2868
 20
57.99998
 11
-309.2868
 21
55.50615
  0
LINE
  8
0
  6
CONTINUOUS
 62
     7
 10
-308.1168
 20
67.99998
 11
-308.1168
 21
57.99998
  0
LINE
  8
0
  6
CONTINUOUS
 62
     7
 10
-308.7568
 20
67.99998
 11
-308.7568
 21
57.99998
  0
LINE
  8
0
  6
CONTINUOUS
 62
     7
 10
-305.1168
 20
67.99998
 11
-305.1168
 21
57.99998
  0
LINE
  8
0
  6
CONTINUOUS
 62
     7
 10
-305.7568
 20
67.99998
 11
-305.7568
 21
57.99998
  0
LINE
  8
0
  6
CONTINUOUS
 62
     7
 10
-304.5868
 20
57.99998
 11
-304.5868
 21
54.24678
  0
LINE
  8
0
  6
CONTINUOUS
 62
     7
 10
-306.2868
 20
57.99998
 11
-306.2868
 21
54.70229
  0
LINE
  8
0
  6
CONTINUOUS
 62
     7
 10
-308.7568
 20
67.99998
 11
-308.1168
 21
67.99998
  0
LINE
  8
0
  6
CONTINUOUS
 62
     7
 10
-305.7568
 20
67.99998
 11
-305.1168
 21
67.99998
  0
LINE
  8
0
  6
CONTINUOUS
 62
     7
 10
-309.2868
 20
57.99998
 11
-307.5868
 21
57.99998
  0
LINE
  8
0
  6
CONTINUOUS
 62
     7
 10
-306.2868
 20
57.99998
 11
-304.5868
 21
57.99998
  0
LINE
  8
0
  6
CONTINUOUS
 62
     7
 10
-314.4368
 20
48.19999
 11
-313.4367
 21
50.2
  0
LINE
  8
0
  6
CONTINUOUS
 62
     7
 10
-313.6868
 20
49.49373
 11
-313.6868
 21
48.79997
  0
LINE
  8
0
  6
CENTER
 62
     2
 10
-311.4368
 20
53.2
 11
-311.4368
 21
45.2
  0
LINE
  8
0
  6
CONTINUOUS
 62
     7
 10
-313.4368
 20
50.2
 11
-313.2625
 21
50.2
  0
LINE
  8
0
  6
CONTINUOUS
 62
     7
 10
-309.1868
 20
49.49373
 11
-309.1868
 21
48.79997
  0
LINE
  8
0
  6
CONTINUOUS
 62
     7
 10
-309.611
 20
50.2
 11
-300.4368
 21
50.2
  0
LINE
  8
0
  6
CENTER
 62
     2
 10
-302.4368
 20
53.2
 11
-302.4368
 21
45.2
  0
LINE
  8
0
  6
CONTINUOUS
 62
     7
 10
-299.4367
 20
48.2
 11
-300.4368
 21
50.20001
  0
LINE
  8
0
  6
CONTINUOUS
 62
     7
 10
-314.4368
 20
48.2
 11
-299.4368
 21
48.2
  0
LINE
  8
0
  6
CONTINUOUS
 62
     7
 10
-314.4368
 20
47.2
 11
-299.4368
 21
47.2
  0
LINE
  8
0
  6
CONTINUOUS
 62
     7
 10
-308.8868
 20
48.79997
 11
-313.9868
 21
48.79997
  0
LINE
  8
0
  6
CONTINUOUS
 62
     7
 10
-308.8868
 20
48.79997
 11
-308.8868
 21
48.2
  0
LINE
  8
0
  6
CONTINUOUS
 62
     7
 10
-313.9868
 20
48.79997
 11
-313.9868
 21
48.2
  0
LINE
  8
0
  6
PHANTOM
 62
     2
 10
-311.2868
 20
56.042
 11
-302.5868
 21
53.71085
  0
LINE
  8
0
  6
PHANTOM
 62
     2
 10
-311.2868
 20
54.48904
 11
-302.5867
 21
52.15788
  0
LINE
  8
0
  6
CONTINUOUS
 62
     7
 10
-309.2868
 20
53.95323
 11
-309.2868
 21
50.2
  0
LINE
  8
0
  6
CONTINUOUS
 62
     7
 10
-307.5868
 20
53.49773
 11
-307.5868
 21
50.2
  0
LINE
  8
0
  6
CONTINUOUS
 62
     7
 10
-306.2868
 20
53.14937
 11
-306.2868
 21
50.2
  0
LINE
  8
0
  6
CONTINUOUS
 62
     7
 10
-304.5868
 20
52.69386
 11
-304.5868
 21
50.2
  0
LINE
  8
0
  6
CONTINUOUS
 62
     7
 10
-58.43671
 20
21.99998
 11
-58.43671
 21
-30.00003
  0
LINE
  8
0
  6
CONTINUOUS
 62
     7
 10
-43.43671
 20
21.99998
 11
-43.43671
 21
-30.00003
  0
LINE
  8
0
  6
CONTINUOUS
 62
     7
 10
-58.43671
 20
4.99997
 11
-43.43671
 21
4.99997
  0
LINE
  8
0
  6
CONTINUOUS
 62
     7
 10
-58.43671
 20
-23.00003
 11
-43.43671
 21
-23.00003
  0
LINE
  8
0
  6
CONTINUOUS
 62
     7
 10
-52.68671
 20
-30.50003
 11
-43.93671
 21
-30.50003
  0
LINE
  8
0
  6
CENTER
 62
     2
 10
-50.93671
 20
60.66664
 11
-50.93671
 21
-33.06837
  0
LINE
  8
0
  6
CENTER
 62
     2
 10
-51.40131
 20
-4.00003
 11
-44.45148
 21
-4.00003
  0
LINE
  8
0
  6
CENTER
 62
     2
 10
-57.25378
 20
-14.00003
 11
-50.30396
 21
-14.00003
  0
LINE
  8
0
  6
CENTER
 62
     2
 10
-47.93671
 20
-0.40121
 11
-47.93671
 21
-8.17407
  0
LINE
  8
0
  6
CENTER
 62
     2
 10
-53.93671
 20
-10.55165
 11
-53.93671
 21
-17.50151
  0
LINE
  8
0
  6
CENTER
 62
     2
 10
-49.02374
 20
-18.00003
 11
-42.80542
 21
-18.00003
  0
LINE
  8
0
  6
CENTER
 62
     2
 10
-45.43671
 20
-14.48381
 11
-45.43671
 21
-21.43365
  0
LINE
  8
0
  6
CENTER
 62
     2
 10
-56.43671
 20
3.62239
 11
-56.43671
 21
-3.69325
  0
LINE
  8
0
  6
CENTER
 62
     2
 10
-53.32166
 20
18.49998
 11
-48.47504
 21
18.49998
  0
LINE
  8
0
  6
CENTER
 62
     2
 10
-55.43671
 20
-23.99521
 11
-55.43671
 21
-31.47243
  0
LINE
  8
0
  6
CONTINUOUS
 62
     7
 10
-52.23669
 20
-26.00003
 11
-52.23669
 21
-30.00003
  0
LINE
  8
0
  6
CONTINUOUS
 62
     7
 10
-58.18671
 20
-25.50003
 11
-52.68671
 21
-25.50003
  0
LINE
  8
0
  6
CONTINUOUS
 62
     7
 10
-52.68671
 20
-25.50003
 11
-52.68671
 21
-30.70003
  0
LINE
  8
0
  6
CONTINUOUS
 62
     7
 10
-58.18671
 20
-25.50003
 11
-58.18671
 21
-30.70003
  0
LINE
  8
0
  6
CONTINUOUS
 62
     7
 10
-58.18671
 20
-30.70003
 11
-52.68671
 21
-30.70003
  0
LINE
  8
0
  6
CENTER
 62
     2
 10
-59.06335
 20
-0.00003
 11
-52.77301
 21
-0.00003
  0
LINE
  8
0
  6
CONTINUOUS
 62
     7
 10
-56.91016
 20
-29.70003
 11
-56.91016
 21
-30.70003
  0
LINE
  8
0
  6
CONTINUOUS
 62
     7
 10
-57.75867
 20
-29.70003
 11
-57.75867
 21
-30.70003
  0
LINE
  8
0
  6
CONTINUOUS
 62
     7
 10
-57.75867
 20
-29.70003
 11
-56.91016
 21
-29.70003
  0
LINE
  8
0
  6
CONTINUOUS
 62
     7
 10
-58.43671
 20
48.19997
 11
-58.43671
 21
21.99995
  0
LINE
  8
0
  6
CONTINUOUS
 62
     7
 10
-58.43671
 20
47.19997
 11
-55.43671
 21
47.19997
  0
LINE
  8
0
  6
CONTINUOUS
 62
     7
 10
-43.43671
 20
48.19997
 11
-43.43671
 21
21.99998
  0
LINE
  8
0
  6
CONTINUOUS
 62
     7
 10
-58.43671
 20
21.99998
 11
-43.43671
 21
21.99998
  0
LINE
  8
0
  6
CONTINUOUS
 62
     7
 10
-57.93671
 20
45.69997
 11
-57.93671
 21
22.79997
  0
LINE
  8
0
  6
CONTINUOUS
 62
     7
 10
-43.93671
 20
45.69997
 11
-43.93671
 21
22.79997
  0
LINE
  8
0
  6
CONTINUOUS
 62
     7
 10
-56.43671
 20
23.49998
 11
-45.43671
 21
23.49998
  0
LINE
  8
0
  6
CONTINUOUS
 62
     7
 10
-56.43671
 20
31.99998
 11
-45.43671
 21
31.99998
  0
LINE
  8
0
  6
CONTINUOUS
 62
     7
 10
-56.43671
 20
31.99995
 11
-56.43671
 21
23.49995
  0
LINE
  8
0
  6
CONTINUOUS
 62
     7
 10
-45.43671
 20
31.99998
 11
-45.43671
 21
23.49998
  0
LINE
  8
0
  6
CONTINUOUS
 62
     7
 10
-52.93671
 20
35.49998
 11
-48.93671
 21
35.49998
  0
LINE
  8
0
  6
CONTINUOUS
 62
     7
 10
-52.93671
 20
33.49998
 11
-48.93671
 21
33.49998
  0
LINE
  8
0
  6
CONTINUOUS
 62
     7
 10
-52.93671
 20
35.49998
 11
-52.93671
 21
33.49998
  0
LINE
  8
0
  6
CONTINUOUS
 62
     7
 10
-48.93671
 20
35.49998
 11
-48.93671
 21
33.49998
  0
LINE
  8
0
  6
CONTINUOUS
 62
     7
 10
-53.43671
 20
35.99998
 11
-48.43671
 21
35.99998
  0
LINE
  8
0
  6
CONTINUOUS
 62
     7
 10
-53.43671
 20
35.99998
 11
-53.43671
 21
32.99998
  0
LINE
  8
0
  6
CONTINUOUS
 62
     7
 10
-53.43671
 20
32.99998
 11
-48.43671
 21
32.99998
  0
LINE
  8
0
  6
CONTINUOUS
 62
     7
 10
-48.43671
 20
35.99998
 11
-48.43671
 21
32.99998
  0
LINE
  8
0
  6
CONTINUOUS
 62
     7
 10
-52.93675
 20
35.49991
 11
-53.43675
 21
35.99991
  0
LINE
  8
0
  6
CONTINUOUS
 62
     7
 10
-48.93672
 20
35.5
 11
-48.43673
 21
35.99999
  0
LINE
  8
0
  6
CONTINUOUS
 62
     7
 10
-48.93674
 20
33.49994
 11
-48.43674
 21
32.99994
  0
LINE
  8
0
  6
CONTINUOUS
 62
     7
 10
-52.93668
 20
33.49999
 11
-53.43671
 21
32.99996
  0
LINE
  8
0
  6
CONTINUOUS
 62
     7
 10
-58.43671
 20
48.19997
 11
-53.28668
 21
48.19997
  0
LINE
  8
0
  6
CONTINUOUS
 62
     7
 10
-57.43671
 20
50.19997
 11
-57.26245
 21
50.19997
  0
LINE
  8
0
  6
CONTINUOUS
 62
     7
 10
-43.4367
 20
48.2
 11
-44.4367
 21
50.19999
  0
LINE
  8
0
  6
CONTINUOUS
 62
     7
 10
-58.43673
 20
48.19997
 11
-57.43675
 21
50.19993
  0
LINE
  8
0
  6
CENTER
 62
     2
 10
-55.43671
 20
53.19997
 11
-55.43671
 21
44.19997
  0
LINE
  8
0
  6
CONTINUOUS
 62
     7
 10
-53.28668
 20
48.79997
 11
-57.98669
 21
48.79997
  0
LINE
  8
0
  6
CONTINUOUS
 62
     7
 10
-57.98669
 20
48.79997
 11
-57.98669
 21
48.19997
  0
LINE
  8
0
  6
CONTINUOUS
 62
     7
 10
-57.68671
 20
49.4937
 11
-57.68671
 21
48.79997
  0
LINE
  8
0
  6
CONTINUOUS
 62
     7
 10
-53.61096
 20
50.19997
 11
-53.28668
 21
50.19997
  0
LINE
  8
0
  6
CENTER
 62
     2
 10
-46.43671
 20
53.19997
 11
-46.43671
 21
44.19997
  0
LINE
  8
0
  6
CENTER
 62
     2
 10
-49.43671
 20
70.99998
 11
-49.43671
 21
43.49998
  0
LINE
  8
0
  6
CENTER
 62
     2
 10
-52.43671
 20
70.99998
 11
-52.43671
 21
43.49998
  0
LINE
  8
0
  6
CONTINUOUS
 62
     7
 10
-51.58673
 20
57.99998
 11
-51.58673
 21
55.05058
  0
LINE
  8
0
  6
CONTINUOUS
 62
     7
 10
-53.28668
 20
57.99998
 11
-53.28668
 21
55.50612
  0
LINE
  8
0
  6
CONTINUOUS
 62
     7
 10
-52.1167
 20
67.99998
 11
-52.1167
 21
57.99998
  0
LINE
  8
0
  6
CONTINUOUS
 62
     7
 10
-52.75671
 20
67.99998
 11
-52.75671
 21
57.99998
  0
LINE
  8
0
  6
CONTINUOUS
 62
     7
 10
-49.1167
 20
67.99998
 11
-49.1167
 21
57.99998
  0
LINE
  8
0
  6
CONTINUOUS
 62
     7
 10
-49.75671
 20
67.99998
 11
-49.75671
 21
57.99998
  0
LINE
  8
0
  6
CONTINUOUS
 62
     7
 10
-48.58673
 20
57.99998
 11
-48.58673
 21
54.24675
  0
LINE
  8
0
  6
CONTINUOUS
 62
     7
 10
-50.28668
 20
57.99998
 11
-50.28668
 21
54.70226
  0
LINE
  8
0
  6
CONTINUOUS
 62
     7
 10
-52.75671
 20
67.99998
 11
-52.1167
 21
67.99998
  0
LINE
  8
0
  6
CONTINUOUS
 62
     7
 10
-49.75671
 20
67.99998
 11
-49.1167
 21
67.99998
  0
LINE
  8
0
  6
CONTINUOUS
 62
     7
 10
-53.28674
 20
57.99998
 11
-51.58673
 21
57.99998
  0
LINE
  8
0
  6
CONTINUOUS
 62
     7
 10
-50.28674
 20
57.99998
 11
-48.58673
 21
57.99998
  0
LINE
  8
0
  6
CONTINUOUS
 62
     7
 10
-57.13672
 20
46.49998
 11
-55.43671
 21
46.49998
  0
LINE
  8
0
  6
CONTINUOUS
 62
     7
 10
-46.43671
 20
47.19997
 11
-43.43671
 21
47.19997
  0
LINE
  8
0
  6
CONTINUOUS
 62
     7
 10
-51.58673
 20
48.19997
 11
-50.28668
 21
48.19997
  0
LINE
  8
0
  6
CONTINUOUS
 62
     7
 10
-48.58673
 20
48.19997
 11
-43.43671
 21
48.19997
  0
LINE
  8
0
  6
CONTINUOUS
 62
     7
 10
-48.58673
 20
50.19997
 11
-44.43671
 21
50.19997
  0
LINE
  8
0
  6
CONTINUOUS
 62
     7
 10
-51.58673
 20
50.19997
 11
-50.28668
 21
50.19997
  0
LINE
  8
0
  6
PHANTOM
 62
     2
 10
-55.28676
 20
54.48905
 11
-46.58677
 21
52.15789
  0
LINE
  8
0
  6
PHANTOM
 62
     2
 10
-55.28672
 20
56.04198
 11
-46.58673
 21
53.71082
  0
LINE
  8
0
  6
CONTINUOUS
 62
     7
 10
-53.28668
 20
53.9532
 11
-53.28668
 21
47.99998
  0
LINE
  8
0
  6
CONTINUOUS
 62
     7
 10
-51.58673
 20
53.49767
 11
-51.58673
 21
47.99998
  0
LINE
  8
0
  6
CONTINUOUS
 62
     7
 10
-50.28668
 20
53.14934
 11
-50.28668
 21
47.99998
  0
LINE
  8
0
  6
CONTINUOUS
 62
     7
 10
-48.58673
 20
52.69383
 11
-48.58673
 21
47.99998
  0
LINE
  8
0
  6
CENTER
 62
     2
 10
-54.93671
 20
34.49998
 11
-46.93671
 21
34.49998
  0
LINE
  8
0
  6
CONTINUOUS
 62
     7
 10
-46.43671
 20
46.49998
 11
-44.73669
 21
46.49998
  0
LINE
  8
0
  6
CONTINUOUS
 62
     7
 10
-55.43671
 20
46.49998
 11
-46.43671
 21
46.49998
  0
LINE
  8
0
  6
CONTINUOUS
 62
     7
 10
-54.93671
 20
47.99998
 11
-46.93671
 21
47.99998
  0
LINE
  8
0
  6
CONTINUOUS
 62
     7
 10
-55.43671
 20
47.49998
 11
-55.43671
 21
46.49998
  0
LINE
  8
0
  6
CONTINUOUS
 62
     7
 10
-46.43671
 20
47.49998
 11
-46.43671
 21
46.49998
  0
LINE
  8
0
  6
CONTINUOUS
 62
     7
 10
-205.9367
 20
-156.4999
 11
-182.4367
 21
-156.4999
  0
LINE
  8
0
  6
CONTINUOUS
 62
     7
 10
-205.9367
 20
-141.4999
 11
-182.4367
 21
-141.4999
  0
LINE
  8
0
  6
CONTINUOUS
 62
     7
 10
-206.4367
 20
-141.9999
 11
-206.4367
 21
-155.9999
  0
LINE
  8
0
  6
CENTER
 62
     2
 10
-194.4367
 20
-140.3493
 11
-194.4367
 21
-157.5107
  0
LINE
  8
0
  6
CENTER
 62
     2
 10
-207.4206
 20
-148.9999
 11
-179.4206
 21
-148.9999
  0
LINE
  8
0
  6
CENTER
 62
     2
 10
-189.1625
 20
-144.4999
 11
-181.9045
 21
-144.4999
  0
LINE
  8
0
  6
CENTER
 62
     2
 10
-206.9045
 20
-153.4999
 11
-199.8077
 21
-153.4999
  0
LINE
  8
0
  6
CENTER
 62
     2
 10
-185.4367
 20
-140.8655
 11
-185.4367
 21
-148.1236
  0
LINE
  8
0
  6
CENTER
 62
     2
 10
-203.4367
 20
-149.7365
 11
-203.4367
 21
-156.9623
  0
LINE
  8
0
  6
CONTINUOUS
 62
     7
 10
-205.9367
 20
-150.2999
 11
-203.4367
 21
-150.2999
  0
LINE
  8
0
  6
CONTINUOUS
 62
     7
 10
-200.2368
 20
-153.4999
 11
-200.2368
 21
-155.9999
  0
LINE
  8
0
  6
CONTINUOUS
 62
     7
 10
-185.4367
 20
-147.6999
 11
-182.9367
 21
-147.6999
  0
LINE
  8
0
  6
CONTINUOUS
 62
     7
 10
-188.6367
 20
-141.9999
 11
-188.6367
 21
-144.4999
  0
LINE
  8
0
  6
CONTINUOUS
 62
     7
 10
-204.9101
 20
-155.8219
 11
-203.8279
 21
-154.7397
  0
LINE
  8
0
  6
CONTINUOUS
 62
     7
 10
-205.7587
 20
-154.9733
 11
-204.6765
 21
-153.8911
  0
LINE
  8
0
  6
CONTINUOUS
 62
     7
 10
-186.9102
 20
-146.8218
 11
-185.828
 21
-145.7396
  0
LINE
  8
0
  6
CONTINUOUS
 62
     7
 10
-187.7587
 20
-145.9733
 11
-186.6765
 21
-144.8911
  0
LINE
  8
0
  6
CONTINUOUS
 62
     7
 10
-203.0455
 20
-152.2602
 11
-201.9633
 21
-151.178
  0
LINE
  8
0
  6
CONTINUOUS
 62
     7
 10
-202.197
 20
-153.1086
 11
-201.1148
 21
-152.0264
  0
LINE
  8
0
  6
CONTINUOUS
 62
     7
 10
-185.0455
 20
-143.2601
 11
-183.9633
 21
-142.1779
  0
LINE
  8
0
  6
CONTINUOUS
 62
     7
 10
-184.197
 20
-144.1088
 11
-183.1148
 21
-143.0265
  0
LINE
  8
0
  6
CONTINUOUS
 62
     7
 10
-192.4367
 20
-142.4999
 11
-192.4367
 21
-155.4999
  0
LINE
  8
0
  6
CONTINUOUS
 62
     7
 10
-196.4367
 20
-142.4999
 11
-196.4367
 21
-155.4999
  0
LINE
  8
0
  6
CONTINUOUS
 62
     7
 10
-192.4367
 20
-155.4999
 11
-196.4367
 21
-155.4999
  0
LINE
  8
0
  6
CONTINUOUS
 62
     7
 10
-192.4367
 20
-142.4999
 11
-196.4367
 21
-142.4999
  0
LINE
  8
0
  6
CONTINUOUS
 62
     7
 10
-193.33
 20
-143.212
 11
-193.33
 21
-145.5536
  0
LINE
  8
0
  6
CONTINUOUS
 62
     7
 10
-195.4066
 20
-143.212
 11
-195.4066
 21
-145.2002
  0
LINE
  8
0
  6
CONTINUOUS
 62
     7
 10
-195.9367
 20
-143.212
 11
-195.9367
 21
-145.9071
  0
LINE
  8
0
  6
CONTINUOUS
 62
     7
 10
-193.8602
 20
-143.212
 11
-193.8602
 21
-145.2002
  0
LINE
  8
0
  6
CONTINUOUS
 62
     7
 10
-193.33
 20
-143.212
 11
-193.8602
 21
-143.212
  0
LINE
  8
0
  6
CONTINUOUS
 62
     7
 10
-193.6834
 20
-145.9071
 11
-195.9367
 21
-145.9071
  0
LINE
  8
0
  6
CONTINUOUS
 62
     7
 10
-193.8602
 20
-145.2002
 11
-195.4066
 21
-145.2002
  0
LINE
  8
0
  6
CONTINUOUS
 62
     7
 10
-193.33
 20
-146.3047
 11
-193.8602
 21
-146.3047
  0
LINE
  8
0
  6
CONTINUOUS
 62
     7
 10
-193.8602
 20
-148.8232
 11
-195.5833
 21
-148.8232
  0
LINE
  8
0
  6
CONTINUOUS
 62
     7
 10
-193.8602
 20
-148.1162
 11
-195.4066
 21
-148.1162
  0
LINE
  8
0
  6
CONTINUOUS
 62
     7
 10
-195.4066
 20
-143.212
 11
-195.9367
 21
-143.212
  0
LINE
  8
0
  6
CONTINUOUS
 62
     7
 10
-193.33
 20
-146.3047
 11
-193.33
 21
-147.0032
  0
LINE
  8
0
  6
CONTINUOUS
 62
     7
 10
-195.9367
 20
-146.3047
 11
-195.9367
 21
-146.8537
  0
LINE
  8
0
  6
CONTINUOUS
 62
     7
 10
-195.9367
 20
-146.3048
 11
-193.8602
 21
-146.8612
  0
LINE
  8
0
  6
CONTINUOUS
 62
     7
 10
-193.8602
 20
-146.3047
 11
-193.8602
 21
-146.8612
  0
LINE
  8
0
  6
CONTINUOUS
 62
     7
 10
-195.9368
 20
-146.8536
 11
-193.8602
 21
-147.41
  0
LINE
  8
0
  6
CONTINUOUS
 62
     7
 10
-195.4066
 20
-147.586
 11
-195.4066
 21
-148.1162
  0
LINE
  8
0
  6
CONTINUOUS
 62
     7
 10
-195.4065
 20
-147.5859
 11
-195.9367
 21
-147.728
  0
LINE
  8
0
  6
CONTINUOUS
 62
     7
 10
-195.9367
 20
-147.7281
 11
-195.9367
 21
-148.4697
  0
LINE
  8
0
  6
CONTINUOUS
 62
     7
 10
-193.8602
 20
-147.4101
 11
-193.8602
 21
-148.1162
  0
LINE
  8
0
  6
CONTINUOUS
 62
     7
 10
-193.33
 20
-147.5521
 11
-193.33
 21
-148.293
  0
LINE
  8
0
  6
CONTINUOUS
 62
     7
 10
-193.33
 20
-147.0033
 11
-192.9367
 21
-147.1086
  0
LINE
  8
0
  6
CONTINUOUS
 62
     7
 10
-193.33
 20
-147.5522
 11
-192.9367
 21
-147.6576
  0
LINE
  8
0
  6
CONTINUOUS
 62
     7
 10
-193.33
 20
-149.265
 11
-193.33
 21
-150.1045
  0
LINE
  8
0
  6
CONTINUOUS
 62
     7
 10
-193.8602
 20
-149.265
 11
-193.8602
 21
-151.3267
  0
LINE
  8
0
  6
CONTINUOUS
 62
     7
 10
-195.9367
 20
-150.1045
 11
-195.9367
 21
-150.8114
  0
LINE
  8
0
  6
CONTINUOUS
 62
     7
 10
-193.33
 20
-149.265
 11
-193.8602
 21
-149.265
  0
LINE
  8
0
  6
CONTINUOUS
 62
     7
 10
-194.8215
 20
-151.8718
 11
-195.4066
 21
-151.8718
  0
LINE
  8
0
  6
CONTINUOUS
 62
     7
 10
-195.4065
 20
-149.265
 11
-195.0151
 21
-150.1045
  0
LINE
  8
0
  6
CONTINUOUS
 62
     7
 10
-194.8216
 20
-149.265
 11
-193.8602
 21
-151.3267
  0
LINE
  8
0
  6
CONTINUOUS
 62
     7
 10
-194.8215
 20
-149.265
 11
-195.4066
 21
-149.265
  0
LINE
  8
0
  6
CONTINUOUS
 62
     7
 10
-194.912
 20
-150.8114
 11
-195.4065
 21
-151.8718
  0
LINE
  8
0
  6
CONTINUOUS
 62
     7
 10
-194.5063
 20
-151.1957
 11
-194.8216
 21
-151.8718
  0
LINE
  8
0
  6
CONTINUOUS
 62
     7
 10
-193.6834
 20
-151.8718
 11
-193.9658
 21
-151.8718
  0
LINE
  8
0
  6
CONTINUOUS
 62
     7
 10
-192.9367
 20
-150.1045
 11
-193.33
 21
-150.1045
  0
LINE
  8
0
  6
CONTINUOUS
 62
     7
 10
-192.9367
 20
-150.8114
 11
-193.33
 21
-150.8114
  0
LINE
  8
0
  6
CONTINUOUS
 62
     7
 10
-193.33
 20
-150.8114
 11
-193.33
 21
-151.5183
  0
LINE
  8
0
  6
CONTINUOUS
 62
     7
 10
-195.0151
 20
-150.1045
 11
-195.9367
 21
-150.1045
  0
LINE
  8
0
  6
CONTINUOUS
 62
     7
 10
-194.9121
 20
-150.8114
 11
-195.9367
 21
-150.8114
  0
LINE
  8
0
  6
CONTINUOUS
 62
     7
 10
-194.5063
 20
-151.1957
 11
-194.2862
 21
-151.6678
  0
LINE
  8
0
  6
CONTINUOUS
 62
     7
 10
-193.0958
 20
-154.2576
 11
-193.0958
 21
-154.7878
  0
LINE
  8
0
  6
CONTINUOUS
 62
     7
 10
-194.191
 20
-152.0927
 11
-194.7616
 21
-152.0927
  0
LINE
  8
0
  6
CONTINUOUS
 62
     7
 10
-193.0958
 20
-154.7878
 11
-193.33
 21
-154.7878
  0
LINE
  8
0
  6
CONTINUOUS
 62
     7
 10
-193.0958
 20
-154.2576
 11
-193.2101
 21
-154.2576
  0
LINE
  8
0
  6
CONTINUOUS
 62
     7
 10
-194.1817
 20
-153.5507
 11
-195.9367
 21
-153.5507
  0
LINE
  8
0
  6
CONTINUOUS
 62
     7
 10
-194.191
 20
-152.0928
 11
-193.3743
 21
-154.1463
  0
LINE
  8
0
  6
CONTINUOUS
 62
     7
 10
-194.7616
 20
-152.0927
 11
-194.1817
 21
-153.5508
  0
LINE
  8
0
  6
CONTINUOUS
 62
     7
 10
-195.9367
 20
-153.5507
 11
-195.9367
 21
-154.2576
  0
LINE
  8
0
  6
CONTINUOUS
 62
     7
 10
-193.9005
 20
-154.2576
 11
-195.9367
 21
-154.2576
  0
LINE
  8
0
  6
CONTINUOUS
 62
     7
 10
-193.9006
 20
-154.2577
 11
-193.8227
 21
-154.4536
  0
LINE
  8
0
  6
CONTINUOUS
 62
     7
 10
-192.9367
 20
-147.1086
 11
-192.9367
 21
-147.6575
  0
LINE
  8
0
  6
CONTINUOUS
 62
     7
 10
-192.9367
 20
-148.536
 11
-192.9367
 21
-148.762
  0
LINE
  8
0
  6
CONTINUOUS
 62
     7
 10
-192.9367
 20
-150.1045
 11
-192.9367
 21
-150.8114
  0
LINE
  8
0
  6
CONTINUOUS
 62
     7
 10
-193.2902
 20
-148.536
 11
-193.2902
 21
-148.762
  0
LINE
  8
0
  6
CONTINUOUS
 62
     7
 10
-192.9367
 20
-148.536
 11
-193.2902
 21
-148.536
  0
LINE
  8
0
  6
CONTINUOUS
 62
     7
 10
-192.9367
 20
-148.762
 11
-193.2902
 21
-148.762
  0
LINE
  8
0
  6
CONTINUOUS
 62
     7
 10
-192.9367
 20
-148.9197
 11
-193.2902
 21
-148.9197
  0
LINE
  8
0
  6
CONTINUOUS
 62
     7
 10
-192.9367
 20
-149.1457
 11
-193.2902
 21
-149.1457
  0
LINE
  8
0
  6
CONTINUOUS
 62
     7
 10
-192.9367
 20
-148.9197
 11
-192.9367
 21
-149.1457
  0
LINE
  8
0
  6
CONTINUOUS
 62
     7
 10
-193.2902
 20
-148.9197
 11
-193.2902
 21
-149.1457
  0
LINE
  8
0
  6
CONTINUOUS
 62
     7
 10
-182.4367
 20
-155.9999
 11
-173.2367
 21
-155.9999
  0
LINE
  8
0
  6
CONTINUOUS
 62
     7
 10
-182.4367
 20
-141.9999
 11
-173.2367
 21
-141.9999
  0
LINE
  8
0
  6
CONTINUOUS
 62
     7
 10
-172.4367
 20
-142.7999
 11
-172.4367
 21
-155.1999
  0
LINE
  8
0
  6
CONTINUOUS
 62
     7
 10
-182.4367
 20
-141.4999
 11
-182.4367
 21
-156.4999
  0
LINE
  8
0
  6
CENTER
 62
     2
 10
172.4368
 20
3.43936
 11
172.4368
 21
-3.3425
  0
LINE
  8
0
  6
CENTER
 62
     2
 10
183.4368
 20
-14.47302
 11
183.4368
 21
-21.41019
  0
LINE
  8
0
  6
CENTER
 62
     2
 10
180.1682
 20
-18.0
 11
186.545
 21
-18.0
  0
LINE
  8
0
  6
CENTER
 62
     2
 10
169.866
 20
0.0
 11
175.9748
 21
0.0
  0
LINE
  8
0
  6
CONTINUOUS
 62
     7
 10
170.4368
 20
5.0
 11
185.4368
 21
5.0
  0
LINE
  8
0
  6
CENTER
 62
     2
 10
177.9368
 20
52.81198
 11
177.9368
 21
-33.82301
  0
LINE
  8
0
  6
CENTER
 62
     2
 10
175.5518
 20
18.5
 11
180.3984
 21
18.5
  0
LINE
  8
0
  6
CONTINUOUS
 62
     7
 10
170.4368
 20
48.19998
 11
170.4368
 21
-30.0
  0
LINE
  8
0
  6
CONTINUOUS
 62
     7
 10
185.4368
 20
48.19998
 11
185.4368
 21
-30.0
  0
LINE
  8
0
  6
CONTINUOUS
 62
     7
 10
170.4368
 20
-23.0
 11
185.4368
 21
-23.0
  0
LINE
  8
0
  6
CONTINUOUS
 62
     7
 10
170.9368
 20
-30.5
 11
184.9368
 21
-30.5
  0
LINE
  8
0
  6
CONTINUOUS
 62
     7
 10
170.9368
 20
-25.5
 11
176.1368
 21
-25.5
  0
LINE
  8
0
  6
CENTER
 62
     2
 10
173.4368
 20
-24.15001
 11
173.4368
 21
-31.05286
  0
LINE
  8
0
  6
CONTINUOUS
 62
     7
 10
176.6368
 20
-26.0
 11
176.6368
 21
-30.0
  0
LINE
  8
0
  6
CONTINUOUS
 62
     7
 10
170.6368
 20
-26.67183
 11
170.6368
 21
-25.5
  0
LINE
  8
0
  6
CONTINUOUS
 62
     7
 10
176.2368
 20
-26.67184
 11
176.2368
 21
-25.50002
  0
LINE
  8
0
  6
CONTINUOUS
 62
     7
 10
170.4368
 20
22.0
 11
185.4368
 21
22.0
  0
LINE
  8
0
  6
CONTINUOUS
 62
     7
 10
170.4368
 20
47.20001
 11
173.4368
 21
47.20001
  0
LINE
  8
0
  6
CONTINUOUS
 62
     7
 10
170.9368
 20
45.70001
 11
170.9368
 21
22.79999
  0
LINE
  8
0
  6
CONTINUOUS
 62
     7
 10
184.9368
 20
45.70001
 11
184.9368
 21
22.79999
  0
LINE
  8
0
  6
CONTINUOUS
 62
     7
 10
172.4368
 20
23.5
 11
183.4368
 21
23.5
  0
LINE
  8
0
  6
CONTINUOUS
 62
     7
 10
172.4368
 20
32.0
 11
183.4368
 21
32.0
  0
LINE
  8
0
  6
CONTINUOUS
 62
     7
 10
172.4368
 20
32.0
 11
172.4368
 21
23.5
  0
LINE
  8
0
  6
CONTINUOUS
 62
     7
 10
183.4368
 20
32.0
 11
183.4368
 21
23.5
  0
LINE
  8
0
  6
CONTINUOUS
 62
     7
 10
175.9368
 20
35.5
 11
179.9368
 21
35.5
  0
LINE
  8
0
  6
CONTINUOUS
 62
     7
 10
175.9368
 20
33.5
 11
179.9368
 21
33.5
  0
LINE
  8
0
  6
CONTINUOUS
 62
     7
 10
175.9368
 20
35.5
 11
175.9368
 21
33.5
  0
LINE
  8
0
  6
CONTINUOUS
 62
     7
 10
179.9368
 20
35.5
 11
179.9368
 21
33.5
  0
LINE
  8
0
  6
CONTINUOUS
 62
     7
 10
175.4368
 20
36.0
 11
180.4368
 21
36.0
  0
LINE
  8
0
  6
CONTINUOUS
 62
     7
 10
175.4368
 20
36.0
 11
175.4368
 21
33.0
  0
LINE
  8
0
  6
CONTINUOUS
 62
     7
 10
175.4368
 20
33.0
 11
180.4368
 21
33.0
  0
LINE
  8
0
  6
CONTINUOUS
 62
     7
 10
180.4368
 20
36.0
 11
180.4368
 21
33.0
  0
LINE
  8
0
  6
CONTINUOUS
 62
     7
 10
175.9368
 20
35.49998
 11
175.4368
 21
35.99998
  0
LINE
  8
0
  6
CONTINUOUS
 62
     7
 10
179.9368
 20
35.5
 11
180.4368
 21
35.99999
  0
LINE
  8
0
  6
CONTINUOUS
 62
     7
 10
179.9368
 20
33.49999
 11
180.4368
 21
32.99999
  0
LINE
  8
0
  6
CONTINUOUS
 62
     7
 10
175.9368
 20
33.5
 11
175.4368
 21
32.99998
  0
LINE
  8
0
  6
CONTINUOUS
 62
     7
 10
170.4368
 20
48.19998
 11
175.5868
 21
48.19998
  0
LINE
  8
0
  6
CONTINUOUS
 62
     7
 10
171.4368
 20
50.20001
 11
171.611
 21
50.20001
  0
LINE
  8
0
  6
CONTINUOUS
 62
     7
 10
185.4368
 20
48.19999
 11
184.4368
 21
50.19999
  0
LINE
  8
0
  6
CONTINUOUS
 62
     7
 10
170.4368
 20
48.19999
 11
171.4368
 21
50.19999
  0
LINE
  8
0
  6
CENTER
 62
     2
 10
173.4368
 20
53.20001
 11
173.4368
 21
44.20001
  0
LINE
  8
0
  6
CONTINUOUS
 62
     7
 10
175.5868
 20
48.79999
 11
170.8868
 21
48.79999
  0
LINE
  8
0
  6
CONTINUOUS
 62
     7
 10
170.8868
 20
48.79999
 11
170.8868
 21
48.19998
  0
LINE
  8
0
  6
CONTINUOUS
 62
     7
 10
171.1868
 20
49.49374
 11
171.1868
 21
48.79999
  0
LINE
  8
0
  6
CONTINUOUS
 62
     7
 10
175.2625
 20
50.20001
 11
175.5868
 21
50.20001
  0
LINE
  8
0
  6
CENTER
 62
     2
 10
182.4368
 20
53.20001
 11
182.4368
 21
44.20001
  0
LINE
  8
0
  6
CENTER
 62
     2
 10
179.4368
 20
71.0
 11
179.4368
 21
43.5
  0
LINE
  8
0
  6
CENTER
 62
     2
 10
176.4368
 20
71.0
 11
176.4368
 21
43.5
  0
LINE
  8
0
  6
CONTINUOUS
 62
     7
 10
177.2868
 20
58.0
 11
177.2868
 21
55.05063
  0
LINE
  8
0
  6
CONTINUOUS
 62
     7
 10
175.5868
 20
58.0
 11
175.5868
 21
55.50613
  0
LINE
  8
0
  6
CONTINUOUS
 62
     7
 10
176.7568
 20
68.0
 11
176.7568
 21
58.0
  0
LINE
  8
0
  6
CONTINUOUS
 62
     7
 10
176.1168
 20
68.0
 11
176.1168
 21
58.0
  0
LINE
  8
0
  6
CONTINUOUS
 62
     7
 10
179.7568
 20
68.0
 11
179.7568
 21
58.0
  0
LINE
  8
0
  6
CONTINUOUS
 62
     7
 10
179.1168
 20
68.0
 11
179.1168
 21
58.0
  0
LINE
  8
0
  6
CONTINUOUS
 62
     7
 10
180.2868
 20
58.0
 11
180.2868
 21
54.24677
  0
LINE
  8
0
  6
CONTINUOUS
 62
     7
 10
178.5868
 20
58.0
 11
178.5868
 21
54.7023
  0
LINE
  8
0
  6
CONTINUOUS
 62
     7
 10
176.1168
 20
68.0
 11
176.7568
 21
68.0
  0
LINE
  8
0
  6
CONTINUOUS
 62
     7
 10
179.1168
 20
68.0
 11
179.7568
 21
68.0
  0
LINE
  8
0
  6
CONTINUOUS
 62
     7
 10
175.5868
 20
58.0
 11
177.2868
 21
58.0
  0
LINE
  8
0
  6
CONTINUOUS
 62
     7
 10
178.5868
 20
58.0
 11
180.2868
 21
58.0
  0
LINE
  8
0
  6
CONTINUOUS
 62
     7
 10
182.4368
 20
47.20001
 11
185.4368
 21
47.20001
  0
LINE
  8
0
  6
CONTINUOUS
 62
     7
 10
177.2868
 20
48.19998
 11
178.5868
 21
48.19998
  0
LINE
  8
0
  6
CONTINUOUS
 62
     7
 10
180.2868
 20
48.19998
 11
185.4368
 21
48.19998
  0
LINE
  8
0
  6
CONTINUOUS
 62
     7
 10
180.2868
 20
50.20001
 11
184.4368
 21
50.20001
  0
LINE
  8
0
  6
CONTINUOUS
 62
     7
 10
177.2868
 20
50.20001
 11
178.5868
 21
50.20001
  0
LINE
  8
0
  6
PHANTOM
 62
     2
 10
173.5867
 20
54.48904
 11
182.2867
 21
52.15789
  0
LINE
  8
0
  6
PHANTOM
 62
     2
 10
173.5868
 20
56.04198
 11
182.2868
 21
53.71083
  0
LINE
  8
0
  6
CONTINUOUS
 62
     7
 10
175.5868
 20
53.95322
 11
175.5868
 21
48.0
  0
LINE
  8
0
  6
CONTINUOUS
 62
     7
 10
177.2868
 20
53.49771
 11
177.2868
 21
48.0
  0
LINE
  8
0
  6
CONTINUOUS
 62
     7
 10
178.5868
 20
53.14938
 11
178.5868
 21
48.0
  0
LINE
  8
0
  6
CONTINUOUS
 62
     7
 10
180.2868
 20
52.69388
 11
180.2868
 21
48.0
  0
LINE
  8
0
  6
CENTER
 62
     2
 10
173.9368
 20
34.5
 11
181.9368
 21
34.5
  0
LINE
  8
0
  6
CONTINUOUS
 62
     7
 10
171.7368
 20
46.5
 11
184.1368
 21
46.5
  0
LINE
  8
0
  6
CONTINUOUS
 62
     7
 10
173.9368
 20
48.0
 11
181.9368
 21
48.0
  0
LINE
  8
0
  6
CONTINUOUS
 62
     7
 10
173.4368
 20
47.5
 11
173.4368
 21
46.5
  0
LINE
  8
0
  6
CONTINUOUS
 62
     7
 10
182.4368
 20
47.5
 11
182.4368
 21
46.5
  0
LINE
  8
0
  6
CENTER
 62
     2
 10
177.9368
 20
128.1858
 11
177.9368
 21
166.9999
  0
LINE
  8
0
  6
CENTER
 62
     2
 10
167.9884
 20
153.0
 11
187.9245
 21
153.0
  0
LINE
  8
0
  6
CONTINUOUS
 62
     7
 10
176.4368
 20
144.0
 11
176.4368
 21
141.0
  0
LINE
  8
0
  6
CONTINUOUS
 62
     7
 10
179.4368
 20
162.0
 11
179.4368
 21
165.0
  0
LINE
  8
0
  6
CONTINUOUS
 62
     7
 10
182.4368
 20
159.0
 11
185.4368
 21
159.0
  0
LINE
  8
0
  6
CONTINUOUS
 62
     7
 10
173.4368
 20
147.0
 11
170.4368
 21
147.0
  0
LINE
  8
0
  6
CONTINUOUS
 62
     7
 10
179.4368
 20
164.0
 11
171.4368
 21
164.0
  0
LINE
  8
0
  6
CONTINUOUS
 62
     7
 10
184.4368
 20
142.0
 11
176.4368
 21
142.0
  0
LINE
  8
0
  6
CONTINUOUS
 62
     7
 10
184.4368
 20
159.0
 11
184.4368
 21
142.0
  0
LINE
  8
0
  6
CONTINUOUS
 62
     7
 10
171.4368
 20
164.0
 11
171.4368
 21
147.0
  0
LINE
  8
0
  6
CONTINUOUS
 62
     7
 10
171.2068
 20
143.7
 11
170.9045
 21
143.7
  0
LINE
  8
0
  6
CONTINUOUS
 62
     7
 10
171.2069
 20
144.3
 11
170.9045
 21
144.3
  0
LINE
  8
0
  6
CONTINUOUS
 62
     7
 10
170.9287
 20
144.4608
 11
171.2345
 21
144.4608
  0
LINE
  8
0
  6
CONTINUOUS
 62
     7
 10
184.6667
 20
162.3
 11
184.9691
 21
162.3
  0
LINE
  8
0
  6
CONTINUOUS
 62
     7
 10
184.6667
 20
161.7
 11
184.9691
 21
161.7
  0
LINE
  8
0
  6
CONTINUOUS
 62
     7
 10
184.9448
 20
161.5392
 11
184.6391
 21
161.5392
  0
LINE
  8
0
  6
CONTINUOUS
 62
     7
 10
172.7014
 20
145.1031
 11
173.0691
 21
144.7354
  0
LINE
  8
0
  6
CONTINUOUS
 62
     7
 10
172.3337
 20
144.7354
 11
172.7014
 21
144.3677
  0
LINE
  8
0
  6
CONTINUOUS
 62
     7
 10
172.7014
 20
145.1031
 11
172.3337
 21
144.7354
  0
LINE
  8
0
  6
CONTINUOUS
 62
     7
 10
174.5399
 20
143.2646
 11
174.1722
 21
142.8969
  0
LINE
  8
0
  6
CONTINUOUS
 62
     7
 10
174.8333
 20
145.7642
 11
173.8045
 21
144.7354
  0
LINE
  8
0
  6
CONTINUOUS
 62
     7
 10
175.201
 20
145.3965
 11
174.1722
 21
144.3677
  0
LINE
  8
0
  6
CONTINUOUS
 62
     7
 10
174.1722
 20
143.6323
 11
174.5399
 21
143.2646
  0
LINE
  8
0
  6
CONTINUOUS
 62
     7
 10
173.8045
 20
143.2646
 11
174.1722
 21
142.8969
  0
LINE
  8
0
  6
CONTINUOUS
 62
     7
 10
172.7014
 20
143.6323
 11
171.6726
 21
142.6035
  0
LINE
  8
0
  6
CONTINUOUS
 62
     7
 10
173.0691
 20
143.2646
 11
172.0403
 21
142.2358
  0
LINE
  8
0
  6
CONTINUOUS
 62
     7
 10
181.7014
 20
163.1031
 11
182.0691
 21
162.7354
  0
LINE
  8
0
  6
CONTINUOUS
 62
     7
 10
181.3337
 20
162.7354
 11
181.7014
 21
162.3678
  0
LINE
  8
0
  6
CONTINUOUS
 62
     7
 10
181.7014
 20
163.1031
 11
181.3337
 21
162.7354
  0
LINE
  8
0
  6
CONTINUOUS
 62
     7
 10
183.5399
 20
161.2646
 11
183.1722
 21
160.897
  0
LINE
  8
0
  6
CONTINUOUS
 62
     7
 10
183.8333
 20
163.7642
 11
182.8045
 21
162.7354
  0
LINE
  8
0
  6
CONTINUOUS
 62
     7
 10
184.201
 20
163.3965
 11
183.1722
 21
162.3677
  0
LINE
  8
0
  6
CONTINUOUS
 62
     7
 10
183.1722
 20
161.6324
 11
183.5399
 21
161.2646
  0
LINE
  8
0
  6
CONTINUOUS
 62
     7
 10
182.8045
 20
161.2647
 11
183.1722
 21
160.897
  0
LINE
  8
0
  6
CONTINUOUS
 62
     7
 10
181.7014
 20
161.6324
 11
180.6726
 21
160.6035
  0
LINE
  8
0
  6
CONTINUOUS
 62
     7
 10
182.0691
 20
161.2646
 11
181.0403
 21
160.2358
  0
LINE
  8
0
  6
CENTER
 62
     2
 10
177.4368
 20
144.0
 11
169.4368
 21
144.0
  0
LINE
  8
0
  6
CENTER
 62
     2
 10
186.4368
 20
162.0
 11
178.4368
 21
162.0
  0
LINE
  8
0
  6
CENTER
 62
     2
 10
182.4368
 20
166.0
 11
182.4368
 21
158.0
  0
LINE
  8
0
  6
CENTER
 62
     2
 10
173.4368
 20
148.0
 11
173.4368
 21
140.0
  0
LINE
  8
0
  6
CONTINUOUS
 62
     7
 10
184.9368
 20
165.0
 11
170.9368
 21
165.0
  0
LINE
  8
0
  6
CONTINUOUS
 62
     7
 10
185.4368
 20
164.5
 11
185.4368
 21
141.0
  0
LINE
  8
0
  6
CONTINUOUS
 62
     7
 10
170.4368
 20
164.5
 11
170.4368
 21
141.0
  0
LINE
  8
0
  6
CONTINUOUS
 62
     7
 10
185.4368
 20
141.0
 11
170.4368
 21
141.0
  0
LINE
  8
0
  6
CONTINUOUS
 62
     7
 10
184.9368
 20
141.0
 11
184.9368
 21
131.8
  0
LINE
  8
0
  6
CONTINUOUS
 62
     7
 10
184.1368
 20
131.0
 11
171.7368
 21
131.0
  0
LINE
  8
0
  6
CONTINUOUS
 62
     7
 10
170.9368
 20
141.0
 11
170.9368
 21
131.8
  0
LINE
  8
0
  6
CENTER
 62
     2
 10
184.1368
 20
136.5
 11
171.7368
 21
136.5
  0
LINE
  8
0
  6
CENTER
 62
     2
 10
179.4368
 20
140.5
 11
179.4368
 21
132.5
  0
LINE
  8
0
  6
CENTER
 62
     2
 10
176.4368
 20
140.5
 11
176.4368
 21
132.5
  0
LINE
  8
0
  6
CONTINUOUS
 62
     7
 10
178.9368
 20
140.0
 11
176.9368
 21
140.0
  0
LINE
  8
0
  6
CONTINUOUS
 62
     7
 10
178.9368
 20
133.0
 11
176.9368
 21
133.0
  0
LINE
  8
0
  6
CONTINUOUS
 62
     7
 10
32.4368
 20
5.0
 11
56.4368
 21
5.0
  0
LINE
  8
0
  6
CENTER
 62
     2
 10
44.4368
 20
53.19998
 11
44.4368
 21
-32.56096
  0
LINE
  8
0
  6
CENTER
 62
     2
 10
52.03232
 20
0.0
 11
57.26236
 21
0.0
  0
LINE
  8
0
  6
CONTINUOUS
 62
     7
 10
53.4368
 20
1.81381
 11
53.4368
 21
-1.81384
  0
LINE
  8
0
  6
CONTINUOUS
 62
     7
 10
53.4368
 20
1.81384
 11
56.4368
 21
1.81384
  0
LINE
  8
0
  6
CONTINUOUS
 62
     7
 10
53.4368
 20
-1.81384
 11
56.4368
 21
-1.81384
  0
LINE
  8
0
  6
CONTINUOUS
 62
     7
 10
32.4368
 20
48.20001
 11
32.4368
 21
-30.0
  0
LINE
  8
0
  6
CONTINUOUS
 62
     7
 10
56.4368
 20
48.20001
 11
56.4368
 21
-30.0
  0
LINE
  8
0
  6
CONTINUOUS
 62
     7
 10
32.4368
 20
-23.0
 11
56.4368
 21
-23.0
  0
LINE
  8
0
  6
CONTINUOUS
 62
     7
 10
32.9368
 20
-30.5
 11
55.9368
 21
-30.5
  0
LINE
  8
0
  6
CONTINUOUS
 62
     7
 10
50.73679
 20
-25.5
 11
55.9368
 21
-25.5
  0
LINE
  8
0
  6
CENTER
 62
     2
 10
53.4368
 20
-23.70001
 11
53.4368
 21
-33.15001
  0
LINE
  8
0
  6
CONTINUOUS
 62
     7
 10
50.23679
 20
-26.0
 11
50.23679
 21
-30.0
  0
LINE
  8
0
  6
CONTINUOUS
 62
     7
 10
50.63678
 20
-26.67183
 11
50.63678
 21
-25.5
  0
LINE
  8
0
  6
CONTINUOUS
 62
     7
 10
56.23677
 20
-26.67183
 11
56.23677
 21
-25.5
  0
LINE
  8
0
  6
CONTINUOUS
 62
     7
 10
32.4368
 20
22.0
 11
65.6368
 21
22.0
  0
LINE
  8
0
  6
CONTINUOUS
 62
     7
 10
32.4368
 20
47.20001
 11
56.4368
 21
47.20001
  0
LINE
  8
0
  6
CONTINUOUS
 62
     7
 10
66.4368
 20
45.70001
 11
66.4368
 21
22.79999
  0
LINE
  8
0
  6
CONTINUOUS
 62
     7
 10
33.4368
 20
50.20001
 11
51.61102
 21
50.20001
  0
LINE
  8
0
  6
CONTINUOUS
 62
     7
 10
32.4368
 20
48.20001
 11
56.4368
 21
48.20001
  0
LINE
  8
0
  6
CONTINUOUS
 62
     7
 10
32.43681
 20
48.19998
 11
33.43681
 21
50.19998
  0
LINE
  8
0
  6
CONTINUOUS
 62
     7
 10
56.43678
 20
48.19999
 11
55.43677
 21
50.2
  0
LINE
  8
0
  6
CONTINUOUS
 62
     7
 10
50.4368
 20
50.20001
 11
50.4368
 21
48.20001
  0
LINE
  8
0
  6
CENTER
 62
     2
 10
53.4368
 20
53.20001
 11
53.4368
 21
44.20001
  0
LINE
  8
0
  6
CONTINUOUS
 62
     7
 10
55.98679
 20
48.79999
 11
50.8868
 21
48.79999
  0
LINE
  8
0
  6
CONTINUOUS
 62
     7
 10
53.1368
 20
48.2
 11
52.97604
 21
48.79999
  0
LINE
  8
0
  6
CONTINUOUS
 62
     7
 10
53.73682
 20
48.80001
 11
53.89759
 21
48.20003
  0
LINE
  8
0
  6
CONTINUOUS
 62
     7
 10
55.98679
 20
48.79999
 11
55.98679
 21
48.20001
  0
LINE
  8
0
  6
CONTINUOUS
 62
     7
 10
50.8868
 20
48.79999
 11
50.8868
 21
48.20001
  0
LINE
  8
0
  6
CONTINUOUS
 62
     7
 10
55.68681
 20
49.49374
 11
55.68681
 21
48.79999
  0
LINE
  8
0
  6
CONTINUOUS
 62
     7
 10
51.18681
 20
49.49374
 11
51.18681
 21
48.79999
  0
LINE
  8
0
  6
CONTINUOUS
 62
     7
 10
55.26257
 20
50.20001
 11
55.4368
 21
50.20001
  0
LINE
  8
0
  6
CENTER
 62
     2
 10
35.4368
 20
53.20001
 11
35.4368
 21
44.20001
  0
LINE
  8
0
  6
CENTER
 62
     2
 10
60.9368
 20
71.0
 11
60.9368
 21
43.5
  0
LINE
  8
0
  6
CONTINUOUS
 62
     7
 10
60.08679
 20
58.0
 11
60.08679
 21
54.00421
  0
LINE
  8
0
  6
CONTINUOUS
 62
     7
 10
61.78679
 20
58.0
 11
61.78679
 21
53.54871
  0
LINE
  8
0
  6
CONTINUOUS
 62
     7
 10
60.61679
 20
68.0
 11
60.61679
 21
58.0
  0
LINE
  8
0
  6
CONTINUOUS
 62
     7
 10
61.25679
 20
68.0
 11
61.25679
 21
58.0
  0
LINE
  8
0
  6
CONTINUOUS
 62
     7
 10
61.78679
 20
58.0
 11
60.08679
 21
58.0
  0
LINE
  8
0
  6
CONTINUOUS
 62
     7
 10
61.25679
 20
68.0
 11
60.61679
 21
68.0
  0
LINE
  8
0
  6
PHANTOM
 62
     2
 10
58.08679
 20
52.98716
 11
63.78678
 21
51.45985
  0
LINE
  8
0
  6
PHANTOM
 62
     2
 10
58.08678
 20
54.54007
 11
63.78679
 21
53.01276
  0
LINE
  8
0
  6
CONTINUOUS
 62
     7
 10
61.78679
 20
51.99579
 11
61.78679
 21
48.0
  0
LINE
  8
0
  6
CONTINUOUS
 62
     7
 10
60.08679
 20
52.45129
 11
60.08679
 21
48.0
  0
LINE
  8
0
  6
CONTINUOUS
 62
     7
 10
57.4368
 20
47.5
 11
57.4368
 21
46.5
  0
LINE
  8
0
  6
CONTINUOUS
 62
     7
 10
63.9368
 20
48.0
 11
57.9368
 21
48.0
  0
LINE
  8
0
  6
CONTINUOUS
 62
     7
 10
64.4368
 20
47.5
 11
64.4368
 21
46.5
  0
LINE
  8
0
  6
CONTINUOUS
 62
     7
 10
56.4368
 20
46.5
 11
65.6368
 21
46.5
  0
LINE
  8
0
  6
CONTINUOUS
 62
     7
 10
332.4367
 20
5.0
 11
308.4367
 21
5.0
  0
LINE
  8
0
  6
CENTER
 62
     2
 10
320.4367
 20
53.19998
 11
320.4367
 21
-35.94983
  0
LINE
  8
0
  6
CENTER
 62
     2
 10
312.8412
 20
-18.0
 11
307.6112
 21
-18.0
  0
LINE
  8
0
  6
CONTINUOUS
 62
     7
 10
311.4367
 20
-16.18617
 11
311.4367
 21
-19.81384
  0
LINE
  8
0
  6
CONTINUOUS
 62
     7
 10
311.4367
 20
-16.18616
 11
308.4367
 21
-16.18616
  0
LINE
  8
0
  6
CONTINUOUS
 62
     7
 10
311.4367
 20
-19.81384
 11
308.4367
 21
-19.81384
  0
LINE
  8
0
  6
CONTINUOUS
 62
     7
 10
308.4367
 20
48.20001
 11
308.4367
 21
-30.0
  0
LINE
  8
0
  6
CONTINUOUS
 62
     7
 10
332.4367
 20
48.20001
 11
332.4367
 21
-30.0
  0
LINE
  8
0
  6
CONTINUOUS
 62
     7
 10
308.9367
 20
-30.5
 11
331.9367
 21
-30.5
  0
LINE
  8
0
  6
CONTINUOUS
 62
     7
 10
326.7367
 20
-25.5
 11
331.9367
 21
-25.5
  0
LINE
  8
0
  6
CENTER
 62
     2
 10
329.4367
 20
-23.70001
 11
329.4367
 21
-33.15001
  0
LINE
  8
0
  6
CONTINUOUS
 62
     7
 10
326.2367
 20
-26.0
 11
326.2367
 21
-30.0
  0
LINE
  8
0
  6
CONTINUOUS
 62
     7
 10
326.6367
 20
-26.67183
 11
326.6367
 21
-25.5
  0
LINE
  8
0
  6
CONTINUOUS
 62
     7
 10
332.2367
 20
-26.67183
 11
332.2367
 21
-25.5
  0
LINE
  8
0
  6
CONTINUOUS
 62
     7
 10
332.4367
 20
22.0
 11
299.2367
 21
22.0
  0
LINE
  8
0
  6
CONTINUOUS
 62
     7
 10
332.4367
 20
47.20001
 11
308.4367
 21
47.20001
  0
LINE
  8
0
  6
CONTINUOUS
 62
     7
 10
298.4367
 20
45.70001
 11
298.4367
 21
22.79999
  0
LINE
  8
0
  6
CONTINUOUS
 62
     7
 10
309.4367
 20
50.20001
 11
327.611
 21
50.20001
  0
LINE
  8
0
  6
CONTINUOUS
 62
     7
 10
332.4367
 20
48.20001
 11
308.4367
 21
48.20001
  0
LINE
  8
0
  6
CONTINUOUS
 62
     7
 10
308.4367
 20
48.20001
 11
309.4367
 21
50.2
  0
LINE
  8
0
  6
CONTINUOUS
 62
     7
 10
332.4366
 20
48.19996
 11
331.4366
 21
50.19995
  0
LINE
  8
0
  6
CONTINUOUS
 62
     7
 10
326.4367
 20
50.20001
 11
326.4367
 21
48.20001
  0
LINE
  8
0
  6
CENTER
 62
     2
 10
329.4367
 20
53.20001
 11
329.4367
 21
44.20001
  0
LINE
  8
0
  6
CONTINUOUS
 62
     7
 10
331.9867
 20
48.79999
 11
326.8867
 21
48.79999
  0
LINE
  8
0
  6
CONTINUOUS
 62
     7
 10
329.1367
 20
48.19998
 11
328.9759
 21
48.79998
  0
LINE
  8
0
  6
CONTINUOUS
 62
     7
 10
329.7367
 20
48.79998
 11
329.8974
 21
48.19998
  0
LINE
  8
0
  6
CONTINUOUS
 62
     7
 10
331.9867
 20
48.79999
 11
331.9867
 21
48.20001
  0
LINE
  8
0
  6
CONTINUOUS
 62
     7
 10
326.8867
 20
48.79999
 11
326.8867
 21
48.20001
  0
LINE
  8
0
  6
CONTINUOUS
 62
     7
 10
331.6867
 20
49.49374
 11
331.6867
 21
48.79999
  0
LINE
  8
0
  6
CONTINUOUS
 62
     7
 10
327.1867
 20
49.49374
 11
327.1867
 21
48.79999
  0
LINE
  8
0
  6
CONTINUOUS
 62
     7
 10
331.2625
 20
50.20001
 11
331.4367
 21
50.20001
  0
LINE
  8
0
  6
CENTER
 62
     2
 10
311.4367
 20
53.20001
 11
311.4367
 21
44.20001
  0
LINE
  8
0
  6
CONTINUOUS
 62
     7
 10
308.4367
 20
46.5
 11
299.2368
 21
46.5
  0
LINE
  8
0
  6
CENTER
 62
     2
 10
303.9367
 20
71.0
 11
303.9367
 21
43.5
  0
LINE
  8
0
  6
CONTINUOUS
 62
     7
 10
303.0867
 20
58.0
 11
303.0867
 21
54.00421
  0
LINE
  8
0
  6
CONTINUOUS
 62
     7
 10
304.7867
 20
58.0
 11
304.7867
 21
53.54871
  0
LINE
  8
0
  6
CONTINUOUS
 62
     7
 10
303.6168
 20
68.0
 11
303.6168
 21
58.0
  0
LINE
  8
0
  6
CONTINUOUS
 62
     7
 10
304.2567
 20
68.0
 11
304.2567
 21
58.0
  0
LINE
  8
0
  6
CONTINUOUS
 62
     7
 10
304.7867
 20
58.0
 11
303.0867
 21
58.0
  0
LINE
  8
0
  6
CONTINUOUS
 62
     7
 10
304.2567
 20
68.0
 11
303.6168
 21
68.0
  0
LINE
  8
0
  6
PHANTOM
 62
     2
 10
301.0867
 20
52.98717
 11
306.7867
 21
51.45986
  0
LINE
  8
0
  6
PHANTOM
 62
     2
 10
301.0867
 20
54.5401
 11
306.7867
 21
53.01279
  0
LINE
  8
0
  6
CONTINUOUS
 62
     7
 10
304.7867
 20
51.99579
 11
304.7867
 21
48.0
  0
LINE
  8
0
  6
CONTINUOUS
 62
     7
 10
303.0867
 20
52.45129
 11
303.0867
 21
48.0
  0
LINE
  8
0
  6
CONTINUOUS
 62
     7
 10
300.4367
 20
47.5
 11
300.4367
 21
46.5
  0
LINE
  8
0
  6
CONTINUOUS
 62
     7
 10
306.9367
 20
48.0
 11
300.9367
 21
48.0
  0
LINE
  8
0
  6
CONTINUOUS
 62
     7
 10
307.4367
 20
47.5
 11
307.4367
 21
46.5
  0
LINE
  8
0
  6
CONTINUOUS
 62
     7
 10
170.4368
 20
-143.1999
 11
173.4368
 21
-143.1999
  0
LINE
  8
0
  6
CONTINUOUS
 62
     7
 10
182.4368
 20
-154.7999
 11
185.4368
 21
-154.7999
  0
LINE
  8
0
  6
CONTINUOUS
 62
     7
 10
176.6368
 20
-139.9999
 11
176.6368
 21
-136.9999
  0
LINE
  8
0
  6
CONTINUOUS
 62
     7
 10
179.2368
 20
-157.9999
 11
179.2368
 21
-160.9999
  0
LINE
  8
0
  6
CENTER
 62
     2
 10
168.9368
 20
-148.9999
 11
186.9368
 21
-148.9999
  0
LINE
  8
0
  6
CENTER
 62
     2
 10
177.9368
 20
-124.1857
 11
177.9368
 21
-162.9999
  0
LINE
  8
0
  6
CONTINUOUS
 62
     7
 10
171.4368
 20
-146.9999
 11
184.4368
 21
-146.9999
  0
LINE
  8
0
  6
CONTINUOUS
 62
     7
 10
171.4368
 20
-150.9999
 11
184.4368
 21
-150.9999
  0
LINE
  8
0
  6
CONTINUOUS
 62
     7
 10
184.4368
 20
-146.9999
 11
184.4368
 21
-150.9999
  0
LINE
  8
0
  6
CONTINUOUS
 62
     7
 10
171.4368
 20
-146.9999
 11
171.4368
 21
-150.9999
  0
LINE
  8
0
  6
CONTINUOUS
 62
     7
 10
172.1488
 20
-149.9697
 11
174.1371
 21
-149.9697
  0
LINE
  8
0
  6
CONTINUOUS
 62
     7
 10
172.1488
 20
-150.4999
 11
174.844
 21
-150.4999
  0
LINE
  8
0
  6
CONTINUOUS
 62
     7
 10
172.1488
 20
-148.4233
 11
174.1371
 21
-148.4233
  0
LINE
  8
0
  6
CONTINUOUS
 62
     7
 10
172.1489
 20
-147.8931
 11
172.1489
 21
-148.4233
  0
LINE
  8
0
  6
CONTINUOUS
 62
     7
 10
174.844
 20
-148.2466
 11
174.844
 21
-150.4999
  0
LINE
  8
0
  6
CONTINUOUS
 62
     7
 10
174.1371
 20
-148.4233
 11
174.1371
 21
-149.9697
  0
LINE
  8
0
  6
CONTINUOUS
 62
     7
 10
175.2416
 20
-147.8931
 11
175.2416
 21
-148.4233
  0
LINE
  8
0
  6
CONTINUOUS
 62
     7
 10
177.7601
 20
-148.4233
 11
177.7601
 21
-150.1464
  0
LINE
  8
0
  6
CONTINUOUS
 62
     7
 10
177.0531
 20
-148.4233
 11
177.0531
 21
-149.9697
  0
LINE
  8
0
  6
CONTINUOUS
 62
     7
 10
172.1489
 20
-149.9697
 11
172.1489
 21
-150.4999
  0
LINE
  8
0
  6
CONTINUOUS
 62
     7
 10
175.2416
 20
-147.8931
 11
175.9401
 21
-147.8931
  0
LINE
  8
0
  6
CONTINUOUS
 62
     7
 10
175.2416
 20
-150.4999
 11
175.7905
 21
-150.4999
  0
LINE
  8
0
  6
CONTINUOUS
 62
     7
 10
175.2417
 20
-150.4999
 11
175.7981
 21
-148.4233
  0
LINE
  8
0
  6
CONTINUOUS
 62
     7
 10
175.2416
 20
-148.4233
 11
175.7981
 21
-148.4233
  0
LINE
  8
0
  6
CONTINUOUS
 62
     7
 10
175.7906
 20
-150.4999
 11
176.347
 21
-148.4234
  0
LINE
  8
0
  6
CONTINUOUS
 62
     7
 10
176.5229
 20
-149.9697
 11
177.0531
 21
-149.9697
  0
LINE
  8
0
  6
CONTINUOUS
 62
     7
 10
176.5229
 20
-149.9697
 11
176.665
 21
-150.4999
  0
LINE
  8
0
  6
CONTINUOUS
 62
     7
 10
176.665
 20
-150.4999
 11
177.4066
 21
-150.4999
  0
LINE
  8
0
  6
CONTINUOUS
 62
     7
 10
176.347
 20
-148.4233
 11
177.0531
 21
-148.4233
  0
LINE
  8
0
  6
CONTINUOUS
 62
     7
 10
176.489
 20
-147.8931
 11
177.2298
 21
-147.8931
  0
LINE
  8
0
  6
CONTINUOUS
 62
     7
 10
175.9403
 20
-147.8931
 11
176.0457
 21
-147.4999
  0
LINE
  8
0
  6
CONTINUOUS
 62
     7
 10
176.489
 20
-147.8931
 11
176.5944
 21
-147.4998
  0
LINE
  8
0
  6
CONTINUOUS
 62
     7
 10
178.2019
 20
-147.8931
 11
179.0414
 21
-147.8931
  0
LINE
  8
0
  6
CONTINUOUS
 62
     7
 10
178.2019
 20
-148.4233
 11
180.2636
 21
-148.4233
  0
LINE
  8
0
  6
CONTINUOUS
 62
     7
 10
179.0414
 20
-150.4999
 11
179.7483
 21
-150.4999
  0
LINE
  8
0
  6
CONTINUOUS
 62
     7
 10
178.2019
 20
-147.8931
 11
178.2019
 21
-148.4233
  0
LINE
  8
0
  6
CONTINUOUS
 62
     7
 10
180.8087
 20
-149.3847
 11
180.8087
 21
-149.9697
  0
LINE
  8
0
  6
CONTINUOUS
 62
     7
 10
178.2019
 20
-149.9698
 11
179.0414
 21
-149.5783
  0
LINE
  8
0
  6
CONTINUOUS
 62
     7
 10
178.2019
 20
-149.3848
 11
180.2636
 21
-148.4234
  0
LINE
  8
0
  6
CONTINUOUS
 62
     7
 10
178.2019
 20
-149.3847
 11
178.2019
 21
-149.9697
  0
LINE
  8
0
  6
CONTINUOUS
 62
     7
 10
179.7482
 20
-149.4752
 11
180.8087
 21
-149.9697
  0
LINE
  8
0
  6
CONTINUOUS
 62
     7
 10
180.1326
 20
-149.0694
 11
180.8087
 21
-149.3847
  0
LINE
  8
0
  6
CONTINUOUS
 62
     7
 10
180.8087
 20
-148.2466
 11
180.8087
 21
-148.529
  0
LINE
  8
0
  6
CONTINUOUS
 62
     7
 10
179.0414
 20
-147.4999
 11
179.0414
 21
-147.8931
  0
LINE
  8
0
  6
CONTINUOUS
 62
     7
 10
179.7483
 20
-147.4999
 11
179.7483
 21
-147.8931
  0
LINE
  8
0
  6
CONTINUOUS
 62
     7
 10
179.7483
 20
-147.8931
 11
180.4552
 21
-147.8931
  0
LINE
  8
0
  6
CONTINUOUS
 62
     7
 10
179.0414
 20
-149.5782
 11
179.0414
 21
-150.4999
  0
LINE
  8
0
  6
CONTINUOUS
 62
     7
 10
179.7483
 20
-149.4752
 11
179.7483
 21
-150.4999
  0
LINE
  8
0
  6
CONTINUOUS
 62
     7
 10
180.1326
 20
-149.0695
 11
180.6046
 21
-148.8494
  0
LINE
  8
0
  6
CONTINUOUS
 62
     7
 10
183.1945
 20
-147.659
 11
183.7247
 21
-147.659
  0
LINE
  8
0
  6
CONTINUOUS
 62
     7
 10
181.0296
 20
-148.7541
 11
181.0296
 21
-149.3247
  0
LINE
  8
0
  6
CONTINUOUS
 62
     7
 10
183.7247
 20
-147.6589
 11
183.7247
 21
-147.8931
  0
LINE
  8
0
  6
CONTINUOUS
 62
     7
 10
183.1945
 20
-147.6589
 11
183.1945
 21
-147.7732
  0
LINE
  8
0
  6
CONTINUOUS
 62
     7
 10
182.4876
 20
-148.7448
 11
182.4876
 21
-150.4999
  0
LINE
  8
0
  6
CONTINUOUS
 62
     7
 10
181.0296
 20
-148.7542
 11
183.0832
 21
-147.9374
  0
LINE
  8
0
  6
CONTINUOUS
 62
     7
 10
181.0296
 20
-149.3247
 11
182.4876
 21
-148.7448
  0
LINE
  8
0
  6
CONTINUOUS
 62
     7
 10
182.4876
 20
-150.4999
 11
183.1945
 21
-150.4999
  0
LINE
  8
0
  6
CONTINUOUS
 62
     7
 10
183.1945
 20
-148.4637
 11
183.1945
 21
-150.4999
  0
LINE
  8
0
  6
CONTINUOUS
 62
     7
 10
183.1945
 20
-148.4637
 11
183.3905
 21
-148.3858
  0
LINE
  8
0
  6
CONTINUOUS
 62
     7
 10
176.0455
 20
-147.4999
 11
176.5944
 21
-147.4999
  0
LINE
  8
0
  6
CONTINUOUS
 62
     7
 10
177.4729
 20
-147.4999
 11
177.6989
 21
-147.4999
  0
LINE
  8
0
  6
CONTINUOUS
 62
     7
 10
179.0414
 20
-147.4999
 11
179.7483
 21
-147.4999
  0
LINE
  8
0
  6
CONTINUOUS
 62
     7
 10
177.4729
 20
-147.8533
 11
177.6989
 21
-147.8533
  0
LINE
  8
0
  6
CONTINUOUS
 62
     7
 10
177.4729
 20
-147.4999
 11
177.4729
 21
-147.8533
  0
LINE
  8
0
  6
CONTINUOUS
 62
     7
 10
177.6989
 20
-147.4999
 11
177.6989
 21
-147.8533
  0
LINE
  8
0
  6
CONTINUOUS
 62
     7
 10
177.8566
 20
-147.4999
 11
177.8566
 21
-147.8533
  0
LINE
  8
0
  6
CONTINUOUS
 62
     7
 10
178.0826
 20
-147.4999
 11
178.0826
 21
-147.8533
  0
LINE
  8
0
  6
CONTINUOUS
 62
     7
 10
177.8566
 20
-147.4999
 11
178.0826
 21
-147.4999
  0
LINE
  8
0
  6
CONTINUOUS
 62
     7
 10
177.8566
 20
-147.8533
 11
178.0826
 21
-147.8533
  0
LINE
  8
0
  6
CONTINUOUS
 62
     7
 10
185.4368
 20
-160.4999
 11
185.4368
 21
-136.9999
  0
LINE
  8
0
  6
CONTINUOUS
 62
     7
 10
170.4368
 20
-160.4999
 11
170.4368
 21
-136.9999
  0
LINE
  8
0
  6
CONTINUOUS
 62
     7
 10
170.9368
 20
-160.9999
 11
184.9368
 21
-160.9999
  0
LINE
  8
0
  6
CONTINUOUS
 62
     7
 10
170.4368
 20
-136.9999
 11
185.4368
 21
-136.9999
  0
LINE
  8
0
  6
CONTINUOUS
 62
     7
 10
172.1488
 20
-147.8931
 11
174.4905
 21
-147.8931
  0
LINE
  8
0
  6
CONTINUOUS
 62
     7
 10
177.7601
 20
-148.4233
 11
177.7601
 21
-150.1464
  0
LINE
  8
0
  6
CONTINUOUS
 62
     7
 10
176.665
 20
-150.4999
 11
177.4066
 21
-150.4999
  0
LINE
  8
0
  6
CONTINUOUS
 62
     7
 10
176.489
 20
-147.8931
 11
177.2298
 21
-147.8931
  0
LINE
  8
0
  6
CONTINUOUS
 62
     7
 10
180.8087
 20
-148.2466
 11
180.8087
 21
-148.529
  0
LINE
  8
0
  6
CONTINUOUS
 62
     7
 10
183.1945
 20
-147.659
 11
183.7247
 21
-147.659
  0
LINE
  8
0
  6
CONTINUOUS
 62
     7
 10
183.7247
 20
-147.6589
 11
183.7247
 21
-147.8931
  0
LINE
  8
0
  6
CONTINUOUS
 62
     7
 10
183.1945
 20
-147.6589
 11
183.1945
 21
-147.7732
  0
LINE
  8
0
  6
CONTINUOUS
 62
     7
 10
181.0296
 20
-148.7542
 11
183.0832
 21
-147.9374
  0
LINE
  8
0
  6
CONTINUOUS
 62
     7
 10
183.1945
 20
-148.4637
 11
183.1945
 21
-150.4999
  0
LINE
  8
0
  6
CONTINUOUS
 62
     7
 10
183.1945
 20
-148.4636
 11
183.3904
 21
-148.3857
  0
LINE
  8
0
  6
CENTER
 62
     2
 10
173.4368
 20
-144.1789
 11
173.4368
 21
-135.832
  0
LINE
  8
0
  6
CENTER
 62
     2
 10
169.4045
 20
-139.9999
 11
177.3465
 21
-139.9999
  0
LINE
  8
0
  6
CONTINUOUS
 62
     7
 10
172.5883
 20
-141.2727
 11
172.164
 21
-140.8484
  0
LINE
  8
0
  6
CONTINUOUS
 62
     7
 10
174.7096
 20
-139.1514
 11
174.2854
 21
-138.7271
  0
LINE
  8
0
  6
CONTINUOUS
 62
     7
 10
174.2854
 20
-141.2727
 11
173.8611
 21
-140.8484
  0
LINE
  8
0
  6
CONTINUOUS
 62
     7
 10
174.7096
 20
-140.8484
 11
174.2854
 21
-140.4241
  0
LINE
  8
0
  6
CONTINUOUS
 62
     7
 10
174.2854
 20
-141.2727
 11
174.7096
 21
-140.8484
  0
LINE
  8
0
  6
CONTINUOUS
 62
     7
 10
172.164
 20
-139.1514
 11
172.5883
 21
-138.7272
  0
LINE
  8
0
  6
CONTINUOUS
 62
     7
 10
172.5883
 20
-141.2727
 11
173.0126
 21
-140.8485
  0
LINE
  8
0
  6
CONTINUOUS
 62
     7
 10
172.1641
 20
-140.8485
 11
172.5883
 21
-140.4242
  0
LINE
  8
0
  6
CONTINUOUS
 62
     7
 10
172.5883
 20
-139.5756
 11
172.1641
 21
-139.1514
  0
LINE
  8
0
  6
CONTINUOUS
 62
     7
 10
173.0126
 20
-139.1514
 11
172.5883
 21
-138.7271
  0
LINE
  8
0
  6
CONTINUOUS
 62
     7
 10
174.2854
 20
-139.5757
 11
174.7096
 21
-139.1514
  0
LINE
  8
0
  6
CONTINUOUS
 62
     7
 10
173.8611
 20
-139.1514
 11
174.2854
 21
-138.7272
  0
LINE
  8
0
  6
CENTER
 62
     2
 10
182.4368
 20
-162.1789
 11
182.4368
 21
-153.832
  0
LINE
  8
0
  6
CENTER
 62
     2
 10
178.4045
 20
-157.9999
 11
186.3465
 21
-157.9999
  0
LINE
  8
0
  6
CONTINUOUS
 62
     7
 10
181.5883
 20
-159.2727
 11
181.164
 21
-158.8484
  0
LINE
  8
0
  6
CONTINUOUS
 62
     7
 10
183.7096
 20
-157.1514
 11
183.2853
 21
-156.7271
  0
LINE
  8
0
  6
CONTINUOUS
 62
     7
 10
183.2854
 20
-159.2727
 11
182.8611
 21
-158.8484
  0
LINE
  8
0
  6
CONTINUOUS
 62
     7
 10
183.7096
 20
-158.8484
 11
183.2854
 21
-158.4241
  0
LINE
  8
0
  6
CONTINUOUS
 62
     7
 10
183.2854
 20
-159.2727
 11
183.7096
 21
-158.8484
  0
LINE
  8
0
  6
CONTINUOUS
 62
     7
 10
181.1641
 20
-157.1514
 11
181.5883
 21
-156.7271
  0
LINE
  8
0
  6
CONTINUOUS
 62
     7
 10
181.5883
 20
-159.2727
 11
182.0126
 21
-158.8485
  0
LINE
  8
0
  6
CONTINUOUS
 62
     7
 10
181.1641
 20
-158.8485
 11
181.5883
 21
-158.4242
  0
LINE
  8
0
  6
CONTINUOUS
 62
     7
 10
181.5883
 20
-157.5756
 11
181.164
 21
-157.1514
  0
LINE
  8
0
  6
CONTINUOUS
 62
     7
 10
182.0126
 20
-157.1514
 11
181.5883
 21
-156.7271
  0
LINE
  8
0
  6
CONTINUOUS
 62
     7
 10
183.2854
 20
-157.5757
 11
183.7097
 21
-157.1514
  0
LINE
  8
0
  6
CONTINUOUS
 62
     7
 10
182.8611
 20
-157.1514
 11
183.2854
 21
-156.7272
  0
LINE
  8
0
  6
CONTINUOUS
 62
     7
 10
170.9368
 20
-136.9999
 11
170.9368
 21
-127.7999
  0
LINE
  8
0
  6
CONTINUOUS
 62
     7
 10
171.7368
 20
-126.9999
 11
184.1368
 21
-126.9999
  0
LINE
  8
0
  6
CONTINUOUS
 62
     7
 10
184.9368
 20
-136.9999
 11
184.9368
 21
-127.7999
  0
ARC
  8
0
  6
CONTINUOUS
 62
     7
 10
273.0354
 20
-235.0457
 40
2.21188
 50
0.0
 51
89.99999
  0
ARC
  8
0
  6
CONTINUOUS
 62
     7
 10
291.2836
 20
-246.9346
 40
2.2119
 50
270.0
 51
0.0
  0
ARC
  8
0
  6
CONTINUOUS
 62
     7
 10
290.1776
 20
-236.1516
 40
3.31784
 50
0.0
 51
89.99999
  0
ARC
  8
0
  6
CONTINUOUS
 62
     7
 10
310.3611
 20
-236.8128
 40
2.21189
 50
295.0
 51
0.0
  0
ARC
  8
0
  6
CONTINUOUS
 62
     7
 10
310.3611
 20
-235.0457
 40
2.21188
 50
0.0
 51
89.99999
  0
ARC
  8
0
  6
CONTINUOUS
 62
     7
 10
327.5034
 20
-232.8338
 40
3.31784
 50
291.6884
 51
0.0
  0
ARC
  8
0
  6
CONTINUOUS
 62
     7
 10
326.3973
 20
-232.0834
 40
1.10595
 50
291.689
 51
0.0
  0
ARC
  8
0
  6
CONTINUOUS
 62
     7
 10
-205.9368
 20
-30.0
 40
0.5
 50
180.0
 51
270.0
  0
ARC
  8
0
  6
CONTINUOUS
 62
     7
 10
-182.9368
 20
-30.0
 40
0.5
 50
299.9999
 51
0.0
  0
CIRCLE
  8
0
  6
CONTINUOUS
 62
     7
 10
-201.4368
 20
-4.0
 40
1.6
  0
CIRCLE
  8
0
  6
CONTINUOUS
 62
     7
 10
-201.4368
 20
-14.0
 40
1.6
  0
ARC
  8
0
  6
CONTINUOUS
 62
     7
 10
-188.1368
 20
-26.0
 40
0.5
 50
95.73952
 51
180.0
  0
ARC
  8
0
  6
CONTINUOUS
 62
     7
 10
-189.1368
 20
-30.0
 40
0.5
 50
270.0
 51
0.0
  0
ARC
  8
0
  6
CONTINUOUS
 62
     7
 10
-182.9368
 20
-25.0
 40
0.5
 50
270.0
 51
0.0
  0
ARC
  8
0
  6
CONTINUOUS
 62
     7
 10
-173.2368
 20
22.8
 40
0.8
 50
270.0
 51
0.0
  0
ARC
  8
0
  6
CONTINUOUS
 62
     7
 10
-185.4368
 20
44.50002
 40
6.0
 50
73.80862
 51
106.1914
  0
ARC
  8
0
  6
CONTINUOUS
 62
     7
 10
-183.9868
 20
49.49376
 40
0.8
 50
0.0
 51
73.8082
  0
ARC
  8
0
  6
CONTINUOUS
 62
     7
 10
-186.8868
 20
49.49376
 40
0.8
 50
106.1918
 51
180.0
  0
ARC
  8
0
  6
CONTINUOUS
 62
     7
 10
-203.4368
 20
44.49998
 40
6.0
 50
73.80862
 51
106.1914
  0
ARC
  8
0
  6
CONTINUOUS
 62
     7
 10
-204.8868
 20
49.49373
 40
0.8
 50
106.1918
 51
118.0138
  0
ARC
  8
0
  6
CONTINUOUS
 62
     7
 10
-201.9868
 20
49.49373
 40
0.8
 50
61.98621
 51
73.8082
  0
ARC
  8
0
  6
CONTINUOUS
 62
     7
 10
-173.2368
 20
45.7
 40
0.8
 50
0.0
 51
89.99999
  0
ARC
  8
0
  6
CONTINUOUS
 62
     7
 10
-180.9368
 20
47.50002
 40
0.5
 50
89.99999
 51
180.0
  0
ARC
  8
0
  6
CONTINUOUS
 62
     7
 10
-174.9368
 20
47.50002
 40
0.5
 50
0.0
 51
89.99999
  0
ARC
  8
0
  6
CONTINUOUS
 62
     7
 10
-185.4368
 20
148.5
 40
3.0
 50
89.99999
 51
180.0
  0
ARC
  8
0
  6
CONTINUOUS
 62
     7
 10
-203.4368
 20
157.5
 40
3.0
 50
270.0
 51
0.0
  0
ARC
  8
0
  6
CONTINUOUS
 62
     7
 10
-185.4368
 20
148.5
 40
2.55
 50
276.7564
 51
263.2436
  0
ARC
  8
0
  6
CONTINUOUS
 62
     7
 10
-203.4368
 20
157.5
 40
2.55
 50
96.7564
 51
83.24359
  0
CIRCLE
  8
0
  6
CONTINUOUS
 62
     7
 10
-185.4368
 20
148.5
 40
2.25
  0
ARC
  8
0
  6
CONTINUOUS
 62
     7
 10
-185.4368
 20
149.6031
 40
0.51999
 50
225.0
 51
315.0
  0
ARC
  8
0
  6
CONTINUOUS
 62
     7
 10
-186.5399
 20
148.5
 40
0.51999
 50
315.0
 51
45.0
  0
ARC
  8
0
  6
CONTINUOUS
 62
     7
 10
-184.3337
 20
148.5
 40
0.51999
 50
135.0
 51
225.0
  0
ARC
  8
0
  6
CONTINUOUS
 62
     7
 10
-185.4368
 20
147.3969
 40
0.51999
 50
45.0
 51
135.0
  0
CIRCLE
  8
0
  6
CONTINUOUS
 62
     7
 10
-203.4368
 20
157.5
 40
2.25
  0
ARC
  8
0
  6
CONTINUOUS
 62
     7
 10
-203.4368
 20
158.6031
 40
0.51999
 50
225.0
 51
315.0
  0
ARC
  8
0
  6
CONTINUOUS
 62
     7
 10
-204.5398
 20
157.5
 40
0.51999
 50
315.0
 51
45.0
  0
ARC
  8
0
  6
CONTINUOUS
 62
     7
 10
-202.3337
 20
157.5
 40
0.51999
 50
135.0
 51
225.0
  0
ARC
  8
0
  6
CONTINUOUS
 62
     7
 10
-203.4368
 20
156.3969
 40
0.51999
 50
45.0
 51
135.0
  0
ARC
  8
0
  6
CONTINUOUS
 62
     7
 10
-205.9368
 20
160.0
 40
0.5
 50
89.99999
 51
180.0
  0
ARC
  8
0
  6
CONTINUOUS
 62
     7
 10
-205.9368
 20
146.0
 40
0.5
 50
180.0
 51
270.0
  0
ARC
  8
0
  6
CONTINUOUS
 62
     7
 10
-173.2368
 20
159.2
 40
0.8
 50
0.0
 51
89.99999
  0
ARC
  8
0
  6
CONTINUOUS
 62
     7
 10
-173.2368
 20
146.8
 40
0.8
 50
270.0
 51
0.0
  0
ARC
  8
0
  6
CONTINUOUS
 62
     7
 10
-177.9368
 20
154.0
 40
3.5
 50
0.0
 51
180.0
  0
ARC
  8
0
  6
CONTINUOUS
 62
     7
 10
-177.9368
 20
152.0
 40
3.5
 50
180.0
 51
0.0
  0
CIRCLE
  8
0
  6
CONTINUOUS
 62
     7
 10
-177.9368
 20
151.5
 40
0.85
  0
CIRCLE
  8
0
  6
CONTINUOUS
 62
     7
 10
-177.9368
 20
154.5
 40
0.85
  0
ARC
  8
0
  6
CONTINUOUS
 62
     7
 10
-313.9368
 20
-30.0
 40
0.5
 50
180.0
 51
240.0
  0
ARC
  8
0
  6
CONTINUOUS
 62
     7
 10
-299.9368
 20
-30.0
 40
0.5
 50
270.0
 51
0.0
  0
CIRCLE
  8
0
  6
CONTINUOUS
 62
     7
 10
-309.9368
 20
1.0
 40
1.75
  0
CIRCLE
  8
0
  6
CONTINUOUS
 62
     7
 10
-306.9368
 20
-9.0
 40
1.75
  0
CIRCLE
  8
0
  6
CONTINUOUS
 62
     7
 10
-303.9368
 20
-19.0
 40
1.75
  0
CIRCLE
  8
0
  6
CONTINUOUS
 62
     7
 10
-309.9368
 20
1.0
 40
2.5
  0
CIRCLE
  8
0
  6
CONTINUOUS
 62
     7
 10
-306.9368
 20
-9.0
 40
2.5
  0
CIRCLE
  8
0
  6
CONTINUOUS
 62
     7
 10
-303.9368
 20
-19.0
 40
2.5
  0
CIRCLE
  8
0
  6
CONTINUOUS
 62
     7
 10
-312.4368
 20
-18.0
 40
1.4
  0
CIRCLE
  8
0
  6
CONTINUOUS
 62
     7
 10
-301.4368
 20
0.0
 40
1.4
  0
ARC
  8
0
  6
CONTINUOUS
 62
     7
 10
-308.7368
 20
-26.0
 40
0.5
 50
0.0
 51
89.99999
  0
ARC
  8
0
  6
CONTINUOUS
 62
     7
 10
-307.7368
 20
-30.0
 40
0.5
 50
180.0
 51
270.0
  0
ARC
  8
0
  6
CONTINUOUS
 62
     7
 10
-313.9368
 20
-25.0
 40
0.5
 50
180.0
 51
270.0
  0
CIRCLE
  8
0
  6
CONTINUOUS
 62
     7
 10
-306.9368
 20
13.7
 40
2.0
  0
CIRCLE
  8
0
  6
CONTINUOUS
 62
     7
 10
-306.9368
 20
13.7
 40
2.65
  0
ARC
  8
0
  6
CONTINUOUS
 62
     7
 10
-310.3831
 20
42.95332
 40
0.35345
 50
0.0
 51
89.99999
  0
ARC
  8
0
  6
CONTINUOUS
 62
     7
 10
-307.467
 20
41.05345
 40
0.35346
 50
270.0
 51
0.0
  0
ARC
  8
0
  6
CONTINUOUS
 62
     7
 10
-307.6437
 20
42.7766
 40
0.53018
 50
0.0
 51
89.99999
  0
ARC
  8
0
  6
CONTINUOUS
 62
     7
 10
-304.4184
 20
42.95332
 40
0.35345
 50
0.0
 51
89.99999
  0
ARC
  8
0
  6
CONTINUOUS
 62
     7
 10
-304.4184
 20
42.67094
 40
0.35347
 50
295.0005
 51
0.0
  0
ARC
  8
0
  6
CONTINUOUS
 62
     7
 10
-301.679
 20
43.30678
 40
0.53019
 50
291.6869
 51
0.0
  0
ARC
  8
0
  6
CONTINUOUS
 62
     7
 10
-301.8558
 20
43.42668
 40
0.17673
 50
291.687
 51
0.0
  0
ARC
  8
0
  6
CONTINUOUS
 62
     7
 10
-312.8868
 20
49.49373
 40
0.8
 50
106.1918
 51
180.0
  0
ARC
  8
0
  6
CONTINUOUS
 62
     7
 10
-311.4368
 20
44.49998
 40
6.0
 50
73.80876
 51
106.1912
  0
ARC
  8
0
  6
CONTINUOUS
 62
     7
 10
-309.9868
 20
49.49373
 40
0.79999
 50
0.0
 51
73.8082
  0
ARC
  8
0
  6
CONTINUOUS
 62
     7
 10
-302.4368
 20
44.49998
 40
6.0
 50
73.80876
 51
106.1912
  0
ARC
  8
0
  6
CONTINUOUS
 62
     7
 10
-303.8868
 20
49.49373
 40
0.8
 50
106.1918
 51
118.0148
  0
ARC
  8
0
  6
CONTINUOUS
 62
     7
 10
-300.9868
 20
49.49373
 40
0.80001
 50
61.98524
 51
73.8082
  0
ARC
  8
0
  6
CONTINUOUS
 62
     7
 10
-57.93671
 20
-30.00003
 40
0.5
 50
180.0
 51
240.0
  0
ARC
  8
0
  6
CONTINUOUS
 62
     7
 10
-43.93671
 20
-30.00003
 40
0.5
 50
270.0
 51
0.0
  0
CIRCLE
  8
0
  6
CONTINUOUS
 62
     7
 10
-53.93671
 20
-14.00003
 40
1.75
  0
CIRCLE
  8
0
  6
CONTINUOUS
 62
     7
 10
-47.93671
 20
-4.00003
 40
1.75
  0
CIRCLE
  8
0
  6
CONTINUOUS
 62
     7
 10
-47.93671
 20
-4.00003
 40
2.5
  0
CIRCLE
  8
0
  6
CONTINUOUS
 62
     7
 10
-53.93671
 20
-14.00003
 40
2.5
  0
CIRCLE
  8
0
  6
CONTINUOUS
 62
     7
 10
-56.43671
 20
-0.00003
 40
1.4
  0
CIRCLE
  8
0
  6
CONTINUOUS
 62
     7
 10
-45.43671
 20
-18.00003
 40
1.4
  0
ARC
  8
0
  6
CONTINUOUS
 62
     7
 10
-45.43671
 20
-18.00003
 40
2.7
 50
42.20544
 51
317.7946
  0
ARC
  8
0
  6
CONTINUOUS
 62
     7
 10
-56.43671
 20
-0.00003
 40
2.7
 50
0.0
 51
137.7946
  0
ARC
  8
0
  6
CONTINUOUS
 62
     7
 10
-56.43671
 20
-0.00003
 40
2.7
 50
222.2054
 51
0.0
  0
CIRCLE
  8
0
  6
CONTINUOUS
 62
     7
 10
-50.93671
 20
18.49998
 40
1.65
  0
ARC
  8
0
  6
CONTINUOUS
 62
     7
 10
-52.73669
 20
-26.00003
 40
0.5
 50
0.0
 51
84.26092
  0
ARC
  8
0
  6
CONTINUOUS
 62
     7
 10
-57.93671
 20
-25.00003
 40
0.5
 50
180.0
 51
270.0
  0
ARC
  8
0
  6
CONTINUOUS
 62
     7
 10
-51.73669
 20
-30.00003
 40
0.5
 50
180.0
 51
270.0
  0
ARC
  8
0
  6
CONTINUOUS
 62
     7
 10
-57.13672
 20
22.79997
 40
0.8
 50
180.0
 51
270.0
  0
ARC
  8
0
  6
CONTINUOUS
 62
     7
 10
-44.73669
 20
22.79997
 40
0.8
 50
270.0
 51
0.0
  0
ARC
  8
0
  6
CONTINUOUS
 62
     7
 10
-55.43671
 20
44.49995
 40
6.0
 50
73.80869
 51
106.1913
  0
ARC
  8
0
  6
CONTINUOUS
 62
     7
 10
-53.98669
 20
49.4937
 40
0.8
 50
28.9544
 51
73.80872
  0
ARC
  8
0
  6
CONTINUOUS
 62
     7
 10
-56.88672
 20
49.4937
 40
0.8
 50
106.1913
 51
180.0
  0
ARC
  8
0
  6
CONTINUOUS
 62
     7
 10
-46.43671
 20
44.49995
 40
6.0
 50
73.80865
 51
106.1913
  0
ARC
  8
0
  6
CONTINUOUS
 62
     7
 10
-47.88672
 20
49.4937
 40
0.8
 50
106.1913
 51
118.0138
  0
ARC
  8
0
  6
CONTINUOUS
 62
     7
 10
-44.98669
 20
49.4937
 40
0.8
 50
61.98621
 51
73.80872
  0
ARC
  8
0
  6
CONTINUOUS
 62
     7
 10
-57.13672
 20
45.69997
 40
0.8
 50
89.99999
 51
180.0
  0
ARC
  8
0
  6
CONTINUOUS
 62
     7
 10
-44.73669
 20
45.69997
 40
0.8
 50
0.0
 51
89.99999
  0
ARC
  8
0
  6
CONTINUOUS
 62
     7
 10
-54.93671
 20
47.49998
 40
0.5
 50
89.99999
 51
180.0
  0
ARC
  8
0
  6
CONTINUOUS
 62
     7
 10
-46.93671
 20
47.49998
 40
0.5
 50
0.0
 51
89.99999
  0
ARC
  8
0
  6
CONTINUOUS
 62
     7
 10
-205.9367
 20
-141.9999
 40
0.5
 50
89.99999
 51
180.0
  0
ARC
  8
0
  6
CONTINUOUS
 62
     7
 10
-205.9367
 20
-155.9999
 40
0.5
 50
180.0
 51
270.0
  0
ARC
  8
0
  6
CONTINUOUS
 62
     7
 10
-182.9367
 20
-141.9999
 40
0.5
 50
0.0
 51
89.99999
  0
ARC
  8
0
  6
CONTINUOUS
 62
     7
 10
-182.9367
 20
-155.9999
 40
0.5
 50
270.0
 51
0.0
  0
ARC
  8
0
  6
CONTINUOUS
 62
     7
 10
-203.4367
 20
-153.4999
 40
3.2
 50
0.0
 51
89.99999
  0
ARC
  8
0
  6
CONTINUOUS
 62
     7
 10
-185.4367
 20
-144.4999
 40
3.2
 50
180.0
 51
270.0
  0
ARC
  8
0
  6
CONTINUOUS
 62
     7
 10
-199.7368
 20
-155.9999
 40
0.5
 50
180.0
 51
270.0
  0
ARC
  8
0
  6
CONTINUOUS
 62
     7
 10
-205.9367
 20
-149.7999
 40
0.5
 50
180.0
 51
270.0
  0
ARC
  8
0
  6
CONTINUOUS
 62
     7
 10
-189.1367
 20
-141.9999
 40
0.5
 50
0.0
 51
89.99999
  0
ARC
  8
0
  6
CONTINUOUS
 62
     7
 10
-182.9367
 20
-148.1999
 40
0.5
 50
0.0
 51
89.99999
  0
CIRCLE
  8
0
  6
CONTINUOUS
 62
     7
 10
-203.4367
 20
-153.4999
 40
2.75
  0
CIRCLE
  8
0
  6
CONTINUOUS
 62
     7
 10
-185.4367
 20
-144.4999
 40
2.75
  0
CIRCLE
  8
0
  6
CONTINUOUS
 62
     7
 10
-203.4367
 20
-153.4999
 40
1.3
  0
CIRCLE
  8
0
  6
CONTINUOUS
 62
     7
 10
-185.4367
 20
-144.4999
 40
1.3
  0
CIRCLE
  8
0
  6
CONTINUOUS
 62
     7
 10
-203.4367
 20
-153.4999
 40
1.0
  0
CIRCLE
  8
0
  6
CONTINUOUS
 62
     7
 10
-185.4367
 20
-144.4999
 40
1.0
  0
ARC
  8
0
  6
CONTINUOUS
 62
     7
 10
-193.2101
 20
-154.0809
 40
0.17672
 50
201.6875
 51
270.0
  0
ARC
  8
0
  6
CONTINUOUS
 62
     7
 10
-193.6834
 20
-145.5536
 40
0.35345
 50
270.0
 51
0.0
  0
ARC
  8
0
  6
CONTINUOUS
 62
     7
 10
-195.5833
 20
-148.4697
 40
0.35345
 50
180.0
 51
270.0
  0
ARC
  8
0
  6
CONTINUOUS
 62
     7
 10
-193.8602
 20
-148.293
 40
0.5302
 50
270.0
 51
0.0
  0
ARC
  8
0
  6
CONTINUOUS
 62
     7
 10
-193.6834
 20
-151.5183
 40
0.35345
 50
270.0
 51
0.0
  0
ARC
  8
0
  6
CONTINUOUS
 62
     7
 10
-193.9658
 20
-151.5183
 40
0.35346
 50
205.0007
 51
270.0
  0
ARC
  8
0
  6
CONTINUOUS
 62
     7
 10
-193.33
 20
-154.2576
 40
0.53019
 50
201.6884
 51
270.0
  0
ARC
  8
0
  6
CONTINUOUS
 62
     7
 10
-205.9367
 20
-141.9999
 40
0.5
 50
89.99999
 51
180.0
  0
ARC
  8
0
  6
CONTINUOUS
 62
     7
 10
-205.9367
 20
-155.9999
 40
0.5
 50
180.0
 51
270.0
  0
ARC
  8
0
  6
CONTINUOUS
 62
     7
 10
-173.2367
 20
-142.7999
 40
0.8
 50
0.0
 51
89.99999
  0
ARC
  8
0
  6
CONTINUOUS
 62
     7
 10
-173.2367
 20
-155.1999
 40
0.8
 50
270.0
 51
0.0
  0
ARC
  8
0
  6
CONTINUOUS
 62
     7
 10
172.4368
 20
0.0
 40
2.7
 50
222.2054
 51
0.0
  0
ARC
  8
0
  6
CONTINUOUS
 62
     7
 10
172.4368
 20
0.0
 40
2.7
 50
0.0
 51
137.7946
  0
ARC
  8
0
  6
CONTINUOUS
 62
     7
 10
183.4368
 20
-18.0
 40
2.7
 50
42.20544
 51
317.7946
  0
CIRCLE
  8
0
  6
CONTINUOUS
 62
     7
 10
183.4368
 20
-18.0
 40
1.4
  0
CIRCLE
  8
0
  6
CONTINUOUS
 62
     7
 10
172.4368
 20
0.0
 40
1.4
  0
CIRCLE
  8
0
  6
CONTINUOUS
 62
     7
 10
177.9368
 20
18.5
 40
1.65
  0
ARC
  8
0
  6
CONTINUOUS
 62
     7
 10
170.9368
 20
-30.0
 40
0.5
 50
180.0
 51
270.0
  0
ARC
  8
0
  6
CONTINUOUS
 62
     7
 10
184.9368
 20
-30.0
 40
0.5
 50
270.0
 51
0.0
  0
ARC
  8
0
  6
CONTINUOUS
 62
     7
 10
176.1368
 20
-26.00002
 40
0.5
 50
0.0
 51
89.99999
  0
ARC
  8
0
  6
CONTINUOUS
 62
     7
 10
170.9368
 20
-25.0
 40
0.5
 50
180.0
 51
270.0
  0
ARC
  8
0
  6
CONTINUOUS
 62
     7
 10
177.1368
 20
-30.0
 40
0.5
 50
180.0
 51
270.0
  0
ARC
  8
0
  6
CONTINUOUS
 62
     7
 10
173.4368
 20
-22.89999
 40
5.0
 50
240.5077
 51
299.4923
  0
ARC
  8
0
  6
CONTINUOUS
 62
     7
 10
171.3034
 20
-26.67183
 40
0.66667
 50
180.0
 51
240.5079
  0
ARC
  8
0
  6
CONTINUOUS
 62
     7
 10
175.5701
 20
-26.67183
 40
0.66666
 50
299.4921
 51
0.0
  0
ARC
  8
0
  6
CONTINUOUS
 62
     7
 10
181.9368
 20
47.5
 40
0.5
 50
0.0
 51
89.99999
  0
ARC
  8
0
  6
CONTINUOUS
 62
     7
 10
173.9368
 20
47.5
 40
0.5
 50
89.99999
 51
180.0
  0
ARC
  8
0
  6
CONTINUOUS
 62
     7
 10
171.7368
 20
22.79999
 40
0.8
 50
180.0
 51
270.0
  0
ARC
  8
0
  6
CONTINUOUS
 62
     7
 10
184.1368
 20
22.79999
 40
0.8
 50
270.0
 51
0.0
  0
ARC
  8
0
  6
CONTINUOUS
 62
     7
 10
173.4368
 20
44.5
 40
6.0
 50
73.80862
 51
106.1914
  0
ARC
  8
0
  6
CONTINUOUS
 62
     7
 10
174.8868
 20
49.49374
 40
0.79999
 50
28.95467
 51
73.8082
  0
ARC
  8
0
  6
CONTINUOUS
 62
     7
 10
171.9868
 20
49.49374
 40
0.8
 50
106.1918
 51
180.0
  0
ARC
  8
0
  6
CONTINUOUS
 62
     7
 10
182.4368
 20
44.5
 40
6.0
 50
73.80862
 51
106.1914
  0
ARC
  8
0
  6
CONTINUOUS
 62
     7
 10
180.9868
 20
49.49374
 40
0.8
 50
106.1918
 51
118.0138
  0
ARC
  8
0
  6
CONTINUOUS
 62
     7
 10
183.8868
 20
49.49374
 40
0.8
 50
61.98621
 51
73.8082
  0
ARC
  8
0
  6
CONTINUOUS
 62
     7
 10
171.7368
 20
45.70001
 40
0.8
 50
89.99999
 51
180.0
  0
ARC
  8
0
  6
CONTINUOUS
 62
     7
 10
184.1368
 20
45.70001
 40
0.8
 50
0.0
 51
89.99999
  0
ARC
  8
0
  6
CONTINUOUS
 62
     7
 10
173.4368
 20
144.0
 40
3.0
 50
0.0
 51
89.99999
  0
ARC
  8
0
  6
CONTINUOUS
 62
     7
 10
182.4368
 20
162.0
 40
3.0
 50
180.0
 51
270.0
  0
ARC
  8
0
  6
CONTINUOUS
 62
     7
 10
173.4368
 20
144.0
 40
2.55
 50
186.7564
 51
173.2436
  0
ARC
  8
0
  6
CONTINUOUS
 62
     7
 10
182.4368
 20
162.0
 40
2.55
 50
6.75641
 51
353.2436
  0
CIRCLE
  8
0
  6
CONTINUOUS
 62
     7
 10
173.4368
 20
144.0
 40
2.25
  0
ARC
  8
0
  6
CONTINUOUS
 62
     7
 10
174.5399
 20
144.0
 40
0.51999
 50
135.0
 51
225.0
  0
ARC
  8
0
  6
CONTINUOUS
 62
     7
 10
173.4368
 20
145.1031
 40
0.51999
 50
225.0
 51
315.0
  0
ARC
  8
0
  6
CONTINUOUS
 62
     7
 10
173.4368
 20
142.8969
 40
0.51999
 50
45.0
 51
135.0
  0
ARC
  8
0
  6
CONTINUOUS
 62
     7
 10
172.3337
 20
144.0
 40
0.51999
 50
315.0
 51
45.0
  0
CIRCLE
  8
0
  6
CONTINUOUS
 62
     7
 10
182.4368
 20
162.0
 40
2.25
  0
ARC
  8
0
  6
CONTINUOUS
 62
     7
 10
183.5399
 20
162.0
 40
0.51999
 50
135.0
 51
225.0
  0
ARC
  8
0
  6
CONTINUOUS
 62
     7
 10
182.4368
 20
163.1031
 40
0.51999
 50
225.0
 51
315.0
  0
ARC
  8
0
  6
CONTINUOUS
 62
     7
 10
182.4368
 20
160.8969
 40
0.51999
 50
45.0
 51
135.0
  0
ARC
  8
0
  6
CONTINUOUS
 62
     7
 10
181.3337
 20
162.0
 40
0.51999
 50
315.0
 51
45.0
  0
ARC
  8
0
  6
CONTINUOUS
 62
     7
 10
184.9368
 20
164.5
 40
0.5
 50
0.0
 51
89.99999
  0
ARC
  8
0
  6
CONTINUOUS
 62
     7
 10
170.9368
 20
164.5
 40
0.5
 50
89.99999
 51
180.0
  0
ARC
  8
0
  6
CONTINUOUS
 62
     7
 10
184.1368
 20
131.8
 40
0.8
 50
270.0
 51
0.0
  0
ARC
  8
0
  6
CONTINUOUS
 62
     7
 10
171.7368
 20
131.8
 40
0.8
 50
180.0
 51
270.0
  0
ARC
  8
0
  6
CONTINUOUS
 62
     7
 10
178.9368
 20
136.5
 40
3.5
 50
270.0
 51
89.99999
  0
ARC
  8
0
  6
CONTINUOUS
 62
     7
 10
176.9368
 20
136.5
 40
3.5
 50
89.99999
 51
270.0
  0
CIRCLE
  8
0
  6
CONTINUOUS
 62
     7
 10
176.4368
 20
136.5
 40
0.85
  0
CIRCLE
  8
0
  6
CONTINUOUS
 62
     7
 10
179.4368
 20
136.5
 40
0.85
  0
ARC
  8
0
  6
CONTINUOUS
 62
     7
 10
32.9368
 20
-30.0
 40
0.5
 50
180.0
 51
270.0
  0
ARC
  8
0
  6
CONTINUOUS
 62
     7
 10
55.9368
 20
-30.0
 40
0.5
 50
270.0
 51
0.0
  0
ARC
  8
0
  6
CONTINUOUS
 62
     7
 10
50.73679
 20
-26.00002
 40
0.5
 50
89.99999
 51
180.0
  0
ARC
  8
0
  6
CONTINUOUS
 62
     7
 10
49.73679
 20
-30.0
 40
0.5
 50
270.0
 51
0.0
  0
ARC
  8
0
  6
CONTINUOUS
 62
     7
 10
55.9368
 20
-25.0
 40
0.5
 50
270.0
 51
0.0
  0
ARC
  8
0
  6
CONTINUOUS
 62
     7
 10
53.4368
 20
-22.89999
 40
5.0
 50
240.5076
 51
299.4923
  0
ARC
  8
0
  6
CONTINUOUS
 62
     7
 10
51.30347
 20
-26.67183
 40
0.66667
 50
180.0
 51
240.5076
  0
ARC
  8
0
  6
CONTINUOUS
 62
     7
 10
55.57013
 20
-26.67183
 40
0.66667
 50
299.4924
 51
0.0
  0
ARC
  8
0
  6
CONTINUOUS
 62
     7
 10
65.6368
 20
22.79999
 40
0.8
 50
270.0
 51
0.0
  0
ARC
  8
0
  6
CONTINUOUS
 62
     7
 10
53.4368
 20
44.5
 40
6.0
 50
73.80869
 51
106.1913
  0
ARC
  8
0
  6
CONTINUOUS
 62
     7
 10
54.8868
 20
49.49374
 40
0.8
 50
0.0
 51
73.80872
  0
ARC
  8
0
  6
CONTINUOUS
 62
     7
 10
51.98679
 20
49.49374
 40
0.8
 50
106.1913
 51
180.0
  0
ARC
  8
0
  6
CONTINUOUS
 62
     7
 10
35.4368
 20
44.5
 40
6.0
 50
73.80865
 51
106.1913
  0
ARC
  8
0
  6
CONTINUOUS
 62
     7
 10
33.98679
 20
49.49374
 40
0.8
 50
106.1913
 51
118.0138
  0
ARC
  8
0
  6
CONTINUOUS
 62
     7
 10
36.8868
 20
49.49374
 40
0.8
 50
61.98621
 51
73.80872
  0
ARC
  8
0
  6
CONTINUOUS
 62
     7
 10
65.6368
 20
45.70001
 40
0.8
 50
0.0
 51
89.99999
  0
ARC
  8
0
  6
CONTINUOUS
 62
     7
 10
57.9368
 20
47.5
 40
0.5
 50
89.99999
 51
180.0
  0
ARC
  8
0
  6
CONTINUOUS
 62
     7
 10
63.9368
 20
47.5
 40
0.5
 50
0.0
 51
89.99999
  0
ARC
  8
0
  6
CONTINUOUS
 62
     7
 10
308.9367
 20
-30.0
 40
0.5
 50
180.0
 51
270.0
  0
ARC
  8
0
  6
CONTINUOUS
 62
     7
 10
331.9367
 20
-30.0
 40
0.5
 50
270.0
 51
0.0
  0
ARC
  8
0
  6
CONTINUOUS
 62
     7
 10
326.7368
 20
-26.00002
 40
0.5
 50
89.99999
 51
180.0
  0
ARC
  8
0
  6
CONTINUOUS
 62
     7
 10
325.7367
 20
-30.0
 40
0.5
 50
270.0
 51
0.0
  0
ARC
  8
0
  6
CONTINUOUS
 62
     7
 10
331.9367
 20
-25.0
 40
0.5
 50
270.0
 51
0.0
  0
ARC
  8
0
  6
CONTINUOUS
 62
     7
 10
329.4367
 20
-22.89999
 40
5.0
 50
240.5075
 51
299.4925
  0
ARC
  8
0
  6
CONTINUOUS
 62
     7
 10
327.3034
 20
-26.67183
 40
0.66666
 50
180.0
 51
240.5067
  0
ARC
  8
0
  6
CONTINUOUS
 62
     7
 10
331.5701
 20
-26.67183
 40
0.66667
 50
299.4933
 51
0.0
  0
ARC
  8
0
  6
CONTINUOUS
 62
     7
 10
299.2367
 20
22.79999
 40
0.79999
 50
180.0
 51
270.0
  0
ARC
  8
0
  6
CONTINUOUS
 62
     7
 10
329.4367
 20
44.5
 40
6.0
 50
73.80876
 51
106.1912
  0
ARC
  8
0
  6
CONTINUOUS
 62
     7
 10
330.8867
 20
49.49374
 40
0.79999
 50
0.0
 51
73.8082
  0
ARC
  8
0
  6
CONTINUOUS
 62
     7
 10
327.9867
 20
49.49374
 40
0.8
 50
106.1918
 51
180.0
  0
ARC
  8
0
  6
CONTINUOUS
 62
     7
 10
311.4367
 20
44.5
 40
6.0
 50
73.80876
 51
106.1912
  0
ARC
  8
0
  6
CONTINUOUS
 62
     7
 10
309.9867
 20
49.49374
 40
0.8
 50
106.1918
 51
118.0148
  0
ARC
  8
0
  6
CONTINUOUS
 62
     7
 10
312.8867
 20
49.49374
 40
0.80001
 50
61.98524
 51
73.8082
  0
ARC
  8
0
  6
CONTINUOUS
 62
     7
 10
299.2368
 20
45.70001
 40
0.8
 50
89.99999
 51
180.0
  0
ARC
  8
0
  6
CONTINUOUS
 62
     7
 10
300.9367
 20
47.5
 40
0.5
 50
89.99999
 51
180.0
  0
ARC
  8
0
  6
CONTINUOUS
 62
     7
 10
306.9367
 20
47.5
 40
0.5
 50
0.0
 51
89.99999
  0
ARC
  8
0
  6
CONTINUOUS
 62
     7
 10
173.4368
 20
-139.9999
 40
3.2
 50
270.0
 51
0.0
  0
ARC
  8
0
  6
CONTINUOUS
 62
     7
 10
182.4368
 20
-157.9999
 40
3.2
 50
89.99999
 51
180.0
  0
ARC
  8
0
  6
CONTINUOUS
 62
     7
 10
174.4905
 20
-148.2466
 40
0.35345
 50
0.0
 51
89.99999
  0
ARC
  8
0
  6
CONTINUOUS
 62
     7
 10
177.4066
 20
-150.1464
 40
0.35345
 50
270.0
 51
0.0
  0
ARC
  8
0
  6
CONTINUOUS
 62
     7
 10
177.2298
 20
-148.4233
 40
0.5302
 50
0.0
 51
89.99999
  0
ARC
  8
0
  6
CONTINUOUS
 62
     7
 10
180.4552
 20
-148.2466
 40
0.35345
 50
0.0
 51
89.99999
  0
ARC
  8
0
  6
CONTINUOUS
 62
     7
 10
180.4552
 20
-148.529
 40
0.35346
 50
295.0008
 51
0.0
  0
ARC
  8
0
  6
CONTINUOUS
 62
     7
 10
183.1945
 20
-147.8931
 40
0.53019
 50
291.6884
 51
0.0
  0
ARC
  8
0
  6
CONTINUOUS
 62
     7
 10
183.0178
 20
-147.7732
 40
0.17672
 50
291.6875
 51
0.0
  0
ARC
  8
0
  6
CONTINUOUS
 62
     7
 10
170.9368
 20
-160.4999
 40
0.5
 50
180.0
 51
270.0
  0
ARC
  8
0
  6
CONTINUOUS
 62
     7
 10
184.9368
 20
-160.4999
 40
0.5
 50
270.0
 51
0.0
  0
CIRCLE
  8
0
  6
CONTINUOUS
 62
     7
 10
173.4368
 20
-139.9999
 40
2.8
  0
ARC
  8
0
  6
CONTINUOUS
 62
     7
 10
172.164
 20
-139.9999
 40
0.60001
 50
315.0
 51
45.0
  0
ARC
  8
0
  6
CONTINUOUS
 62
     7
 10
173.4368
 20
-141.2727
 40
0.60001
 50
45.0
 51
135.0
  0
ARC
  8
0
  6
CONTINUOUS
 62
     7
 10
173.4368
 20
-138.7271
 40
0.60001
 50
225.0
 51
315.0
  0
ARC
  8
0
  6
CONTINUOUS
 62
     7
 10
174.7096
 20
-139.9999
 40
0.60001
 50
135.0
 51
225.0
  0
CIRCLE
  8
0
  6
CONTINUOUS
 62
     7
 10
182.4368
 20
-157.9999
 40
2.8
  0
ARC
  8
0
  6
CONTINUOUS
 62
     7
 10
181.164
 20
-157.9999
 40
0.60001
 50
315.0
 51
45.0
  0
ARC
  8
0
  6
CONTINUOUS
 62
     7
 10
182.4368
 20
-159.2727
 40
0.60001
 50
45.0
 51
135.0
  0
ARC
  8
0
  6
CONTINUOUS
 62
     7
 10
182.4368
 20
-156.7271
 40
0.60001
 50
225.0
 51
315.0
  0
ARC
  8
0
  6
CONTINUOUS
 62
     7
 10
183.7096
 20
-157.9999
 40
0.60001
 50
135.0
 51
225.0
  0
ARC
  8
0
  6
CONTINUOUS
 62
     7
 10
171.7368
 20
-127.7999
 40
0.8
 50
89.99999
 51
180.0
  0
ARC
  8
0
  6
CONTINUOUS
 62
     7
 10
184.1368
 20
-127.7999
 40
0.8
 50
0.0
 51
89.99999
  0
TEXT
  8
0
  6
CONTINUOUS
 62
     7
 10
-350.9787
 20
200.5946
 40
8.5
  1
MODEL : 110-4E1-L
 41
0.8
  7
STANDARD
  0
TEXT
  8
0
  6
CONTINUOUS
 62
     7
 10
229.0661
 20
236.2625
 40
8.5
  1
DATE : NOV ,1989
 41
0.8
  7
STANDARD
  0
TEXT
  8
0
  6
CONTINUOUS
 62
     7
 10
-366.0886
 20
235.5575
 40
10.0
  1
110 CONNECTOR -L
 41
0.73013
  7
STANDARD
  0
TEXT
  8
0
  6
CONTINUOUS
 62
     7
 10
19.88928
 20
200.5946
 40
8.5
  1
MODEL : A110-4E1-L
 41
0.8
  7
STANDARD
  0
TEXT
  8
0
  6
CONTINUOUS
 62
     7
 10
-313.2775
 20
-3.59192
 40
2.0
  1
R1
 41
0.8
  7
STANDARD
  0
TEXT
  8
0
  6
CONTINUOUS
 62
     7
 10
-303.9739
 20
-8.16321
 40
2.0
  1
P
 41
0.8
  7
STANDARD
  0
TEXT
  8
0
  6
CONTINUOUS
 62
     7
 10
-303.2266
 20
-16.38347
 40
2.0
  1
R2
 41
0.8
  7
STANDARD
  0
TEXT
  8
0
  6
CONTINUOUS
 62
     7
 10
-46.50082
 20
-1.24289
 40
2.0
  1
A
 41
0.8
  7
STANDARD
  0
TEXT
  8
0
  6
CONTINUOUS
 62
     7
 10
-57.37106
 20
-17.89972
 40
2.0
  1
B
 41
0.8
  7
STANDARD
  0
ENDSEC
  0
EOF
