  0
SECTION
  2
HEADER
  9
$ACADVER
  1
AC1002
  9
$INSBASE
 10
0.0
 20
0.0
  9
$EXTMIN
 10
-370.8736
 20
-254.5585
  9
$EXTMAX
 10
370.8736
 20
254.5585
  9
$LIMMIN
 10
0.0
 20
0.0
  9
$LIMMAX
 10
12.0
 20
9.0
  9
$VIEWCTR
 10
28.6093211
 20
0.0
  9
$VIEWSIZE
 40
509.117
  9
$SNAPMODE
 70
     0
  9
$SNAPUNIT
 10
1.0
 20
1.0
  9
$SNAPBASE
 10
0.0
 20
0.0
  9
$SNAPANG
 50
0.0
  9
$SNAPSTYLE
 70
     0
  9
$SNAPISOPAIR
 70
     0
  9
$GRIDMODE
 70
     0
  9
$GRIDUNIT
 10
0.0
 20
0.0
  9
$ORTHOMODE
 70
     0
  9
$REGENMODE
 70
     1
  9
$FILLMODE
 70
     1
  9
$QTEXTMODE
 70
     0
  9
$DRAGMODE
 70
     2
  9
$LTSCALE
 40
1.0
  9
$OSMODE
 70
     0
  9
$ATTMODE
 70
     1
  9
$TEXTSIZE
 40
0.2
  9
$TRACEWID
 40
0.05
  9
$TEXTSTYLE
  7
AAA
  9
$CLAYER
  8
0
  9
$CELTYPE
  6
BYLAYER
  9
$CECOLOR
 62
   256
  9
$DIMSCALE
 40
1.0
  9
$DIMASZ
 40
0.18
  9
$DIMEXO
 40
0.0625
  9
$DIMDLI
 40
0.38
  9
$DIMRND
 40
0.0
  9
$DIMDLE
 40
0.0
  9
$DIMEXE
 40
0.18
  9
$DIMTP
 40
0.0
  9
$DIMTM
 40
0.0
  9
$DIMTXT
 40
0.18
  9
$DIMCEN
 40
0.09
  9
$DIMTSZ
 40
0.0
  9
$DIMTOL
 70
     0
  9
$DIMLIM
 70
     0
  9
$DIMTIH
 70
     1
  9
$DIMTOH
 70
     1
  9
$DIMSE1
 70
     0
  9
$DIMSE2
 70
     0
  9
$DIMTAD
 70
     0
  9
$DIMZIN
 70
     0
  9
$DIMBLK
  1

  9
$LUNITS
 70
     2
  9
$LUPREC
 70
     4
  9
$AXISMODE
 70
     0
  9
$AXISUNIT
 10
0.0
 20
0.0
  9
$SKETCHINC
 40
0.1
  9
$FILLETRAD
 40
0.0
  9
$AUNITS
 70
     0
  9
$AUPREC
 70
     0
  9
$MENU
  1
ACAD
  9
$ELEVATION
 40
0.0
  9
$THICKNESS
 40
0.0
  9
$VIEWDIR
 10
0.0
 20
0.0
 30
1.0
  9
$LIMCHECK
 70
     0
  9
$BLIPMODE
 70
     1
  9
$CHAMFERA
 40
0.0
  9
$CHAMFERB
 40
0.0
  9
$FASTZOOM
 70
     1
  9
$SKPOLY
 70
     0
  9
$TDCREATE
 40
2447872.4198727350
  9
$TDUPDATE
 40
2447872.4198727350
  9
$TDINDWG
 40
0.0012962963
  9
$TDUSRTIMER
 40
0.0012962963
  9
$USRTIMER
 70
     1
  9
$ANGBASE
 50
0.0
  9
$ANGDIR
 70
     0
  9
$PDMODE
 70
     0
  9
$PDSIZE
 40
0.0
  9
$PLINEWID
 40
0.0
  9
$COORDS
 70
     0
  9
$USERI1
 70
     0
  9
$USERI2
 70
     0
  9
$USERI3
 70
     0
  9
$USERI4
 70
     0
  9
$USERI5
 70
     0
  9
$USERR1
 40
0.0
  9
$USERR2
 40
0.0
  9
$USERR3
 40
0.0
  9
$USERR4
 40
0.0
  9
$USERR5
 40
0.0
  0
ENDSEC
  0
SECTION
  2
TABLES
  0
TABLE
  2
LTYPE
 70
     3
  0
LTYPE
  2
CONTINUOUS
 70
    64
  3
SOLID
 72
    65
 73
     0
 40
0.0
  0
LTYPE
  2
CENTER
 70
    64
  3
CENTER
 72
    65
 73
     4
 40
2.0
 49
1.25
 49
-0.25
 49
0.25
 49
-0.25
  0
LTYPE
  2
PHANTOM
 70
    64
  3
PHANTOM
 72
    65
 73
     6
 40
2.5
 49
1.25
 49
-0.25
 49
0.25
 49
-0.25
 49
0.25
 49
-0.25
  0
ENDTAB
  0
TABLE
  2
LAYER
 70
     1
  0
LAYER
  2
0
 70
    64
 62
     7
  6
CONTINUOUS
  0
ENDTAB
  0
TABLE
  2
STYLE
 70
     2
  0
STYLE
  2
AAA
 70
     0
 40
0.0
 41
1.0
 50
0.0
 71
     0
 42
0.2
  3
TXT
  4

  0
STYLE
  2
STANDARD
 70
    64
 40
0.0
 41
1.0
 50
0.0
 71
     0
 42
0.2
  3
TXT
  4
BIGFONT
  0
ENDTAB
  0
TABLE
  2
VIEW
 70
     0
  0
ENDTAB
  0
ENDSEC
  0
SECTION
  2
BLOCKS
  0
ENDSEC
  0
SECTION
  2
ENTITIES
  0
POINT
  8
0
  6
CONTINUOUS
 62
     7
 10
-206.4367
 20
137.4999
  0
POINT
  8
0
  6
CONTINUOUS
 62
     7
 10
-182.4367
 20
137.4999
  0
POINT
  8
0
  6
CONTINUOUS
 62
     7
 10
-206.4368
 20
0.0
  0
POINT
  8
0
  6
CONTINUOUS
 62
     7
 10
-182.4368
 20
0.0
  0
POINT
  8
0
  6
CONTINUOUS
 62
     7
 10
-182.4368
 20
18.5
  0
POINT
  8
0
  6
CONTINUOUS
 62
     7
 10
-182.4368
 20
-36.5
  0
POINT
  8
0
  6
CONTINUOUS
 62
     7
 10
-56.43674
 20
-0.00009
  0
POINT
  8
0
  6
CONTINUOUS
 62
     7
 10
-43.43674
 20
-0.00009
  0
POINT
  8
0
  6
CONTINUOUS
 62
     7
 10
-47.93674
 20
-4.00009
  0
POINT
  8
0
  6
CONTINUOUS
 62
     7
 10
-53.93674
 20
-14.00009
  0
POINT
  8
0
  6
CONTINUOUS
 62
     7
 10
-50.93674
 20
18.49991
  0
POINT
  8
0
  6
CONTINUOUS
 62
     7
 10
-50.93674
 20
-36.50009
  0
POINT
  8
0
  6
CONTINUOUS
 62
     7
 10
-206.4367
 20
-163.5
  0
POINT
  8
0
  6
CONTINUOUS
 62
     7
 10
-182.4367
 20
-163.5
  0
POINT
  8
0
  6
CONTINUOUS
 62
     7
 10
-301.4367
 20
0.00006
  0
POINT
  8
0
  6
CONTINUOUS
 62
     7
 10
-309.9367
 20
1.00006
  0
POINT
  8
0
  6
CONTINUOUS
 62
     7
 10
-306.9367
 20
-8.99994
  0
POINT
  8
0
  6
CONTINUOUS
 62
     7
 10
-303.9367
 20
-18.99994
  0
POINT
  8
0
  6
CONTINUOUS
 62
     7
 10
172.4368
 20
154.9999
  0
POINT
  8
0
  6
CONTINUOUS
 62
     7
 10
185.4368
 20
154.9999
  0
POINT
  8
0
  6
CONTINUOUS
 62
     7
 10
172.4368
 20
0.0
  0
POINT
  8
0
  6
CONTINUOUS
 62
     7
 10
185.4368
 20
0.0
  0
POINT
  8
0
  6
CONTINUOUS
 62
     7
 10
177.9368
 20
18.5
  0
POINT
  8
0
  6
CONTINUOUS
 62
     7
 10
177.9368
 20
-36.5
  0
POINT
  8
0
  6
CONTINUOUS
 62
     7
 10
332.4368
 20
-0.00009
  0
POINT
  8
0
  6
CONTINUOUS
 62
     7
 10
308.4368
 20
18.49991
  0
POINT
  8
0
  6
CONTINUOUS
 62
     7
 10
308.4368
 20
-36.50009
  0
POINT
  8
0
  6
CONTINUOUS
 62
     7
 10
46.43677
 20
0.00002
  0
POINT
  8
0
  6
CONTINUOUS
 62
     7
 10
22.43677
 20
0.00002
  0
POINT
  8
0
  6
CONTINUOUS
 62
     7
 10
46.43677
 20
-36.49998
  0
POINT
  8
0
  6
CONTINUOUS
 62
     7
 10
46.43677
 20
18.50002
  0
POINT
  8
0
  6
CONTINUOUS
 62
     7
 10
172.4368
 20
-181.0
  0
POINT
  8
0
  6
CONTINUOUS
 62
     7
 10
185.4368
 20
-181.0
  0
LINE
  8
0
  6
CONTINUOUS
 62
     7
 10
218.3292
 20
-225.9564
 11
370.8736
 21
-225.9564
  0
LINE
  8
0
  6
CONTINUOUS
 62
     7
 10
-218.3292
 20
225.9564
 11
-218.3292
 21
254.5585
  0
LINE
  8
0
  6
CONTINUOUS
 62
     7
 10
-370.8736
 20
225.9564
 11
-218.3292
 21
225.9564
  0
LINE
  8
0
  6
CONTINUOUS
 62
     7
 10
-370.8736
 20
254.5585
 11
370.8736
 21
254.5585
  0
LINE
  8
0
  6
CONTINUOUS
 62
     7
 10
-370.8736
 20
-254.5585
 11
370.8736
 21
-254.5585
  0
LINE
  8
0
  6
CONTINUOUS
 62
     7
 10
370.8736
 20
254.5585
 11
370.8736
 21
-254.5585
  0
LINE
  8
0
  6
CONTINUOUS
 62
     7
 10
-370.8736
 20
-254.5585
 11
-370.8736
 21
254.5585
  0
LINE
  8
0
  6
CONTINUOUS
 62
     7
 10
218.3292
 20
-225.9564
 11
218.3292
 21
-254.5585
  0
LINE
  8
0
  6
CONTINUOUS
 62
     7
 10
218.3292
 20
254.5585
 11
218.3292
 21
225.9564
  0
LINE
  8
0
  6
CONTINUOUS
 62
     7
 10
218.3292
 20
225.9564
 11
370.8736
 21
225.9564
  0
LINE
  8
0
  6
CONTINUOUS
 62
     7
 10
258.3816
 20
-232.8337
 11
258.3816
 21
-236.1516
  0
LINE
  8
0
  6
CONTINUOUS
 62
     7
 10
258.3816
 20
-236.1516
 11
270.8235
 21
-236.1516
  0
LINE
  8
0
  6
CONTINUOUS
 62
     7
 10
258.3816
 20
-249.1465
 11
275.2473
 21
-249.1465
  0
LINE
  8
0
  6
CONTINUOUS
 62
     7
 10
258.3816
 20
-245.8286
 11
270.8235
 21
-245.8286
  0
LINE
  8
0
  6
CONTINUOUS
 62
     7
 10
258.3816
 20
-232.8337
 11
273.0354
 21
-232.8337
  0
LINE
  8
0
  6
CONTINUOUS
 62
     7
 10
270.8235
 20
-236.1516
 11
270.8235
 21
-245.8286
  0
LINE
  8
0
  6
CONTINUOUS
 62
     7
 10
275.2473
 20
-235.0457
 11
275.2473
 21
-249.1465
  0
LINE
  8
0
  6
CONTINUOUS
 62
     7
 10
258.3816
 20
-245.8286
 11
258.3816
 21
-249.1465
  0
LINE
  8
0
  6
CONTINUOUS
 62
     7
 10
293.4954
 20
-236.1516
 11
293.4954
 21
-246.9346
  0
LINE
  8
0
  6
CONTINUOUS
 62
     7
 10
277.7357
 20
-232.8337
 11
277.7357
 21
-236.1516
  0
LINE
  8
0
  6
CONTINUOUS
 62
     7
 10
293.9378
 20
-232.585
 11
295.5138
 21
-232.585
  0
LINE
  8
0
  6
CONTINUOUS
 62
     7
 10
293.9378
 20
-230.373
 11
295.5138
 21
-230.373
  0
LINE
  8
0
  6
CONTINUOUS
 62
     7
 10
295.5138
 20
-230.373
 11
295.5138
 21
-232.585
  0
LINE
  8
0
  6
CONTINUOUS
 62
     7
 10
293.9378
 20
-230.373
 11
293.9378
 21
-232.585
  0
LINE
  8
0
  6
CONTINUOUS
 62
     7
 10
293.1083
 20
-230.373
 11
293.1083
 21
-232.585
  0
LINE
  8
0
  6
CONTINUOUS
 62
     7
 10
282.7661
 20
-230.373
 11
286.2009
 21
-230.373
  0
LINE
  8
0
  6
CONTINUOUS
 62
     7
 10
285.5413
 20
-232.8335
 11
286.2006
 21
-230.3727
  0
LINE
  8
0
  6
CONTINUOUS
 62
     7
 10
282.1067
 20
-232.8337
 11
282.766
 21
-230.373
  0
LINE
  8
0
  6
CONTINUOUS
 62
     7
 10
285.5416
 20
-232.8337
 11
290.1776
 21
-232.8337
  0
LINE
  8
0
  6
CONTINUOUS
 62
     7
 10
284.6526
 20
-236.1516
 11
289.0716
 21
-236.1516
  0
LINE
  8
0
  6
CONTINUOUS
 62
     7
 10
286.6429
 20
-249.1465
 11
291.2836
 21
-249.1465
  0
LINE
  8
0
  6
CONTINUOUS
 62
     7
 10
285.7537
 20
-245.8286
 11
286.6427
 21
-249.1463
  0
LINE
  8
0
  6
CONTINUOUS
 62
     7
 10
285.7538
 20
-245.8286
 11
289.0716
 21
-245.8286
  0
LINE
  8
0
  6
CONTINUOUS
 62
     7
 10
281.1707
 20
-249.1466
 11
284.6527
 21
-236.1517
  0
LINE
  8
0
  6
CONTINUOUS
 62
     7
 10
277.7357
 20
-236.1516
 11
281.2177
 21
-236.1516
  0
LINE
  8
0
  6
CONTINUOUS
 62
     7
 10
277.7354
 20
-249.1462
 11
281.2175
 21
-236.1513
  0
LINE
  8
0
  6
CONTINUOUS
 62
     7
 10
277.7357
 20
-249.1465
 11
281.1706
 21
-249.1465
  0
LINE
  8
0
  6
CONTINUOUS
 62
     7
 10
277.7357
 20
-232.8337
 11
282.1067
 21
-232.8337
  0
LINE
  8
0
  6
CONTINUOUS
 62
     7
 10
289.0716
 20
-236.1516
 11
289.0716
 21
-245.8286
  0
LINE
  8
0
  6
CONTINUOUS
 62
     7
 10
291.5323
 20
-230.373
 11
293.1083
 21
-230.373
  0
LINE
  8
0
  6
CONTINUOUS
 62
     7
 10
291.5323
 20
-232.585
 11
293.1083
 21
-232.585
  0
LINE
  8
0
  6
CONTINUOUS
 62
     7
 10
291.5323
 20
-230.373
 11
291.5323
 21
-232.585
  0
LINE
  8
0
  6
CONTINUOUS
 62
     7
 10
301.5135
 20
-230.373
 11
305.9373
 21
-230.373
  0
LINE
  8
0
  6
CONTINUOUS
 62
     7
 10
308.3423
 20
-240.1951
 11
311.2962
 21
-238.8176
  0
LINE
  8
0
  6
CONTINUOUS
 62
     7
 10
305.9373
 20
-242.7344
 11
305.9373
 21
-249.1465
  0
LINE
  8
0
  6
CONTINUOUS
 62
     7
 10
301.5135
 20
-243.379
 11
301.5135
 21
-249.1465
  0
LINE
  8
0
  6
CONTINUOUS
 62
     7
 10
305.9373
 20
-232.8337
 11
310.3611
 21
-232.8337
  0
LINE
  8
0
  6
CONTINUOUS
 62
     7
 10
305.9373
 20
-230.373
 11
305.9373
 21
-232.8337
  0
LINE
  8
0
  6
CONTINUOUS
 62
     7
 10
301.5135
 20
-230.373
 11
301.5135
 21
-232.8337
  0
LINE
  8
0
  6
CONTINUOUS
 62
     7
 10
312.573
 20
-235.0457
 11
312.573
 21
-236.8128
  0
LINE
  8
0
  6
CONTINUOUS
 62
     7
 10
308.3424
 20
-240.195
 11
312.5734
 21
-242.168
  0
LINE
  8
0
  6
CONTINUOUS
 62
     7
 10
305.9373
 20
-242.7343
 11
312.5731
 21
-245.8286
  0
LINE
  8
0
  6
CONTINUOUS
 62
     7
 10
296.2603
 20
-242.1678
 11
296.2603
 21
-245.8286
  0
LINE
  8
0
  6
CONTINUOUS
 62
     7
 10
296.2607
 20
-242.1682
 11
309.1626
 21
-236.1519
  0
LINE
  8
0
  6
CONTINUOUS
 62
     7
 10
296.2603
 20
-245.8286
 11
301.5136
 21
-243.3789
  0
LINE
  8
0
  6
CONTINUOUS
 62
     7
 10
312.573
 20
-242.1678
 11
312.573
 21
-245.8286
  0
LINE
  8
0
  6
CONTINUOUS
 62
     7
 10
296.2603
 20
-232.8337
 11
296.2603
 21
-236.1516
  0
LINE
  8
0
  6
CONTINUOUS
 62
     7
 10
301.5135
 20
-249.1465
 11
305.9373
 21
-249.1465
  0
LINE
  8
0
  6
CONTINUOUS
 62
     7
 10
296.2603
 20
-236.1516
 11
309.1621
 21
-236.1516
  0
LINE
  8
0
  6
CONTINUOUS
 62
     7
 10
296.2603
 20
-232.8337
 11
301.5135
 21
-232.8337
  0
LINE
  8
0
  6
CONTINUOUS
 62
     7
 10
327.504
 20
-236.4047
 11
328.73
 21
-235.9171
  0
LINE
  8
0
  6
CONTINUOUS
 62
     7
 10
327.5034
 20
-236.4044
 11
327.5034
 21
-249.1465
  0
LINE
  8
0
  6
CONTINUOUS
 62
     7
 10
323.0795
 20
-249.1465
 11
327.5034
 21
-249.1465
  0
LINE
  8
0
  6
CONTINUOUS
 62
     7
 10
313.9553
 20
-241.7925
 11
323.0794
 21
-238.1637
  0
LINE
  8
0
  6
CONTINUOUS
 62
     7
 10
313.9555
 20
-238.222
 11
326.8062
 21
-233.1111
  0
LINE
  8
0
  6
CONTINUOUS
 62
     7
 10
323.0795
 20
-238.1638
 11
323.0795
 21
-249.1465
  0
LINE
  8
0
  6
CONTINUOUS
 62
     7
 10
327.5034
 20
-231.3684
 11
327.5034
 21
-232.0834
  0
LINE
  8
0
  6
CONTINUOUS
 62
     7
 10
330.8211
 20
-231.3684
 11
330.8211
 21
-232.8338
  0
LINE
  8
0
  6
CONTINUOUS
 62
     7
 10
313.9554
 20
-238.2219
 11
313.9554
 21
-241.7925
  0
LINE
  8
0
  6
CONTINUOUS
 62
     7
 10
327.5034
 20
-231.3684
 11
330.8211
 21
-231.3684
  0
LINE
  8
0
  6
CONTINUOUS
 62
     7
 10
0.0
 20
254.5585
 11
0.0
 21
-254.5585
  0
LINE
  8
0
  6
CONTINUOUS
 62
     7
 10
-206.4368
 20
22.0
 11
-206.4368
 21
5.0
  0
LINE
  8
0
  6
CONTINUOUS
 62
     7
 10
-206.4368
 20
5.0
 11
-182.4368
 21
5.0
  0
LINE
  8
0
  6
CENTER
 62
     2
 10
-194.4368
 20
53.0
 11
-194.4368
 21
-72.34012
  0
LINE
  8
0
  6
CENTER
 62
     2
 10
-201.4368
 20
0.0
 11
-201.4368
 21
-17.33334
  0
LINE
  8
0
  6
CENTER
 62
     2
 10
-204.6034
 20
-14.0
 11
-197.9368
 21
-14.0
  0
LINE
  8
0
  6
CENTER
 62
     2
 10
-204.9368
 20
-4.0
 11
-198.2701
 21
-4.0
  0
LINE
  8
0
  6
CENTER
 62
     2
 10
-186.4795
 20
0.0
 11
-181.4472
 21
0.0
  0
LINE
  8
0
  6
CONTINUOUS
 62
     7
 10
-182.4368
 20
22.0
 11
-182.4368
 21
5.0
  0
LINE
  8
0
  6
CONTINUOUS
 62
     7
 10
-185.4368
 20
1.81384
 11
-182.4368
 21
1.81384
  0
LINE
  8
0
  6
CONTINUOUS
 62
     7
 10
-185.4368
 20
-1.81384
 11
-182.4368
 21
-1.81384
  0
LINE
  8
0
  6
CONTINUOUS
 62
     7
 10
-185.4368
 20
1.81384
 11
-185.4368
 21
-1.81384
  0
LINE
  8
0
  6
CONTINUOUS
 62
     7
 10
-206.4368
 20
-40.0
 11
-206.4368
 21
5.0
  0
LINE
  8
0
  6
CONTINUOUS
 62
     7
 10
-206.4368
 20
-23.0
 11
-182.4368
 21
-23.0
  0
LINE
  8
0
  6
CONTINUOUS
 62
     7
 10
-182.4368
 20
-40.0
 11
-182.4368
 21
5.0
  0
LINE
  8
0
  6
CONTINUOUS
 62
     7
 10
-206.4368
 20
47.20001
 11
-182.4368
 21
47.20001
  0
LINE
  8
0
  6
CONTINUOUS
 62
     7
 10
-206.4368
 20
22.0
 11
-173.2368
 21
22.0
  0
LINE
  8
0
  6
CONTINUOUS
 62
     7
 10
-206.4368
 20
48.2
 11
-206.4368
 21
22.0
  0
LINE
  8
0
  6
CONTINUOUS
 62
     7
 10
-182.4368
 20
48.20001
 11
-182.4368
 21
22.0
  0
LINE
  8
0
  6
CONTINUOUS
 62
     7
 10
-172.4368
 20
45.70001
 11
-172.4368
 21
22.8
  0
LINE
  8
0
  6
CONTINUOUS
 62
     7
 10
-205.4368
 20
50.20001
 11
-187.2625
 21
50.20001
  0
LINE
  8
0
  6
CONTINUOUS
 62
     7
 10
-206.4368
 20
48.20001
 11
-182.4368
 21
48.20001
  0
LINE
  8
0
  6
CONTINUOUS
 62
     7
 10
-206.4368
 20
48.2
 11
-205.4368
 21
50.19999
  0
LINE
  8
0
  6
CONTINUOUS
 62
     7
 10
-182.4368
 20
48.2
 11
-183.4368
 21
50.2
  0
LINE
  8
0
  6
CONTINUOUS
 62
     7
 10
-188.4368
 20
50.20001
 11
-188.4368
 21
48.20001
  0
LINE
  8
0
  6
CENTER
 62
     2
 10
-185.4368
 20
53.20001
 11
-185.4368
 21
44.20001
  0
LINE
  8
0
  6
CONTINUOUS
 62
     7
 10
-182.8868
 20
48.8
 11
-187.9868
 21
48.8
  0
LINE
  8
0
  6
CONTINUOUS
 62
     7
 10
-185.7368
 20
48.2
 11
-185.8975
 21
48.8
  0
LINE
  8
0
  6
CONTINUOUS
 62
     7
 10
-185.1368
 20
48.80001
 11
-184.976
 21
48.20002
  0
LINE
  8
0
  6
CONTINUOUS
 62
     7
 10
-182.8868
 20
48.8
 11
-182.8868
 21
48.20001
  0
LINE
  8
0
  6
CONTINUOUS
 62
     7
 10
-187.9868
 20
48.8
 11
-187.9868
 21
48.20001
  0
LINE
  8
0
  6
CONTINUOUS
 62
     7
 10
-183.1868
 20
49.49374
 11
-183.1868
 21
48.8
  0
LINE
  8
0
  6
CONTINUOUS
 62
     7
 10
-187.6868
 20
49.49374
 11
-187.6868
 21
48.8
  0
LINE
  8
0
  6
CONTINUOUS
 62
     7
 10
-183.611
 20
50.20001
 11
-183.4368
 21
50.20001
  0
LINE
  8
0
  6
CENTER
 62
     2
 10
-203.4368
 20
53.20001
 11
-203.4368
 21
44.20001
  0
LINE
  8
0
  6
CENTER
 62
     2
 10
-177.9368
 20
71.0
 11
-177.9368
 21
43.5
  0
LINE
  8
0
  6
CONTINUOUS
 62
     7
 10
-178.7868
 20
58.0
 11
-178.7868
 21
54.00421
  0
LINE
  8
0
  6
CONTINUOUS
 62
     7
 10
-177.0868
 20
58.0
 11
-177.0868
 21
53.54871
  0
LINE
  8
0
  6
CONTINUOUS
 62
     7
 10
-178.2568
 20
68.0
 11
-178.2568
 21
58.0
  0
LINE
  8
0
  6
CONTINUOUS
 62
     7
 10
-177.6168
 20
68.0
 11
-177.6168
 21
58.0
  0
LINE
  8
0
  6
CONTINUOUS
 62
     7
 10
-177.0868
 20
58.0
 11
-178.7868
 21
58.0
  0
LINE
  8
0
  6
CONTINUOUS
 62
     7
 10
-177.6168
 20
68.0
 11
-178.2568
 21
68.0
  0
LINE
  8
0
  6
CONTINUOUS
 62
     7
 10
-182.4368
 20
46.5
 11
-181.4368
 21
46.5
  0
LINE
  8
0
  6
PHANTOM
 62
     2
 10
-180.7867
 20
52.98724
 11
-175.0868
 21
51.45994
  0
LINE
  8
0
  6
PHANTOM
 62
     2
 10
-180.7868
 20
54.54016
 11
-175.0867
 21
53.01284
  0
LINE
  8
0
  6
CONTINUOUS
 62
     7
 10
-177.0868
 20
51.99579
 11
-177.0868
 21
48.0
  0
LINE
  8
0
  6
CONTINUOUS
 62
     7
 10
-178.7868
 20
52.45129
 11
-178.7868
 21
48.0
  0
LINE
  8
0
  6
CONTINUOUS
 62
     7
 10
-174.4368
 20
46.5
 11
-173.2368
 21
46.5
  0
LINE
  8
0
  6
CONTINUOUS
 62
     7
 10
-181.4368
 20
47.5
 11
-181.4368
 21
46.5
  0
LINE
  8
0
  6
CONTINUOUS
 62
     7
 10
-174.9368
 20
48.0
 11
-180.9368
 21
48.0
  0
LINE
  8
0
  6
CONTINUOUS
 62
     7
 10
-174.4368
 20
47.5
 11
-174.4368
 21
46.5
  0
LINE
  8
0
  6
CONTINUOUS
 62
     7
 10
-181.4368
 20
46.5
 11
-174.4368
 21
46.5
  0
LINE
  8
0
  6
CONTINUOUS
 62
     7
 10
-206.4368
 20
-65.19998
 11
-182.4368
 21
-65.19998
  0
LINE
  8
0
  6
CONTINUOUS
 62
     7
 10
-206.4368
 20
-40.0
 11
-173.2368
 21
-40.0
  0
LINE
  8
0
  6
CONTINUOUS
 62
     7
 10
-206.4368
 20
-66.20001
 11
-206.4368
 21
-40.0
  0
LINE
  8
0
  6
CONTINUOUS
 62
     7
 10
-182.4368
 20
-66.19998
 11
-182.4368
 21
-40.0
  0
LINE
  8
0
  6
CONTINUOUS
 62
     7
 10
-172.4368
 20
-63.69998
 11
-172.4368
 21
-40.79999
  0
LINE
  8
0
  6
CONTINUOUS
 62
     7
 10
-183.4368
 20
-68.19998
 11
-201.611
 21
-68.19998
  0
LINE
  8
0
  6
CONTINUOUS
 62
     7
 10
-206.4368
 20
-66.19998
 11
-182.4368
 21
-66.19998
  0
LINE
  8
0
  6
CONTINUOUS
 62
     7
 10
-182.4368
 20
-66.20002
 11
-183.4367
 21
-68.20001
  0
LINE
  8
0
  6
CONTINUOUS
 62
     7
 10
-206.4367
 20
-66.19997
 11
-205.4367
 21
-68.19997
  0
LINE
  8
0
  6
CONTINUOUS
 62
     7
 10
-200.4368
 20
-68.20001
 11
-200.4368
 21
-66.20001
  0
LINE
  8
0
  6
CENTER
 62
     2
 10
-203.4368
 20
-71.20001
 11
-203.4368
 21
-62.20001
  0
LINE
  8
0
  6
CONTINUOUS
 62
     7
 10
-205.9868
 20
-66.80002
 11
-200.8867
 21
-66.80002
  0
LINE
  8
0
  6
CONTINUOUS
 62
     7
 10
-203.1367
 20
-66.19997
 11
-202.9759
 21
-66.79996
  0
LINE
  8
0
  6
CONTINUOUS
 62
     7
 10
-203.7366
 20
-66.79996
 11
-203.8974
 21
-66.19995
  0
LINE
  8
0
  6
CONTINUOUS
 62
     7
 10
-205.9868
 20
-66.80002
 11
-205.9868
 21
-66.20001
  0
LINE
  8
0
  6
CONTINUOUS
 62
     7
 10
-200.8868
 20
-66.80002
 11
-200.8868
 21
-66.20001
  0
LINE
  8
0
  6
CONTINUOUS
 62
     7
 10
-205.6868
 20
-67.49374
 11
-205.6868
 21
-66.80002
  0
LINE
  8
0
  6
CONTINUOUS
 62
     7
 10
-201.1868
 20
-67.49374
 11
-201.1868
 21
-66.80002
  0
LINE
  8
0
  6
CONTINUOUS
 62
     7
 10
-205.2625
 20
-68.19998
 11
-205.4367
 21
-68.19998
  0
LINE
  8
0
  6
CENTER
 62
     2
 10
-185.4368
 20
-71.19998
 11
-185.4368
 21
-62.19998
  0
LINE
  8
0
  6
CONTINUOUS
 62
     7
 10
-182.4368
 20
-64.5
 11
-181.4368
 21
-64.5
  0
LINE
  8
0
  6
CENTER
 62
     2
 10
-177.9368
 20
-89.0
 11
-177.9368
 21
-61.5
  0
LINE
  8
0
  6
CONTINUOUS
 62
     7
 10
-177.0868
 20
-76.0
 11
-177.0868
 21
-72.00421
  0
LINE
  8
0
  6
CONTINUOUS
 62
     7
 10
-178.7868
 20
-76.0
 11
-178.7868
 21
-71.54868
  0
LINE
  8
0
  6
CONTINUOUS
 62
     7
 10
-177.6168
 20
-86.0
 11
-177.6168
 21
-76.0
  0
LINE
  8
0
  6
CONTINUOUS
 62
     7
 10
-178.2568
 20
-86.0
 11
-178.2568
 21
-76.0
  0
LINE
  8
0
  6
CONTINUOUS
 62
     7
 10
-178.7868
 20
-76.0
 11
-177.0868
 21
-76.0
  0
LINE
  8
0
  6
CONTINUOUS
 62
     7
 10
-178.2567
 20
-86.0
 11
-177.6168
 21
-86.0
  0
LINE
  8
0
  6
PHANTOM
 62
     2
 10
-175.0867
 20
-70.98719
 11
-180.7867
 21
-69.45989
  0
LINE
  8
0
  6
PHANTOM
 62
     2
 10
-175.0868
 20
-72.54009
 11
-180.7867
 21
-71.01279
  0
LINE
  8
0
  6
CONTINUOUS
 62
     7
 10
-178.7868
 20
-69.99576
 11
-178.7868
 21
-66.0
  0
LINE
  8
0
  6
CONTINUOUS
 62
     7
 10
-177.0868
 20
-70.45129
 11
-177.0868
 21
-66.0
  0
LINE
  8
0
  6
CONTINUOUS
 62
     7
 10
-174.4368
 20
-64.5
 11
-173.2368
 21
-64.5
  0
LINE
  8
0
  6
CONTINUOUS
 62
     7
 10
-174.4368
 20
-65.5
 11
-174.4368
 21
-64.5
  0
LINE
  8
0
  6
CONTINUOUS
 62
     7
 10
-180.9368
 20
-66.0
 11
-174.9368
 21
-66.0
  0
LINE
  8
0
  6
CONTINUOUS
 62
     7
 10
-181.4368
 20
-65.5
 11
-181.4368
 21
-64.5
  0
LINE
  8
0
  6
CONTINUOUS
 62
     7
 10
-174.4368
 20
-64.5
 11
-181.4368
 21
-64.5
  0
LINE
  8
0
  6
CENTER
 62
     2
 10
-169.6225
 20
142.9999
 11
-208.4367
 21
142.9999
  0
LINE
  8
0
  6
CENTER
 62
     2
 10
-194.4367
 20
133.0516
 11
-194.4367
 21
152.9877
  0
LINE
  8
0
  6
CONTINUOUS
 62
     7
 10
-182.4367
 20
150.4999
 11
-182.4367
 21
135.4999
  0
LINE
  8
0
  6
CONTINUOUS
 62
     7
 10
-185.4367
 20
141.4999
 11
-182.4367
 21
141.4999
  0
LINE
  8
0
  6
CONTINUOUS
 62
     7
 10
-203.4367
 20
144.4999
 11
-206.4367
 21
144.4999
  0
LINE
  8
0
  6
CONTINUOUS
 62
     7
 10
-200.4367
 20
147.4999
 11
-200.4367
 21
150.4999
  0
LINE
  8
0
  6
CONTINUOUS
 62
     7
 10
-188.4367
 20
138.4999
 11
-188.4367
 21
135.4999
  0
LINE
  8
0
  6
CONTINUOUS
 62
     7
 10
-205.4367
 20
144.4999
 11
-205.4367
 21
136.4999
  0
LINE
  8
0
  6
CONTINUOUS
 62
     7
 10
-183.4367
 20
149.4999
 11
-183.4367
 21
141.4999
  0
LINE
  8
0
  6
CONTINUOUS
 62
     7
 10
-200.4367
 20
149.4999
 11
-183.4367
 21
149.4999
  0
LINE
  8
0
  6
CONTINUOUS
 62
     7
 10
-205.4367
 20
136.4999
 11
-188.4367
 21
136.4999
  0
LINE
  8
0
  6
CONTINUOUS
 62
     7
 10
-185.1367
 20
136.27
 11
-185.1367
 21
135.9677
  0
LINE
  8
0
  6
CONTINUOUS
 62
     7
 10
-185.7368
 20
136.27
 11
-185.7368
 21
135.9677
  0
LINE
  8
0
  6
CONTINUOUS
 62
     7
 10
-185.8975
 20
135.9919
 11
-185.8975
 21
136.2976
  0
LINE
  8
0
  6
CONTINUOUS
 62
     7
 10
-203.7368
 20
149.7298
 11
-203.7368
 21
150.0322
  0
LINE
  8
0
  6
CONTINUOUS
 62
     7
 10
-203.1367
 20
149.7298
 11
-203.1367
 21
150.0322
  0
LINE
  8
0
  6
CONTINUOUS
 62
     7
 10
-202.976
 20
150.008
 11
-202.976
 21
149.7022
  0
LINE
  8
0
  6
CONTINUOUS
 62
     7
 10
-186.5399
 20
137.7645
 11
-186.1722
 21
138.1322
  0
LINE
  8
0
  6
CONTINUOUS
 62
     7
 10
-186.1722
 20
137.3969
 11
-185.8045
 21
137.7646
  0
LINE
  8
0
  6
CONTINUOUS
 62
     7
 10
-186.5398
 20
137.7646
 11
-186.1721
 21
137.3969
  0
LINE
  8
0
  6
CONTINUOUS
 62
     7
 10
-184.7014
 20
139.603
 11
-184.3337
 21
139.2353
  0
LINE
  8
0
  6
CONTINUOUS
 62
     7
 10
-187.201
 20
139.8964
 11
-186.1722
 21
138.8676
  0
LINE
  8
0
  6
CONTINUOUS
 62
     7
 10
-186.8333
 20
140.2641
 11
-185.8045
 21
139.2354
  0
LINE
  8
0
  6
CONTINUOUS
 62
     7
 10
-185.0691
 20
139.2353
 11
-184.7014
 21
139.603
  0
LINE
  8
0
  6
CONTINUOUS
 62
     7
 10
-184.7014
 20
138.8676
 11
-184.3337
 21
139.2354
  0
LINE
  8
0
  6
CONTINUOUS
 62
     7
 10
-185.0691
 20
137.7645
 11
-184.0403
 21
136.7357
  0
LINE
  8
0
  6
CONTINUOUS
 62
     7
 10
-184.7014
 20
138.1322
 11
-183.6726
 21
137.1035
  0
LINE
  8
0
  6
CONTINUOUS
 62
     7
 10
-204.5398
 20
146.7646
 11
-204.1721
 21
147.1323
  0
LINE
  8
0
  6
CONTINUOUS
 62
     7
 10
-204.1722
 20
146.3969
 11
-203.8045
 21
146.7646
  0
LINE
  8
0
  6
CONTINUOUS
 62
     7
 10
-204.5399
 20
146.7645
 11
-204.1721
 21
146.3968
  0
LINE
  8
0
  6
CONTINUOUS
 62
     7
 10
-202.7014
 20
148.603
 11
-202.3337
 21
148.2353
  0
LINE
  8
0
  6
CONTINUOUS
 62
     7
 10
-205.2009
 20
148.8964
 11
-204.1722
 21
147.8676
  0
LINE
  8
0
  6
CONTINUOUS
 62
     7
 10
-204.8332
 20
149.2641
 11
-203.8045
 21
148.2353
  0
LINE
  8
0
  6
CONTINUOUS
 62
     7
 10
-203.0691
 20
148.2354
 11
-202.7013
 21
148.6031
  0
LINE
  8
0
  6
CONTINUOUS
 62
     7
 10
-202.7014
 20
147.8677
 11
-202.3337
 21
148.2354
  0
LINE
  8
0
  6
CONTINUOUS
 62
     7
 10
-203.0691
 20
146.7646
 11
-202.0403
 21
145.7358
  0
LINE
  8
0
  6
CONTINUOUS
 62
     7
 10
-202.7014
 20
147.1323
 11
-201.6726
 21
146.1035
  0
LINE
  8
0
  6
CENTER
 62
     2
 10
-185.4367
 20
142.4999
 11
-185.4367
 21
134.4999
  0
LINE
  8
0
  6
CENTER
 62
     2
 10
-203.4367
 20
151.4999
 11
-203.4367
 21
143.4999
  0
LINE
  8
0
  6
CENTER
 62
     2
 10
-207.4367
 20
147.4999
 11
-199.4367
 21
147.4999
  0
LINE
  8
0
  6
CENTER
 62
     2
 10
-189.4367
 20
138.4999
 11
-181.4367
 21
138.4999
  0
LINE
  8
0
  6
CONTINUOUS
 62
     7
 10
-205.9367
 20
150.4999
 11
-182.4367
 21
150.4999
  0
LINE
  8
0
  6
CONTINUOUS
 62
     7
 10
-206.4367
 20
149.9999
 11
-206.4367
 21
135.9999
  0
LINE
  8
0
  6
CONTINUOUS
 62
     7
 10
-205.9367
 20
135.4999
 11
-182.4367
 21
135.4999
  0
LINE
  8
0
  6
CONTINUOUS
 62
     7
 10
-182.4367
 20
149.9999
 11
-173.2368
 21
149.9999
  0
LINE
  8
0
  6
CONTINUOUS
 62
     7
 10
-172.4367
 20
149.2
 11
-172.4367
 21
136.7999
  0
LINE
  8
0
  6
CONTINUOUS
 62
     7
 10
-182.4367
 20
135.9999
 11
-173.2368
 21
135.9999
  0
LINE
  8
0
  6
CENTER
 62
     2
 10
-177.9367
 20
149.2
 11
-177.9367
 21
136.7999
  0
LINE
  8
0
  6
CENTER
 62
     2
 10
-181.9367
 20
144.4999
 11
-173.9367
 21
144.4999
  0
LINE
  8
0
  6
CENTER
 62
     2
 10
-181.9367
 20
141.4999
 11
-173.9367
 21
141.4999
  0
LINE
  8
0
  6
CONTINUOUS
 62
     7
 10
-181.4367
 20
143.9999
 11
-181.4367
 21
141.9999
  0
LINE
  8
0
  6
CONTINUOUS
 62
     7
 10
-174.4367
 20
143.9999
 11
-174.4367
 21
141.9999
  0
LINE
  8
0
  6
CONTINUOUS
 62
     7
 10
-314.4367
 20
22.00006
 11
-314.4367
 21
5.00006
  0
LINE
  8
0
  6
CONTINUOUS
 62
     7
 10
-299.4367
 20
22.00006
 11
-299.4367
 21
5.00006
  0
LINE
  8
0
  6
CONTINUOUS
 62
     7
 10
-314.4367
 20
5.00006
 11
-299.4367
 21
5.00006
  0
LINE
  8
0
  6
CONTINUOUS
 62
     7
 10
-314.4367
 20
-22.99994
 11
-299.4367
 21
-22.99994
  0
LINE
  8
0
  6
CENTER
 62
     2
 10
-306.9367
 20
60.33339
 11
-306.9367
 21
-78.6666
  0
LINE
  8
0
  6
CENTER
 62
     2
 10
-311.6815
 20
13.70006
 11
-301.9603
 21
13.70006
  0
LINE
  8
0
  6
CENTER
 62
     2
 10
-313.7235
 20
1.00006
 11
-306.1034
 21
1.00006
  0
LINE
  8
0
  6
CENTER
 62
     2
 10
-311.1034
 20
-8.99994
 11
-302.77
 21
-8.99994
  0
LINE
  8
0
  6
CENTER
 62
     2
 10
-307.4367
 20
-18.99994
 11
-300.3209
 21
-18.99994
  0
LINE
  8
0
  6
CENTER
 62
     2
 10
-303.9367
 20
-15.36865
 11
-303.9367
 21
-22.50143
  0
LINE
  8
0
  6
CENTER
 62
     2
 10
-309.9367
 20
4.47647
 11
-309.9367
 21
-2.44684
  0
LINE
  8
0
  6
CENTER
 62
     2
 10
-304.1034
 20
0.00006
 11
-299.4367
 21
0.00006
  0
LINE
  8
0
  6
CENTER
 62
     2
 10
-314.4367
 20
-17.99994
 11
-310.0421
 21
-17.99994
  0
LINE
  8
0
  6
CENTER
 62
     2
 10
-301.4367
 20
2.34814
 11
-301.4367
 21
-2.42618
  0
LINE
  8
0
  6
CENTER
 62
     2
 10
-312.4367
 20
-15.59875
 11
-312.4367
 21
-20.48813
  0
LINE
  8
0
  6
CONTINUOUS
 62
     7
 10
-308.3509
 20
12.28591
 11
-305.5225
 21
15.11433
  0
LINE
  8
0
  6
CONTINUOUS
 62
     7
 10
-307.4543
 20
11.76826
 11
-305.0048
 21
14.21775
  0
LINE
  8
0
  6
CONTINUOUS
 62
     7
 10
-308.8686
 20
13.18251
 11
-306.4191
 21
15.63201
  0
LINE
  8
0
  6
CONTINUOUS
 62
     7
 10
-308.351
 20
15.11415
 11
-305.5226
 21
12.28572
  0
LINE
  8
0
  6
CONTINUOUS
 62
     7
 10
-308.8686
 20
14.21766
 11
-306.4191
 21
11.76816
  0
LINE
  8
0
  6
CONTINUOUS
 62
     7
 10
-307.4545
 20
15.63187
 11
-305.005
 21
13.18238
  0
LINE
  8
0
  6
CONTINUOUS
 62
     7
 10
-314.4367
 20
-39.99994
 11
-314.4367
 21
5.00006
  0
LINE
  8
0
  6
CONTINUOUS
 62
     7
 10
-299.4367
 20
-39.99994
 11
-299.4367
 21
5.00006
  0
LINE
  8
0
  6
CENTER
 62
     2
 10
-311.6815
 20
-31.69995
 11
-301.9603
 21
-31.69995
  0
LINE
  8
0
  6
CONTINUOUS
 62
     7
 10
-308.3508
 20
-30.2857
 11
-305.5223
 21
-33.11412
  0
LINE
  8
0
  6
CONTINUOUS
 62
     7
 10
-307.4543
 20
-29.7682
 11
-305.0048
 21
-32.2177
  0
LINE
  8
0
  6
CONTINUOUS
 62
     7
 10
-308.8686
 20
-31.18238
 11
-306.4191
 21
-33.63188
  0
LINE
  8
0
  6
CONTINUOUS
 62
     7
 10
-308.3509
 20
-33.11424
 11
-305.5225
 21
-30.28581
  0
LINE
  8
0
  6
CONTINUOUS
 62
     7
 10
-308.8685
 20
-32.21768
 11
-306.419
 21
-29.76818
  0
LINE
  8
0
  6
CONTINUOUS
 62
     7
 10
-307.4544
 20
-33.63182
 11
-305.0049
 21
-31.18233
  0
LINE
  8
0
  6
CONTINUOUS
 62
     7
 10
-314.4367
 20
48.20004
 11
-314.4367
 21
22.00006
  0
LINE
  8
0
  6
CONTINUOUS
 62
     7
 10
-314.4367
 20
22.00006
 11
-299.4367
 21
22.00006
  0
LINE
  8
0
  6
CONTINUOUS
 62
     7
 10
-299.4367
 20
48.20004
 11
-299.4367
 21
22.00006
  0
LINE
  8
0
  6
CONTINUOUS
 62
     7
 10
-308.4367
 20
50.20006
 11
-308.4367
 21
48.20004
  0
LINE
  8
0
  6
CONTINUOUS
 62
     7
 10
-313.4367
 20
44.20006
 11
-300.4367
 21
44.20006
  0
LINE
  8
0
  6
CONTINUOUS
 62
     7
 10
-313.4367
 20
40.20006
 11
-300.4367
 21
40.20006
  0
LINE
  8
0
  6
CONTINUOUS
 62
     7
 10
-300.4367
 20
44.20007
 11
-300.4367
 21
40.20007
  0
LINE
  8
0
  6
CONTINUOUS
 62
     7
 10
-313.4367
 20
44.20006
 11
-313.4367
 21
40.20006
  0
LINE
  8
0
  6
CONTINUOUS
 62
     7
 10
-312.7246
 20
43.30684
 11
-310.3829
 21
43.30684
  0
LINE
  8
0
  6
CONTINUOUS
 62
     7
 10
-312.7246
 20
41.23026
 11
-310.7364
 21
41.23026
  0
LINE
  8
0
  6
CONTINUOUS
 62
     7
 10
-312.7246
 20
40.70006
 11
-310.0294
 21
40.70006
  0
LINE
  8
0
  6
CONTINUOUS
 62
     7
 10
-312.7246
 20
42.77664
 11
-310.7364
 21
42.77664
  0
LINE
  8
0
  6
CONTINUOUS
 62
     7
 10
-312.7246
 20
43.30684
 11
-312.7246
 21
42.77664
  0
LINE
  8
0
  6
CONTINUOUS
 62
     7
 10
-310.0294
 20
42.95337
 11
-310.0294
 21
40.70006
  0
LINE
  8
0
  6
CONTINUOUS
 62
     7
 10
-310.7364
 20
42.77664
 11
-310.7364
 21
41.23026
  0
LINE
  8
0
  6
CONTINUOUS
 62
     7
 10
-309.6318
 20
43.30684
 11
-309.6318
 21
42.77664
  0
LINE
  8
0
  6
CONTINUOUS
 62
     7
 10
-307.1134
 20
42.77664
 11
-307.1134
 21
41.05351
  0
LINE
  8
0
  6
CONTINUOUS
 62
     7
 10
-307.8203
 20
42.77664
 11
-307.8203
 21
41.23026
  0
LINE
  8
0
  6
CONTINUOUS
 62
     7
 10
-312.7246
 20
41.23026
 11
-312.7246
 21
40.70006
  0
LINE
  8
0
  6
CONTINUOUS
 62
     7
 10
-309.6318
 20
43.30684
 11
-308.9333
 21
43.30684
  0
LINE
  8
0
  6
CONTINUOUS
 62
     7
 10
-309.6318
 20
40.70006
 11
-309.0829
 21
40.70006
  0
LINE
  8
0
  6
CONTINUOUS
 62
     7
 10
-309.6317
 20
40.70004
 11
-309.0753
 21
42.77662
  0
LINE
  8
0
  6
CONTINUOUS
 62
     7
 10
-309.6318
 20
42.77664
 11
-309.0754
 21
42.77664
  0
LINE
  8
0
  6
CONTINUOUS
 62
     7
 10
-309.083
 20
40.70003
 11
-308.5266
 21
42.77662
  0
LINE
  8
0
  6
CONTINUOUS
 62
     7
 10
-308.3506
 20
41.23026
 11
-307.8203
 21
41.23026
  0
LINE
  8
0
  6
CONTINUOUS
 62
     7
 10
-308.3507
 20
41.2302
 11
-308.2087
 21
40.70002
  0
LINE
  8
0
  6
CONTINUOUS
 62
     7
 10
-308.2085
 20
40.70006
 11
-307.4669
 21
40.70006
  0
LINE
  8
0
  6
CONTINUOUS
 62
     7
 10
-308.5265
 20
42.77664
 11
-307.8203
 21
42.77664
  0
LINE
  8
0
  6
CONTINUOUS
 62
     7
 10
-308.3844
 20
43.30684
 11
-307.6436
 21
43.30684
  0
LINE
  8
0
  6
CONTINUOUS
 62
     7
 10
-308.9333
 20
43.30685
 11
-308.8279
 21
43.70008
  0
LINE
  8
0
  6
CONTINUOUS
 62
     7
 10
-308.3843
 20
43.30684
 11
-308.2789
 21
43.70005
  0
LINE
  8
0
  6
CONTINUOUS
 62
     7
 10
-306.6716
 20
43.30684
 11
-305.8321
 21
43.30684
  0
LINE
  8
0
  6
CONTINUOUS
 62
     7
 10
-306.6716
 20
42.77664
 11
-304.6099
 21
42.77664
  0
LINE
  8
0
  6
CONTINUOUS
 62
     7
 10
-305.8321
 20
40.70006
 11
-305.1252
 21
40.70006
  0
LINE
  8
0
  6
CONTINUOUS
 62
     7
 10
-306.6716
 20
43.30684
 11
-306.6716
 21
42.77664
  0
LINE
  8
0
  6
CONTINUOUS
 62
     7
 10
-304.0648
 20
41.81525
 11
-304.0648
 21
41.23026
  0
LINE
  8
0
  6
CONTINUOUS
 62
     7
 10
-306.6715
 20
41.23021
 11
-305.8321
 21
41.62165
  0
LINE
  8
0
  6
CONTINUOUS
 62
     7
 10
-306.6715
 20
41.81526
 11
-304.6098
 21
42.77666
  0
LINE
  8
0
  6
CONTINUOUS
 62
     7
 10
-306.6716
 20
41.81525
 11
-306.6716
 21
41.23026
  0
LINE
  8
0
  6
CONTINUOUS
 62
     7
 10
-305.1252
 20
41.72473
 11
-304.0648
 21
41.23026
  0
LINE
  8
0
  6
CONTINUOUS
 62
     7
 10
-304.7408
 20
42.13047
 11
-304.0648
 21
41.8152
  0
LINE
  8
0
  6
CONTINUOUS
 62
     7
 10
-304.0648
 20
42.95337
 11
-304.0648
 21
42.67099
  0
LINE
  8
0
  6
CONTINUOUS
 62
     7
 10
-305.8321
 20
43.70006
 11
-305.8321
 21
43.30684
  0
LINE
  8
0
  6
CONTINUOUS
 62
     7
 10
-305.1252
 20
43.70006
 11
-305.1252
 21
43.30684
  0
LINE
  8
0
  6
CONTINUOUS
 62
     7
 10
-305.1252
 20
43.30684
 11
-304.4182
 21
43.30684
  0
LINE
  8
0
  6
CONTINUOUS
 62
     7
 10
-305.8321
 20
41.6217
 11
-305.8321
 21
40.70006
  0
LINE
  8
0
  6
CONTINUOUS
 62
     7
 10
-305.1252
 20
41.7247
 11
-305.1252
 21
40.70006
  0
LINE
  8
0
  6
CONTINUOUS
 62
     7
 10
-304.7408
 20
42.13047
 11
-304.2688
 21
42.35057
  0
LINE
  8
0
  6
CONTINUOUS
 62
     7
 10
-301.6789
 20
43.541
 11
-301.1488
 21
43.541
  0
LINE
  8
0
  6
CONTINUOUS
 62
     7
 10
-303.8439
 20
42.44582
 11
-303.8439
 21
41.87523
  0
LINE
  8
0
  6
CONTINUOUS
 62
     7
 10
-301.1488
 20
43.541
 11
-301.1488
 21
43.30684
  0
LINE
  8
0
  6
CONTINUOUS
 62
     7
 10
-301.6789
 20
43.541
 11
-301.6789
 21
43.42676
  0
LINE
  8
0
  6
CONTINUOUS
 62
     7
 10
-302.3858
 20
42.45511
 11
-302.3858
 21
40.70007
  0
LINE
  8
0
  6
CONTINUOUS
 62
     7
 10
-303.8439
 20
42.44576
 11
-301.7903
 21
43.26249
  0
LINE
  8
0
  6
CONTINUOUS
 62
     7
 10
-303.844
 20
41.87523
 11
-302.3859
 21
42.45513
  0
LINE
  8
0
  6
CONTINUOUS
 62
     7
 10
-302.3858
 20
40.70006
 11
-301.6789
 21
40.70006
  0
LINE
  8
0
  6
CONTINUOUS
 62
     7
 10
-301.6789
 20
42.73625
 11
-301.6789
 21
40.70007
  0
LINE
  8
0
  6
CONTINUOUS
 62
     7
 10
-301.6788
 20
42.73617
 11
-301.4829
 21
42.81409
  0
LINE
  8
0
  6
CONTINUOUS
 62
     7
 10
-308.828
 20
43.70006
 11
-308.2791
 21
43.70006
  0
LINE
  8
0
  6
CONTINUOUS
 62
     7
 10
-307.4006
 20
43.70006
 11
-307.1746
 21
43.70006
  0
LINE
  8
0
  6
CONTINUOUS
 62
     7
 10
-305.8321
 20
43.70006
 11
-305.1252
 21
43.70006
  0
LINE
  8
0
  6
CONTINUOUS
 62
     7
 10
-307.4006
 20
43.34659
 11
-307.1746
 21
43.34659
  0
LINE
  8
0
  6
CONTINUOUS
 62
     7
 10
-307.4006
 20
43.70006
 11
-307.4006
 21
43.34659
  0
LINE
  8
0
  6
CONTINUOUS
 62
     7
 10
-307.1746
 20
43.70006
 11
-307.1746
 21
43.34659
  0
LINE
  8
0
  6
CONTINUOUS
 62
     7
 10
-307.0169
 20
43.70006
 11
-307.0169
 21
43.34659
  0
LINE
  8
0
  6
CONTINUOUS
 62
     7
 10
-306.7909
 20
43.70006
 11
-306.7909
 21
43.34659
  0
LINE
  8
0
  6
CONTINUOUS
 62
     7
 10
-307.0169
 20
43.70006
 11
-306.7909
 21
43.70006
  0
LINE
  8
0
  6
CONTINUOUS
 62
     7
 10
-307.0169
 20
43.34659
 11
-306.7909
 21
43.34659
  0
LINE
  8
0
  6
CENTER
 62
     2
 10
-305.4367
 20
71.00006
 11
-305.4367
 21
45.20006
  0
LINE
  8
0
  6
CENTER
 62
     2
 10
-308.4367
 20
71.00006
 11
-308.4367
 21
45.20006
  0
LINE
  8
0
  6
CONTINUOUS
 62
     7
 10
-307.5867
 20
58.00006
 11
-307.5867
 21
55.05069
  0
LINE
  8
0
  6
CONTINUOUS
 62
     7
 10
-309.2867
 20
58.00006
 11
-309.2867
 21
55.5062
  0
LINE
  8
0
  6
CONTINUOUS
 62
     7
 10
-308.1167
 20
68.00006
 11
-308.1167
 21
58.00006
  0
LINE
  8
0
  6
CONTINUOUS
 62
     7
 10
-308.7567
 20
68.00006
 11
-308.7567
 21
58.00006
  0
LINE
  8
0
  6
CONTINUOUS
 62
     7
 10
-305.1167
 20
68.00006
 11
-305.1167
 21
58.00006
  0
LINE
  8
0
  6
CONTINUOUS
 62
     7
 10
-305.7567
 20
68.00006
 11
-305.7567
 21
58.00006
  0
LINE
  8
0
  6
CONTINUOUS
 62
     7
 10
-304.5867
 20
58.00006
 11
-304.5867
 21
54.24684
  0
LINE
  8
0
  6
CONTINUOUS
 62
     7
 10
-306.2867
 20
58.00006
 11
-306.2867
 21
54.70236
  0
LINE
  8
0
  6
CONTINUOUS
 62
     7
 10
-308.7567
 20
68.00006
 11
-308.1167
 21
68.00006
  0
LINE
  8
0
  6
CONTINUOUS
 62
     7
 10
-305.7567
 20
68.00006
 11
-305.1167
 21
68.00006
  0
LINE
  8
0
  6
CONTINUOUS
 62
     7
 10
-309.2867
 20
58.00006
 11
-307.5867
 21
58.00006
  0
LINE
  8
0
  6
CONTINUOUS
 62
     7
 10
-306.2867
 20
58.00006
 11
-304.5867
 21
58.00006
  0
LINE
  8
0
  6
CONTINUOUS
 62
     7
 10
-314.4366
 20
48.20006
 11
-313.4366
 21
50.20007
  0
LINE
  8
0
  6
CONTINUOUS
 62
     7
 10
-313.6867
 20
49.49379
 11
-313.6867
 21
48.80005
  0
LINE
  8
0
  6
CENTER
 62
     2
 10
-311.4367
 20
53.20006
 11
-311.4367
 21
45.20006
  0
LINE
  8
0
  6
CONTINUOUS
 62
     7
 10
-313.4367
 20
50.20006
 11
-313.2624
 21
50.20006
  0
LINE
  8
0
  6
CONTINUOUS
 62
     7
 10
-309.1867
 20
49.49379
 11
-309.1867
 21
48.80005
  0
LINE
  8
0
  6
CONTINUOUS
 62
     7
 10
-309.6109
 20
50.20006
 11
-300.4367
 21
50.20006
  0
LINE
  8
0
  6
CENTER
 62
     2
 10
-302.4367
 20
53.20007
 11
-302.4367
 21
45.20007
  0
LINE
  8
0
  6
CONTINUOUS
 62
     7
 10
-299.4366
 20
48.20007
 11
-300.4366
 21
50.20006
  0
LINE
  8
0
  6
CONTINUOUS
 62
     7
 10
-314.4367
 20
48.20004
 11
-299.4367
 21
48.20004
  0
LINE
  8
0
  6
CONTINUOUS
 62
     7
 10
-314.4367
 20
47.20006
 11
-299.4367
 21
47.20006
  0
LINE
  8
0
  6
CONTINUOUS
 62
     7
 10
-308.8867
 20
48.80005
 11
-313.9867
 21
48.80005
  0
LINE
  8
0
  6
CONTINUOUS
 62
     7
 10
-308.8867
 20
48.80005
 11
-308.8867
 21
48.20004
  0
LINE
  8
0
  6
CONTINUOUS
 62
     7
 10
-313.9867
 20
48.80005
 11
-313.9867
 21
48.20004
  0
LINE
  8
0
  6
PHANTOM
 62
     2
 10
-311.2866
 20
56.0421
 11
-302.5866
 21
53.71094
  0
LINE
  8
0
  6
PHANTOM
 62
     2
 10
-311.2866
 20
54.48919
 11
-302.5866
 21
52.15803
  0
LINE
  8
0
  6
CONTINUOUS
 62
     7
 10
-309.2867
 20
53.95328
 11
-309.2867
 21
50.20006
  0
LINE
  8
0
  6
CONTINUOUS
 62
     7
 10
-307.5867
 20
53.49777
 11
-307.5867
 21
50.20006
  0
LINE
  8
0
  6
CONTINUOUS
 62
     7
 10
-306.2867
 20
53.14944
 11
-306.2867
 21
50.20006
  0
LINE
  8
0
  6
CONTINUOUS
 62
     7
 10
-304.5867
 20
52.69392
 11
-304.5867
 21
50.20006
  0
LINE
  8
0
  6
CONTINUOUS
 62
     7
 10
-299.4367
 20
-66.19992
 11
-299.4367
 21
-39.99994
  0
LINE
  8
0
  6
CONTINUOUS
 62
     7
 10
-299.4367
 20
-39.99994
 11
-314.4367
 21
-39.99994
  0
LINE
  8
0
  6
CONTINUOUS
 62
     7
 10
-314.4367
 20
-66.19992
 11
-314.4367
 21
-39.99994
  0
LINE
  8
0
  6
CONTINUOUS
 62
     7
 10
-305.4367
 20
-68.19992
 11
-305.4367
 21
-66.19992
  0
LINE
  8
0
  6
CONTINUOUS
 62
     7
 10
-300.4367
 20
-62.19995
 11
-313.4367
 21
-62.19995
  0
LINE
  8
0
  6
CONTINUOUS
 62
     7
 10
-300.4367
 20
-58.19995
 11
-313.4367
 21
-58.19995
  0
LINE
  8
0
  6
CONTINUOUS
 62
     7
 10
-313.4367
 20
-62.19995
 11
-313.4367
 21
-58.19995
  0
LINE
  8
0
  6
CONTINUOUS
 62
     7
 10
-300.4367
 20
-62.19992
 11
-300.4367
 21
-58.19992
  0
LINE
  8
0
  6
CONTINUOUS
 62
     7
 10
-301.1487
 20
-61.30673
 11
-303.4904
 21
-61.30673
  0
LINE
  8
0
  6
CONTINUOUS
 62
     7
 10
-301.1487
 20
-59.23013
 11
-303.1369
 21
-59.23013
  0
LINE
  8
0
  6
CONTINUOUS
 62
     7
 10
-301.1487
 20
-58.69995
 11
-303.8439
 21
-58.69995
  0
LINE
  8
0
  6
CONTINUOUS
 62
     7
 10
-301.1487
 20
-60.77652
 11
-303.1369
 21
-60.77652
  0
LINE
  8
0
  6
CONTINUOUS
 62
     7
 10
-301.1488
 20
-61.3067
 11
-301.1488
 21
-60.77652
  0
LINE
  8
0
  6
CONTINUOUS
 62
     7
 10
-303.8439
 20
-60.95325
 11
-303.8439
 21
-58.69995
  0
LINE
  8
0
  6
CONTINUOUS
 62
     7
 10
-303.137
 20
-60.77652
 11
-303.137
 21
-59.23013
  0
LINE
  8
0
  6
CONTINUOUS
 62
     7
 10
-304.2415
 20
-61.30673
 11
-304.2415
 21
-60.77652
  0
LINE
  8
0
  6
CONTINUOUS
 62
     7
 10
-306.7599
 20
-60.77652
 11
-306.7599
 21
-59.05338
  0
LINE
  8
0
  6
CONTINUOUS
 62
     7
 10
-306.053
 20
-60.77652
 11
-306.053
 21
-59.23013
  0
LINE
  8
0
  6
CONTINUOUS
 62
     7
 10
-301.1488
 20
-59.23013
 11
-301.1488
 21
-58.69992
  0
LINE
  8
0
  6
CONTINUOUS
 62
     7
 10
-304.2415
 20
-61.30673
 11
-304.94
 21
-61.30673
  0
LINE
  8
0
  6
CONTINUOUS
 62
     7
 10
-304.2415
 20
-58.69995
 11
-304.7904
 21
-58.69995
  0
LINE
  8
0
  6
CONTINUOUS
 62
     7
 10
-304.2414
 20
-58.69998
 11
-304.7979
 21
-60.77656
  0
LINE
  8
0
  6
CONTINUOUS
 62
     7
 10
-304.2415
 20
-60.77652
 11
-304.7979
 21
-60.77652
  0
LINE
  8
0
  6
CONTINUOUS
 62
     7
 10
-304.7906
 20
-58.6999
 11
-305.347
 21
-60.77649
  0
LINE
  8
0
  6
CONTINUOUS
 62
     7
 10
-305.5228
 20
-59.23013
 11
-306.053
 21
-59.23013
  0
LINE
  8
0
  6
CONTINUOUS
 62
     7
 10
-305.5229
 20
-59.23016
 11
-305.665
 21
-58.69997
  0
LINE
  8
0
  6
CONTINUOUS
 62
     7
 10
-305.6649
 20
-58.69995
 11
-306.4065
 21
-58.69995
  0
LINE
  8
0
  6
CONTINUOUS
 62
     7
 10
-305.3468
 20
-60.77652
 11
-306.053
 21
-60.77652
  0
LINE
  8
0
  6
CONTINUOUS
 62
     7
 10
-305.4889
 20
-61.30673
 11
-306.2298
 21
-61.30673
  0
LINE
  8
0
  6
CONTINUOUS
 62
     7
 10
-304.9401
 20
-61.30671
 11
-305.0454
 21
-61.69991
  0
LINE
  8
0
  6
CONTINUOUS
 62
     7
 10
-305.4888
 20
-61.30674
 11
-305.5941
 21
-61.69997
  0
LINE
  8
0
  6
CONTINUOUS
 62
     7
 10
-307.2018
 20
-61.30673
 11
-308.0412
 21
-61.30673
  0
LINE
  8
0
  6
CONTINUOUS
 62
     7
 10
-307.2018
 20
-60.77652
 11
-309.2635
 21
-60.77652
  0
LINE
  8
0
  6
CONTINUOUS
 62
     7
 10
-308.0412
 20
-58.69995
 11
-308.7481
 21
-58.69995
  0
LINE
  8
0
  6
CONTINUOUS
 62
     7
 10
-307.2018
 20
-61.30673
 11
-307.2018
 21
-60.77652
  0
LINE
  8
0
  6
CONTINUOUS
 62
     7
 10
-309.8086
 20
-59.81512
 11
-309.8086
 21
-59.23013
  0
LINE
  8
0
  6
CONTINUOUS
 62
     7
 10
-307.2017
 20
-59.23016
 11
-308.0411
 21
-59.62162
  0
LINE
  8
0
  6
CONTINUOUS
 62
     7
 10
-307.2018
 20
-59.81507
 11
-309.2635
 21
-60.77647
  0
LINE
  8
0
  6
CONTINUOUS
 62
     7
 10
-307.2018
 20
-59.81512
 11
-307.2018
 21
-59.23013
  0
LINE
  8
0
  6
CONTINUOUS
 62
     7
 10
-308.7481
 20
-59.72459
 11
-309.8085
 21
-59.23014
  0
LINE
  8
0
  6
CONTINUOUS
 62
     7
 10
-309.1325
 20
-60.13039
 11
-309.8086
 21
-59.8151
  0
LINE
  8
0
  6
CONTINUOUS
 62
     7
 10
-309.8086
 20
-60.95325
 11
-309.8086
 21
-60.67087
  0
LINE
  8
0
  6
CONTINUOUS
 62
     7
 10
-308.0412
 20
-61.69995
 11
-308.0412
 21
-61.30673
  0
LINE
  8
0
  6
CONTINUOUS
 62
     7
 10
-308.7481
 20
-61.69995
 11
-308.7481
 21
-61.30673
  0
LINE
  8
0
  6
CONTINUOUS
 62
     7
 10
-308.7481
 20
-61.30673
 11
-309.4551
 21
-61.30673
  0
LINE
  8
0
  6
CONTINUOUS
 62
     7
 10
-308.0412
 20
-59.62158
 11
-308.0412
 21
-58.69995
  0
LINE
  8
0
  6
CONTINUOUS
 62
     7
 10
-308.7481
 20
-59.72458
 11
-308.7481
 21
-58.69995
  0
LINE
  8
0
  6
CONTINUOUS
 62
     7
 10
-309.1324
 20
-60.13036
 11
-309.6045
 21
-60.35049
  0
LINE
  8
0
  6
CONTINUOUS
 62
     7
 10
-312.1944
 20
-61.54086
 11
-312.7246
 21
-61.54086
  0
LINE
  8
0
  6
CONTINUOUS
 62
     7
 10
-310.0294
 20
-60.44568
 11
-310.0294
 21
-59.87509
  0
LINE
  8
0
  6
CONTINUOUS
 62
     7
 10
-312.7246
 20
-61.54089
 11
-312.7246
 21
-61.30673
  0
LINE
  8
0
  6
CONTINUOUS
 62
     7
 10
-312.1944
 20
-61.54089
 11
-312.1944
 21
-61.42664
  0
LINE
  8
0
  6
CONTINUOUS
 62
     7
 10
-311.4875
 20
-60.45499
 11
-311.4875
 21
-58.69995
  0
LINE
  8
0
  6
CONTINUOUS
 62
     7
 10
-310.0295
 20
-60.44564
 11
-312.0831
 21
-61.26237
  0
LINE
  8
0
  6
CONTINUOUS
 62
     7
 10
-310.0295
 20
-59.87507
 11
-311.4875
 21
-60.45494
  0
LINE
  8
0
  6
CONTINUOUS
 62
     7
 10
-311.4875
 20
-58.69995
 11
-312.1944
 21
-58.69995
  0
LINE
  8
0
  6
CONTINUOUS
 62
     7
 10
-312.1944
 20
-60.73611
 11
-312.1944
 21
-58.69995
  0
LINE
  8
0
  6
CONTINUOUS
 62
     7
 10
-312.1945
 20
-60.73613
 11
-312.3904
 21
-60.81406
  0
LINE
  8
0
  6
CONTINUOUS
 62
     7
 10
-305.0454
 20
-61.69995
 11
-305.5943
 21
-61.69995
  0
LINE
  8
0
  6
CONTINUOUS
 62
     7
 10
-306.4727
 20
-61.69995
 11
-306.6988
 21
-61.69995
  0
LINE
  8
0
  6
CONTINUOUS
 62
     7
 10
-308.0412
 20
-61.69995
 11
-308.7481
 21
-61.69995
  0
LINE
  8
0
  6
CONTINUOUS
 62
     7
 10
-306.4727
 20
-61.34647
 11
-306.6988
 21
-61.34647
  0
LINE
  8
0
  6
CONTINUOUS
 62
     7
 10
-306.4727
 20
-61.69995
 11
-306.4727
 21
-61.34647
  0
LINE
  8
0
  6
CONTINUOUS
 62
     7
 10
-306.6988
 20
-61.69995
 11
-306.6988
 21
-61.34647
  0
LINE
  8
0
  6
CONTINUOUS
 62
     7
 10
-306.8565
 20
-61.69995
 11
-306.8565
 21
-61.34647
  0
LINE
  8
0
  6
CONTINUOUS
 62
     7
 10
-307.0825
 20
-61.69995
 11
-307.0825
 21
-61.34647
  0
LINE
  8
0
  6
CONTINUOUS
 62
     7
 10
-306.8565
 20
-61.69995
 11
-307.0825
 21
-61.69995
  0
LINE
  8
0
  6
CONTINUOUS
 62
     7
 10
-306.8565
 20
-61.34647
 11
-307.0825
 21
-61.34647
  0
LINE
  8
0
  6
CENTER
 62
     2
 10
-308.4367
 20
-88.99994
 11
-308.4367
 21
-63.19995
  0
LINE
  8
0
  6
CENTER
 62
     2
 10
-305.4367
 20
-88.99994
 11
-305.4367
 21
-63.19995
  0
LINE
  8
0
  6
CONTINUOUS
 62
     7
 10
-306.2867
 20
-75.99994
 11
-306.2867
 21
-73.05057
  0
LINE
  8
0
  6
CONTINUOUS
 62
     7
 10
-304.5867
 20
-75.99994
 11
-304.5867
 21
-73.50607
  0
LINE
  8
0
  6
CONTINUOUS
 62
     7
 10
-305.7567
 20
-85.99994
 11
-305.7567
 21
-75.99994
  0
LINE
  8
0
  6
CONTINUOUS
 62
     7
 10
-305.1167
 20
-85.99994
 11
-305.1167
 21
-75.99994
  0
LINE
  8
0
  6
CONTINUOUS
 62
     7
 10
-308.7567
 20
-85.99994
 11
-308.7567
 21
-75.99994
  0
LINE
  8
0
  6
CONTINUOUS
 62
     7
 10
-308.1167
 20
-85.99994
 11
-308.1167
 21
-75.99994
  0
LINE
  8
0
  6
CONTINUOUS
 62
     7
 10
-309.2867
 20
-75.99994
 11
-309.2867
 21
-72.24673
  0
LINE
  8
0
  6
CONTINUOUS
 62
     7
 10
-307.5867
 20
-75.99994
 11
-307.5867
 21
-72.70224
  0
LINE
  8
0
  6
CONTINUOUS
 62
     7
 10
-305.1167
 20
-85.99994
 11
-305.7567
 21
-85.99994
  0
LINE
  8
0
  6
CONTINUOUS
 62
     7
 10
-308.1167
 20
-85.99994
 11
-308.7567
 21
-85.99994
  0
LINE
  8
0
  6
CONTINUOUS
 62
     7
 10
-304.5866
 20
-75.99994
 11
-306.2867
 21
-75.99994
  0
LINE
  8
0
  6
CONTINUOUS
 62
     7
 10
-307.5866
 20
-75.99994
 11
-309.2867
 21
-75.99994
  0
LINE
  8
0
  6
CONTINUOUS
 62
     7
 10
-299.4367
 20
-66.19997
 11
-300.4367
 21
-68.19993
  0
LINE
  8
0
  6
CONTINUOUS
 62
     7
 10
-300.1867
 20
-67.49368
 11
-300.1867
 21
-66.79993
  0
LINE
  8
0
  6
CENTER
 62
     2
 10
-302.4367
 20
-71.19995
 11
-302.4367
 21
-63.19995
  0
LINE
  8
0
  6
CONTINUOUS
 62
     7
 10
-300.4367
 20
-68.19992
 11
-300.6109
 21
-68.19992
  0
LINE
  8
0
  6
CONTINUOUS
 62
     7
 10
-304.6867
 20
-67.49368
 11
-304.6867
 21
-66.79993
  0
LINE
  8
0
  6
CONTINUOUS
 62
     7
 10
-304.2624
 20
-68.19992
 11
-313.4367
 21
-68.19992
  0
LINE
  8
0
  6
CENTER
 62
     2
 10
-311.4367
 20
-71.19995
 11
-311.4367
 21
-63.19995
  0
LINE
  8
0
  6
CONTINUOUS
 62
     7
 10
-314.4366
 20
-66.19988
 11
-313.4366
 21
-68.19988
  0
LINE
  8
0
  6
CONTINUOUS
 62
     7
 10
-299.4367
 20
-66.19992
 11
-314.4367
 21
-66.19992
  0
LINE
  8
0
  6
CONTINUOUS
 62
     7
 10
-299.4367
 20
-65.19992
 11
-314.4367
 21
-65.19992
  0
LINE
  8
0
  6
CONTINUOUS
 62
     7
 10
-304.9867
 20
-66.79993
 11
-299.8867
 21
-66.79993
  0
LINE
  8
0
  6
CONTINUOUS
 62
     7
 10
-304.9867
 20
-66.79993
 11
-304.9867
 21
-66.19992
  0
LINE
  8
0
  6
CONTINUOUS
 62
     7
 10
-299.8867
 20
-66.79993
 11
-299.8867
 21
-66.19992
  0
LINE
  8
0
  6
PHANTOM
 62
     2
 10
-302.5867
 20
-74.04196
 11
-311.2867
 21
-71.71081
  0
LINE
  8
0
  6
PHANTOM
 62
     2
 10
-302.5866
 20
-72.48899
 11
-311.2867
 21
-70.15782
  0
LINE
  8
0
  6
CONTINUOUS
 62
     7
 10
-304.5867
 20
-71.95316
 11
-304.5867
 21
-68.19992
  0
LINE
  8
0
  6
CONTINUOUS
 62
     7
 10
-306.2867
 20
-71.49765
 11
-306.2867
 21
-68.19992
  0
LINE
  8
0
  6
CONTINUOUS
 62
     7
 10
-307.5867
 20
-71.14932
 11
-307.5867
 21
-68.19992
  0
LINE
  8
0
  6
CONTINUOUS
 62
     7
 10
-309.2867
 20
-70.69382
 11
-309.2867
 21
-68.19992
  0
LINE
  8
0
  6
CONTINUOUS
 62
     7
 10
-58.43674
 20
21.99991
 11
-58.43674
 21
-40.00009
  0
LINE
  8
0
  6
CONTINUOUS
 62
     7
 10
-43.43674
 20
21.99991
 11
-43.43674
 21
-40.00009
  0
LINE
  8
0
  6
CONTINUOUS
 62
     7
 10
-58.43674
 20
4.99991
 11
-43.43674
 21
4.99991
  0
LINE
  8
0
  6
CONTINUOUS
 62
     7
 10
-58.43674
 20
-23.00009
 11
-43.43674
 21
-23.00009
  0
LINE
  8
0
  6
CENTER
 62
     2
 10
-50.93674
 20
60.33324
 11
-50.93674
 21
-78.66675
  0
LINE
  8
0
  6
CENTER
 62
     2
 10
-51.40134
 20
-4.00009
 11
-44.45149
 21
-4.00009
  0
LINE
  8
0
  6
CENTER
 62
     2
 10
-57.25385
 20
-14.00009
 11
-50.304
 21
-14.00009
  0
LINE
  8
0
  6
CENTER
 62
     2
 10
-47.93674
 20
-0.40128
 11
-47.93674
 21
-8.17413
  0
LINE
  8
0
  6
CENTER
 62
     2
 10
-53.93674
 20
-10.55173
 11
-53.93674
 21
-17.50156
  0
LINE
  8
0
  6
CENTER
 62
     2
 10
-49.02376
 20
-18.00009
 11
-42.80547
 21
-18.00009
  0
LINE
  8
0
  6
CENTER
 62
     2
 10
-45.43674
 20
-14.48386
 11
-45.43674
 21
-21.43372
  0
LINE
  8
0
  6
CENTER
 62
     2
 10
-56.43674
 20
3.62234
 11
-56.43674
 21
-3.69333
  0
LINE
  8
0
  6
CENTER
 62
     2
 10
-53.32169
 20
18.49991
 11
-48.47508
 21
18.49991
  0
LINE
  8
0
  6
CENTER
 62
     2
 10
-59.06335
 20
-0.00009
 11
-52.77303
 21
-0.00009
  0
LINE
  8
0
  6
CENTER
 62
     2
 10
-53.32169
 20
-36.50009
 11
-48.47508
 21
-36.50009
  0
LINE
  8
0
  6
CONTINUOUS
 62
     7
 10
-58.43674
 20
48.19991
 11
-58.43674
 21
21.99991
  0
LINE
  8
0
  6
CONTINUOUS
 62
     7
 10
-58.43674
 20
47.19991
 11
-55.43674
 21
47.19991
  0
LINE
  8
0
  6
CONTINUOUS
 62
     7
 10
-43.43674
 20
48.19992
 11
-43.43674
 21
21.99991
  0
LINE
  8
0
  6
CONTINUOUS
 62
     7
 10
-58.43674
 20
21.99991
 11
-43.43674
 21
21.99991
  0
LINE
  8
0
  6
CONTINUOUS
 62
     7
 10
-57.93674
 20
45.69991
 11
-57.93674
 21
22.79991
  0
LINE
  8
0
  6
CONTINUOUS
 62
     7
 10
-43.93674
 20
45.69992
 11
-43.93674
 21
22.79991
  0
LINE
  8
0
  6
CONTINUOUS
 62
     7
 10
-56.43674
 20
23.49991
 11
-45.43674
 21
23.49991
  0
LINE
  8
0
  6
CONTINUOUS
 62
     7
 10
-56.43674
 20
31.99991
 11
-45.43674
 21
31.99991
  0
LINE
  8
0
  6
CONTINUOUS
 62
     7
 10
-56.43674
 20
31.99991
 11
-56.43674
 21
23.49991
  0
LINE
  8
0
  6
CONTINUOUS
 62
     7
 10
-45.43674
 20
31.99991
 11
-45.43674
 21
23.49991
  0
LINE
  8
0
  6
CONTINUOUS
 62
     7
 10
-52.93674
 20
35.49991
 11
-48.93674
 21
35.49991
  0
LINE
  8
0
  6
CONTINUOUS
 62
     7
 10
-52.93674
 20
33.49991
 11
-48.93674
 21
33.49991
  0
LINE
  8
0
  6
CONTINUOUS
 62
     7
 10
-52.93674
 20
35.49991
 11
-52.93674
 21
33.49991
  0
LINE
  8
0
  6
CONTINUOUS
 62
     7
 10
-48.93674
 20
35.49991
 11
-48.93674
 21
33.49991
  0
LINE
  8
0
  6
CONTINUOUS
 62
     7
 10
-53.43674
 20
35.99991
 11
-48.43674
 21
35.99991
  0
LINE
  8
0
  6
CONTINUOUS
 62
     7
 10
-53.43674
 20
35.99991
 11
-53.43674
 21
32.99991
  0
LINE
  8
0
  6
CONTINUOUS
 62
     7
 10
-53.43674
 20
32.99991
 11
-48.43674
 21
32.99991
  0
LINE
  8
0
  6
CONTINUOUS
 62
     7
 10
-48.43674
 20
35.99991
 11
-48.43674
 21
32.99991
  0
LINE
  8
0
  6
CONTINUOUS
 62
     7
 10
-52.93673
 20
35.49991
 11
-53.43673
 21
35.99991
  0
LINE
  8
0
  6
CONTINUOUS
 62
     7
 10
-48.93672
 20
35.49993
 11
-48.43673
 21
35.99992
  0
LINE
  8
0
  6
CONTINUOUS
 62
     7
 10
-48.93673
 20
33.49992
 11
-48.43673
 21
32.99992
  0
LINE
  8
0
  6
CONTINUOUS
 62
     7
 10
-52.93674
 20
33.4999
 11
-53.43674
 21
32.99991
  0
LINE
  8
0
  6
CONTINUOUS
 62
     7
 10
-58.43674
 20
48.19989
 11
-53.28674
 21
48.19989
  0
LINE
  8
0
  6
CONTINUOUS
 62
     7
 10
-57.43674
 20
50.19991
 11
-57.2625
 21
50.19991
  0
LINE
  8
0
  6
CONTINUOUS
 62
     7
 10
-43.43677
 20
48.1999
 11
-44.43677
 21
50.1999
  0
LINE
  8
0
  6
CONTINUOUS
 62
     7
 10
-58.43674
 20
48.19991
 11
-57.43674
 21
50.19992
  0
LINE
  8
0
  6
CENTER
 62
     2
 10
-55.43674
 20
53.19991
 11
-55.43674
 21
44.19991
  0
LINE
  8
0
  6
CONTINUOUS
 62
     7
 10
-53.28674
 20
48.7999
 11
-57.98674
 21
48.7999
  0
LINE
  8
0
  6
CONTINUOUS
 62
     7
 10
-57.98674
 20
48.7999
 11
-57.98674
 21
48.19989
  0
LINE
  8
0
  6
CONTINUOUS
 62
     7
 10
-57.68674
 20
49.49364
 11
-57.68674
 21
48.7999
  0
LINE
  8
0
  6
CONTINUOUS
 62
     7
 10
-53.61099
 20
50.19991
 11
-53.28674
 21
50.19991
  0
LINE
  8
0
  6
CENTER
 62
     2
 10
-46.43674
 20
53.19992
 11
-46.43674
 21
44.19992
  0
LINE
  8
0
  6
CENTER
 62
     2
 10
-49.43674
 20
70.99991
 11
-49.43674
 21
43.49991
  0
LINE
  8
0
  6
CENTER
 62
     2
 10
-52.43674
 20
70.99991
 11
-52.43674
 21
43.49991
  0
LINE
  8
0
  6
CONTINUOUS
 62
     7
 10
-51.58673
 20
57.99991
 11
-51.58673
 21
55.05054
  0
LINE
  8
0
  6
CONTINUOUS
 62
     7
 10
-53.28674
 20
57.99991
 11
-53.28674
 21
55.50604
  0
LINE
  8
0
  6
CONTINUOUS
 62
     7
 10
-52.11673
 20
67.99991
 11
-52.11673
 21
57.99991
  0
LINE
  8
0
  6
CONTINUOUS
 62
     7
 10
-52.75674
 20
67.99991
 11
-52.75674
 21
57.99991
  0
LINE
  8
0
  6
CONTINUOUS
 62
     7
 10
-49.11673
 20
67.99991
 11
-49.11673
 21
57.99991
  0
LINE
  8
0
  6
CONTINUOUS
 62
     7
 10
-49.75674
 20
67.99991
 11
-49.75674
 21
57.99991
  0
LINE
  8
0
  6
CONTINUOUS
 62
     7
 10
-48.58673
 20
57.99991
 11
-48.58673
 21
54.24669
  0
LINE
  8
0
  6
CONTINUOUS
 62
     7
 10
-50.28674
 20
57.99991
 11
-50.28674
 21
54.70221
  0
LINE
  8
0
  6
CONTINUOUS
 62
     7
 10
-52.75676
 20
67.99991
 11
-52.11676
 21
67.99991
  0
LINE
  8
0
  6
CONTINUOUS
 62
     7
 10
-49.75676
 20
67.99991
 11
-49.11676
 21
67.99991
  0
LINE
  8
0
  6
CONTINUOUS
 62
     7
 10
-53.28676
 20
57.99991
 11
-51.58675
 21
57.99991
  0
LINE
  8
0
  6
CONTINUOUS
 62
     7
 10
-50.28676
 20
57.99991
 11
-48.58675
 21
57.99991
  0
LINE
  8
0
  6
CONTINUOUS
 62
     7
 10
-57.13673
 20
46.49991
 11
-55.43674
 21
46.49991
  0
LINE
  8
0
  6
CONTINUOUS
 62
     7
 10
-46.43674
 20
47.19991
 11
-43.43674
 21
47.19991
  0
LINE
  8
0
  6
CONTINUOUS
 62
     7
 10
-51.58675
 20
48.19989
 11
-50.28674
 21
48.19989
  0
LINE
  8
0
  6
CONTINUOUS
 62
     7
 10
-48.58675
 20
48.19989
 11
-43.43674
 21
48.19989
  0
LINE
  8
0
  6
CONTINUOUS
 62
     7
 10
-48.58675
 20
50.19991
 11
-44.43674
 21
50.19991
  0
LINE
  8
0
  6
CONTINUOUS
 62
     7
 10
-51.58675
 20
50.19991
 11
-50.28674
 21
50.19991
  0
LINE
  8
0
  6
PHANTOM
 62
     2
 10
-55.28672
 20
54.48902
 11
-46.58673
 21
52.15787
  0
LINE
  8
0
  6
PHANTOM
 62
     2
 10
-55.28677
 20
56.04192
 11
-46.58676
 21
53.71077
  0
LINE
  8
0
  6
CONTINUOUS
 62
     7
 10
-53.28674
 20
53.95313
 11
-53.28674
 21
47.99991
  0
LINE
  8
0
  6
CONTINUOUS
 62
     7
 10
-51.58673
 20
53.49762
 11
-51.58673
 21
47.99991
  0
LINE
  8
0
  6
CONTINUOUS
 62
     7
 10
-50.28674
 20
53.14929
 11
-50.28674
 21
47.99991
  0
LINE
  8
0
  6
CONTINUOUS
 62
     7
 10
-48.58673
 20
52.69377
 11
-48.58673
 21
47.99991
  0
LINE
  8
0
  6
CENTER
 62
     2
 10
-54.93674
 20
34.49991
 11
-46.93674
 21
34.49991
  0
LINE
  8
0
  6
CONTINUOUS
 62
     7
 10
-46.43674
 20
46.49991
 11
-44.73674
 21
46.49991
  0
LINE
  8
0
  6
CONTINUOUS
 62
     7
 10
-55.43674
 20
46.49991
 11
-46.43674
 21
46.49991
  0
LINE
  8
0
  6
CONTINUOUS
 62
     7
 10
-54.93674
 20
47.99991
 11
-46.93674
 21
47.99991
  0
LINE
  8
0
  6
CONTINUOUS
 62
     7
 10
-55.43674
 20
47.49991
 11
-55.43674
 21
46.49991
  0
LINE
  8
0
  6
CONTINUOUS
 62
     7
 10
-46.43674
 20
47.49991
 11
-46.43674
 21
46.49991
  0
LINE
  8
0
  6
CONTINUOUS
 62
     7
 10
-43.43674
 20
-66.2001
 11
-43.43674
 21
-40.00009
  0
LINE
  8
0
  6
CONTINUOUS
 62
     7
 10
-43.43672
 20
-65.2001
 11
-46.43672
 21
-65.2001
  0
LINE
  8
0
  6
CONTINUOUS
 62
     7
 10
-58.43674
 20
-66.2001
 11
-58.43674
 21
-40.00009
  0
LINE
  8
0
  6
CONTINUOUS
 62
     7
 10
-43.43674
 20
-40.00009
 11
-58.43674
 21
-40.00009
  0
LINE
  8
0
  6
CONTINUOUS
 62
     7
 10
-43.93674
 20
-63.7001
 11
-43.93674
 21
-40.80008
  0
LINE
  8
0
  6
CONTINUOUS
 62
     7
 10
-57.93674
 20
-63.7001
 11
-57.93674
 21
-40.80008
  0
LINE
  8
0
  6
CONTINUOUS
 62
     7
 10
-45.43674
 20
-41.50009
 11
-56.43674
 21
-41.50009
  0
LINE
  8
0
  6
CONTINUOUS
 62
     7
 10
-45.43674
 20
-50.00009
 11
-56.43674
 21
-50.00009
  0
LINE
  8
0
  6
CONTINUOUS
 62
     7
 10
-45.43674
 20
-50.00009
 11
-45.43674
 21
-41.50009
  0
LINE
  8
0
  6
CONTINUOUS
 62
     7
 10
-56.43674
 20
-50.00009
 11
-56.43674
 21
-41.50009
  0
LINE
  8
0
  6
CONTINUOUS
 62
     7
 10
-48.93674
 20
-53.50009
 11
-52.93674
 21
-53.50009
  0
LINE
  8
0
  6
CONTINUOUS
 62
     7
 10
-48.93674
 20
-51.50009
 11
-52.93674
 21
-51.50009
  0
LINE
  8
0
  6
CONTINUOUS
 62
     7
 10
-48.93674
 20
-53.50009
 11
-48.93674
 21
-51.50009
  0
LINE
  8
0
  6
CONTINUOUS
 62
     7
 10
-52.93674
 20
-53.50009
 11
-52.93674
 21
-51.50009
  0
LINE
  8
0
  6
CONTINUOUS
 62
     7
 10
-48.43674
 20
-54.00009
 11
-53.43674
 21
-54.00009
  0
LINE
  8
0
  6
CONTINUOUS
 62
     7
 10
-48.43674
 20
-54.00009
 11
-48.43674
 21
-51.00009
  0
LINE
  8
0
  6
CONTINUOUS
 62
     7
 10
-48.43674
 20
-51.00009
 11
-53.43674
 21
-51.00009
  0
LINE
  8
0
  6
CONTINUOUS
 62
     7
 10
-53.43674
 20
-54.00009
 11
-53.43674
 21
-51.00009
  0
LINE
  8
0
  6
CONTINUOUS
 62
     7
 10
-48.93671
 20
-53.50006
 11
-48.4367
 21
-54.00008
  0
LINE
  8
0
  6
CONTINUOUS
 62
     7
 10
-52.93672
 20
-53.50009
 11
-53.43673
 21
-54.0001
  0
LINE
  8
0
  6
CONTINUOUS
 62
     7
 10
-52.9367
 20
-51.50006
 11
-53.43671
 21
-51.00005
  0
LINE
  8
0
  6
CONTINUOUS
 62
     7
 10
-48.93673
 20
-51.50008
 11
-48.43674
 21
-51.00009
  0
LINE
  8
0
  6
CONTINUOUS
 62
     7
 10
-43.43672
 20
-66.20007
 11
-48.58673
 21
-66.20007
  0
LINE
  8
0
  6
CONTINUOUS
 62
     7
 10
-44.43672
 20
-68.2001
 11
-44.61098
 21
-68.2001
  0
LINE
  8
0
  6
CONTINUOUS
 62
     7
 10
-58.43671
 20
-66.20008
 11
-57.4367
 21
-68.2001
  0
LINE
  8
0
  6
CONTINUOUS
 62
     7
 10
-43.43674
 20
-66.20006
 11
-44.43675
 21
-68.20007
  0
LINE
  8
0
  6
CENTER
 62
     2
 10
-46.43674
 20
-71.2001
 11
-46.43674
 21
-62.2001
  0
LINE
  8
0
  6
CONTINUOUS
 62
     7
 10
-48.58673
 20
-66.80008
 11
-43.88672
 21
-66.80008
  0
LINE
  8
0
  6
CONTINUOUS
 62
     7
 10
-43.88673
 20
-66.80008
 11
-43.88673
 21
-66.20007
  0
LINE
  8
0
  6
CONTINUOUS
 62
     7
 10
-44.18674
 20
-67.4938
 11
-44.18674
 21
-66.80008
  0
LINE
  8
0
  6
CONTINUOUS
 62
     7
 10
-48.26247
 20
-68.2001
 11
-48.58673
 21
-68.2001
  0
LINE
  8
0
  6
CENTER
 62
     2
 10
-55.43674
 20
-71.2001
 11
-55.43674
 21
-62.2001
  0
LINE
  8
0
  6
CENTER
 62
     2
 10
-52.43674
 20
-89.00009
 11
-52.43674
 21
-61.50009
  0
LINE
  8
0
  6
CENTER
 62
     2
 10
-49.43674
 20
-89.00009
 11
-49.43674
 21
-61.50009
  0
LINE
  8
0
  6
CONTINUOUS
 62
     7
 10
-50.28674
 20
-76.00009
 11
-50.28674
 21
-73.05072
  0
LINE
  8
0
  6
CONTINUOUS
 62
     7
 10
-48.58673
 20
-76.00009
 11
-48.58673
 21
-73.50623
  0
LINE
  8
0
  6
CONTINUOUS
 62
     7
 10
-49.75674
 20
-86.00009
 11
-49.75674
 21
-76.00009
  0
LINE
  8
0
  6
CONTINUOUS
 62
     7
 10
-49.11673
 20
-86.00009
 11
-49.11673
 21
-76.00009
  0
LINE
  8
0
  6
CONTINUOUS
 62
     7
 10
-52.75674
 20
-86.00009
 11
-52.75674
 21
-76.00009
  0
LINE
  8
0
  6
CONTINUOUS
 62
     7
 10
-52.11673
 20
-86.00009
 11
-52.11673
 21
-76.00009
  0
LINE
  8
0
  6
CONTINUOUS
 62
     7
 10
-53.28674
 20
-76.00009
 11
-53.28674
 21
-72.24686
  0
LINE
  8
0
  6
CONTINUOUS
 62
     7
 10
-51.58673
 20
-76.00009
 11
-51.58673
 21
-72.70239
  0
LINE
  8
0
  6
CONTINUOUS
 62
     7
 10
-49.11671
 20
-86.00009
 11
-49.75671
 21
-86.00009
  0
LINE
  8
0
  6
CONTINUOUS
 62
     7
 10
-52.11671
 20
-86.00009
 11
-52.75671
 21
-86.00009
  0
LINE
  8
0
  6
CONTINUOUS
 62
     7
 10
-48.58672
 20
-76.00009
 11
-50.28673
 21
-76.00009
  0
LINE
  8
0
  6
CONTINUOUS
 62
     7
 10
-51.58672
 20
-76.00009
 11
-53.28673
 21
-76.00009
  0
LINE
  8
0
  6
CONTINUOUS
 62
     7
 10
-44.73672
 20
-64.50009
 11
-46.43672
 21
-64.50009
  0
LINE
  8
0
  6
CONTINUOUS
 62
     7
 10
-55.43672
 20
-65.2001
 11
-58.43672
 21
-65.2001
  0
LINE
  8
0
  6
CONTINUOUS
 62
     7
 10
-50.28673
 20
-66.20007
 11
-51.58673
 21
-66.20007
  0
LINE
  8
0
  6
CONTINUOUS
 62
     7
 10
-53.28673
 20
-66.20007
 11
-58.43672
 21
-66.20007
  0
LINE
  8
0
  6
CONTINUOUS
 62
     7
 10
-53.28673
 20
-68.2001
 11
-57.43672
 21
-68.2001
  0
LINE
  8
0
  6
CONTINUOUS
 62
     7
 10
-50.28673
 20
-68.2001
 11
-51.58673
 21
-68.2001
  0
LINE
  8
0
  6
PHANTOM
 62
     2
 10
-46.58671
 20
-72.48919
 11
-55.28672
 21
-70.15804
  0
LINE
  8
0
  6
PHANTOM
 62
     2
 10
-46.58671
 20
-74.04214
 11
-55.28672
 21
-71.71098
  0
LINE
  8
0
  6
CONTINUOUS
 62
     7
 10
-48.58673
 20
-71.95331
 11
-48.58673
 21
-66.00009
  0
LINE
  8
0
  6
CONTINUOUS
 62
     7
 10
-50.28674
 20
-71.4978
 11
-50.28674
 21
-66.00009
  0
LINE
  8
0
  6
CONTINUOUS
 62
     7
 10
-51.58673
 20
-71.14948
 11
-51.58673
 21
-66.00009
  0
LINE
  8
0
  6
CONTINUOUS
 62
     7
 10
-53.28674
 20
-70.69394
 11
-53.28674
 21
-66.00009
  0
LINE
  8
0
  6
CENTER
 62
     2
 10
-46.93674
 20
-52.50009
 11
-54.93674
 21
-52.50009
  0
LINE
  8
0
  6
CONTINUOUS
 62
     7
 10
-55.43672
 20
-64.50009
 11
-57.13672
 21
-64.50009
  0
LINE
  8
0
  6
CONTINUOUS
 62
     7
 10
-46.43672
 20
-64.50009
 11
-55.43672
 21
-64.50009
  0
LINE
  8
0
  6
CONTINUOUS
 62
     7
 10
-46.93672
 20
-66.00009
 11
-54.93672
 21
-66.00009
  0
LINE
  8
0
  6
CONTINUOUS
 62
     7
 10
-46.43674
 20
-65.50009
 11
-46.43674
 21
-64.50009
  0
LINE
  8
0
  6
CONTINUOUS
 62
     7
 10
-55.43674
 20
-65.50009
 11
-55.43674
 21
-64.50009
  0
LINE
  8
0
  6
CENTER
 62
     2
 10
-169.6226
 20
-169.0
 11
-208.4367
 21
-169.0
  0
LINE
  8
0
  6
CENTER
 62
     2
 10
-194.4367
 20
-178.9484
 11
-194.4367
 21
-159.0122
  0
LINE
  8
0
  6
CONTINUOUS
 62
     7
 10
-182.4367
 20
-161.5
 11
-182.4367
 21
-176.5
  0
LINE
  8
0
  6
CONTINUOUS
 62
     7
 10
-185.4367
 20
-170.5
 11
-182.4367
 21
-170.5
  0
LINE
  8
0
  6
CONTINUOUS
 62
     7
 10
-203.4367
 20
-167.5
 11
-206.4367
 21
-167.5
  0
LINE
  8
0
  6
CONTINUOUS
 62
     7
 10
-200.4367
 20
-164.5
 11
-200.4367
 21
-161.5
  0
LINE
  8
0
  6
CONTINUOUS
 62
     7
 10
-188.4367
 20
-173.5
 11
-188.4367
 21
-176.5
  0
LINE
  8
0
  6
CONTINUOUS
 62
     7
 10
-205.4367
 20
-167.5
 11
-205.4367
 21
-175.5
  0
LINE
  8
0
  6
CONTINUOUS
 62
     7
 10
-183.4367
 20
-162.5
 11
-183.4367
 21
-170.5
  0
LINE
  8
0
  6
CONTINUOUS
 62
     7
 10
-200.4367
 20
-162.5
 11
-183.4367
 21
-162.5
  0
LINE
  8
0
  6
CONTINUOUS
 62
     7
 10
-205.4367
 20
-175.5
 11
-188.4367
 21
-175.5
  0
LINE
  8
0
  6
CONTINUOUS
 62
     7
 10
-185.1367
 20
-175.7299
 11
-185.1367
 21
-176.0323
  0
LINE
  8
0
  6
CONTINUOUS
 62
     7
 10
-185.7368
 20
-175.7299
 11
-185.7368
 21
-176.0323
  0
LINE
  8
0
  6
CONTINUOUS
 62
     7
 10
-185.8975
 20
-176.008
 11
-185.8975
 21
-175.7023
  0
LINE
  8
0
  6
CONTINUOUS
 62
     7
 10
-203.7368
 20
-162.2701
 11
-203.7368
 21
-161.9677
  0
LINE
  8
0
  6
CONTINUOUS
 62
     7
 10
-203.1367
 20
-162.2701
 11
-203.1367
 21
-161.9677
  0
LINE
  8
0
  6
CONTINUOUS
 62
     7
 10
-202.976
 20
-161.992
 11
-202.976
 21
-162.2977
  0
LINE
  8
0
  6
CONTINUOUS
 62
     7
 10
-186.5398
 20
-174.2354
 11
-186.1721
 21
-173.8677
  0
LINE
  8
0
  6
CONTINUOUS
 62
     7
 10
-186.1721
 20
-174.6031
 11
-185.8044
 21
-174.2354
  0
LINE
  8
0
  6
CONTINUOUS
 62
     7
 10
-186.5399
 20
-174.2355
 11
-186.1722
 21
-174.6032
  0
LINE
  8
0
  6
CONTINUOUS
 62
     7
 10
-184.7014
 20
-172.397
 11
-184.3337
 21
-172.7646
  0
LINE
  8
0
  6
CONTINUOUS
 62
     7
 10
-187.201
 20
-172.1036
 11
-186.1722
 21
-173.1323
  0
LINE
  8
0
  6
CONTINUOUS
 62
     7
 10
-186.8333
 20
-171.7359
 11
-185.8045
 21
-172.7647
  0
LINE
  8
0
  6
CONTINUOUS
 62
     7
 10
-185.069
 20
-172.7646
 11
-184.7014
 21
-172.3969
  0
LINE
  8
0
  6
CONTINUOUS
 62
     7
 10
-184.7014
 20
-173.1323
 11
-184.3337
 21
-172.7646
  0
LINE
  8
0
  6
CONTINUOUS
 62
     7
 10
-185.0691
 20
-174.2354
 11
-184.0403
 21
-175.2642
  0
LINE
  8
0
  6
CONTINUOUS
 62
     7
 10
-184.7014
 20
-173.8678
 11
-183.6726
 21
-174.8965
  0
LINE
  8
0
  6
CONTINUOUS
 62
     7
 10
-204.5398
 20
-165.2354
 11
-204.1721
 21
-164.8677
  0
LINE
  8
0
  6
CONTINUOUS
 62
     7
 10
-204.1721
 20
-165.603
 11
-203.8045
 21
-165.2354
  0
LINE
  8
0
  6
CONTINUOUS
 62
     7
 10
-204.5399
 20
-165.2355
 11
-204.1722
 21
-165.6031
  0
LINE
  8
0
  6
CONTINUOUS
 62
     7
 10
-202.7014
 20
-163.397
 11
-202.3337
 21
-163.7647
  0
LINE
  8
0
  6
CONTINUOUS
 62
     7
 10
-205.201
 20
-163.1036
 11
-204.1722
 21
-164.1324
  0
LINE
  8
0
  6
CONTINUOUS
 62
     7
 10
-204.8333
 20
-162.7359
 11
-203.8045
 21
-163.7647
  0
LINE
  8
0
  6
CONTINUOUS
 62
     7
 10
-203.069
 20
-163.7646
 11
-202.7013
 21
-163.3969
  0
LINE
  8
0
  6
CONTINUOUS
 62
     7
 10
-202.7014
 20
-164.1323
 11
-202.3337
 21
-163.7646
  0
LINE
  8
0
  6
CONTINUOUS
 62
     7
 10
-203.0691
 20
-165.2355
 11
-202.0403
 21
-166.2643
  0
LINE
  8
0
  6
CONTINUOUS
 62
     7
 10
-202.7014
 20
-164.8678
 11
-201.6726
 21
-165.8965
  0
LINE
  8
0
  6
CENTER
 62
     2
 10
-185.4367
 20
-169.5
 11
-185.4367
 21
-177.5
  0
LINE
  8
0
  6
CENTER
 62
     2
 10
-203.4367
 20
-160.5
 11
-203.4367
 21
-168.5
  0
LINE
  8
0
  6
CENTER
 62
     2
 10
-207.4367
 20
-164.5
 11
-199.4367
 21
-164.5
  0
LINE
  8
0
  6
CENTER
 62
     2
 10
-189.4367
 20
-173.5
 11
-181.4367
 21
-173.5
  0
LINE
  8
0
  6
CONTINUOUS
 62
     7
 10
-205.9367
 20
-161.5
 11
-182.4367
 21
-161.5
  0
LINE
  8
0
  6
CONTINUOUS
 62
     7
 10
-206.4367
 20
-162.0
 11
-206.4367
 21
-176.0
  0
LINE
  8
0
  6
CONTINUOUS
 62
     7
 10
-205.9367
 20
-176.5
 11
-182.4367
 21
-176.5
  0
LINE
  8
0
  6
CONTINUOUS
 62
     7
 10
-182.4367
 20
-162.0
 11
-173.2368
 21
-162.0
  0
LINE
  8
0
  6
CONTINUOUS
 62
     7
 10
-172.4367
 20
-162.8
 11
-172.4367
 21
-175.2
  0
LINE
  8
0
  6
CONTINUOUS
 62
     7
 10
-182.4367
 20
-176.0
 11
-173.2368
 21
-176.0
  0
LINE
  8
0
  6
CENTER
 62
     2
 10
-177.9367
 20
-162.8
 11
-177.9367
 21
-175.2
  0
LINE
  8
0
  6
CENTER
 62
     2
 10
-181.9367
 20
-167.5
 11
-173.9367
 21
-167.5
  0
LINE
  8
0
  6
CENTER
 62
     2
 10
-181.9367
 20
-170.5
 11
-173.9367
 21
-170.5
  0
LINE
  8
0
  6
CONTINUOUS
 62
     7
 10
-181.4367
 20
-168.0
 11
-181.4367
 21
-170.0
  0
LINE
  8
0
  6
CONTINUOUS
 62
     7
 10
-174.4367
 20
-168.0
 11
-174.4367
 21
-170.0
  0
LINE
  8
0
  6
CENTER
 62
     2
 10
177.9368
 20
-144.1858
 11
177.9368
 21
-183.0
  0
LINE
  8
0
  6
CENTER
 62
     2
 10
187.8852
 20
-169.0
 11
167.949
 21
-169.0
  0
LINE
  8
0
  6
CONTINUOUS
 62
     7
 10
179.4368
 20
-160.0
 11
179.4368
 21
-157.0
  0
LINE
  8
0
  6
CONTINUOUS
 62
     7
 10
176.4368
 20
-178.0
 11
176.4368
 21
-181.0
  0
LINE
  8
0
  6
CONTINUOUS
 62
     7
 10
173.4368
 20
-175.0
 11
170.4368
 21
-175.0
  0
LINE
  8
0
  6
CONTINUOUS
 62
     7
 10
182.4368
 20
-163.0
 11
185.4368
 21
-163.0
  0
LINE
  8
0
  6
CONTINUOUS
 62
     7
 10
176.4368
 20
-180.0
 11
184.4368
 21
-180.0
  0
LINE
  8
0
  6
CONTINUOUS
 62
     7
 10
171.4368
 20
-158.0
 11
179.4368
 21
-158.0
  0
LINE
  8
0
  6
CONTINUOUS
 62
     7
 10
171.4368
 20
-175.0
 11
171.4368
 21
-158.0
  0
LINE
  8
0
  6
CONTINUOUS
 62
     7
 10
184.4368
 20
-180.0
 11
184.4368
 21
-163.0
  0
LINE
  8
0
  6
CONTINUOUS
 62
     7
 10
184.6667
 20
-159.7
 11
184.9691
 21
-159.7
  0
LINE
  8
0
  6
CONTINUOUS
 62
     7
 10
184.6667
 20
-160.3
 11
184.9691
 21
-160.3
  0
LINE
  8
0
  6
CONTINUOUS
 62
     7
 10
184.9449
 20
-160.4608
 11
184.6391
 21
-160.4608
  0
LINE
  8
0
  6
CONTINUOUS
 62
     7
 10
171.2069
 20
-178.3
 11
170.9045
 21
-178.3
  0
LINE
  8
0
  6
CONTINUOUS
 62
     7
 10
171.2069
 20
-177.7
 11
170.9045
 21
-177.7
  0
LINE
  8
0
  6
CONTINUOUS
 62
     7
 10
170.9288
 20
-177.5392
 11
171.2345
 21
-177.5392
  0
LINE
  8
0
  6
CONTINUOUS
 62
     7
 10
183.1722
 20
-161.103
 11
182.8046
 21
-160.7354
  0
LINE
  8
0
  6
CONTINUOUS
 62
     7
 10
183.5399
 20
-160.7354
 11
183.1722
 21
-160.3677
  0
LINE
  8
0
  6
CONTINUOUS
 62
     7
 10
183.1722
 20
-161.1031
 11
183.5399
 21
-160.7354
  0
LINE
  8
0
  6
CONTINUOUS
 62
     7
 10
181.3338
 20
-159.2646
 11
181.7015
 21
-158.8969
  0
LINE
  8
0
  6
CONTINUOUS
 62
     7
 10
181.0404
 20
-161.7642
 11
182.0692
 21
-160.7354
  0
LINE
  8
0
  6
CONTINUOUS
 62
     7
 10
180.6727
 20
-161.3965
 11
181.7014
 21
-160.3677
  0
LINE
  8
0
  6
CONTINUOUS
 62
     7
 10
181.7015
 20
-159.6323
 11
181.3338
 21
-159.2646
  0
LINE
  8
0
  6
CONTINUOUS
 62
     7
 10
182.0691
 20
-159.2646
 11
181.7014
 21
-158.8969
  0
LINE
  8
0
  6
CONTINUOUS
 62
     7
 10
183.1723
 20
-159.6323
 11
184.201
 21
-158.6035
  0
LINE
  8
0
  6
CONTINUOUS
 62
     7
 10
182.8045
 20
-159.2646
 11
183.8333
 21
-158.2358
  0
LINE
  8
0
  6
CONTINUOUS
 62
     7
 10
174.1722
 20
-179.1031
 11
173.8046
 21
-178.7354
  0
LINE
  8
0
  6
CONTINUOUS
 62
     7
 10
174.5399
 20
-178.7354
 11
174.1722
 21
-178.3677
  0
LINE
  8
0
  6
CONTINUOUS
 62
     7
 10
174.1723
 20
-179.1031
 11
174.5399
 21
-178.7354
  0
LINE
  8
0
  6
CONTINUOUS
 62
     7
 10
172.3337
 20
-177.2646
 11
172.7014
 21
-176.8969
  0
LINE
  8
0
  6
CONTINUOUS
 62
     7
 10
172.0403
 20
-179.7642
 11
173.0691
 21
-178.7354
  0
LINE
  8
0
  6
CONTINUOUS
 62
     7
 10
171.6727
 20
-179.3965
 11
172.7015
 21
-178.3677
  0
LINE
  8
0
  6
CONTINUOUS
 62
     7
 10
172.7014
 20
-177.6323
 11
172.3338
 21
-177.2646
  0
LINE
  8
0
  6
CONTINUOUS
 62
     7
 10
173.0692
 20
-177.2646
 11
172.7014
 21
-176.8969
  0
LINE
  8
0
  6
CONTINUOUS
 62
     7
 10
174.1722
 20
-177.6323
 11
175.201
 21
-176.6035
  0
LINE
  8
0
  6
CONTINUOUS
 62
     7
 10
173.8046
 20
-177.2646
 11
174.8334
 21
-176.2358
  0
LINE
  8
0
  6
CENTER
 62
     2
 10
178.4368
 20
-160.0
 11
186.4368
 21
-160.0
  0
LINE
  8
0
  6
CENTER
 62
     2
 10
169.4368
 20
-178.0
 11
177.4368
 21
-178.0
  0
LINE
  8
0
  6
CENTER
 62
     2
 10
173.4368
 20
-182.0
 11
173.4368
 21
-174.0
  0
LINE
  8
0
  6
CENTER
 62
     2
 10
182.4368
 20
-164.0
 11
182.4368
 21
-156.0
  0
LINE
  8
0
  6
CONTINUOUS
 62
     7
 10
170.9368
 20
-181.0
 11
184.9368
 21
-181.0
  0
LINE
  8
0
  6
CONTINUOUS
 62
     7
 10
170.4368
 20
-180.5
 11
170.4368
 21
-157.0
  0
LINE
  8
0
  6
CONTINUOUS
 62
     7
 10
185.4368
 20
-180.5
 11
185.4368
 21
-157.0
  0
LINE
  8
0
  6
CONTINUOUS
 62
     7
 10
170.4368
 20
-157.0
 11
185.4368
 21
-157.0
  0
LINE
  8
0
  6
CONTINUOUS
 62
     7
 10
170.9368
 20
-157.0
 11
170.9368
 21
-147.8
  0
LINE
  8
0
  6
CONTINUOUS
 62
     7
 10
171.7368
 20
-147.0
 11
184.1368
 21
-147.0
  0
LINE
  8
0
  6
CONTINUOUS
 62
     7
 10
184.9368
 20
-157.0
 11
184.9368
 21
-147.8
  0
LINE
  8
0
  6
CENTER
 62
     2
 10
171.7368
 20
-152.5
 11
184.1368
 21
-152.5
  0
LINE
  8
0
  6
CENTER
 62
     2
 10
176.4368
 20
-156.5
 11
176.4368
 21
-148.5
  0
LINE
  8
0
  6
CENTER
 62
     2
 10
179.4368
 20
-156.5
 11
179.4368
 21
-148.5
  0
LINE
  8
0
  6
CONTINUOUS
 62
     7
 10
176.9368
 20
-156.0
 11
178.9368
 21
-156.0
  0
LINE
  8
0
  6
CONTINUOUS
 62
     7
 10
176.9368
 20
-149.0
 11
178.9368
 21
-149.0
  0
LINE
  8
0
  6
CONTINUOUS
 62
     7
 10
332.4368
 20
4.99991
 11
308.4368
 21
4.99991
  0
LINE
  8
0
  6
CENTER
 62
     2
 10
320.4368
 20
53.19989
 11
320.4368
 21
-71.50717
  0
LINE
  8
0
  6
CENTER
 62
     2
 10
312.8413
 20
-18.00009
 11
307.6112
 21
-18.00009
  0
LINE
  8
0
  6
CONTINUOUS
 62
     7
 10
311.4368
 20
-16.18626
 11
311.4368
 21
-19.81393
  0
LINE
  8
0
  6
CONTINUOUS
 62
     7
 10
311.4368
 20
-16.18625
 11
308.4368
 21
-16.18625
  0
LINE
  8
0
  6
CONTINUOUS
 62
     7
 10
311.4368
 20
-19.81393
 11
308.4368
 21
-19.81393
  0
LINE
  8
0
  6
CONTINUOUS
 62
     7
 10
332.4368
 20
21.99991
 11
299.2368
 21
21.99991
  0
LINE
  8
0
  6
CONTINUOUS
 62
     7
 10
332.4368
 20
48.19992
 11
332.4368
 21
-66.20009
  0
LINE
  8
0
  6
CONTINUOUS
 62
     7
 10
332.4368
 20
-23.00009
 11
308.4368
 21
-23.00009
  0
LINE
  8
0
  6
CONTINUOUS
 62
     7
 10
308.4368
 20
-66.20009
 11
308.4368
 21
48.19992
  0
LINE
  8
0
  6
CONTINUOUS
 62
     7
 10
332.4368
 20
-40.00009
 11
299.2368
 21
-40.00009
  0
LINE
  8
0
  6
CONTINUOUS
 62
     7
 10
332.4368
 20
47.19992
 11
308.4368
 21
47.19992
  0
LINE
  8
0
  6
CONTINUOUS
 62
     7
 10
298.4368
 20
45.69992
 11
298.4368
 21
22.7999
  0
LINE
  8
0
  6
CONTINUOUS
 62
     7
 10
309.4368
 20
50.19992
 11
327.6111
 21
50.19992
  0
LINE
  8
0
  6
CONTINUOUS
 62
     7
 10
332.4368
 20
48.19992
 11
308.4368
 21
48.19992
  0
LINE
  8
0
  6
CONTINUOUS
 62
     7
 10
308.4368
 20
48.19994
 11
309.4368
 21
50.19996
  0
LINE
  8
0
  6
CONTINUOUS
 62
     7
 10
332.4366
 20
48.19983
 11
331.4366
 21
50.19982
  0
LINE
  8
0
  6
CONTINUOUS
 62
     7
 10
326.4368
 20
50.19992
 11
326.4368
 21
48.19992
  0
LINE
  8
0
  6
CENTER
 62
     2
 10
329.4368
 20
53.19992
 11
329.4368
 21
44.19992
  0
LINE
  8
0
  6
CONTINUOUS
 62
     7
 10
331.9868
 20
48.7999
 11
326.8868
 21
48.7999
  0
LINE
  8
0
  6
CONTINUOUS
 62
     7
 10
329.1367
 20
48.19987
 11
328.9759
 21
48.79987
  0
LINE
  8
0
  6
CONTINUOUS
 62
     7
 10
329.7366
 20
48.79988
 11
329.8974
 21
48.19988
  0
LINE
  8
0
  6
CONTINUOUS
 62
     7
 10
331.9868
 20
48.7999
 11
331.9868
 21
48.19992
  0
LINE
  8
0
  6
CONTINUOUS
 62
     7
 10
326.8868
 20
48.7999
 11
326.8868
 21
48.19992
  0
LINE
  8
0
  6
CONTINUOUS
 62
     7
 10
331.6868
 20
49.49365
 11
331.6868
 21
48.7999
  0
LINE
  8
0
  6
CONTINUOUS
 62
     7
 10
327.1868
 20
49.49365
 11
327.1868
 21
48.7999
  0
LINE
  8
0
  6
CONTINUOUS
 62
     7
 10
331.2625
 20
50.19992
 11
331.4368
 21
50.19992
  0
LINE
  8
0
  6
CENTER
 62
     2
 10
311.4368
 20
53.19992
 11
311.4368
 21
44.19992
  0
LINE
  8
0
  6
CONTINUOUS
 62
     7
 10
308.4368
 20
46.49991
 11
299.2368
 21
46.49991
  0
LINE
  8
0
  6
CENTER
 62
     2
 10
303.9368
 20
70.99991
 11
303.9368
 21
43.49991
  0
LINE
  8
0
  6
CONTINUOUS
 62
     7
 10
303.0868
 20
57.99991
 11
303.0868
 21
54.00412
  0
LINE
  8
0
  6
CONTINUOUS
 62
     7
 10
304.7868
 20
57.99991
 11
304.7868
 21
53.54861
  0
LINE
  8
0
  6
CONTINUOUS
 62
     7
 10
303.6168
 20
67.99991
 11
303.6168
 21
57.99991
  0
LINE
  8
0
  6
CONTINUOUS
 62
     7
 10
304.2568
 20
67.99991
 11
304.2568
 21
57.99991
  0
LINE
  8
0
  6
CONTINUOUS
 62
     7
 10
304.7868
 20
57.99991
 11
303.0868
 21
57.99991
  0
LINE
  8
0
  6
CONTINUOUS
 62
     7
 10
304.2568
 20
67.99991
 11
303.6168
 21
67.99991
  0
LINE
  8
0
  6
PHANTOM
 62
     2
 10
301.0868
 20
52.98705
 11
306.7868
 21
51.45974
  0
LINE
  8
0
  6
PHANTOM
 62
     2
 10
301.0868
 20
54.53996
 11
306.7867
 21
53.01266
  0
LINE
  8
0
  6
CONTINUOUS
 62
     7
 10
304.7868
 20
51.9957
 11
304.7868
 21
47.99991
  0
LINE
  8
0
  6
CONTINUOUS
 62
     7
 10
303.0868
 20
52.4512
 11
303.0868
 21
47.99991
  0
LINE
  8
0
  6
CONTINUOUS
 62
     7
 10
300.4368
 20
47.49991
 11
300.4368
 21
46.49991
  0
LINE
  8
0
  6
CONTINUOUS
 62
     7
 10
306.9368
 20
47.99991
 11
300.9368
 21
47.99991
  0
LINE
  8
0
  6
CONTINUOUS
 62
     7
 10
307.4368
 20
47.49991
 11
307.4368
 21
46.49991
  0
LINE
  8
0
  6
CONTINUOUS
 62
     7
 10
332.4368
 20
-65.20009
 11
308.4368
 21
-65.20009
  0
LINE
  8
0
  6
CONTINUOUS
 62
     7
 10
298.4368
 20
-63.70009
 11
298.4368
 21
-40.80008
  0
LINE
  8
0
  6
CONTINUOUS
 62
     7
 10
331.4368
 20
-68.20009
 11
313.2625
 21
-68.20009
  0
LINE
  8
0
  6
CONTINUOUS
 62
     7
 10
332.4368
 20
-66.20009
 11
308.4368
 21
-66.20009
  0
LINE
  8
0
  6
CONTINUOUS
 62
     7
 10
332.4367
 20
-66.20011
 11
331.4368
 21
-68.2001
  0
LINE
  8
0
  6
CONTINUOUS
 62
     7
 10
308.4367
 20
-66.20009
 11
309.4366
 21
-68.20007
  0
LINE
  8
0
  6
CONTINUOUS
 62
     7
 10
314.4368
 20
-68.20009
 11
314.4368
 21
-66.20009
  0
LINE
  8
0
  6
CENTER
 62
     2
 10
311.4368
 20
-71.20009
 11
311.4368
 21
-62.20009
  0
LINE
  8
0
  6
CONTINUOUS
 62
     7
 10
308.8868
 20
-66.80009
 11
313.9868
 21
-66.80009
  0
LINE
  8
0
  6
CONTINUOUS
 62
     7
 10
311.7368
 20
-66.20007
 11
311.8976
 21
-66.80007
  0
LINE
  8
0
  6
CONTINUOUS
 62
     7
 10
311.1369
 20
-66.80007
 11
310.9761
 21
-66.20007
  0
LINE
  8
0
  6
CONTINUOUS
 62
     7
 10
308.8868
 20
-66.80008
 11
308.8868
 21
-66.20009
  0
LINE
  8
0
  6
CONTINUOUS
 62
     7
 10
313.9868
 20
-66.80008
 11
313.9868
 21
-66.20009
  0
LINE
  8
0
  6
CONTINUOUS
 62
     7
 10
309.1868
 20
-67.49384
 11
309.1868
 21
-66.80008
  0
LINE
  8
0
  6
CONTINUOUS
 62
     7
 10
313.6868
 20
-67.49384
 11
313.6868
 21
-66.80008
  0
LINE
  8
0
  6
CONTINUOUS
 62
     7
 10
309.611
 20
-68.20009
 11
309.4368
 21
-68.20009
  0
LINE
  8
0
  6
CENTER
 62
     2
 10
329.4368
 20
-71.2001
 11
329.4368
 21
-62.2001
  0
LINE
  8
0
  6
CENTER
 62
     2
 10
303.9368
 20
-89.00009
 11
303.9368
 21
-61.50009
  0
LINE
  8
0
  6
CONTINUOUS
 62
     7
 10
304.7868
 20
-76.00009
 11
304.7868
 21
-72.0043
  0
LINE
  8
0
  6
CONTINUOUS
 62
     7
 10
303.0868
 20
-76.00009
 11
303.0868
 21
-71.5488
  0
LINE
  8
0
  6
CONTINUOUS
 62
     7
 10
304.2568
 20
-86.00009
 11
304.2568
 21
-76.00009
  0
LINE
  8
0
  6
CONTINUOUS
 62
     7
 10
303.6168
 20
-86.00009
 11
303.6168
 21
-76.00009
  0
LINE
  8
0
  6
CONTINUOUS
 62
     7
 10
303.0868
 20
-76.00009
 11
304.7868
 21
-76.00009
  0
LINE
  8
0
  6
CONTINUOUS
 62
     7
 10
303.6168
 20
-86.00009
 11
304.2568
 21
-86.00009
  0
LINE
  8
0
  6
PHANTOM
 62
     2
 10
306.7867
 20
-70.98731
 11
301.0867
 21
-69.46001
  0
LINE
  8
0
  6
PHANTOM
 62
     2
 10
306.7868
 20
-72.54025
 11
301.0867
 21
-71.01292
  0
LINE
  8
0
  6
CONTINUOUS
 62
     7
 10
303.0868
 20
-69.99588
 11
303.0868
 21
-66.00009
  0
LINE
  8
0
  6
CONTINUOUS
 62
     7
 10
304.7868
 20
-70.45139
 11
304.7868
 21
-66.00009
  0
LINE
  8
0
  6
CONTINUOUS
 62
     7
 10
307.4368
 20
-65.50009
 11
307.4368
 21
-64.50009
  0
LINE
  8
0
  6
CONTINUOUS
 62
     7
 10
300.9368
 20
-66.00009
 11
306.9368
 21
-66.00009
  0
LINE
  8
0
  6
CONTINUOUS
 62
     7
 10
300.4368
 20
-65.50009
 11
300.4368
 21
-64.50009
  0
LINE
  8
0
  6
CONTINUOUS
 62
     7
 10
308.4368
 20
-64.50009
 11
299.2368
 21
-64.50009
  0
LINE
  8
0
  6
CENTER
 62
     2
 10
172.4368
 20
3.43936
 11
172.4368
 21
-3.3425
  0
LINE
  8
0
  6
CENTER
 62
     2
 10
183.4368
 20
-14.47302
 11
183.4368
 21
-21.41019
  0
LINE
  8
0
  6
CENTER
 62
     2
 10
180.1682
 20
-18.0
 11
186.545
 21
-18.0
  0
LINE
  8
0
  6
CENTER
 62
     2
 10
169.866
 20
0.0
 11
175.9748
 21
0.0
  0
LINE
  8
0
  6
CONTINUOUS
 62
     7
 10
170.4368
 20
5.0
 11
185.4368
 21
5.0
  0
LINE
  8
0
  6
CENTER
 62
     2
 10
177.9368
 20
52.81198
 11
177.9368
 21
-71.17639
  0
LINE
  8
0
  6
CENTER
 62
     2
 10
175.5518
 20
18.5
 11
180.3984
 21
18.5
  0
LINE
  8
0
  6
CENTER
 62
     2
 10
167.7576
 20
-9.0
 11
188.2222
 21
-9.0
  0
LINE
  8
0
  6
CONTINUOUS
 62
     7
 10
170.4368
 20
22.0
 11
185.4368
 21
22.0
  0
LINE
  8
0
  6
CONTINUOUS
 62
     7
 10
185.4368
 20
-66.19998
 11
185.4368
 21
48.19998
  0
LINE
  8
0
  6
CONTINUOUS
 62
     7
 10
170.4368
 20
-40.0
 11
185.4368
 21
-40.0
  0
LINE
  8
0
  6
CONTINUOUS
 62
     7
 10
170.4368
 20
-23.0
 11
185.4368
 21
-23.0
  0
LINE
  8
0
  6
CENTER
 62
     2
 10
174.9368
 20
-36.5
 11
180.6034
 21
-36.5
  0
LINE
  8
0
  6
CONTINUOUS
 62
     7
 10
170.4368
 20
-66.19998
 11
170.4368
 21
48.19998
  0
LINE
  8
0
  6
CONTINUOUS
 62
     7
 10
170.4368
 20
47.20001
 11
173.4368
 21
47.20001
  0
LINE
  8
0
  6
CONTINUOUS
 62
     7
 10
170.9368
 20
45.70001
 11
170.9368
 21
22.79999
  0
LINE
  8
0
  6
CONTINUOUS
 62
     7
 10
184.9368
 20
45.70001
 11
184.9368
 21
22.79999
  0
LINE
  8
0
  6
CONTINUOUS
 62
     7
 10
172.4368
 20
23.5
 11
183.4368
 21
23.5
  0
LINE
  8
0
  6
CONTINUOUS
 62
     7
 10
172.4368
 20
32.0
 11
183.4368
 21
32.0
  0
LINE
  8
0
  6
CONTINUOUS
 62
     7
 10
172.4368
 20
32.0
 11
172.4368
 21
23.5
  0
LINE
  8
0
  6
CONTINUOUS
 62
     7
 10
183.4368
 20
32.0
 11
183.4368
 21
23.5
  0
LINE
  8
0
  6
CONTINUOUS
 62
     7
 10
175.9368
 20
35.5
 11
179.9368
 21
35.5
  0
LINE
  8
0
  6
CONTINUOUS
 62
     7
 10
175.9368
 20
33.5
 11
179.9368
 21
33.5
  0
LINE
  8
0
  6
CONTINUOUS
 62
     7
 10
175.9368
 20
35.5
 11
175.9368
 21
33.5
  0
LINE
  8
0
  6
CONTINUOUS
 62
     7
 10
179.9368
 20
35.5
 11
179.9368
 21
33.5
  0
LINE
  8
0
  6
CONTINUOUS
 62
     7
 10
175.4368
 20
36.0
 11
180.4368
 21
36.0
  0
LINE
  8
0
  6
CONTINUOUS
 62
     7
 10
175.4368
 20
36.0
 11
175.4368
 21
33.0
  0
LINE
  8
0
  6
CONTINUOUS
 62
     7
 10
175.4368
 20
33.0
 11
180.4368
 21
33.0
  0
LINE
  8
0
  6
CONTINUOUS
 62
     7
 10
180.4368
 20
36.0
 11
180.4368
 21
33.0
  0
LINE
  8
0
  6
CONTINUOUS
 62
     7
 10
175.9368
 20
35.49997
 11
175.4368
 21
35.99997
  0
LINE
  8
0
  6
CONTINUOUS
 62
     7
 10
179.9368
 20
35.5
 11
180.4368
 21
36.00003
  0
LINE
  8
0
  6
CONTINUOUS
 62
     7
 10
179.9367
 20
33.50002
 11
180.4367
 21
33.00002
  0
LINE
  8
0
  6
CONTINUOUS
 62
     7
 10
175.9368
 20
33.50002
 11
175.4368
 21
33.00002
  0
LINE
  8
0
  6
CONTINUOUS
 62
     7
 10
170.4368
 20
48.19998
 11
175.5868
 21
48.19998
  0
LINE
  8
0
  6
CONTINUOUS
 62
     7
 10
171.4368
 20
50.20001
 11
171.611
 21
50.20001
  0
LINE
  8
0
  6
CONTINUOUS
 62
     7
 10
185.4368
 20
48.19999
 11
184.4368
 21
50.19999
  0
LINE
  8
0
  6
CONTINUOUS
 62
     7
 10
170.4368
 20
48.2
 11
171.4368
 21
50.20001
  0
LINE
  8
0
  6
CENTER
 62
     2
 10
173.4368
 20
53.20001
 11
173.4368
 21
44.20001
  0
LINE
  8
0
  6
CONTINUOUS
 62
     7
 10
175.5868
 20
48.79999
 11
170.8868
 21
48.79999
  0
LINE
  8
0
  6
CONTINUOUS
 62
     7
 10
170.8868
 20
48.79999
 11
170.8868
 21
48.19998
  0
LINE
  8
0
  6
CONTINUOUS
 62
     7
 10
171.1868
 20
49.49374
 11
171.1868
 21
48.79999
  0
LINE
  8
0
  6
CONTINUOUS
 62
     7
 10
175.2625
 20
50.20001
 11
175.5868
 21
50.20001
  0
LINE
  8
0
  6
CENTER
 62
     2
 10
182.4368
 20
53.20001
 11
182.4368
 21
44.20001
  0
LINE
  8
0
  6
CENTER
 62
     2
 10
179.4368
 20
71.0
 11
179.4368
 21
43.5
  0
LINE
  8
0
  6
CENTER
 62
     2
 10
176.4368
 20
71.0
 11
176.4368
 21
43.5
  0
LINE
  8
0
  6
CONTINUOUS
 62
     7
 10
177.2868
 20
58.0
 11
177.2868
 21
55.05063
  0
LINE
  8
0
  6
CONTINUOUS
 62
     7
 10
175.5868
 20
58.0
 11
175.5868
 21
55.50613
  0
LINE
  8
0
  6
CONTINUOUS
 62
     7
 10
176.7568
 20
68.0
 11
176.7568
 21
58.0
  0
LINE
  8
0
  6
CONTINUOUS
 62
     7
 10
176.1168
 20
68.0
 11
176.1168
 21
58.0
  0
LINE
  8
0
  6
CONTINUOUS
 62
     7
 10
179.7568
 20
68.0
 11
179.7568
 21
58.0
  0
LINE
  8
0
  6
CONTINUOUS
 62
     7
 10
179.1168
 20
68.0
 11
179.1168
 21
58.0
  0
LINE
  8
0
  6
CONTINUOUS
 62
     7
 10
180.2868
 20
58.0
 11
180.2868
 21
54.2468
  0
LINE
  8
0
  6
CONTINUOUS
 62
     7
 10
178.5868
 20
58.0
 11
178.5868
 21
54.7023
  0
LINE
  8
0
  6
CONTINUOUS
 62
     7
 10
176.1168
 20
68.0
 11
176.7568
 21
68.0
  0
LINE
  8
0
  6
CONTINUOUS
 62
     7
 10
179.1168
 20
68.0
 11
179.7568
 21
68.0
  0
LINE
  8
0
  6
CONTINUOUS
 62
     7
 10
175.5868
 20
58.0
 11
177.2868
 21
58.0
  0
LINE
  8
0
  6
CONTINUOUS
 62
     7
 10
178.5868
 20
58.0
 11
180.2868
 21
58.0
  0
LINE
  8
0
  6
CONTINUOUS
 62
     7
 10
182.4368
 20
47.20001
 11
185.4368
 21
47.20001
  0
LINE
  8
0
  6
CONTINUOUS
 62
     7
 10
177.2868
 20
48.19998
 11
178.5868
 21
48.19998
  0
LINE
  8
0
  6
CONTINUOUS
 62
     7
 10
180.2868
 20
48.19998
 11
185.4368
 21
48.19998
  0
LINE
  8
0
  6
CONTINUOUS
 62
     7
 10
180.2868
 20
50.20001
 11
184.4368
 21
50.20001
  0
LINE
  8
0
  6
CONTINUOUS
 62
     7
 10
177.2868
 20
50.20001
 11
178.5868
 21
50.20001
  0
LINE
  8
0
  6
PHANTOM
 62
     2
 10
173.5867
 20
54.48904
 11
182.2867
 21
52.15788
  0
LINE
  8
0
  6
PHANTOM
 62
     2
 10
173.5867
 20
56.04195
 11
182.2867
 21
53.71079
  0
LINE
  8
0
  6
CONTINUOUS
 62
     7
 10
175.5868
 20
53.95322
 11
175.5868
 21
48.0
  0
LINE
  8
0
  6
CONTINUOUS
 62
     7
 10
177.2868
 20
53.49771
 11
177.2868
 21
48.0
  0
LINE
  8
0
  6
CONTINUOUS
 62
     7
 10
178.5868
 20
53.14938
 11
178.5868
 21
48.0
  0
LINE
  8
0
  6
CONTINUOUS
 62
     7
 10
180.2868
 20
52.69388
 11
180.2868
 21
48.0
  0
LINE
  8
0
  6
CENTER
 62
     2
 10
173.9368
 20
34.5
 11
181.9368
 21
34.5
  0
LINE
  8
0
  6
CONTINUOUS
 62
     7
 10
171.7368
 20
46.5
 11
184.1368
 21
46.5
  0
LINE
  8
0
  6
CONTINUOUS
 62
     7
 10
173.9368
 20
48.0
 11
181.9368
 21
48.0
  0
LINE
  8
0
  6
CONTINUOUS
 62
     7
 10
173.4368
 20
47.5
 11
173.4368
 21
46.5
  0
LINE
  8
0
  6
CONTINUOUS
 62
     7
 10
182.4368
 20
47.5
 11
182.4368
 21
46.5
  0
LINE
  8
0
  6
CONTINUOUS
 62
     7
 10
185.4368
 20
-65.2
 11
182.4368
 21
-65.2
  0
LINE
  8
0
  6
CONTINUOUS
 62
     7
 10
184.9368
 20
-63.7
 11
184.9368
 21
-40.8
  0
LINE
  8
0
  6
CONTINUOUS
 62
     7
 10
170.9368
 20
-63.7
 11
170.9368
 21
-40.8
  0
LINE
  8
0
  6
CONTINUOUS
 62
     7
 10
183.4368
 20
-41.5
 11
172.4368
 21
-41.5
  0
LINE
  8
0
  6
CONTINUOUS
 62
     7
 10
183.4368
 20
-50.0
 11
172.4368
 21
-50.0
  0
LINE
  8
0
  6
CONTINUOUS
 62
     7
 10
183.4368
 20
-50.0
 11
183.4368
 21
-41.5
  0
LINE
  8
0
  6
CONTINUOUS
 62
     7
 10
172.4368
 20
-50.0
 11
172.4368
 21
-41.5
  0
LINE
  8
0
  6
CONTINUOUS
 62
     7
 10
179.9368
 20
-53.5
 11
175.9368
 21
-53.5
  0
LINE
  8
0
  6
CONTINUOUS
 62
     7
 10
179.9368
 20
-51.5
 11
175.9368
 21
-51.5
  0
LINE
  8
0
  6
CONTINUOUS
 62
     7
 10
179.9368
 20
-53.5
 11
179.9368
 21
-51.5
  0
LINE
  8
0
  6
CONTINUOUS
 62
     7
 10
175.9368
 20
-53.5
 11
175.9368
 21
-51.5
  0
LINE
  8
0
  6
CONTINUOUS
 62
     7
 10
180.4368
 20
-54.0
 11
175.4368
 21
-54.0
  0
LINE
  8
0
  6
CONTINUOUS
 62
     7
 10
180.4368
 20
-54.0
 11
180.4368
 21
-51.0
  0
LINE
  8
0
  6
CONTINUOUS
 62
     7
 10
180.4368
 20
-51.0
 11
175.4368
 21
-51.0
  0
LINE
  8
0
  6
CONTINUOUS
 62
     7
 10
175.4368
 20
-54.0
 11
175.4368
 21
-51.0
  0
LINE
  8
0
  6
CONTINUOUS
 62
     7
 10
179.9367
 20
-53.5
 11
180.4367
 21
-54.0
  0
LINE
  8
0
  6
CONTINUOUS
 62
     7
 10
175.9368
 20
-53.5
 11
175.4368
 21
-53.99999
  0
LINE
  8
0
  6
CONTINUOUS
 62
     7
 10
175.9367
 20
-51.49999
 11
175.4367
 21
-50.99998
  0
LINE
  8
0
  6
CONTINUOUS
 62
     7
 10
179.9368
 20
-51.5
 11
180.4368
 21
-51.00001
  0
LINE
  8
0
  6
CONTINUOUS
 62
     7
 10
185.4368
 20
-66.19998
 11
180.2868
 21
-66.19998
  0
LINE
  8
0
  6
CONTINUOUS
 62
     7
 10
184.4368
 20
-68.2
 11
184.2625
 21
-68.2
  0
LINE
  8
0
  6
CONTINUOUS
 62
     7
 10
170.4369
 20
-66.19996
 11
171.4369
 21
-68.19997
  0
LINE
  8
0
  6
CONTINUOUS
 62
     7
 10
185.4366
 20
-66.19989
 11
184.4366
 21
-68.19991
  0
LINE
  8
0
  6
CENTER
 62
     2
 10
182.4368
 20
-71.2
 11
182.4368
 21
-62.2
  0
LINE
  8
0
  6
CONTINUOUS
 62
     7
 10
180.2868
 20
-66.79999
 11
184.9868
 21
-66.79999
  0
LINE
  8
0
  6
CONTINUOUS
 62
     7
 10
184.9868
 20
-66.79999
 11
184.9868
 21
-66.19998
  0
LINE
  8
0
  6
CONTINUOUS
 62
     7
 10
184.6868
 20
-67.49374
 11
184.6868
 21
-66.79999
  0
LINE
  8
0
  6
CONTINUOUS
 62
     7
 10
180.611
 20
-68.2
 11
180.2868
 21
-68.2
  0
LINE
  8
0
  6
CENTER
 62
     2
 10
173.4368
 20
-71.2
 11
173.4368
 21
-62.2
  0
LINE
  8
0
  6
CENTER
 62
     2
 10
176.4368
 20
-89.0
 11
176.4368
 21
-61.5
  0
LINE
  8
0
  6
CENTER
 62
     2
 10
179.4368
 20
-89.0
 11
179.4368
 21
-61.5
  0
LINE
  8
0
  6
CONTINUOUS
 62
     7
 10
178.5868
 20
-76.0
 11
178.5868
 21
-73.05063
  0
LINE
  8
0
  6
CONTINUOUS
 62
     7
 10
180.2868
 20
-76.0
 11
180.2868
 21
-73.50613
  0
LINE
  8
0
  6
CONTINUOUS
 62
     7
 10
179.1168
 20
-86.0
 11
179.1168
 21
-76.0
  0
LINE
  8
0
  6
CONTINUOUS
 62
     7
 10
179.7568
 20
-86.0
 11
179.7568
 21
-76.0
  0
LINE
  8
0
  6
CONTINUOUS
 62
     7
 10
176.1168
 20
-86.0
 11
176.1168
 21
-76.0
  0
LINE
  8
0
  6
CONTINUOUS
 62
     7
 10
176.7568
 20
-86.0
 11
176.7568
 21
-76.0
  0
LINE
  8
0
  6
CONTINUOUS
 62
     7
 10
175.5868
 20
-76.0
 11
175.5868
 21
-72.24678
  0
LINE
  8
0
  6
CONTINUOUS
 62
     7
 10
177.2868
 20
-76.0
 11
177.2868
 21
-72.7023
  0
LINE
  8
0
  6
CONTINUOUS
 62
     7
 10
179.7568
 20
-86.0
 11
179.1168
 21
-86.0
  0
LINE
  8
0
  6
CONTINUOUS
 62
     7
 10
176.7568
 20
-86.0
 11
176.1168
 21
-86.0
  0
LINE
  8
0
  6
CONTINUOUS
 62
     7
 10
180.2868
 20
-76.0
 11
178.5868
 21
-76.0
  0
LINE
  8
0
  6
CONTINUOUS
 62
     7
 10
177.2868
 20
-76.0
 11
175.5868
 21
-76.0
  0
LINE
  8
0
  6
CONTINUOUS
 62
     7
 10
173.4368
 20
-65.2
 11
170.4368
 21
-65.2
  0
LINE
  8
0
  6
CONTINUOUS
 62
     7
 10
178.5868
 20
-66.19998
 11
177.2868
 21
-66.19998
  0
LINE
  8
0
  6
CONTINUOUS
 62
     7
 10
175.5868
 20
-66.19998
 11
170.4368
 21
-66.19998
  0
LINE
  8
0
  6
CONTINUOUS
 62
     7
 10
175.5868
 20
-68.2
 11
171.4368
 21
-68.2
  0
LINE
  8
0
  6
CONTINUOUS
 62
     7
 10
178.5868
 20
-68.2
 11
177.2868
 21
-68.2
  0
LINE
  8
0
  6
PHANTOM
 62
     2
 10
182.2868
 20
-72.48912
 11
173.5868
 21
-70.15795
  0
LINE
  8
0
  6
PHANTOM
 62
     2
 10
182.2868
 20
-74.04202
 11
173.5868
 21
-71.71087
  0
LINE
  8
0
  6
CONTINUOUS
 62
     7
 10
180.2868
 20
-71.95323
 11
180.2868
 21
-66.0
  0
LINE
  8
0
  6
CONTINUOUS
 62
     7
 10
178.5868
 20
-71.49771
 11
178.5868
 21
-66.0
  0
LINE
  8
0
  6
CONTINUOUS
 62
     7
 10
177.2868
 20
-71.14938
 11
177.2868
 21
-66.0
  0
LINE
  8
0
  6
CONTINUOUS
 62
     7
 10
175.5868
 20
-70.69386
 11
175.5868
 21
-66.0
  0
LINE
  8
0
  6
CENTER
 62
     2
 10
181.9368
 20
-52.5
 11
173.9368
 21
-52.5
  0
LINE
  8
0
  6
CONTINUOUS
 62
     7
 10
184.1368
 20
-64.5
 11
171.7368
 21
-64.5
  0
LINE
  8
0
  6
CONTINUOUS
 62
     7
 10
181.9368
 20
-66.0
 11
173.9368
 21
-66.0
  0
LINE
  8
0
  6
CONTINUOUS
 62
     7
 10
182.4368
 20
-65.5
 11
182.4368
 21
-64.5
  0
LINE
  8
0
  6
CONTINUOUS
 62
     7
 10
173.4368
 20
-65.5
 11
173.4368
 21
-64.5
  0
LINE
  8
0
  6
CENTER
 62
     2
 10
177.9368
 20
118.1857
 11
177.9368
 21
156.9999
  0
LINE
  8
0
  6
CENTER
 62
     2
 10
167.9884
 20
142.9999
 11
187.9246
 21
142.9999
  0
LINE
  8
0
  6
CONTINUOUS
 62
     7
 10
176.4368
 20
133.9999
 11
176.4368
 21
130.9999
  0
LINE
  8
0
  6
CONTINUOUS
 62
     7
 10
179.4368
 20
151.9999
 11
179.4368
 21
154.9999
  0
LINE
  8
0
  6
CONTINUOUS
 62
     7
 10
182.4368
 20
148.9999
 11
185.4368
 21
148.9999
  0
LINE
  8
0
  6
CONTINUOUS
 62
     7
 10
173.4368
 20
136.9999
 11
170.4368
 21
136.9999
  0
LINE
  8
0
  6
CONTINUOUS
 62
     7
 10
179.4368
 20
153.9999
 11
171.4368
 21
153.9999
  0
LINE
  8
0
  6
CONTINUOUS
 62
     7
 10
184.4368
 20
131.9999
 11
176.4368
 21
131.9999
  0
LINE
  8
0
  6
CONTINUOUS
 62
     7
 10
184.4368
 20
148.9999
 11
184.4368
 21
131.9999
  0
LINE
  8
0
  6
CONTINUOUS
 62
     7
 10
171.4368
 20
153.9999
 11
171.4368
 21
136.9999
  0
LINE
  8
0
  6
CONTINUOUS
 62
     7
 10
171.2069
 20
133.7
 11
170.9045
 21
133.7
  0
LINE
  8
0
  6
CONTINUOUS
 62
     7
 10
171.2069
 20
134.3
 11
170.9045
 21
134.3
  0
LINE
  8
0
  6
CONTINUOUS
 62
     7
 10
170.9288
 20
134.4607
 11
171.2345
 21
134.4607
  0
LINE
  8
0
  6
CONTINUOUS
 62
     7
 10
184.6667
 20
152.3
 11
184.9691
 21
152.3
  0
LINE
  8
0
  6
CONTINUOUS
 62
     7
 10
184.6667
 20
151.7
 11
184.9691
 21
151.7
  0
LINE
  8
0
  6
CONTINUOUS
 62
     7
 10
184.9448
 20
151.5392
 11
184.6391
 21
151.5392
  0
LINE
  8
0
  6
CONTINUOUS
 62
     7
 10
172.7014
 20
135.1031
 11
173.0691
 21
134.7354
  0
LINE
  8
0
  6
CONTINUOUS
 62
     7
 10
172.3337
 20
134.7354
 11
172.7014
 21
134.3677
  0
LINE
  8
0
  6
CONTINUOUS
 62
     7
 10
172.7014
 20
135.103
 11
172.3337
 21
134.7353
  0
LINE
  8
0
  6
CONTINUOUS
 62
     7
 10
174.5399
 20
133.2645
 11
174.1722
 21
132.8968
  0
LINE
  8
0
  6
CONTINUOUS
 62
     7
 10
174.8333
 20
135.7641
 11
173.8045
 21
134.7353
  0
LINE
  8
0
  6
CONTINUOUS
 62
     7
 10
175.201
 20
135.3964
 11
174.1722
 21
134.3676
  0
LINE
  8
0
  6
CONTINUOUS
 62
     7
 10
174.1722
 20
133.6323
 11
174.5399
 21
133.2646
  0
LINE
  8
0
  6
CONTINUOUS
 62
     7
 10
173.8045
 20
133.2646
 11
174.1722
 21
132.8969
  0
LINE
  8
0
  6
CONTINUOUS
 62
     7
 10
172.7014
 20
133.6322
 11
171.6726
 21
132.6034
  0
LINE
  8
0
  6
CONTINUOUS
 62
     7
 10
173.0692
 20
133.2645
 11
172.0403
 21
132.2357
  0
LINE
  8
0
  6
CONTINUOUS
 62
     7
 10
181.7015
 20
153.1031
 11
182.0692
 21
152.7354
  0
LINE
  8
0
  6
CONTINUOUS
 62
     7
 10
181.3338
 20
152.7354
 11
181.7015
 21
152.3677
  0
LINE
  8
0
  6
CONTINUOUS
 62
     7
 10
181.7014
 20
153.103
 11
181.3337
 21
152.7354
  0
LINE
  8
0
  6
CONTINUOUS
 62
     7
 10
183.5399
 20
151.2646
 11
183.1722
 21
150.8969
  0
LINE
  8
0
  6
CONTINUOUS
 62
     7
 10
183.8333
 20
153.7641
 11
182.8045
 21
152.7353
  0
LINE
  8
0
  6
CONTINUOUS
 62
     7
 10
184.201
 20
153.3964
 11
183.1722
 21
152.3676
  0
LINE
  8
0
  6
CONTINUOUS
 62
     7
 10
183.1723
 20
151.6323
 11
183.5399
 21
151.2646
  0
LINE
  8
0
  6
CONTINUOUS
 62
     7
 10
182.8046
 20
151.2646
 11
183.1723
 21
150.8969
  0
LINE
  8
0
  6
CONTINUOUS
 62
     7
 10
181.7014
 20
151.6322
 11
180.6727
 21
150.6035
  0
LINE
  8
0
  6
CONTINUOUS
 62
     7
 10
182.0691
 20
151.2645
 11
181.0404
 21
150.2358
  0
LINE
  8
0
  6
CENTER
 62
     2
 10
177.4368
 20
133.9999
 11
169.4368
 21
133.9999
  0
LINE
  8
0
  6
CENTER
 62
     2
 10
186.4368
 20
151.9999
 11
178.4368
 21
151.9999
  0
LINE
  8
0
  6
CENTER
 62
     2
 10
182.4368
 20
155.9999
 11
182.4368
 21
147.9999
  0
LINE
  8
0
  6
CENTER
 62
     2
 10
173.4368
 20
137.9999
 11
173.4368
 21
129.9999
  0
LINE
  8
0
  6
CONTINUOUS
 62
     7
 10
184.9368
 20
154.9999
 11
170.9368
 21
154.9999
  0
LINE
  8
0
  6
CONTINUOUS
 62
     7
 10
185.4368
 20
154.4999
 11
185.4368
 21
130.9999
  0
LINE
  8
0
  6
CONTINUOUS
 62
     7
 10
170.4368
 20
154.4999
 11
170.4368
 21
130.9999
  0
LINE
  8
0
  6
CONTINUOUS
 62
     7
 10
185.4368
 20
130.9999
 11
170.4368
 21
130.9999
  0
LINE
  8
0
  6
CONTINUOUS
 62
     7
 10
184.9368
 20
130.9999
 11
184.9368
 21
121.7999
  0
LINE
  8
0
  6
CONTINUOUS
 62
     7
 10
184.1368
 20
120.9999
 11
171.7368
 21
120.9999
  0
LINE
  8
0
  6
CONTINUOUS
 62
     7
 10
170.9368
 20
130.9999
 11
170.9368
 21
121.7999
  0
LINE
  8
0
  6
CENTER
 62
     2
 10
184.1368
 20
126.4999
 11
171.7368
 21
126.4999
  0
LINE
  8
0
  6
CENTER
 62
     2
 10
179.4368
 20
130.4999
 11
179.4368
 21
122.4999
  0
LINE
  8
0
  6
CENTER
 62
     2
 10
176.4368
 20
130.4999
 11
176.4368
 21
122.4999
  0
LINE
  8
0
  6
CONTINUOUS
 62
     7
 10
178.9368
 20
129.9999
 11
176.9368
 21
129.9999
  0
LINE
  8
0
  6
CONTINUOUS
 62
     7
 10
178.9368
 20
122.9999
 11
176.9368
 21
122.9999
  0
LINE
  8
0
  6
CONTINUOUS
 62
     7
 10
22.43677
 20
5.00003
 11
46.43677
 21
5.00003
  0
LINE
  8
0
  6
CENTER
 62
     2
 10
34.43677
 20
53.20001
 11
34.43677
 21
-72.19998
  0
LINE
  8
0
  6
CENTER
 62
     2
 10
42.03229
 20
0.00002
 11
47.26233
 21
0.00002
  0
LINE
  8
0
  6
CONTINUOUS
 62
     7
 10
43.43677
 20
1.81384
 11
43.43677
 21
-1.81384
  0
LINE
  8
0
  6
CONTINUOUS
 62
     7
 10
43.43677
 20
1.81386
 11
46.43677
 21
1.81386
  0
LINE
  8
0
  6
CONTINUOUS
 62
     7
 10
43.43677
 20
-1.81383
 11
46.43677
 21
-1.81383
  0
LINE
  8
0
  6
CONTINUOUS
 62
     7
 10
22.43677
 20
22.00003
 11
55.63675
 21
22.00003
  0
LINE
  8
0
  6
CONTINUOUS
 62
     7
 10
46.43677
 20
-66.19998
 11
46.43677
 21
48.20001
  0
LINE
  8
0
  6
CONTINUOUS
 62
     7
 10
22.43677
 20
-66.19998
 11
22.43677
 21
48.20001
  0
LINE
  8
0
  6
CONTINUOUS
 62
     7
 10
22.43677
 20
-39.99998
 11
55.63675
 21
-39.99998
  0
LINE
  8
0
  6
CONTINUOUS
 62
     7
 10
22.43677
 20
-23.0
 11
46.43677
 21
-23.0
  0
LINE
  8
0
  6
CONTINUOUS
 62
     7
 10
22.43677
 20
47.20001
 11
46.43677
 21
47.20001
  0
LINE
  8
0
  6
CONTINUOUS
 62
     7
 10
56.43677
 20
45.70001
 11
56.43677
 21
22.80002
  0
LINE
  8
0
  6
CONTINUOUS
 62
     7
 10
23.43677
 20
50.20001
 11
41.61099
 21
50.20001
  0
LINE
  8
0
  6
CONTINUOUS
 62
     7
 10
22.43677
 20
48.20001
 11
46.43677
 21
48.20001
  0
LINE
  8
0
  6
CONTINUOUS
 62
     7
 10
22.43674
 20
48.20001
 11
23.43675
 21
50.20002
  0
LINE
  8
0
  6
CONTINUOUS
 62
     7
 10
46.43673
 20
48.2
 11
45.43673
 21
50.20001
  0
LINE
  8
0
  6
CONTINUOUS
 62
     7
 10
40.43677
 20
50.20001
 11
40.43677
 21
48.20001
  0
LINE
  8
0
  6
CENTER
 62
     2
 10
43.43677
 20
53.20001
 11
43.43677
 21
44.20001
  0
LINE
  8
0
  6
CONTINUOUS
 62
     7
 10
45.98676
 20
48.80002
 11
40.88675
 21
48.80002
  0
LINE
  8
0
  6
CONTINUOUS
 62
     7
 10
43.13673
 20
48.20002
 11
42.97596
 21
48.80001
  0
LINE
  8
0
  6
CONTINUOUS
 62
     7
 10
43.73684
 20
48.80006
 11
43.89761
 21
48.20005
  0
LINE
  8
0
  6
CONTINUOUS
 62
     7
 10
45.98676
 20
48.80002
 11
45.98676
 21
48.20001
  0
LINE
  8
0
  6
CONTINUOUS
 62
     7
 10
40.88675
 20
48.80002
 11
40.88675
 21
48.20001
  0
LINE
  8
0
  6
CONTINUOUS
 62
     7
 10
45.68677
 20
49.49377
 11
45.68677
 21
48.80002
  0
LINE
  8
0
  6
CONTINUOUS
 62
     7
 10
41.18677
 20
49.49377
 11
41.18677
 21
48.80002
  0
LINE
  8
0
  6
CONTINUOUS
 62
     7
 10
45.26254
 20
50.20001
 11
45.43677
 21
50.20001
  0
LINE
  8
0
  6
CENTER
 62
     2
 10
25.43677
 20
53.20001
 11
25.43677
 21
44.20001
  0
LINE
  8
0
  6
CENTER
 62
     2
 10
50.93677
 20
71.00003
 11
50.93677
 21
43.50003
  0
LINE
  8
0
  6
CONTINUOUS
 62
     7
 10
50.08676
 20
58.00003
 11
50.08676
 21
54.00424
  0
LINE
  8
0
  6
CONTINUOUS
 62
     7
 10
51.78677
 20
58.00003
 11
51.78677
 21
53.54871
  0
LINE
  8
0
  6
CONTINUOUS
 62
     7
 10
50.61676
 20
68.00003
 11
50.61676
 21
58.00003
  0
LINE
  8
0
  6
CONTINUOUS
 62
     7
 10
51.25674
 20
68.00003
 11
51.25674
 21
58.00003
  0
LINE
  8
0
  6
CONTINUOUS
 62
     7
 10
51.78677
 20
58.00003
 11
50.08676
 21
58.00003
  0
LINE
  8
0
  6
CONTINUOUS
 62
     7
 10
51.25674
 20
68.00003
 11
50.61676
 21
68.00003
  0
LINE
  8
0
  6
PHANTOM
 62
     2
 10
48.08674
 20
52.98714
 11
53.78673
 21
51.45983
  0
LINE
  8
0
  6
PHANTOM
 62
     2
 10
48.08676
 20
54.54004
 11
53.78678
 21
53.01273
  0
LINE
  8
0
  6
CONTINUOUS
 62
     7
 10
51.78677
 20
51.99579
 11
51.78677
 21
48.00003
  0
LINE
  8
0
  6
CONTINUOUS
 62
     7
 10
50.08676
 20
52.45132
 11
50.08676
 21
48.00003
  0
LINE
  8
0
  6
CONTINUOUS
 62
     7
 10
47.43677
 20
47.50003
 11
47.43677
 21
46.50003
  0
LINE
  8
0
  6
CONTINUOUS
 62
     7
 10
53.93677
 20
48.00003
 11
47.93677
 21
48.00003
  0
LINE
  8
0
  6
CONTINUOUS
 62
     7
 10
54.43677
 20
47.50003
 11
54.43677
 21
46.50003
  0
LINE
  8
0
  6
CONTINUOUS
 62
     7
 10
46.43677
 20
46.50003
 11
55.63675
 21
46.50003
  0
LINE
  8
0
  6
CONTINUOUS
 62
     7
 10
22.43677
 20
-65.19998
 11
46.43674
 21
-65.19998
  0
LINE
  8
0
  6
CONTINUOUS
 62
     7
 10
56.43674
 20
-63.69998
 11
56.43674
 21
-40.79999
  0
LINE
  8
0
  6
CONTINUOUS
 62
     7
 10
45.43677
 20
-68.19998
 11
27.26251
 21
-68.19998
  0
LINE
  8
0
  6
CONTINUOUS
 62
     7
 10
22.43677
 20
-66.19998
 11
46.43674
 21
-66.19998
  0
LINE
  8
0
  6
CONTINUOUS
 62
     7
 10
46.43669
 20
-66.19997
 11
45.4367
 21
-68.19997
  0
LINE
  8
0
  6
CONTINUOUS
 62
     7
 10
22.43673
 20
-66.2
 11
23.43672
 21
-68.19998
  0
LINE
  8
0
  6
CONTINUOUS
 62
     7
 10
28.43677
 20
-68.19998
 11
28.43677
 21
-66.19998
  0
LINE
  8
0
  6
CENTER
 62
     2
 10
25.43677
 20
-71.19998
 11
25.43677
 21
-62.19998
  0
LINE
  8
0
  6
CONTINUOUS
 62
     7
 10
22.88675
 20
-66.79999
 11
27.98676
 21
-66.79999
  0
LINE
  8
0
  6
CONTINUOUS
 62
     7
 10
25.73666
 20
-66.20001
 11
25.89743
 21
-66.80002
  0
LINE
  8
0
  6
CONTINUOUS
 62
     7
 10
25.13666
 20
-66.8
 11
24.97588
 21
-66.19999
  0
LINE
  8
0
  6
CONTINUOUS
 62
     7
 10
22.88675
 20
-66.79999
 11
22.88675
 21
-66.19998
  0
LINE
  8
0
  6
CONTINUOUS
 62
     7
 10
27.98676
 20
-66.79999
 11
27.98676
 21
-66.19998
  0
LINE
  8
0
  6
CONTINUOUS
 62
     7
 10
23.18677
 20
-67.49373
 11
23.18677
 21
-66.79999
  0
LINE
  8
0
  6
CONTINUOUS
 62
     7
 10
27.68677
 20
-67.49373
 11
27.68677
 21
-66.79999
  0
LINE
  8
0
  6
CONTINUOUS
 62
     7
 10
23.61099
 20
-68.19998
 11
23.43677
 21
-68.19998
  0
LINE
  8
0
  6
CENTER
 62
     2
 10
43.43677
 20
-71.19998
 11
43.43677
 21
-62.19998
  0
LINE
  8
0
  6
CONTINUOUS
 62
     7
 10
46.43674
 20
-64.49998
 11
55.63675
 21
-64.49998
  0
LINE
  8
0
  6
CENTER
 62
     2
 10
50.93674
 20
-88.99998
 11
50.93674
 21
-61.49998
  0
LINE
  8
0
  6
CONTINUOUS
 62
     7
 10
51.78674
 20
-75.99998
 11
51.78674
 21
-72.0042
  0
LINE
  8
0
  6
CONTINUOUS
 62
     7
 10
50.08676
 20
-75.99998
 11
50.08676
 21
-71.54869
  0
LINE
  8
0
  6
CONTINUOUS
 62
     7
 10
51.25674
 20
-85.99998
 11
51.25674
 21
-75.99998
  0
LINE
  8
0
  6
CONTINUOUS
 62
     7
 10
50.61676
 20
-85.99998
 11
50.61676
 21
-75.99998
  0
LINE
  8
0
  6
CONTINUOUS
 62
     7
 10
50.08676
 20
-75.99998
 11
51.78674
 21
-75.99998
  0
LINE
  8
0
  6
CONTINUOUS
 62
     7
 10
50.61673
 20
-85.99998
 11
51.25674
 21
-85.99998
  0
LINE
  8
0
  6
PHANTOM
 62
     2
 10
53.78673
 20
-70.98721
 11
48.08674
 21
-69.4599
  0
LINE
  8
0
  6
PHANTOM
 62
     2
 10
53.78674
 20
-72.54012
 11
48.08675
 21
-71.01281
  0
LINE
  8
0
  6
CONTINUOUS
 62
     7
 10
50.08676
 20
-69.99577
 11
50.08676
 21
-65.99998
  0
LINE
  8
0
  6
CONTINUOUS
 62
     7
 10
51.78674
 20
-70.45129
 11
51.78674
 21
-65.99998
  0
LINE
  8
0
  6
CONTINUOUS
 62
     7
 10
54.43674
 20
-65.49998
 11
54.43674
 21
-64.49998
  0
LINE
  8
0
  6
CONTINUOUS
 62
     7
 10
47.93674
 20
-65.99998
 11
53.93674
 21
-65.99998
  0
LINE
  8
0
  6
CONTINUOUS
 62
     7
 10
47.43674
 20
-65.49998
 11
47.43674
 21
-64.49998
  0
ARC
  8
0
  6
CONTINUOUS
 62
     7
 10
273.0354
 20
-235.0457
 40
2.21188
 50
0.0
 51
89.99999
  0
ARC
  8
0
  6
CONTINUOUS
 62
     7
 10
291.2836
 20
-246.9346
 40
2.2119
 50
270.0
 51
0.0
  0
ARC
  8
0
  6
CONTINUOUS
 62
     7
 10
290.1776
 20
-236.1516
 40
3.31784
 50
0.0
 51
89.99999
  0
ARC
  8
0
  6
CONTINUOUS
 62
     7
 10
310.3611
 20
-236.8128
 40
2.21189
 50
295.0
 51
0.0
  0
ARC
  8
0
  6
CONTINUOUS
 62
     7
 10
310.3611
 20
-235.0457
 40
2.21188
 50
0.0
 51
89.99999
  0
ARC
  8
0
  6
CONTINUOUS
 62
     7
 10
327.5034
 20
-232.8338
 40
3.31784
 50
291.6884
 51
0.0
  0
ARC
  8
0
  6
CONTINUOUS
 62
     7
 10
326.3973
 20
-232.0834
 40
1.10595
 50
291.689
 51
0.0
  0
CIRCLE
  8
0
  6
CONTINUOUS
 62
     7
 10
-201.4368
 20
-4.0
 40
1.6
  0
CIRCLE
  8
0
  6
CONTINUOUS
 62
     7
 10
-201.4368
 20
-14.0
 40
1.6
  0
ARC
  8
0
  6
CONTINUOUS
 62
     7
 10
-173.2368
 20
22.8
 40
0.8
 50
270.0
 51
0.0
  0
ARC
  8
0
  6
CONTINUOUS
 62
     7
 10
-173.2368
 20
22.8
 40
0.8
 50
270.0
 51
0.0
  0
ARC
  8
0
  6
CONTINUOUS
 62
     7
 10
-185.4368
 20
44.5
 40
6.0
 50
73.80862
 51
106.1914
  0
ARC
  8
0
  6
CONTINUOUS
 62
     7
 10
-183.9868
 20
49.49374
 40
0.8
 50
0.0
 51
73.8082
  0
ARC
  8
0
  6
CONTINUOUS
 62
     7
 10
-186.8868
 20
49.49374
 40
0.8
 50
106.1918
 51
180.0
  0
ARC
  8
0
  6
CONTINUOUS
 62
     7
 10
-203.4368
 20
44.49998
 40
6.0
 50
73.80862
 51
106.1914
  0
ARC
  8
0
  6
CONTINUOUS
 62
     7
 10
-204.8868
 20
49.49374
 40
0.8
 50
106.1918
 51
118.0138
  0
ARC
  8
0
  6
CONTINUOUS
 62
     7
 10
-201.9868
 20
49.49374
 40
0.8
 50
61.98621
 51
73.8082
  0
ARC
  8
0
  6
CONTINUOUS
 62
     7
 10
-173.2368
 20
45.70001
 40
0.8
 50
0.0
 51
89.99999
  0
ARC
  8
0
  6
CONTINUOUS
 62
     7
 10
-180.9368
 20
47.5
 40
0.5
 50
89.99999
 51
180.0
  0
ARC
  8
0
  6
CONTINUOUS
 62
     7
 10
-174.9368
 20
47.5
 40
0.5
 50
0.0
 51
89.99999
  0
ARC
  8
0
  6
CONTINUOUS
 62
     7
 10
-173.2368
 20
-40.79999
 40
0.8
 50
0.0
 51
89.99999
  0
ARC
  8
0
  6
CONTINUOUS
 62
     7
 10
-203.4368
 20
-62.5
 40
6.0
 50
253.8086
 51
286.1914
  0
ARC
  8
0
  6
CONTINUOUS
 62
     7
 10
-204.8867
 20
-67.49374
 40
0.8
 50
180.0
 51
253.8083
  0
ARC
  8
0
  6
CONTINUOUS
 62
     7
 10
-201.9868
 20
-67.49374
 40
0.80001
 50
286.1917
 51
0.0
  0
ARC
  8
0
  6
CONTINUOUS
 62
     7
 10
-185.4368
 20
-62.49997
 40
6.0
 50
253.8086
 51
286.1914
  0
ARC
  8
0
  6
CONTINUOUS
 62
     7
 10
-183.9868
 20
-67.49374
 40
0.80001
 50
286.1917
 51
298.0138
  0
ARC
  8
0
  6
CONTINUOUS
 62
     7
 10
-186.8867
 20
-67.49374
 40
0.8
 50
241.9862
 51
253.8083
  0
ARC
  8
0
  6
CONTINUOUS
 62
     7
 10
-173.2368
 20
-63.69998
 40
0.8
 50
270.0
 51
0.0
  0
ARC
  8
0
  6
CONTINUOUS
 62
     7
 10
-174.9368
 20
-65.5
 40
0.5
 50
270.0
 51
0.0
  0
ARC
  8
0
  6
CONTINUOUS
 62
     7
 10
-180.9368
 20
-65.5
 40
0.5
 50
180.0
 51
270.0
  0
ARC
  8
0
  6
CONTINUOUS
 62
     7
 10
-185.4367
 20
138.4999
 40
3.0
 50
89.99999
 51
180.0
  0
ARC
  8
0
  6
CONTINUOUS
 62
     7
 10
-203.4367
 20
147.4999
 40
3.0
 50
270.0
 51
0.0
  0
ARC
  8
0
  6
CONTINUOUS
 62
     7
 10
-185.4367
 20
138.4999
 40
2.55
 50
276.7564
 51
263.2436
  0
ARC
  8
0
  6
CONTINUOUS
 62
     7
 10
-203.4367
 20
147.4999
 40
2.55
 50
96.7564
 51
83.24359
  0
CIRCLE
  8
0
  6
CONTINUOUS
 62
     7
 10
-185.4367
 20
138.4999
 40
2.25
  0
ARC
  8
0
  6
CONTINUOUS
 62
     7
 10
-185.4367
 20
139.603
 40
0.51999
 50
225.0
 51
315.0
  0
ARC
  8
0
  6
CONTINUOUS
 62
     7
 10
-186.5398
 20
138.4999
 40
0.51999
 50
315.0
 51
45.0
  0
ARC
  8
0
  6
CONTINUOUS
 62
     7
 10
-184.3336
 20
138.4999
 40
0.51999
 50
135.0
 51
225.0
  0
ARC
  8
0
  6
CONTINUOUS
 62
     7
 10
-185.4367
 20
137.3969
 40
0.51999
 50
45.0
 51
135.0
  0
CIRCLE
  8
0
  6
CONTINUOUS
 62
     7
 10
-203.4367
 20
147.4999
 40
2.25
  0
ARC
  8
0
  6
CONTINUOUS
 62
     7
 10
-203.4367
 20
148.603
 40
0.51999
 50
225.0
 51
315.0
  0
ARC
  8
0
  6
CONTINUOUS
 62
     7
 10
-204.5398
 20
147.4999
 40
0.51999
 50
315.0
 51
45.0
  0
ARC
  8
0
  6
CONTINUOUS
 62
     7
 10
-202.3337
 20
147.4999
 40
0.51999
 50
135.0
 51
225.0
  0
ARC
  8
0
  6
CONTINUOUS
 62
     7
 10
-203.4367
 20
146.3969
 40
0.51999
 50
45.0
 51
135.0
  0
ARC
  8
0
  6
CONTINUOUS
 62
     7
 10
-205.9367
 20
149.9999
 40
0.5
 50
89.99999
 51
180.0
  0
ARC
  8
0
  6
CONTINUOUS
 62
     7
 10
-205.9367
 20
135.9999
 40
0.5
 50
180.0
 51
270.0
  0
ARC
  8
0
  6
CONTINUOUS
 62
     7
 10
-173.2368
 20
149.2
 40
0.8
 50
0.0
 51
89.99999
  0
ARC
  8
0
  6
CONTINUOUS
 62
     7
 10
-173.2368
 20
136.7999
 40
0.8
 50
270.0
 51
0.0
  0
ARC
  8
0
  6
CONTINUOUS
 62
     7
 10
-177.9367
 20
143.9999
 40
3.5
 50
0.0
 51
180.0
  0
ARC
  8
0
  6
CONTINUOUS
 62
     7
 10
-177.9367
 20
141.9999
 40
3.5
 50
180.0
 51
0.0
  0
CIRCLE
  8
0
  6
CONTINUOUS
 62
     7
 10
-177.9367
 20
141.4999
 40
0.85
  0
CIRCLE
  8
0
  6
CONTINUOUS
 62
     7
 10
-177.9367
 20
144.4999
 40
0.85
  0
CIRCLE
  8
0
  6
CONTINUOUS
 62
     7
 10
-309.9367
 20
1.00006
 40
1.75
  0
CIRCLE
  8
0
  6
CONTINUOUS
 62
     7
 10
-306.9367
 20
-8.99994
 40
1.75
  0
CIRCLE
  8
0
  6
CONTINUOUS
 62
     7
 10
-303.9367
 20
-18.99994
 40
1.75
  0
CIRCLE
  8
0
  6
CONTINUOUS
 62
     7
 10
-309.9367
 20
1.00006
 40
2.5
  0
CIRCLE
  8
0
  6
CONTINUOUS
 62
     7
 10
-306.9367
 20
-8.99994
 40
2.5
  0
CIRCLE
  8
0
  6
CONTINUOUS
 62
     7
 10
-303.9367
 20
-18.99994
 40
2.5
  0
CIRCLE
  8
0
  6
CENTER
 62
     2
 10
-312.4367
 20
-17.99994
 40
1.4
  0
CIRCLE
  8
0
  6
CONTINUOUS
 62
     7
 10
-301.4367
 20
0.00006
 40
1.4
  0
CIRCLE
  8
0
  6
CONTINUOUS
 62
     7
 10
-306.9367
 20
13.70006
 40
2.0
  0
CIRCLE
  8
0
  6
CONTINUOUS
 62
     7
 10
-306.9367
 20
13.70006
 40
2.65
  0
CIRCLE
  8
0
  6
CONTINUOUS
 62
     7
 10
-306.9367
 20
-31.69995
 40
2.0
  0
CIRCLE
  8
0
  6
CONTINUOUS
 62
     7
 10
-306.9367
 20
-31.69995
 40
2.65
  0
ARC
  8
0
  6
CONTINUOUS
 62
     7
 10
-310.3829
 20
42.95337
 40
0.35345
 50
0.0
 51
89.99999
  0
ARC
  8
0
  6
CONTINUOUS
 62
     7
 10
-307.4669
 20
41.05351
 40
0.35346
 50
270.0
 51
0.0
  0
ARC
  8
0
  6
CONTINUOUS
 62
     7
 10
-307.6436
 20
42.77664
 40
0.53018
 50
0.0
 51
89.99999
  0
ARC
  8
0
  6
CONTINUOUS
 62
     7
 10
-304.4182
 20
42.95337
 40
0.35345
 50
0.0
 51
89.99999
  0
ARC
  8
0
  6
CONTINUOUS
 62
     7
 10
-304.4182
 20
42.67099
 40
0.35347
 50
295.0005
 51
0.0
  0
ARC
  8
0
  6
CONTINUOUS
 62
     7
 10
-301.6789
 20
43.30684
 40
0.53019
 50
291.6869
 51
0.0
  0
ARC
  8
0
  6
CONTINUOUS
 62
     7
 10
-301.8557
 20
43.42676
 40
0.17673
 50
291.687
 51
0.0
  0
ARC
  8
0
  6
CONTINUOUS
 62
     7
 10
-312.8867
 20
49.49379
 40
0.8
 50
106.1918
 51
180.0
  0
ARC
  8
0
  6
CONTINUOUS
 62
     7
 10
-311.4367
 20
44.50005
 40
6.0
 50
73.80876
 51
106.1912
  0
ARC
  8
0
  6
CONTINUOUS
 62
     7
 10
-309.9867
 20
49.4938
 40
0.79999
 50
0.0
 51
73.8082
  0
ARC
  8
0
  6
CONTINUOUS
 62
     7
 10
-302.4367
 20
44.50005
 40
6.0
 50
73.80876
 51
106.1912
  0
ARC
  8
0
  6
CONTINUOUS
 62
     7
 10
-303.8867
 20
49.49379
 40
0.8
 50
106.1918
 51
118.0148
  0
ARC
  8
0
  6
CONTINUOUS
 62
     7
 10
-300.9867
 20
49.4938
 40
0.80001
 50
61.98524
 51
73.8082
  0
ARC
  8
0
  6
CONTINUOUS
 62
     7
 10
-303.4904
 20
-60.95325
 40
0.35345
 50
180.0
 51
270.0
  0
ARC
  8
0
  6
CONTINUOUS
 62
     7
 10
-306.4065
 20
-59.05338
 40
0.35346
 50
89.99999
 51
180.0
  0
ARC
  8
0
  6
CONTINUOUS
 62
     7
 10
-306.2298
 20
-60.77652
 40
0.53018
 50
180.0
 51
270.0
  0
ARC
  8
0
  6
CONTINUOUS
 62
     7
 10
-309.4551
 20
-60.95325
 40
0.35345
 50
180.0
 51
270.0
  0
ARC
  8
0
  6
CONTINUOUS
 62
     7
 10
-309.4551
 20
-60.67087
 40
0.35347
 50
115.0005
 51
180.0
  0
ARC
  8
0
  6
CONTINUOUS
 62
     7
 10
-312.1944
 20
-61.30673
 40
0.53019
 50
111.6869
 51
180.0
  0
ARC
  8
0
  6
CONTINUOUS
 62
     7
 10
-312.0177
 20
-61.42664
 40
0.17673
 50
111.687
 51
180.0
  0
ARC
  8
0
  6
CONTINUOUS
 62
     7
 10
-300.9867
 20
-67.49368
 40
0.80001
 50
286.1917
 51
0.0
  0
ARC
  8
0
  6
CONTINUOUS
 62
     7
 10
-302.4367
 20
-62.49991
 40
6.0
 50
253.8088
 51
286.1912
  0
ARC
  8
0
  6
CONTINUOUS
 62
     7
 10
-303.8867
 20
-67.49368
 40
0.79999
 50
180.0
 51
253.8083
  0
ARC
  8
0
  6
CONTINUOUS
 62
     7
 10
-311.4367
 20
-62.49994
 40
6.0
 50
253.8088
 51
286.1912
  0
ARC
  8
0
  6
CONTINUOUS
 62
     7
 10
-309.9867
 20
-67.49368
 40
0.80001
 50
286.1917
 51
298.0148
  0
ARC
  8
0
  6
CONTINUOUS
 62
     7
 10
-312.8867
 20
-67.49368
 40
0.80001
 50
241.9852
 51
253.8083
  0
CIRCLE
  8
0
  6
CONTINUOUS
 62
     7
 10
-53.93674
 20
-14.00009
 40
1.75
  0
CIRCLE
  8
0
  6
CONTINUOUS
 62
     7
 10
-47.93674
 20
-4.00009
 40
1.75
  0
CIRCLE
  8
0
  6
CONTINUOUS
 62
     7
 10
-47.93674
 20
-4.00009
 40
2.5
  0
CIRCLE
  8
0
  6
CONTINUOUS
 62
     7
 10
-53.93674
 20
-14.00009
 40
2.5
  0
CIRCLE
  8
0
  6
CONTINUOUS
 62
     7
 10
-56.43674
 20
-0.00009
 40
1.4
  0
CIRCLE
  8
0
  6
CONTINUOUS
 62
     7
 10
-45.43674
 20
-18.00009
 40
1.4
  0
ARC
  8
0
  6
CONTINUOUS
 62
     7
 10
-45.43674
 20
-18.00009
 40
2.7
 50
42.20544
 51
317.7946
  0
ARC
  8
0
  6
CONTINUOUS
 62
     7
 10
-56.43674
 20
-0.00009
 40
2.7
 50
0.0
 51
137.7946
  0
ARC
  8
0
  6
CONTINUOUS
 62
     7
 10
-56.43674
 20
-0.00009
 40
2.7
 50
222.2054
 51
0.0
  0
CIRCLE
  8
0
  6
CONTINUOUS
 62
     7
 10
-50.93674
 20
18.49991
 40
1.65
  0
CIRCLE
  8
0
  6
CONTINUOUS
 62
     7
 10
-50.93674
 20
-36.50009
 40
1.65
  0
ARC
  8
0
  6
CONTINUOUS
 62
     7
 10
-57.13673
 20
22.79991
 40
0.8
 50
180.0
 51
270.0
  0
ARC
  8
0
  6
CONTINUOUS
 62
     7
 10
-44.73674
 20
22.79991
 40
0.8
 50
270.0
 51
0.0
  0
ARC
  8
0
  6
CONTINUOUS
 62
     7
 10
-44.73674
 20
-40.80008
 40
0.8
 50
0.0
 51
89.99999
  0
ARC
  8
0
  6
CONTINUOUS
 62
     7
 10
-57.13673
 20
-40.80008
 40
0.8
 50
89.99999
 51
180.0
  0
ARC
  8
0
  6
CONTINUOUS
 62
     7
 10
-57.13673
 20
22.79991
 40
0.8
 50
180.0
 51
270.0
  0
ARC
  8
0
  6
CONTINUOUS
 62
     7
 10
-44.73674
 20
22.79991
 40
0.8
 50
270.0
 51
0.0
  0
ARC
  8
0
  6
CONTINUOUS
 62
     7
 10
-55.43674
 20
44.49989
 40
6.0
 50
73.80869
 51
106.1913
  0
ARC
  8
0
  6
CONTINUOUS
 62
     7
 10
-53.98674
 20
49.49365
 40
0.8
 50
28.9544
 51
73.80872
  0
ARC
  8
0
  6
CONTINUOUS
 62
     7
 10
-56.88673
 20
49.49364
 40
0.8
 50
106.1913
 51
180.0
  0
ARC
  8
0
  6
CONTINUOUS
 62
     7
 10
-46.43674
 20
44.49989
 40
6.0
 50
73.80865
 51
106.1913
  0
ARC
  8
0
  6
CONTINUOUS
 62
     7
 10
-47.88673
 20
49.49364
 40
0.8
 50
106.1913
 51
118.0138
  0
ARC
  8
0
  6
CONTINUOUS
 62
     7
 10
-44.98674
 20
49.49365
 40
0.8
 50
61.98621
 51
73.80872
  0
ARC
  8
0
  6
CONTINUOUS
 62
     7
 10
-57.13673
 20
45.69991
 40
0.8
 50
89.99999
 51
180.0
  0
ARC
  8
0
  6
CONTINUOUS
 62
     7
 10
-44.73674
 20
45.69992
 40
0.8
 50
0.0
 51
89.99999
  0
ARC
  8
0
  6
CONTINUOUS
 62
     7
 10
-54.93674
 20
47.49991
 40
0.5
 50
89.99999
 51
180.0
  0
ARC
  8
0
  6
CONTINUOUS
 62
     7
 10
-46.93674
 20
47.49991
 40
0.5
 50
0.0
 51
89.99999
  0
ARC
  8
0
  6
CONTINUOUS
 62
     7
 10
-44.73674
 20
-40.80008
 40
0.8
 50
0.0
 51
89.99999
  0
ARC
  8
0
  6
CONTINUOUS
 62
     7
 10
-57.13673
 20
-40.80008
 40
0.8
 50
89.99999
 51
180.0
  0
ARC
  8
0
  6
CONTINUOUS
 62
     7
 10
-46.43672
 20
-62.50009
 40
6.0
 50
253.8087
 51
286.1913
  0
ARC
  8
0
  6
CONTINUOUS
 62
     7
 10
-47.88672
 20
-67.4938
 40
0.8
 50
208.9544
 51
253.8088
  0
ARC
  8
0
  6
CONTINUOUS
 62
     7
 10
-44.98672
 20
-67.4938
 40
0.8
 50
286.1912
 51
0.0
  0
ARC
  8
0
  6
CONTINUOUS
 62
     7
 10
-55.43672
 20
-62.50009
 40
6.0
 50
253.8087
 51
286.1913
  0
ARC
  8
0
  6
CONTINUOUS
 62
     7
 10
-53.98672
 20
-67.49384
 40
0.8
 50
286.1912
 51
298.0138
  0
ARC
  8
0
  6
CONTINUOUS
 62
     7
 10
-56.88672
 20
-67.49384
 40
0.8
 50
241.9862
 51
253.8088
  0
ARC
  8
0
  6
CONTINUOUS
 62
     7
 10
-44.73672
 20
-63.7001
 40
0.8
 50
270.0
 51
0.0
  0
ARC
  8
0
  6
CONTINUOUS
 62
     7
 10
-57.13672
 20
-63.7001
 40
0.8
 50
180.0
 51
270.0
  0
ARC
  8
0
  6
CONTINUOUS
 62
     7
 10
-46.93672
 20
-65.50009
 40
0.5
 50
270.0
 51
0.0
  0
ARC
  8
0
  6
CONTINUOUS
 62
     7
 10
-54.93672
 20
-65.50009
 40
0.5
 50
180.0
 51
270.0
  0
ARC
  8
0
  6
CONTINUOUS
 62
     7
 10
-185.4367
 20
-173.5
 40
3.0
 50
89.99999
 51
180.0
  0
ARC
  8
0
  6
CONTINUOUS
 62
     7
 10
-203.4367
 20
-164.5
 40
3.0
 50
270.0
 51
0.0
  0
ARC
  8
0
  6
CONTINUOUS
 62
     7
 10
-185.4367
 20
-173.5
 40
2.55
 50
276.7564
 51
263.2436
  0
ARC
  8
0
  6
CONTINUOUS
 62
     7
 10
-203.4367
 20
-164.5
 40
2.55
 50
96.7564
 51
83.24359
  0
CIRCLE
  8
0
  6
CONTINUOUS
 62
     7
 10
-185.4367
 20
-173.5
 40
2.25
  0
ARC
  8
0
  6
CONTINUOUS
 62
     7
 10
-185.4367
 20
-172.3969
 40
0.51999
 50
225.0
 51
315.0
  0
ARC
  8
0
  6
CONTINUOUS
 62
     7
 10
-186.5398
 20
-173.5
 40
0.51999
 50
315.0
 51
45.0
  0
ARC
  8
0
  6
CONTINUOUS
 62
     7
 10
-184.3336
 20
-173.5
 40
0.51999
 50
135.0
 51
225.0
  0
ARC
  8
0
  6
CONTINUOUS
 62
     7
 10
-185.4367
 20
-174.6031
 40
0.51999
 50
45.0
 51
135.0
  0
CIRCLE
  8
0
  6
CONTINUOUS
 62
     7
 10
-203.4367
 20
-164.5
 40
2.25
  0
ARC
  8
0
  6
CONTINUOUS
 62
     7
 10
-203.4367
 20
-163.3969
 40
0.51999
 50
225.0
 51
315.0
  0
ARC
  8
0
  6
CONTINUOUS
 62
     7
 10
-204.5398
 20
-164.5
 40
0.51999
 50
315.0
 51
45.0
  0
ARC
  8
0
  6
CONTINUOUS
 62
     7
 10
-202.3337
 20
-164.5
 40
0.51999
 50
135.0
 51
225.0
  0
ARC
  8
0
  6
CONTINUOUS
 62
     7
 10
-203.4367
 20
-165.6031
 40
0.51999
 50
45.0
 51
135.0
  0
ARC
  8
0
  6
CONTINUOUS
 62
     7
 10
-205.9367
 20
-162.0
 40
0.5
 50
89.99999
 51
180.0
  0
ARC
  8
0
  6
CONTINUOUS
 62
     7
 10
-205.9367
 20
-176.0
 40
0.5
 50
180.0
 51
270.0
  0
ARC
  8
0
  6
CONTINUOUS
 62
     7
 10
-173.2368
 20
-162.8
 40
0.8
 50
0.0
 51
89.99999
  0
ARC
  8
0
  6
CONTINUOUS
 62
     7
 10
-173.2368
 20
-175.2
 40
0.8
 50
270.0
 51
0.0
  0
ARC
  8
0
  6
CONTINUOUS
 62
     7
 10
-177.9367
 20
-168.0
 40
3.5
 50
0.0
 51
180.0
  0
ARC
  8
0
  6
CONTINUOUS
 62
     7
 10
-177.9367
 20
-170.0
 40
3.5
 50
180.0
 51
0.0
  0
CIRCLE
  8
0
  6
CONTINUOUS
 62
     7
 10
-177.9367
 20
-170.5
 40
0.85
  0
CIRCLE
  8
0
  6
CONTINUOUS
 62
     7
 10
-177.9367
 20
-167.5
 40
0.85
  0
ARC
  8
0
  6
CONTINUOUS
 62
     7
 10
182.4368
 20
-160.0
 40
3.0
 50
180.0
 51
270.0
  0
ARC
  8
0
  6
CONTINUOUS
 62
     7
 10
173.4368
 20
-178.0
 40
3.0
 50
0.0
 51
89.99999
  0
ARC
  8
0
  6
CONTINUOUS
 62
     7
 10
182.4368
 20
-160.0
 40
2.55
 50
6.75641
 51
353.2436
  0
ARC
  8
0
  6
CONTINUOUS
 62
     7
 10
173.4368
 20
-178.0
 40
2.55
 50
186.7564
 51
173.2436
  0
CIRCLE
  8
0
  6
CONTINUOUS
 62
     7
 10
182.4368
 20
-160.0
 40
2.25
  0
ARC
  8
0
  6
CONTINUOUS
 62
     7
 10
181.3337
 20
-160.0
 40
0.51999
 50
315.0
 51
45.0
  0
ARC
  8
0
  6
CONTINUOUS
 62
     7
 10
182.4368
 20
-161.1031
 40
0.51999
 50
45.0
 51
135.0
  0
ARC
  8
0
  6
CONTINUOUS
 62
     7
 10
182.4368
 20
-158.8969
 40
0.51999
 50
225.0
 51
315.0
  0
ARC
  8
0
  6
CONTINUOUS
 62
     7
 10
183.5399
 20
-160.0
 40
0.51999
 50
135.0
 51
225.0
  0
CIRCLE
  8
0
  6
CONTINUOUS
 62
     7
 10
173.4368
 20
-178.0
 40
2.25
  0
ARC
  8
0
  6
CONTINUOUS
 62
     7
 10
172.3337
 20
-178.0
 40
0.51999
 50
315.0
 51
45.0
  0
ARC
  8
0
  6
CONTINUOUS
 62
     7
 10
173.4368
 20
-179.1031
 40
0.51999
 50
45.0
 51
135.0
  0
ARC
  8
0
  6
CONTINUOUS
 62
     7
 10
173.4368
 20
-176.8969
 40
0.51999
 50
225.0
 51
315.0
  0
ARC
  8
0
  6
CONTINUOUS
 62
     7
 10
174.5399
 20
-178.0
 40
0.51999
 50
135.0
 51
225.0
  0
ARC
  8
0
  6
CONTINUOUS
 62
     7
 10
170.9368
 20
-180.5
 40
0.5
 50
180.0
 51
270.0
  0
ARC
  8
0
  6
CONTINUOUS
 62
     7
 10
184.9368
 20
-180.5
 40
0.5
 50
270.0
 51
0.0
  0
ARC
  8
0
  6
CONTINUOUS
 62
     7
 10
171.7368
 20
-147.8
 40
0.8
 50
89.99999
 51
180.0
  0
ARC
  8
0
  6
CONTINUOUS
 62
     7
 10
184.1368
 20
-147.8
 40
0.8
 50
0.0
 51
89.99999
  0
ARC
  8
0
  6
CONTINUOUS
 62
     7
 10
176.9368
 20
-152.5
 40
3.5
 50
89.99999
 51
270.0
  0
ARC
  8
0
  6
CONTINUOUS
 62
     7
 10
178.9368
 20
-152.5
 40
3.5
 50
270.0
 51
89.99999
  0
CIRCLE
  8
0
  6
CONTINUOUS
 62
     7
 10
179.4368
 20
-152.5
 40
0.85
  0
CIRCLE
  8
0
  6
CONTINUOUS
 62
     7
 10
176.4368
 20
-152.5
 40
0.85
  0
ARC
  8
0
  6
CONTINUOUS
 62
     7
 10
299.2368
 20
22.7999
 40
0.79999
 50
180.0
 51
270.0
  0
ARC
  8
0
  6
CONTINUOUS
 62
     7
 10
329.4368
 20
44.49991
 40
6.0
 50
73.80876
 51
106.1912
  0
ARC
  8
0
  6
CONTINUOUS
 62
     7
 10
330.8868
 20
49.49365
 40
0.79999
 50
0.0
 51
73.8082
  0
ARC
  8
0
  6
CONTINUOUS
 62
     7
 10
327.9868
 20
49.49365
 40
0.8
 50
106.1918
 51
180.0
  0
ARC
  8
0
  6
CONTINUOUS
 62
     7
 10
311.4368
 20
44.49991
 40
6.0
 50
73.80876
 51
106.1912
  0
ARC
  8
0
  6
CONTINUOUS
 62
     7
 10
309.9868
 20
49.49365
 40
0.8
 50
106.1918
 51
118.0148
  0
ARC
  8
0
  6
CONTINUOUS
 62
     7
 10
312.8868
 20
49.49365
 40
0.80001
 50
61.98524
 51
73.8082
  0
ARC
  8
0
  6
CONTINUOUS
 62
     7
 10
299.2368
 20
45.69992
 40
0.8
 50
89.99999
 51
180.0
  0
ARC
  8
0
  6
CONTINUOUS
 62
     7
 10
300.9368
 20
47.49991
 40
0.5
 50
89.99999
 51
180.0
  0
ARC
  8
0
  6
CONTINUOUS
 62
     7
 10
306.9368
 20
47.49991
 40
0.5
 50
0.0
 51
89.99999
  0
ARC
  8
0
  6
CONTINUOUS
 62
     7
 10
299.2368
 20
-40.80008
 40
0.8
 50
89.99999
 51
180.0
  0
ARC
  8
0
  6
CONTINUOUS
 62
     7
 10
311.4368
 20
-62.50009
 40
6.0
 50
253.8088
 51
286.1912
  0
ARC
  8
0
  6
CONTINUOUS
 62
     7
 10
309.9868
 20
-67.49384
 40
0.79999
 50
180.0
 51
253.8083
  0
ARC
  8
0
  6
CONTINUOUS
 62
     7
 10
312.8868
 20
-67.49384
 40
0.8
 50
286.1919
 51
0.0
  0
ARC
  8
0
  6
CONTINUOUS
 62
     7
 10
329.4368
 20
-62.50009
 40
6.0
 50
253.8088
 51
286.1912
  0
ARC
  8
0
  6
CONTINUOUS
 62
     7
 10
330.8868
 20
-67.49384
 40
0.8
 50
286.1919
 51
298.0148
  0
ARC
  8
0
  6
CONTINUOUS
 62
     7
 10
327.9868
 20
-67.49384
 40
0.79999
 50
241.9872
 51
253.8083
  0
ARC
  8
0
  6
CONTINUOUS
 62
     7
 10
299.2368
 20
-63.70009
 40
0.79999
 50
180.0
 51
270.0
  0
ARC
  8
0
  6
CONTINUOUS
 62
     7
 10
306.9368
 20
-65.50009
 40
0.5
 50
270.0
 51
0.0
  0
ARC
  8
0
  6
CONTINUOUS
 62
     7
 10
300.9368
 20
-65.50009
 40
0.5
 50
180.0
 51
270.0
  0
ARC
  8
0
  6
CONTINUOUS
 62
     7
 10
172.4368
 20
0.0
 40
2.7
 50
222.2054
 51
0.0
  0
ARC
  8
0
  6
CONTINUOUS
 62
     7
 10
172.4368
 20
0.0
 40
2.7
 50
0.0
 51
137.7946
  0
ARC
  8
0
  6
CONTINUOUS
 62
     7
 10
183.4368
 20
-18.0
 40
2.7
 50
42.20544
 51
317.7946
  0
CIRCLE
  8
0
  6
CONTINUOUS
 62
     7
 10
183.4368
 20
-18.0
 40
1.4
  0
CIRCLE
  8
0
  6
CONTINUOUS
 62
     7
 10
172.4368
 20
0.0
 40
1.4
  0
CIRCLE
  8
0
  6
CONTINUOUS
 62
     7
 10
177.9368
 20
18.5
 40
1.65
  0
CIRCLE
  8
0
  6
CONTINUOUS
 62
     7
 10
177.9368
 20
-36.5
 40
1.65
  0
ARC
  8
0
  6
CONTINUOUS
 62
     7
 10
181.9368
 20
47.5
 40
0.5
 50
0.0
 51
89.99999
  0
ARC
  8
0
  6
CONTINUOUS
 62
     7
 10
173.9368
 20
47.5
 40
0.5
 50
89.99999
 51
180.0
  0
ARC
  8
0
  6
CONTINUOUS
 62
     7
 10
171.7368
 20
22.79999
 40
0.8
 50
180.0
 51
270.0
  0
ARC
  8
0
  6
CONTINUOUS
 62
     7
 10
184.1368
 20
22.79999
 40
0.8
 50
270.0
 51
0.0
  0
ARC
  8
0
  6
CONTINUOUS
 62
     7
 10
173.4368
 20
44.5
 40
6.0
 50
73.80862
 51
106.1914
  0
ARC
  8
0
  6
CONTINUOUS
 62
     7
 10
174.8868
 20
49.49374
 40
0.79999
 50
28.95467
 51
73.8082
  0
ARC
  8
0
  6
CONTINUOUS
 62
     7
 10
171.9868
 20
49.49374
 40
0.8
 50
106.1918
 51
180.0
  0
ARC
  8
0
  6
CONTINUOUS
 62
     7
 10
182.4368
 20
44.5
 40
6.0
 50
73.80862
 51
106.1914
  0
ARC
  8
0
  6
CONTINUOUS
 62
     7
 10
180.9868
 20
49.49374
 40
0.8
 50
106.1918
 51
118.0138
  0
ARC
  8
0
  6
CONTINUOUS
 62
     7
 10
183.8868
 20
49.49374
 40
0.8
 50
61.98621
 51
73.8082
  0
ARC
  8
0
  6
CONTINUOUS
 62
     7
 10
171.7368
 20
45.70001
 40
0.8
 50
89.99999
 51
180.0
  0
ARC
  8
0
  6
CONTINUOUS
 62
     7
 10
184.1368
 20
45.70001
 40
0.8
 50
0.0
 51
89.99999
  0
ARC
  8
0
  6
CONTINUOUS
 62
     7
 10
173.9368
 20
-65.5
 40
0.5
 50
180.0
 51
270.0
  0
ARC
  8
0
  6
CONTINUOUS
 62
     7
 10
181.9368
 20
-65.5
 40
0.5
 50
270.0
 51
0.0
  0
ARC
  8
0
  6
CONTINUOUS
 62
     7
 10
184.1368
 20
-40.8
 40
0.8
 50
0.0
 51
89.99999
  0
ARC
  8
0
  6
CONTINUOUS
 62
     7
 10
171.7368
 20
-40.8
 40
0.8
 50
89.99999
 51
180.0
  0
ARC
  8
0
  6
CONTINUOUS
 62
     7
 10
182.4368
 20
-62.49998
 40
6.0
 50
253.8088
 51
286.1914
  0
ARC
  8
0
  6
CONTINUOUS
 62
     7
 10
180.9868
 20
-67.49373
 40
0.79999
 50
208.9547
 51
253.8083
  0
ARC
  8
0
  6
CONTINUOUS
 62
     7
 10
183.8868
 20
-67.49373
 40
0.80001
 50
286.1917
 51
0.0
  0
ARC
  8
0
  6
CONTINUOUS
 62
     7
 10
173.4368
 20
-62.49998
 40
6.0
 50
253.8086
 51
286.1914
  0
ARC
  8
0
  6
CONTINUOUS
 62
     7
 10
174.8868
 20
-67.49373
 40
0.80001
 50
286.1917
 51
298.0138
  0
ARC
  8
0
  6
CONTINUOUS
 62
     7
 10
171.9868
 20
-67.49373
 40
0.8
 50
241.9862
 51
253.8083
  0
ARC
  8
0
  6
CONTINUOUS
 62
     7
 10
184.1368
 20
-63.7
 40
0.8
 50
270.0
 51
0.0
  0
ARC
  8
0
  6
CONTINUOUS
 62
     7
 10
171.7368
 20
-63.7
 40
0.8
 50
180.0
 51
270.0
  0
ARC
  8
0
  6
CONTINUOUS
 62
     7
 10
173.4368
 20
133.9999
 40
3.0
 50
0.0
 51
89.99999
  0
ARC
  8
0
  6
CONTINUOUS
 62
     7
 10
182.4368
 20
151.9999
 40
3.0
 50
180.0
 51
270.0
  0
ARC
  8
0
  6
CONTINUOUS
 62
     7
 10
173.4368
 20
133.9999
 40
2.55
 50
186.7564
 51
173.2436
  0
ARC
  8
0
  6
CONTINUOUS
 62
     7
 10
182.4368
 20
151.9999
 40
2.55
 50
6.75641
 51
353.2436
  0
CIRCLE
  8
0
  6
CONTINUOUS
 62
     7
 10
173.4368
 20
133.9999
 40
2.25
  0
ARC
  8
0
  6
CONTINUOUS
 62
     7
 10
174.5399
 20
133.9999
 40
0.51999
 50
135.0
 51
225.0
  0
ARC
  8
0
  6
CONTINUOUS
 62
     7
 10
173.4368
 20
135.103
 40
0.51999
 50
225.0
 51
315.0
  0
ARC
  8
0
  6
CONTINUOUS
 62
     7
 10
173.4368
 20
132.8969
 40
0.51999
 50
45.0
 51
135.0
  0
ARC
  8
0
  6
CONTINUOUS
 62
     7
 10
172.3337
 20
133.9999
 40
0.51999
 50
315.0
 51
45.0
  0
CIRCLE
  8
0
  6
CONTINUOUS
 62
     7
 10
182.4368
 20
151.9999
 40
2.25
  0
ARC
  8
0
  6
CONTINUOUS
 62
     7
 10
183.5399
 20
151.9999
 40
0.51999
 50
135.0
 51
225.0
  0
ARC
  8
0
  6
CONTINUOUS
 62
     7
 10
182.4368
 20
153.103
 40
0.51999
 50
225.0
 51
315.0
  0
ARC
  8
0
  6
CONTINUOUS
 62
     7
 10
182.4368
 20
150.8969
 40
0.51999
 50
45.0
 51
135.0
  0
ARC
  8
0
  6
CONTINUOUS
 62
     7
 10
181.3337
 20
151.9999
 40
0.51999
 50
315.0
 51
45.0
  0
ARC
  8
0
  6
CONTINUOUS
 62
     7
 10
184.9368
 20
154.4999
 40
0.5
 50
0.0
 51
89.99999
  0
ARC
  8
0
  6
CONTINUOUS
 62
     7
 10
170.9368
 20
154.4999
 40
0.5
 50
89.99999
 51
180.0
  0
ARC
  8
0
  6
CONTINUOUS
 62
     7
 10
184.1368
 20
121.7999
 40
0.8
 50
270.0
 51
0.0
  0
ARC
  8
0
  6
CONTINUOUS
 62
     7
 10
171.7368
 20
121.7999
 40
0.8
 50
180.0
 51
270.0
  0
ARC
  8
0
  6
CONTINUOUS
 62
     7
 10
178.9368
 20
126.4999
 40
3.5
 50
270.0
 51
89.99999
  0
ARC
  8
0
  6
CONTINUOUS
 62
     7
 10
176.9368
 20
126.4999
 40
3.5
 50
89.99999
 51
270.0
  0
CIRCLE
  8
0
  6
CONTINUOUS
 62
     7
 10
176.4368
 20
126.4999
 40
0.85
  0
CIRCLE
  8
0
  6
CONTINUOUS
 62
     7
 10
179.4368
 20
126.4999
 40
0.85
  0
ARC
  8
0
  6
CONTINUOUS
 62
     7
 10
55.63675
 20
22.80002
 40
0.8
 50
270.0
 51
0.0
  0
ARC
  8
0
  6
CONTINUOUS
 62
     7
 10
43.43677
 20
44.50003
 40
6.0
 50
73.80869
 51
106.1913
  0
ARC
  8
0
  6
CONTINUOUS
 62
     7
 10
44.88675
 20
49.49377
 40
0.8
 50
0.0
 51
73.80872
  0
ARC
  8
0
  6
CONTINUOUS
 62
     7
 10
41.98676
 20
49.49377
 40
0.8
 50
106.1913
 51
180.0
  0
ARC
  8
0
  6
CONTINUOUS
 62
     7
 10
25.43677
 20
44.5
 40
6.0
 50
73.80865
 51
106.1913
  0
ARC
  8
0
  6
CONTINUOUS
 62
     7
 10
23.98676
 20
49.49374
 40
0.8
 50
106.1914
 51
118.0138
  0
ARC
  8
0
  6
CONTINUOUS
 62
     7
 10
26.88675
 20
49.49374
 40
0.8
 50
61.98621
 51
73.80872
  0
ARC
  8
0
  6
CONTINUOUS
 62
     7
 10
55.63675
 20
45.70001
 40
0.8
 50
0.0
 51
89.99999
  0
ARC
  8
0
  6
CONTINUOUS
 62
     7
 10
47.93677
 20
47.50003
 40
0.5
 50
89.99999
 51
180.0
  0
ARC
  8
0
  6
CONTINUOUS
 62
     7
 10
53.93677
 20
47.50003
 40
0.5
 50
0.0
 51
89.99999
  0
ARC
  8
0
  6
CONTINUOUS
 62
     7
 10
55.63675
 20
-40.79999
 40
0.8
 50
0.0
 51
89.99999
  0
ARC
  8
0
  6
CONTINUOUS
 62
     7
 10
25.43677
 20
-62.49998
 40
6.0
 50
253.8087
 51
286.1913
  0
ARC
  8
0
  6
CONTINUOUS
 62
     7
 10
23.98676
 20
-67.49373
 40
0.8
 50
180.0
 51
253.8088
  0
ARC
  8
0
  6
CONTINUOUS
 62
     7
 10
26.88675
 20
-67.49373
 40
0.8
 50
286.1915
 51
0.0
  0
ARC
  8
0
  6
CONTINUOUS
 62
     7
 10
43.43677
 20
-62.49997
 40
6.0
 50
253.8087
 51
286.1913
  0
ARC
  8
0
  6
CONTINUOUS
 62
     7
 10
44.88675
 20
-67.49371
 40
0.8
 50
286.1913
 51
298.0138
  0
ARC
  8
0
  6
CONTINUOUS
 62
     7
 10
41.98676
 20
-67.49371
 40
0.8
 50
241.9862
 51
253.8088
  0
ARC
  8
0
  6
CONTINUOUS
 62
     7
 10
55.63675
 20
-63.69998
 40
0.8
 50
270.0
 51
0.0
  0
ARC
  8
0
  6
CONTINUOUS
 62
     7
 10
53.93674
 20
-65.49998
 40
0.5
 50
270.0
 51
0.0
  0
ARC
  8
0
  6
CONTINUOUS
 62
     7
 10
47.93674
 20
-65.49998
 40
0.5
 50
180.0
 51
270.0
  0
TEXT
  8
0
  6
CONTINUOUS
 62
     7
 10
-350.9787
 20
200.5946
 40
8.5
  1
MODEL : 110-4E2-L
 41
0.8
  7
STANDARD
  0
TEXT
  8
0
  6
CONTINUOUS
 62
     7
 10
229.0661
 20
236.2625
 40
8.5
  1
DATE : NOV ,1989
 41
0.8
  7
STANDARD
  0
TEXT
  8
0
  6
CONTINUOUS
 62
     7
 10
-366.0886
 20
235.5575
 40
10.0
  1
110 CONNECTOR -L
 41
0.73013
  7
STANDARD
  0
TEXT
  8
0
  6
CONTINUOUS
 62
     7
 10
19.88928
 20
200.5946
 40
8.5
  1
MODEL : A110-4E2-L
 41
0.8
  7
STANDARD
  0
TEXT
  8
0
  6
CONTINUOUS
 62
     7
 10
-313.0908
 20
-3.94977
 40
2.0
  1
R1
 41
0.8
  7
STANDARD
  0
TEXT
  8
0
  6
CONTINUOUS
 62
     7
 10
-310.1527
 20
-13.49844
 40
2.0
  1
P
 41
0.8
  7
STANDARD
  0
TEXT
  8
0
  6
CONTINUOUS
 62
     7
 10
-303.3789
 20
-15.29391
 40
2.0
  1
R2
 41
0.8
  7
STANDARD
  0
TEXT
  8
0
  6
CONTINUOUS
 62
     7
 10
-47.05839
 20
-1.34717
 40
2.0
  1
A
 41
0.8
  7
STANDARD
  0
TEXT
  8
0
  6
CONTINUOUS
 62
     7
 10
-57.30029
 20
-11.46713
 40
2.0
  1
B
 41
0.8
  7
STANDARD
  0
ENDSEC
  0
EOF
