  0
SECTION
  2
HEADER
  9
$ACADVER
  1
AC1002
  9
$INSBASE
 10
0.0
 20
0.0
  9
$EXTMIN
 10
-370.8736
 20
-254.5585
  9
$EXTMAX
 10
370.8736
 20
254.5585
  9
$LIMMIN
 10
0.0
 20
0.0
  9
$LIMMAX
 10
12.0
 20
9.0
  9
$VIEWCTR
 10
28.6093211
 20
0.0
  9
$VIEWSIZE
 40
509.117
  9
$SNAPMODE
 70
     0
  9
$SNAPUNIT
 10
1.0
 20
1.0
  9
$SNAPBASE
 10
0.0
 20
0.0
  9
$SNAPANG
 50
0.0
  9
$SNAPSTYLE
 70
     0
  9
$SNAPISOPAIR
 70
     0
  9
$GRIDMODE
 70
     0
  9
$GRIDUNIT
 10
0.0
 20
0.0
  9
$ORTHOMODE
 70
     0
  9
$REGENMODE
 70
     1
  9
$FILLMODE
 70
     1
  9
$QTEXTMODE
 70
     0
  9
$DRAGMODE
 70
     2
  9
$LTSCALE
 40
1.0
  9
$OSMODE
 70
     0
  9
$ATTMODE
 70
     1
  9
$TEXTSIZE
 40
0.2
  9
$TRACEWID
 40
0.05
  9
$TEXTSTYLE
  7
AAA
  9
$CLAYER
  8
0
  9
$CELTYPE
  6
BYLAYER
  9
$CECOLOR
 62
   256
  9
$DIMSCALE
 40
1.0
  9
$DIMASZ
 40
0.18
  9
$DIMEXO
 40
0.0625
  9
$DIMDLI
 40
0.38
  9
$DIMRND
 40
0.0
  9
$DIMDLE
 40
0.0
  9
$DIMEXE
 40
0.18
  9
$DIMTP
 40
0.0
  9
$DIMTM
 40
0.0
  9
$DIMTXT
 40
0.18
  9
$DIMCEN
 40
0.09
  9
$DIMTSZ
 40
0.0
  9
$DIMTOL
 70
     0
  9
$DIMLIM
 70
     0
  9
$DIMTIH
 70
     1
  9
$DIMTOH
 70
     1
  9
$DIMSE1
 70
     0
  9
$DIMSE2
 70
     0
  9
$DIMTAD
 70
     0
  9
$DIMZIN
 70
     0
  9
$DIMBLK
  1

  9
$LUNITS
 70
     2
  9
$LUPREC
 70
     4
  9
$AXISMODE
 70
     0
  9
$AXISUNIT
 10
0.0
 20
0.0
  9
$SKETCHINC
 40
0.1
  9
$FILLETRAD
 40
0.0
  9
$AUNITS
 70
     0
  9
$AUPREC
 70
     0
  9
$MENU
  1
ACAD
  9
$ELEVATION
 40
0.0
  9
$THICKNESS
 40
0.0
  9
$VIEWDIR
 10
0.0
 20
0.0
 30
1.0
  9
$LIMCHECK
 70
     0
  9
$BLIPMODE
 70
     1
  9
$CHAMFERA
 40
0.0
  9
$CHAMFERB
 40
0.0
  9
$FASTZOOM
 70
     1
  9
$SKPOLY
 70
     0
  9
$TDCREATE
 40
2447867.7706713458
  9
$TDUPDATE
 40
2447867.7706713458
  9
$TDINDWG
 40
0.0058333333
  9
$TDUSRTIMER
 40
0.0058333333
  9
$USRTIMER
 70
     1
  9
$ANGBASE
 50
0.0
  9
$ANGDIR
 70
     0
  9
$PDMODE
 70
     0
  9
$PDSIZE
 40
0.0
  9
$PLINEWID
 40
0.0
  9
$COORDS
 70
     0
  9
$USERI1
 70
     0
  9
$USERI2
 70
     0
  9
$USERI3
 70
     0
  9
$USERI4
 70
     0
  9
$USERI5
 70
     0
  9
$USERR1
 40
0.0
  9
$USERR2
 40
0.0
  9
$USERR3
 40
0.0
  9
$USERR4
 40
0.0
  9
$USERR5
 40
0.0
  0
ENDSEC
  0
SECTION
  2
TABLES
  0
TABLE
  2
LTYPE
 70
     3
  0
LTYPE
  2
CONTINUOUS
 70
    64
  3
SOLID
 72
    65
 73
     0
 40
0.0
  0
LTYPE
  2
CENTER
 70
    64
  3
CENTER
 72
    65
 73
     4
 40
2.0
 49
1.25
 49
-0.25
 49
0.25
 49
-0.25
  0
LTYPE
  2
PHANTOM
 70
    64
  3
PHANTOM
 72
    65
 73
     6
 40
2.5
 49
1.25
 49
-0.25
 49
0.25
 49
-0.25
 49
0.25
 49
-0.25
  0
ENDTAB
  0
TABLE
  2
LAYER
 70
     1
  0
LAYER
  2
0
 70
    64
 62
     7
  6
CONTINUOUS
  0
ENDTAB
  0
TABLE
  2
STYLE
 70
     2
  0
STYLE
  2
AAA
 70
     0
 40
0.0
 41
1.0
 50
0.0
 71
     0
 42
0.2
  3
TXT
  4

  0
STYLE
  2
STANDARD
 70
    64
 40
0.0
 41
1.0
 50
0.0
 71
     0
 42
0.2
  3
TXT
  4
BIGFONT
  0
ENDTAB
  0
TABLE
  2
VIEW
 70
     0
  0
ENDTAB
  0
ENDSEC
  0
SECTION
  2
BLOCKS
  0
ENDSEC
  0
SECTION
  2
ENTITIES
  0
POINT
  8
0
  6
CONTINUOUS
 62
     7
 10
-182.4368
 20
0.0
  0
POINT
  8
0
  6
CONTINUOUS
 62
     7
 10
-206.4368
 20
0.0
  0
POINT
  8
0
  6
CONTINUOUS
 62
     7
 10
-182.4368
 20
20.5
  0
POINT
  8
0
  6
CONTINUOUS
 62
     7
 10
-182.4368
 20
-46.50003
  0
POINT
  8
0
  6
CONTINUOUS
 62
     7
 10
-206.4368
 20
140.0
  0
POINT
  8
0
  6
CONTINUOUS
 62
     7
 10
-182.4368
 20
140.0
  0
POINT
  8
0
  6
CONTINUOUS
 62
     7
 10
-311.4368
 20
0.0
  0
POINT
  8
0
  6
CONTINUOUS
 62
     7
 10
-319.9368
 20
1.0
  0
POINT
  8
0
  6
CONTINUOUS
 62
     7
 10
-316.9368
 20
-9.0
  0
POINT
  8
0
  6
CONTINUOUS
 62
     7
 10
-313.9368
 20
-19.0
  0
POINT
  8
0
  6
CONTINUOUS
 62
     7
 10
-56.43681
 20
0.0
  0
POINT
  8
0
  6
CONTINUOUS
 62
     7
 10
-43.43681
 20
0.0
  0
POINT
  8
0
  6
CONTINUOUS
 62
     7
 10
-50.93681
 20
20.5
  0
POINT
  8
0
  6
CONTINUOUS
 62
     7
 10
-50.93681
 20
-46.5
  0
POINT
  8
0
  6
CONTINUOUS
 62
     7
 10
-47.93681
 20
-4.0
  0
POINT
  8
0
  6
CONTINUOUS
 62
     7
 10
-53.93681
 20
-14.0
  0
POINT
  8
0
  6
CONTINUOUS
 62
     7
 10
-206.4368
 20
-163.5
  0
POINT
  8
0
  6
CONTINUOUS
 62
     7
 10
-182.4368
 20
-163.5
  0
POINT
  8
0
  6
CONTINUOUS
 62
     7
 10
172.4368
 20
0.0
  0
POINT
  8
0
  6
CONTINUOUS
 62
     7
 10
185.4368
 20
0.0
  0
POINT
  8
0
  6
CONTINUOUS
 62
     7
 10
177.9368
 20
18.50002
  0
POINT
  8
0
  6
CONTINUOUS
 62
     7
 10
177.9368
 20
-48.50002
  0
POINT
  8
0
  6
CONTINUOUS
 62
     7
 10
66.4368
 20
0.0
  0
POINT
  8
0
  6
CONTINUOUS
 62
     7
 10
42.4368
 20
0.0
  0
POINT
  8
0
  6
CONTINUOUS
 62
     7
 10
66.4368
 20
-48.50002
  0
POINT
  8
0
  6
CONTINUOUS
 62
     7
 10
66.4368
 20
18.5
  0
POINT
  8
0
  6
CONTINUOUS
 62
     7
 10
172.4367
 20
157.5
  0
POINT
  8
0
  6
CONTINUOUS
 62
     7
 10
185.4367
 20
157.5
  0
POINT
  8
0
  6
CONTINUOUS
 62
     7
 10
322.4368
 20
0.00003
  0
POINT
  8
0
  6
CONTINUOUS
 62
     7
 10
298.4368
 20
18.50003
  0
POINT
  8
0
  6
CONTINUOUS
 62
     7
 10
298.4368
 20
-48.49995
  0
POINT
  8
0
  6
CONTINUOUS
 62
     7
 10
172.4368
 20
-181.0
  0
POINT
  8
0
  6
CONTINUOUS
 62
     7
 10
185.4367
 20
-181.0
  0
LINE
  8
0
  6
CONTINUOUS
 62
     7
 10
218.3292
 20
-225.9564
 11
370.8736
 21
-225.9564
  0
LINE
  8
0
  6
CONTINUOUS
 62
     7
 10
-218.3292
 20
225.9564
 11
-218.3292
 21
254.5585
  0
LINE
  8
0
  6
CONTINUOUS
 62
     7
 10
-370.8736
 20
225.9564
 11
-218.3292
 21
225.9564
  0
LINE
  8
0
  6
CONTINUOUS
 62
     7
 10
-370.8736
 20
254.5585
 11
370.8736
 21
254.5585
  0
LINE
  8
0
  6
CONTINUOUS
 62
     7
 10
-370.8736
 20
-254.5585
 11
370.8736
 21
-254.5585
  0
LINE
  8
0
  6
CONTINUOUS
 62
     7
 10
370.8736
 20
254.5585
 11
370.8736
 21
-254.5585
  0
LINE
  8
0
  6
CONTINUOUS
 62
     7
 10
-370.8736
 20
-254.5585
 11
-370.8736
 21
254.5585
  0
LINE
  8
0
  6
CONTINUOUS
 62
     7
 10
218.3292
 20
-225.9564
 11
218.3292
 21
-254.5585
  0
LINE
  8
0
  6
CONTINUOUS
 62
     7
 10
218.3292
 20
254.5585
 11
218.3292
 21
225.9564
  0
LINE
  8
0
  6
CONTINUOUS
 62
     7
 10
218.3292
 20
225.9564
 11
370.8736
 21
225.9564
  0
LINE
  8
0
  6
CONTINUOUS
 62
     7
 10
258.3816
 20
-232.8337
 11
258.3816
 21
-236.1516
  0
LINE
  8
0
  6
CONTINUOUS
 62
     7
 10
258.3816
 20
-236.1516
 11
270.8235
 21
-236.1516
  0
LINE
  8
0
  6
CONTINUOUS
 62
     7
 10
258.3816
 20
-249.1465
 11
275.2473
 21
-249.1465
  0
LINE
  8
0
  6
CONTINUOUS
 62
     7
 10
258.3816
 20
-245.8286
 11
270.8235
 21
-245.8286
  0
LINE
  8
0
  6
CONTINUOUS
 62
     7
 10
258.3816
 20
-232.8337
 11
273.0354
 21
-232.8337
  0
LINE
  8
0
  6
CONTINUOUS
 62
     7
 10
270.8235
 20
-236.1516
 11
270.8235
 21
-245.8286
  0
LINE
  8
0
  6
CONTINUOUS
 62
     7
 10
275.2473
 20
-235.0457
 11
275.2473
 21
-249.1465
  0
LINE
  8
0
  6
CONTINUOUS
 62
     7
 10
258.3816
 20
-245.8286
 11
258.3816
 21
-249.1465
  0
LINE
  8
0
  6
CONTINUOUS
 62
     7
 10
293.4954
 20
-236.1516
 11
293.4954
 21
-246.9346
  0
LINE
  8
0
  6
CONTINUOUS
 62
     7
 10
277.7357
 20
-232.8337
 11
277.7357
 21
-236.1516
  0
LINE
  8
0
  6
CONTINUOUS
 62
     7
 10
293.9378
 20
-232.585
 11
295.5138
 21
-232.585
  0
LINE
  8
0
  6
CONTINUOUS
 62
     7
 10
293.9378
 20
-230.373
 11
295.5138
 21
-230.373
  0
LINE
  8
0
  6
CONTINUOUS
 62
     7
 10
295.5138
 20
-230.373
 11
295.5138
 21
-232.585
  0
LINE
  8
0
  6
CONTINUOUS
 62
     7
 10
293.9378
 20
-230.373
 11
293.9378
 21
-232.585
  0
LINE
  8
0
  6
CONTINUOUS
 62
     7
 10
293.1083
 20
-230.373
 11
293.1083
 21
-232.585
  0
LINE
  8
0
  6
CONTINUOUS
 62
     7
 10
282.7661
 20
-230.373
 11
286.2009
 21
-230.373
  0
LINE
  8
0
  6
CONTINUOUS
 62
     7
 10
285.5413
 20
-232.8335
 11
286.2006
 21
-230.3727
  0
LINE
  8
0
  6
CONTINUOUS
 62
     7
 10
282.1067
 20
-232.8337
 11
282.766
 21
-230.373
  0
LINE
  8
0
  6
CONTINUOUS
 62
     7
 10
285.5416
 20
-232.8337
 11
290.1776
 21
-232.8337
  0
LINE
  8
0
  6
CONTINUOUS
 62
     7
 10
284.6526
 20
-236.1516
 11
289.0716
 21
-236.1516
  0
LINE
  8
0
  6
CONTINUOUS
 62
     7
 10
286.6429
 20
-249.1465
 11
291.2836
 21
-249.1465
  0
LINE
  8
0
  6
CONTINUOUS
 62
     7
 10
285.7537
 20
-245.8286
 11
286.6427
 21
-249.1463
  0
LINE
  8
0
  6
CONTINUOUS
 62
     7
 10
285.7538
 20
-245.8286
 11
289.0716
 21
-245.8286
  0
LINE
  8
0
  6
CONTINUOUS
 62
     7
 10
281.1707
 20
-249.1466
 11
284.6527
 21
-236.1517
  0
LINE
  8
0
  6
CONTINUOUS
 62
     7
 10
277.7357
 20
-236.1516
 11
281.2177
 21
-236.1516
  0
LINE
  8
0
  6
CONTINUOUS
 62
     7
 10
277.7354
 20
-249.1462
 11
281.2175
 21
-236.1513
  0
LINE
  8
0
  6
CONTINUOUS
 62
     7
 10
277.7357
 20
-249.1465
 11
281.1706
 21
-249.1465
  0
LINE
  8
0
  6
CONTINUOUS
 62
     7
 10
277.7357
 20
-232.8337
 11
282.1067
 21
-232.8337
  0
LINE
  8
0
  6
CONTINUOUS
 62
     7
 10
289.0716
 20
-236.1516
 11
289.0716
 21
-245.8286
  0
LINE
  8
0
  6
CONTINUOUS
 62
     7
 10
291.5323
 20
-230.373
 11
293.1083
 21
-230.373
  0
LINE
  8
0
  6
CONTINUOUS
 62
     7
 10
291.5323
 20
-232.585
 11
293.1083
 21
-232.585
  0
LINE
  8
0
  6
CONTINUOUS
 62
     7
 10
291.5323
 20
-230.373
 11
291.5323
 21
-232.585
  0
LINE
  8
0
  6
CONTINUOUS
 62
     7
 10
301.5135
 20
-230.373
 11
305.9373
 21
-230.373
  0
LINE
  8
0
  6
CONTINUOUS
 62
     7
 10
308.3423
 20
-240.1951
 11
311.2962
 21
-238.8176
  0
LINE
  8
0
  6
CONTINUOUS
 62
     7
 10
305.9373
 20
-242.7344
 11
305.9373
 21
-249.1465
  0
LINE
  8
0
  6
CONTINUOUS
 62
     7
 10
301.5135
 20
-243.379
 11
301.5135
 21
-249.1465
  0
LINE
  8
0
  6
CONTINUOUS
 62
     7
 10
305.9373
 20
-232.8337
 11
310.3611
 21
-232.8337
  0
LINE
  8
0
  6
CONTINUOUS
 62
     7
 10
305.9373
 20
-230.373
 11
305.9373
 21
-232.8337
  0
LINE
  8
0
  6
CONTINUOUS
 62
     7
 10
301.5135
 20
-230.373
 11
301.5135
 21
-232.8337
  0
LINE
  8
0
  6
CONTINUOUS
 62
     7
 10
312.573
 20
-235.0457
 11
312.573
 21
-236.8128
  0
LINE
  8
0
  6
CONTINUOUS
 62
     7
 10
308.3424
 20
-240.195
 11
312.5734
 21
-242.168
  0
LINE
  8
0
  6
CONTINUOUS
 62
     7
 10
305.9373
 20
-242.7343
 11
312.5731
 21
-245.8286
  0
LINE
  8
0
  6
CONTINUOUS
 62
     7
 10
296.2603
 20
-242.1678
 11
296.2603
 21
-245.8286
  0
LINE
  8
0
  6
CONTINUOUS
 62
     7
 10
296.2607
 20
-242.1682
 11
309.1626
 21
-236.1519
  0
LINE
  8
0
  6
CONTINUOUS
 62
     7
 10
296.2603
 20
-245.8286
 11
301.5136
 21
-243.3789
  0
LINE
  8
0
  6
CONTINUOUS
 62
     7
 10
312.573
 20
-242.1678
 11
312.573
 21
-245.8286
  0
LINE
  8
0
  6
CONTINUOUS
 62
     7
 10
296.2603
 20
-232.8337
 11
296.2603
 21
-236.1516
  0
LINE
  8
0
  6
CONTINUOUS
 62
     7
 10
301.5135
 20
-249.1465
 11
305.9373
 21
-249.1465
  0
LINE
  8
0
  6
CONTINUOUS
 62
     7
 10
296.2603
 20
-236.1516
 11
309.1621
 21
-236.1516
  0
LINE
  8
0
  6
CONTINUOUS
 62
     7
 10
296.2603
 20
-232.8337
 11
301.5135
 21
-232.8337
  0
LINE
  8
0
  6
CONTINUOUS
 62
     7
 10
327.504
 20
-236.4047
 11
328.73
 21
-235.9171
  0
LINE
  8
0
  6
CONTINUOUS
 62
     7
 10
327.5034
 20
-236.4044
 11
327.5034
 21
-249.1465
  0
LINE
  8
0
  6
CONTINUOUS
 62
     7
 10
323.0795
 20
-249.1465
 11
327.5034
 21
-249.1465
  0
LINE
  8
0
  6
CONTINUOUS
 62
     7
 10
313.9553
 20
-241.7925
 11
323.0794
 21
-238.1637
  0
LINE
  8
0
  6
CONTINUOUS
 62
     7
 10
313.9555
 20
-238.222
 11
326.8062
 21
-233.1111
  0
LINE
  8
0
  6
CONTINUOUS
 62
     7
 10
323.0795
 20
-238.1638
 11
323.0795
 21
-249.1465
  0
LINE
  8
0
  6
CONTINUOUS
 62
     7
 10
327.5034
 20
-231.3684
 11
327.5034
 21
-232.0834
  0
LINE
  8
0
  6
CONTINUOUS
 62
     7
 10
330.8211
 20
-231.3684
 11
330.8211
 21
-232.8338
  0
LINE
  8
0
  6
CONTINUOUS
 62
     7
 10
313.9554
 20
-238.2219
 11
313.9554
 21
-241.7925
  0
LINE
  8
0
  6
CONTINUOUS
 62
     7
 10
327.5034
 20
-231.3684
 11
330.8211
 21
-231.3684
  0
LINE
  8
0
  6
CONTINUOUS
 62
     7
 10
0.0
 20
254.5585
 11
0.0
 21
-254.5585
  0
LINE
  8
0
  6
CONTINUOUS
 62
     7
 10
-206.4368
 20
5.0
 11
-182.4368
 21
5.0
  0
LINE
  8
0
  6
CENTER
 62
     2
 10
-194.4368
 20
55.77065
 11
-194.4368
 21
-81.6225
  0
LINE
  8
0
  6
CONTINUOUS
 62
     7
 10
-206.4368
 20
-23.0
 11
-182.4368
 21
-23.0
  0
LINE
  8
0
  6
CENTER
 62
     2
 10
-186.8527
 20
0.0
 11
-181.1682
 21
0.0
  0
LINE
  8
0
  6
CONTINUOUS
 62
     7
 10
-185.4368
 20
1.81384
 11
-182.4368
 21
1.81384
  0
LINE
  8
0
  6
CONTINUOUS
 62
     7
 10
-185.4368
 20
-1.81384
 11
-182.4368
 21
-1.81384
  0
LINE
  8
0
  6
CONTINUOUS
 62
     7
 10
-185.4368
 20
1.81384
 11
-185.4368
 21
-1.81384
  0
LINE
  8
0
  6
CENTER
 62
     2
 10
-203.9368
 20
-4.0
 11
-198.9368
 21
-4.0
  0
LINE
  8
0
  6
CENTER
 62
     2
 10
-203.9368
 20
-14.0
 11
-198.9368
 21
-14.0
  0
LINE
  8
0
  6
CENTER
 62
     2
 10
-201.4368
 20
-11.5
 11
-201.4368
 21
-16.5
  0
LINE
  8
0
  6
CENTER
 62
     2
 10
-201.4368
 20
-1.5
 11
-201.4368
 21
-6.5
  0
LINE
  8
0
  6
CONTINUOUS
 62
     7
 10
-206.4368
 20
24.0
 11
-206.4368
 21
-50.0
  0
LINE
  8
0
  6
CONTINUOUS
 62
     7
 10
-182.4368
 20
24.0
 11
-182.4368
 21
-50.0
  0
LINE
  8
0
  6
CENTER
 62
     2
 10
-209.8387
 20
-9.0
 11
-179.4368
 21
-9.0
  0
LINE
  8
0
  6
CONTINUOUS
 62
     7
 10
-206.4368
 20
49.2
 11
-182.4368
 21
49.2
  0
LINE
  8
0
  6
CONTINUOUS
 62
     7
 10
-206.4368
 20
24.0
 11
-173.2368
 21
24.0
  0
LINE
  8
0
  6
CONTINUOUS
 62
     7
 10
-206.4368
 20
50.2
 11
-206.4368
 21
24.0
  0
LINE
  8
0
  6
CONTINUOUS
 62
     7
 10
-182.4368
 20
50.20001
 11
-182.4368
 21
24.0
  0
LINE
  8
0
  6
CONTINUOUS
 62
     7
 10
-172.4368
 20
44.20001
 11
-172.4368
 21
24.8
  0
LINE
  8
0
  6
CONTINUOUS
 62
     7
 10
-182.4368
 20
45.0
 11
-173.2368
 21
45.0
  0
LINE
  8
0
  6
CONTINUOUS
 62
     7
 10
-205.4368
 20
52.2
 11
-187.2626
 21
52.2
  0
LINE
  8
0
  6
CONTINUOUS
 62
     7
 10
-182.4368
 20
50.0
 11
-175.4368
 21
50.0
  0
LINE
  8
0
  6
CONTINUOUS
 62
     7
 10
-206.4368
 20
50.19999
 11
-205.4368
 21
52.2
  0
LINE
  8
0
  6
CONTINUOUS
 62
     7
 10
-182.4368
 20
50.20003
 11
-183.4368
 21
52.20004
  0
LINE
  8
0
  6
CONTINUOUS
 62
     7
 10
-188.4368
 20
52.20001
 11
-188.4368
 21
50.20001
  0
LINE
  8
0
  6
CENTER
 62
     2
 10
-185.4368
 20
55.20001
 11
-185.4368
 21
46.20001
  0
LINE
  8
0
  6
CONTINUOUS
 62
     7
 10
-182.8868
 20
50.8
 11
-187.9868
 21
50.8
  0
LINE
  8
0
  6
CONTINUOUS
 62
     7
 10
-185.7368
 20
50.20002
 11
-185.8976
 21
50.8
  0
LINE
  8
0
  6
CONTINUOUS
 62
     7
 10
-185.1367
 20
50.8
 11
-184.976
 21
50.20001
  0
LINE
  8
0
  6
CONTINUOUS
 62
     7
 10
-182.8868
 20
50.8
 11
-182.8868
 21
50.20001
  0
LINE
  8
0
  6
CONTINUOUS
 62
     7
 10
-187.9868
 20
50.8
 11
-187.9868
 21
50.20001
  0
LINE
  8
0
  6
CONTINUOUS
 62
     7
 10
-183.1868
 20
51.49374
 11
-183.1868
 21
50.8
  0
LINE
  8
0
  6
CONTINUOUS
 62
     7
 10
-187.6868
 20
51.49374
 11
-187.6868
 21
50.8
  0
LINE
  8
0
  6
CONTINUOUS
 62
     7
 10
-183.611
 20
52.2
 11
-183.4368
 21
52.2
  0
LINE
  8
0
  6
CENTER
 62
     2
 10
-203.4368
 20
55.2
 11
-203.4368
 21
46.2
  0
LINE
  8
0
  6
CONTINUOUS
 62
     7
 10
-173.4368
 20
60.0
 11
-174.4368
 21
60.0
  0
LINE
  8
0
  6
CONTINUOUS
 62
     7
 10
-180.4368
 20
58.5
 11
-181.4368
 21
58.5
  0
LINE
  8
0
  6
CONTINUOUS
 62
     7
 10
-181.4368
 20
60.0
 11
-181.4368
 21
58.5
  0
LINE
  8
0
  6
CONTINUOUS
 62
     7
 10
-180.4368
 20
58.5
 11
-180.4368
 21
52.0
  0
LINE
  8
0
  6
CONTINUOUS
 62
     7
 10
-179.0368
 20
60.0
 11
-179.0368
 21
50.0
  0
LINE
  8
0
  6
CONTINUOUS
 62
     7
 10
-177.2368
 20
60.0
 11
-177.2368
 21
50.0
  0
LINE
  8
0
  6
CONTINUOUS
 62
     7
 10
-174.4368
 20
45.0
 11
-174.4368
 21
52.32872
  0
LINE
  8
0
  6
CONTINUOUS
 62
     7
 10
-173.4368
 20
60.0
 11
-173.4368
 21
58.0
  0
LINE
  8
0
  6
CONTINUOUS
 62
     7
 10
-174.4368
 20
60.0
 11
-174.4368
 21
58.5
  0
LINE
  8
0
  6
CONTINUOUS
 62
     7
 10
-173.4368
 20
58.00002
 11
-174.4368
 21
52.32874
  0
LINE
  8
0
  6
CONTINUOUS
 62
     7
 10
-174.4368
 20
58.49998
 11
-175.4368
 21
52.82871
  0
LINE
  8
0
  6
CONTINUOUS
 62
     7
 10
-176.4368
 20
50.0
 11
-176.4368
 21
50.5
  0
LINE
  8
0
  6
CONTINUOUS
 62
     7
 10
-180.4368
 20
52.0
 11
-181.4368
 21
52.0
  0
LINE
  8
0
  6
CONTINUOUS
 62
     7
 10
-176.1369
 20
59.69997
 11
-176.4369
 21
59.99995
  0
LINE
  8
0
  6
CONTINUOUS
 62
     7
 10
-176.4368
 20
53.50001
 11
-176.1368
 21
53.8
  0
LINE
  8
0
  6
CONTINUOUS
 62
     7
 10
-176.1368
 20
53.8
 11
-176.1368
 21
59.70001
  0
LINE
  8
0
  6
CONTINUOUS
 62
     7
 10
-175.4368
 20
52.5
 11
-175.4368
 21
52.82872
  0
LINE
  8
0
  6
CONTINUOUS
 62
     7
 10
-176.4368
 20
52.5
 11
-176.4368
 21
60.0
  0
LINE
  8
0
  6
CONTINUOUS
 62
     7
 10
-176.4368
 20
60.0
 11
-181.4368
 21
60.0
  0
LINE
  8
0
  6
CENTER
 62
     2
 10
-177.9368
 20
57.0
 11
-177.9368
 21
83.0
  0
LINE
  8
0
  6
CONTINUOUS
 62
     7
 10
-178.7868
 20
60.0
 11
-178.7868
 21
64.45129
  0
LINE
  8
0
  6
CONTINUOUS
 62
     7
 10
-177.0868
 20
60.0
 11
-177.0868
 21
63.99579
  0
LINE
  8
0
  6
CONTINUOUS
 62
     7
 10
-177.6168
 20
70.0
 11
-177.6168
 21
80.0
  0
LINE
  8
0
  6
CONTINUOUS
 62
     7
 10
-178.2568
 20
70.0
 11
-178.2568
 21
80.0
  0
LINE
  8
0
  6
CONTINUOUS
 62
     7
 10
-177.0868
 20
70.0
 11
-178.7868
 21
70.0
  0
LINE
  8
0
  6
CONTINUOUS
 62
     7
 10
-177.6168
 20
80.0
 11
-178.2568
 21
80.0
  0
LINE
  8
0
  6
CONTINUOUS
 62
     7
 10
-175.4368
 20
50.5
 11
-175.4368
 21
45.0
  0
LINE
  8
0
  6
CONTINUOUS
 62
     7
 10
-181.4368
 20
52.0
 11
-181.4368
 21
50.0
  0
LINE
  8
0
  6
CONTINUOUS
 62
     7
 10
-206.4368
 20
50.2
 11
-182.4368
 21
50.2
  0
LINE
  8
0
  6
PHANTOM
 62
     2
 10
-175.0868
 20
63.45991
 11
-180.7868
 21
64.98722
  0
LINE
  8
0
  6
PHANTOM
 62
     2
 10
-175.0868
 20
65.01281
 11
-180.7868
 21
66.54012
  0
LINE
  8
0
  6
CONTINUOUS
 62
     7
 10
-177.0868
 20
65.54871
 11
-177.0868
 21
70.0
  0
LINE
  8
0
  6
CONTINUOUS
 62
     7
 10
-178.7868
 20
66.00421
 11
-178.7868
 21
70.0
  0
LINE
  8
0
  6
CONTINUOUS
 62
     7
 10
-182.4368
 20
-75.20001
 11
-206.4368
 21
-75.20001
  0
LINE
  8
0
  6
CONTINUOUS
 62
     7
 10
-206.4368
 20
-50.00003
 11
-173.2368
 21
-50.00003
  0
LINE
  8
0
  6
CONTINUOUS
 62
     7
 10
-206.4368
 20
-76.20001
 11
-206.4368
 21
-50.0
  0
LINE
  8
0
  6
CONTINUOUS
 62
     7
 10
-182.4368
 20
-76.20001
 11
-182.4368
 21
-50.00003
  0
LINE
  8
0
  6
CONTINUOUS
 62
     7
 10
-172.4368
 20
-70.20001
 11
-172.4368
 21
-50.80002
  0
LINE
  8
0
  6
CONTINUOUS
 62
     7
 10
-182.4368
 20
-71.0
 11
-173.2368
 21
-71.0
  0
LINE
  8
0
  6
CONTINUOUS
 62
     7
 10
-183.4368
 20
-78.20001
 11
-201.611
 21
-78.20001
  0
LINE
  8
0
  6
CONTINUOUS
 62
     7
 10
-182.4368
 20
-76.0
 11
-175.4368
 21
-76.0
  0
LINE
  8
0
  6
CONTINUOUS
 62
     7
 10
-182.4367
 20
-76.20004
 11
-183.4367
 21
-78.20006
  0
LINE
  8
0
  6
CONTINUOUS
 62
     7
 10
-206.4368
 20
-76.20006
 11
-205.4368
 21
-78.20005
  0
LINE
  8
0
  6
CONTINUOUS
 62
     7
 10
-200.4368
 20
-78.20001
 11
-200.4368
 21
-76.20001
  0
LINE
  8
0
  6
CENTER
 62
     2
 10
-203.4368
 20
-81.20001
 11
-203.4368
 21
-72.20001
  0
LINE
  8
0
  6
CONTINUOUS
 62
     7
 10
-205.9868
 20
-76.80002
 11
-200.8868
 21
-76.80002
  0
LINE
  8
0
  6
CONTINUOUS
 62
     7
 10
-203.1368
 20
-76.20001
 11
-202.976
 21
-76.8
  0
LINE
  8
0
  6
CONTINUOUS
 62
     7
 10
-203.7368
 20
-76.80006
 11
-203.8976
 21
-76.20004
  0
LINE
  8
0
  6
CONTINUOUS
 62
     7
 10
-205.9868
 20
-76.80002
 11
-205.9868
 21
-76.20001
  0
LINE
  8
0
  6
CONTINUOUS
 62
     7
 10
-200.8868
 20
-76.80002
 11
-200.8868
 21
-76.20001
  0
LINE
  8
0
  6
CONTINUOUS
 62
     7
 10
-205.6868
 20
-77.49377
 11
-205.6868
 21
-76.80002
  0
LINE
  8
0
  6
CONTINUOUS
 62
     7
 10
-201.1868
 20
-77.49377
 11
-201.1868
 21
-76.80002
  0
LINE
  8
0
  6
CONTINUOUS
 62
     7
 10
-205.2625
 20
-78.20001
 11
-205.4368
 21
-78.20001
  0
LINE
  8
0
  6
CENTER
 62
     2
 10
-185.4368
 20
-81.20001
 11
-185.4368
 21
-72.20001
  0
LINE
  8
0
  6
CONTINUOUS
 62
     7
 10
-173.4368
 20
-86.0
 11
-174.4368
 21
-86.0
  0
LINE
  8
0
  6
CONTINUOUS
 62
     7
 10
-180.4368
 20
-84.5
 11
-181.4368
 21
-84.5
  0
LINE
  8
0
  6
CONTINUOUS
 62
     7
 10
-181.4368
 20
-86.00003
 11
-181.4368
 21
-84.50003
  0
LINE
  8
0
  6
CONTINUOUS
 62
     7
 10
-180.4368
 20
-84.50003
 11
-180.4368
 21
-78.00003
  0
LINE
  8
0
  6
CONTINUOUS
 62
     7
 10
-179.0368
 20
-86.00003
 11
-179.0368
 21
-76.00003
  0
LINE
  8
0
  6
CONTINUOUS
 62
     7
 10
-177.2368
 20
-86.00003
 11
-177.2368
 21
-76.00003
  0
LINE
  8
0
  6
CONTINUOUS
 62
     7
 10
-174.4368
 20
-71.00003
 11
-174.4368
 21
-78.32874
  0
LINE
  8
0
  6
CONTINUOUS
 62
     7
 10
-173.4368
 20
-86.00003
 11
-173.4368
 21
-84.00003
  0
LINE
  8
0
  6
CONTINUOUS
 62
     7
 10
-174.4368
 20
-86.00003
 11
-174.4368
 21
-84.50003
  0
LINE
  8
0
  6
CONTINUOUS
 62
     7
 10
-173.4368
 20
-84.00003
 11
-174.4368
 21
-78.32876
  0
LINE
  8
0
  6
CONTINUOUS
 62
     7
 10
-174.4368
 20
-84.5
 11
-175.4368
 21
-78.82873
  0
LINE
  8
0
  6
CONTINUOUS
 62
     7
 10
-176.4368
 20
-76.00003
 11
-176.4368
 21
-76.50003
  0
LINE
  8
0
  6
CONTINUOUS
 62
     7
 10
-180.4368
 20
-78.0
 11
-181.4368
 21
-78.0
  0
LINE
  8
0
  6
CONTINUOUS
 62
     7
 10
-176.1369
 20
-85.7
 11
-176.4368
 21
-85.99998
  0
LINE
  8
0
  6
CONTINUOUS
 62
     7
 10
-176.4368
 20
-79.50011
 11
-176.1368
 21
-79.80011
  0
LINE
  8
0
  6
CONTINUOUS
 62
     7
 10
-176.1368
 20
-79.80002
 11
-176.1368
 21
-85.70004
  0
LINE
  8
0
  6
CONTINUOUS
 62
     7
 10
-175.4368
 20
-78.50003
 11
-175.4368
 21
-78.82874
  0
LINE
  8
0
  6
CONTINUOUS
 62
     7
 10
-176.4368
 20
-78.50003
 11
-176.4368
 21
-86.00003
  0
LINE
  8
0
  6
CONTINUOUS
 62
     7
 10
-176.4368
 20
-86.0
 11
-181.4368
 21
-86.0
  0
LINE
  8
0
  6
CENTER
 62
     2
 10
-177.9368
 20
-83.00003
 11
-177.9368
 21
-109.0
  0
LINE
  8
0
  6
CONTINUOUS
 62
     7
 10
-178.7868
 20
-86.00003
 11
-178.7868
 21
-90.45132
  0
LINE
  8
0
  6
CONTINUOUS
 62
     7
 10
-177.0868
 20
-86.00003
 11
-177.0868
 21
-89.99579
  0
LINE
  8
0
  6
CONTINUOUS
 62
     7
 10
-177.6168
 20
-96.00003
 11
-177.6168
 21
-106.0
  0
LINE
  8
0
  6
CONTINUOUS
 62
     7
 10
-178.2568
 20
-96.00003
 11
-178.2568
 21
-106.0
  0
LINE
  8
0
  6
CONTINUOUS
 62
     7
 10
-177.0868
 20
-96.0
 11
-178.7868
 21
-96.0
  0
LINE
  8
0
  6
CONTINUOUS
 62
     7
 10
-177.6168
 20
-106.0
 11
-178.2568
 21
-106.0
  0
LINE
  8
0
  6
CONTINUOUS
 62
     7
 10
-175.4368
 20
-76.50003
 11
-175.4368
 21
-71.00003
  0
LINE
  8
0
  6
CONTINUOUS
 62
     7
 10
-181.4368
 20
-78.00003
 11
-181.4368
 21
-76.00003
  0
LINE
  8
0
  6
CONTINUOUS
 62
     7
 10
-182.4368
 20
-76.20001
 11
-206.4368
 21
-76.20001
  0
LINE
  8
0
  6
PHANTOM
 62
     2
 10
-175.0868
 20
-89.45988
 11
-180.7868
 21
-90.98719
  0
LINE
  8
0
  6
PHANTOM
 62
     2
 10
-175.0868
 20
-91.01276
 11
-180.7868
 21
-92.54007
  0
LINE
  8
0
  6
CONTINUOUS
 62
     7
 10
-177.0868
 20
-91.54871
 11
-177.0868
 21
-96.00003
  0
LINE
  8
0
  6
CONTINUOUS
 62
     7
 10
-178.7868
 20
-92.00424
 11
-178.7868
 21
-96.00003
  0
LINE
  8
0
  6
CENTER
 62
     2
 10
-169.6226
 20
145.5
 11
-208.4368
 21
145.5
  0
LINE
  8
0
  6
CENTER
 62
     2
 10
-194.4368
 20
135.5517
 11
-194.4368
 21
155.4878
  0
LINE
  8
0
  6
CONTINUOUS
 62
     7
 10
-185.4368
 20
144.0
 11
-182.4368
 21
144.0
  0
LINE
  8
0
  6
CONTINUOUS
 62
     7
 10
-203.4368
 20
147.0
 11
-206.4368
 21
147.0
  0
LINE
  8
0
  6
CONTINUOUS
 62
     7
 10
-200.4368
 20
150.0
 11
-200.4368
 21
153.0
  0
LINE
  8
0
  6
CONTINUOUS
 62
     7
 10
-188.4368
 20
141.0
 11
-188.4368
 21
138.0
  0
LINE
  8
0
  6
CONTINUOUS
 62
     7
 10
-205.4368
 20
147.0
 11
-205.4368
 21
139.0
  0
LINE
  8
0
  6
CONTINUOUS
 62
     7
 10
-183.4368
 20
152.0
 11
-183.4368
 21
144.0
  0
LINE
  8
0
  6
CONTINUOUS
 62
     7
 10
-200.4368
 20
152.0
 11
-183.4368
 21
152.0
  0
LINE
  8
0
  6
CONTINUOUS
 62
     7
 10
-205.4368
 20
139.0
 11
-188.4368
 21
139.0
  0
LINE
  8
0
  6
CONTINUOUS
 62
     7
 10
-185.1368
 20
138.7701
 11
-185.1368
 21
138.4677
  0
LINE
  8
0
  6
CONTINUOUS
 62
     7
 10
-185.7368
 20
138.7701
 11
-185.7368
 21
138.4677
  0
LINE
  8
0
  6
CONTINUOUS
 62
     7
 10
-185.8976
 20
138.492
 11
-185.8976
 21
138.7977
  0
LINE
  8
0
  6
CONTINUOUS
 62
     7
 10
-203.7368
 20
152.2299
 11
-203.7368
 21
152.5323
  0
LINE
  8
0
  6
CONTINUOUS
 62
     7
 10
-203.1368
 20
152.2299
 11
-203.1368
 21
152.5323
  0
LINE
  8
0
  6
CONTINUOUS
 62
     7
 10
-202.9761
 20
152.508
 11
-202.9761
 21
152.2023
  0
LINE
  8
0
  6
CONTINUOUS
 62
     7
 10
-186.5399
 20
140.2647
 11
-186.1722
 21
140.6324
  0
LINE
  8
0
  6
CONTINUOUS
 62
     7
 10
-186.1722
 20
139.8969
 11
-185.8045
 21
140.2646
  0
LINE
  8
0
  6
CONTINUOUS
 62
     7
 10
-186.5399
 20
140.2646
 11
-186.1722
 21
139.897
  0
LINE
  8
0
  6
CONTINUOUS
 62
     7
 10
-184.7014
 20
142.1031
 11
-184.3337
 21
141.7355
  0
LINE
  8
0
  6
CONTINUOUS
 62
     7
 10
-187.201
 20
142.3965
 11
-186.1722
 21
141.3678
  0
LINE
  8
0
  6
CONTINUOUS
 62
     7
 10
-186.8333
 20
142.7642
 11
-185.8045
 21
141.7354
  0
LINE
  8
0
  6
CONTINUOUS
 62
     7
 10
-185.0692
 20
141.7354
 11
-184.7015
 21
142.1031
  0
LINE
  8
0
  6
CONTINUOUS
 62
     7
 10
-184.7014
 20
141.3677
 11
-184.3338
 21
141.7354
  0
LINE
  8
0
  6
CONTINUOUS
 62
     7
 10
-185.0691
 20
140.2647
 11
-184.0403
 21
139.2359
  0
LINE
  8
0
  6
CONTINUOUS
 62
     7
 10
-184.7014
 20
140.6324
 11
-183.6726
 21
139.6036
  0
LINE
  8
0
  6
CONTINUOUS
 62
     7
 10
-204.5399
 20
149.2646
 11
-204.1722
 21
149.6323
  0
LINE
  8
0
  6
CONTINUOUS
 62
     7
 10
-204.1722
 20
148.8969
 11
-203.8045
 21
149.2646
  0
LINE
  8
0
  6
CONTINUOUS
 62
     7
 10
-204.5399
 20
149.2646
 11
-204.1723
 21
148.897
  0
LINE
  8
0
  6
CONTINUOUS
 62
     7
 10
-202.7014
 20
151.1031
 11
-202.3337
 21
150.7354
  0
LINE
  8
0
  6
CONTINUOUS
 62
     7
 10
-205.201
 20
151.3966
 11
-204.1722
 21
150.3678
  0
LINE
  8
0
  6
CONTINUOUS
 62
     7
 10
-204.8333
 20
151.7642
 11
-203.8045
 21
150.7354
  0
LINE
  8
0
  6
CONTINUOUS
 62
     7
 10
-203.0691
 20
150.7354
 11
-202.7014
 21
151.1031
  0
LINE
  8
0
  6
CONTINUOUS
 62
     7
 10
-202.7014
 20
150.3677
 11
-202.3338
 21
150.7354
  0
LINE
  8
0
  6
CONTINUOUS
 62
     7
 10
-203.0691
 20
149.2647
 11
-202.0403
 21
148.2359
  0
LINE
  8
0
  6
CONTINUOUS
 62
     7
 10
-202.7014
 20
149.6323
 11
-201.6726
 21
148.6036
  0
LINE
  8
0
  6
CONTINUOUS
 62
     7
 10
-177.2368
 20
151.0
 11
-177.2368
 21
149.5
  0
LINE
  8
0
  6
CONTINUOUS
 62
     7
 10
-174.4368
 20
149.5
 11
-174.4368
 21
141.5
  0
LINE
  8
0
  6
CONTINUOUS
 62
     7
 10
-177.2368
 20
151.0
 11
-179.0368
 21
151.0
  0
LINE
  8
0
  6
CONTINUOUS
 62
     7
 10
-177.2368
 20
140.0
 11
-179.0368
 21
140.0
  0
LINE
  8
0
  6
CONTINUOUS
 62
     7
 10
-176.4368
 20
149.5
 11
-176.1368
 21
149.2
  0
LINE
  8
0
  6
CONTINUOUS
 62
     7
 10
-176.4368
 20
141.5001
 11
-176.1368
 21
141.8
  0
LINE
  8
0
  6
CONTINUOUS
 62
     7
 10
-179.0368
 20
149.5
 11
-181.4368
 21
149.5
  0
LINE
  8
0
  6
CONTINUOUS
 62
     7
 10
-179.0368
 20
141.5
 11
-181.4368
 21
141.5
  0
LINE
  8
0
  6
CONTINUOUS
 62
     7
 10
-177.2368
 20
141.5
 11
-177.2368
 21
140.0
  0
LINE
  8
0
  6
CENTER
 62
     2
 10
-177.9368
 20
149.45
 11
-177.9368
 21
141.55
  0
LINE
  8
0
  6
CENTER
 62
     2
 10
-176.5868
 20
148.0
 11
-179.3868
 21
148.0
  0
LINE
  8
0
  6
CENTER
 62
     2
 10
-176.5868
 20
143.0
 11
-179.3868
 21
143.0
  0
LINE
  8
0
  6
CONTINUOUS
 62
     7
 10
-176.9868
 20
148.95
 11
-176.9868
 21
147.05
  0
LINE
  8
0
  6
CONTINUOUS
 62
     7
 10
-178.8868
 20
148.95
 11
-178.8868
 21
147.05
  0
LINE
  8
0
  6
CONTINUOUS
 62
     7
 10
-176.7868
 20
148.95
 11
-178.8868
 21
148.95
  0
LINE
  8
0
  6
CONTINUOUS
 62
     7
 10
-176.7868
 20
147.05
 11
-178.8868
 21
147.05
  0
LINE
  8
0
  6
CONTINUOUS
 62
     7
 10
-176.7868
 20
146.45
 11
-178.8868
 21
146.45
  0
LINE
  8
0
  6
CONTINUOUS
 62
     7
 10
-176.7868
 20
144.55
 11
-178.8868
 21
144.55
  0
LINE
  8
0
  6
CONTINUOUS
 62
     7
 10
-176.7868
 20
142.05
 11
-178.8868
 21
142.05
  0
LINE
  8
0
  6
CONTINUOUS
 62
     7
 10
-176.7868
 20
143.95
 11
-178.8868
 21
143.95
  0
LINE
  8
0
  6
CONTINUOUS
 62
     7
 10
-176.9868
 20
146.45
 11
-176.9868
 21
144.55
  0
LINE
  8
0
  6
CONTINUOUS
 62
     7
 10
-178.8868
 20
146.45
 11
-178.8868
 21
144.55
  0
LINE
  8
0
  6
CONTINUOUS
 62
     7
 10
-178.8868
 20
143.95
 11
-178.8868
 21
142.05
  0
LINE
  8
0
  6
CONTINUOUS
 62
     7
 10
-176.9868
 20
143.95
 11
-176.9868
 21
142.05
  0
LINE
  8
0
  6
CONTINUOUS
 62
     7
 10
-176.1368
 20
149.2
 11
-176.1368
 21
141.8
  0
LINE
  8
0
  6
CONTINUOUS
 62
     7
 10
-173.4368
 20
149.5
 11
-173.4368
 21
141.5
  0
LINE
  8
0
  6
CONTINUOUS
 62
     7
 10
-173.4368
 20
141.5
 11
-177.2368
 21
141.5
  0
LINE
  8
0
  6
CONTINUOUS
 62
     7
 10
-173.4368
 20
149.5
 11
-177.2368
 21
149.5
  0
LINE
  8
0
  6
CONTINUOUS
 62
     7
 10
-176.7868
 20
148.95
 11
-176.7868
 21
147.05
  0
LINE
  8
0
  6
CONTINUOUS
 62
     7
 10
-176.7868
 20
146.45
 11
-176.7868
 21
144.55
  0
LINE
  8
0
  6
CONTINUOUS
 62
     7
 10
-176.7868
 20
143.95
 11
-176.7868
 21
142.05
  0
LINE
  8
0
  6
CONTINUOUS
 62
     7
 10
-179.1868
 20
148.5
 11
-179.1868
 21
147.5
  0
LINE
  8
0
  6
CONTINUOUS
 62
     7
 10
-179.1868
 20
146.0
 11
-179.1868
 21
145.0
  0
LINE
  8
0
  6
CONTINUOUS
 62
     7
 10
-179.1868
 20
143.5
 11
-179.1868
 21
142.5
  0
LINE
  8
0
  6
CONTINUOUS
 62
     7
 10
-178.8868
 20
148.5
 11
-179.1868
 21
148.5
  0
LINE
  8
0
  6
CONTINUOUS
 62
     7
 10
-178.8868
 20
147.5
 11
-179.1868
 21
147.5
  0
LINE
  8
0
  6
CONTINUOUS
 62
     7
 10
-178.8868
 20
146.0
 11
-179.1868
 21
146.0
  0
LINE
  8
0
  6
CONTINUOUS
 62
     7
 10
-178.8868
 20
145.0
 11
-179.1868
 21
145.0
  0
LINE
  8
0
  6
CONTINUOUS
 62
     7
 10
-178.8868
 20
142.5
 11
-179.1868
 21
142.5
  0
LINE
  8
0
  6
CONTINUOUS
 62
     7
 10
-178.8868
 20
143.5
 11
-179.1868
 21
143.5
  0
LINE
  8
0
  6
CONTINUOUS
 62
     7
 10
-180.3118
 20
148.5
 11
-180.3118
 21
147.5
  0
LINE
  8
0
  6
CONTINUOUS
 62
     7
 10
-179.8118
 20
148.0
 11
-180.8118
 21
148.0
  0
LINE
  8
0
  6
CONTINUOUS
 62
     7
 10
-180.3118
 20
143.5
 11
-180.3118
 21
142.5
  0
LINE
  8
0
  6
CENTER
 62
     2
 10
-185.4368
 20
145.0
 11
-185.4368
 21
137.0
  0
LINE
  8
0
  6
CENTER
 62
     2
 10
-203.4368
 20
154.0
 11
-203.4368
 21
146.0
  0
LINE
  8
0
  6
CENTER
 62
     2
 10
-207.4368
 20
150.0
 11
-199.4368
 21
150.0
  0
LINE
  8
0
  6
CENTER
 62
     2
 10
-189.4368
 20
141.0
 11
-181.4368
 21
141.0
  0
LINE
  8
0
  6
CONTINUOUS
 62
     7
 10
-175.4368
 20
152.5
 11
-175.4368
 21
138.5
  0
LINE
  8
0
  6
CONTINUOUS
 62
     7
 10
-177.0368
 20
151.2
 11
-177.0368
 21
149.7
  0
LINE
  8
0
  6
CONTINUOUS
 62
     7
 10
-179.0368
 20
151.2
 11
-179.0368
 21
149.5
  0
LINE
  8
0
  6
CONTINUOUS
 62
     7
 10
-181.4368
 20
149.7
 11
-181.4368
 21
141.3
  0
LINE
  8
0
  6
CONTINUOUS
 62
     7
 10
-181.4368
 20
149.7
 11
-179.0368
 21
149.7
  0
LINE
  8
0
  6
CONTINUOUS
 62
     7
 10
-181.4368
 20
141.3
 11
-179.0368
 21
141.3
  0
LINE
  8
0
  6
CONTINUOUS
 62
     7
 10
-179.0368
 20
139.8
 11
-177.0368
 21
139.8
  0
LINE
  8
0
  6
CONTINUOUS
 62
     7
 10
-179.0368
 20
151.2
 11
-177.0368
 21
151.2
  0
LINE
  8
0
  6
CONTINUOUS
 62
     7
 10
-179.0368
 20
141.5
 11
-179.0368
 21
139.8
  0
LINE
  8
0
  6
CONTINUOUS
 62
     7
 10
-177.0368
 20
141.3
 11
-177.0368
 21
139.8
  0
LINE
  8
0
  6
CONTINUOUS
 62
     7
 10
-177.0368
 20
149.7
 11
-175.4368
 21
149.7
  0
LINE
  8
0
  6
CONTINUOUS
 62
     7
 10
-177.0368
 20
141.3
 11
-175.4368
 21
141.3
  0
LINE
  8
0
  6
CONTINUOUS
 62
     7
 10
-176.4368
 20
149.7
 11
-176.4368
 21
141.3
  0
LINE
  8
0
  6
CONTINUOUS
 62
     7
 10
-206.4368
 20
152.5
 11
-206.4368
 21
138.5
  0
LINE
  8
0
  6
CONTINUOUS
 62
     7
 10
-205.9368
 20
153.0
 11
-182.4368
 21
153.0
  0
LINE
  8
0
  6
CONTINUOUS
 62
     7
 10
-205.9368
 20
138.0
 11
-182.4368
 21
138.0
  0
LINE
  8
0
  6
CONTINUOUS
 62
     7
 10
-182.4368
 20
153.0
 11
-182.4368
 21
138.0
  0
LINE
  8
0
  6
CONTINUOUS
 62
     7
 10
-182.4368
 20
152.5
 11
-173.2368
 21
152.5
  0
LINE
  8
0
  6
CONTINUOUS
 62
     7
 10
-172.4368
 20
151.7
 11
-172.4368
 21
139.3
  0
LINE
  8
0
  6
CONTINUOUS
 62
     7
 10
-182.4368
 20
138.5
 11
-173.2368
 21
138.5
  0
LINE
  8
0
  6
CONTINUOUS
 62
     7
 10
-173.9368
 20
150.5
 11
-173.9368
 21
149.5
  0
LINE
  8
0
  6
CONTINUOUS
 62
     7
 10
-173.2368
 20
150.0
 11
-173.2368
 21
141.0
  0
LINE
  8
0
  6
CONTINUOUS
 62
     7
 10
-175.4368
 20
151.0
 11
-174.4368
 21
151.0
  0
LINE
  8
0
  6
CONTINUOUS
 62
     7
 10
-175.4368
 20
140.0
 11
-174.4368
 21
140.0
  0
LINE
  8
0
  6
CONTINUOUS
 62
     7
 10
-173.9368
 20
150.0
 11
-173.2368
 21
150.0
  0
LINE
  8
0
  6
CONTINUOUS
 62
     7
 10
-173.9368
 20
141.0
 11
-173.2368
 21
141.0
  0
LINE
  8
0
  6
CONTINUOUS
 62
     7
 10
-173.9368
 20
141.5
 11
-173.9368
 21
140.5
  0
LINE
  8
0
  6
CONTINUOUS
 62
     7
 10
-324.4368
 20
5.0
 11
-309.4368
 21
5.0
  0
LINE
  8
0
  6
CENTER
 62
     2
 10
-316.9368
 20
62.33333
 11
-316.9368
 21
-89.0
  0
LINE
  8
0
  6
CONTINUOUS
 62
     7
 10
-324.4368
 20
-23.0
 11
-309.4368
 21
-23.0
  0
LINE
  8
0
  6
CENTER
 62
     2
 10
-322.4368
 20
-15.5
 11
-322.4368
 21
-20.5
  0
LINE
  8
0
  6
CENTER
 62
     2
 10
-311.4368
 20
2.5
 11
-311.4368
 21
-2.5
  0
LINE
  8
0
  6
CENTER
 62
     2
 10
-324.9368
 20
-18.0
 11
-319.9368
 21
-18.0
  0
LINE
  8
0
  6
CENTER
 62
     2
 10
-313.9368
 20
0.0
 11
-308.9368
 21
0.0
  0
LINE
  8
0
  6
CENTER
 62
     2
 10
-323.4368
 20
1.0
 11
-316.4368
 21
1.0
  0
LINE
  8
0
  6
CENTER
 62
     2
 10
-326.6519
 20
-9.0
 11
-307.4738
 21
-9.0
  0
LINE
  8
0
  6
CENTER
 62
     2
 10
-320.4368
 20
-32.0
 11
-313.4368
 21
-32.0
  0
LINE
  8
0
  6
CONTINUOUS
 62
     7
 10
-324.4368
 20
24.0
 11
-324.4368
 21
-50.0
  0
LINE
  8
0
  6
CONTINUOUS
 62
     7
 10
-309.4368
 20
24.0
 11
-309.4368
 21
-50.0
  0
LINE
  8
0
  6
CONTINUOUS
 62
     7
 10
-318.3511
 20
-30.5859
 11
-315.5227
 21
-33.41431
  0
LINE
  8
0
  6
CONTINUOUS
 62
     7
 10
-317.4545
 20
-30.0682
 11
-315.005
 21
-32.51768
  0
LINE
  8
0
  6
CONTINUOUS
 62
     7
 10
-318.8687
 20
-31.48242
 11
-316.4192
 21
-33.93192
  0
LINE
  8
0
  6
CONTINUOUS
 62
     7
 10
-318.3511
 20
-33.41414
 11
-315.5227
 21
-30.58571
  0
LINE
  8
0
  6
CONTINUOUS
 62
     7
 10
-317.4545
 20
-33.93178
 11
-315.005
 21
-31.48228
  0
LINE
  8
0
  6
CONTINUOUS
 62
     7
 10
-318.8687
 20
-32.51757
 11
-316.4192
 21
-30.06807
  0
LINE
  8
0
  6
CENTER
 62
     2
 10
-317.4368
 20
-19.0
 11
-310.4368
 21
-19.0
  0
LINE
  8
0
  6
CENTER
 62
     2
 10
-313.9368
 20
-15.5
 11
-313.9368
 21
-22.5
  0
LINE
  8
0
  6
CENTER
 62
     2
 10
-320.4368
 20
14.0
 11
-313.4368
 21
14.0
  0
LINE
  8
0
  6
CONTINUOUS
 62
     7
 10
-318.8687
 20
13.4824
 11
-316.4192
 21
15.93189
  0
LINE
  8
0
  6
CONTINUOUS
 62
     7
 10
-318.8687
 20
14.51758
 11
-316.4192
 21
12.06808
  0
LINE
  8
0
  6
CONTINUOUS
 62
     7
 10
-318.3511
 20
12.58587
 11
-315.5227
 21
15.4143
  0
LINE
  8
0
  6
CONTINUOUS
 62
     7
 10
-317.4545
 20
12.0682
 11
-315.005
 21
14.51769
  0
LINE
  8
0
  6
CONTINUOUS
 62
     7
 10
-318.3511
 20
15.41413
 11
-315.5227
 21
12.5857
  0
LINE
  8
0
  6
CONTINUOUS
 62
     7
 10
-317.4545
 20
15.93181
 11
-315.005
 21
13.48232
  0
LINE
  8
0
  6
CENTER
 62
     2
 10
-319.9368
 20
4.5
 11
-319.9368
 21
-2.33923
  0
LINE
  8
0
  6
CONTINUOUS
 62
     7
 10
-324.4368
 20
50.19998
 11
-324.4368
 21
24.0
  0
LINE
  8
0
  6
CONTINUOUS
 62
     7
 10
-324.4368
 20
24.0
 11
-309.4368
 21
24.0
  0
LINE
  8
0
  6
CONTINUOUS
 62
     7
 10
-324.4368
 20
49.2
 11
-309.4368
 21
49.2
  0
LINE
  8
0
  6
CONTINUOUS
 62
     7
 10
-309.4368
 20
50.20001
 11
-309.4368
 21
24.0
  0
LINE
  8
0
  6
CONTINUOUS
 62
     7
 10
-324.4368
 20
50.19998
 11
-309.4368
 21
50.19998
  0
LINE
  8
0
  6
CONTINUOUS
 62
     7
 10
-323.4368
 20
52.2
 11
-323.2626
 21
52.2
  0
LINE
  8
0
  6
CONTINUOUS
 62
     7
 10
-309.4367
 20
50.19998
 11
-310.4367
 21
52.19997
  0
LINE
  8
0
  6
CONTINUOUS
 62
     7
 10
-324.4368
 20
50.2
 11
-323.4368
 21
52.2
  0
LINE
  8
0
  6
CONTINUOUS
 62
     7
 10
-318.4368
 20
52.2
 11
-318.4368
 21
50.19998
  0
LINE
  8
0
  6
CENTER
 62
     2
 10
-321.4368
 20
55.2
 11
-321.4368
 21
47.2
  0
LINE
  8
0
  6
CONTINUOUS
 62
     7
 10
-318.8868
 20
50.79999
 11
-323.9868
 21
50.79999
  0
LINE
  8
0
  6
CONTINUOUS
 62
     7
 10
-318.8868
 20
50.79999
 11
-318.8868
 21
50.19998
  0
LINE
  8
0
  6
CONTINUOUS
 62
     7
 10
-323.9868
 20
50.79999
 11
-323.9868
 21
50.19998
  0
LINE
  8
0
  6
CONTINUOUS
 62
     7
 10
-319.1868
 20
51.49373
 11
-319.1868
 21
50.79999
  0
LINE
  8
0
  6
CONTINUOUS
 62
     7
 10
-323.6868
 20
51.49373
 11
-323.6868
 21
50.79999
  0
LINE
  8
0
  6
CONTINUOUS
 62
     7
 10
-319.6111
 20
52.2
 11
-310.4368
 21
52.2
  0
LINE
  8
0
  6
CENTER
 62
     2
 10
-312.4368
 20
55.20001
 11
-312.4368
 21
47.20001
  0
LINE
  8
0
  6
CONTINUOUS
 62
     7
 10
-322.4368
 20
60.0
 11
-311.4368
 21
60.0
  0
LINE
  8
0
  6
CONTINUOUS
 62
     7
 10
-312.9368
 20
52.47913
 11
-312.9368
 21
60.0
  0
LINE
  8
0
  6
CONTINUOUS
 62
     7
 10
-320.9368
 20
52.47913
 11
-320.9368
 21
60.0
  0
LINE
  8
0
  6
CONTINUOUS
 62
     7
 10
-322.4368
 20
52.41606
 11
-322.4368
 21
60.0
  0
LINE
  8
0
  6
CONTINUOUS
 62
     7
 10
-311.4368
 20
52.41608
 11
-311.4368
 21
60.0
  0
LINE
  8
0
  6
CONTINUOUS
 62
     7
 10
-323.4368
 20
46.2
 11
-310.4368
 21
46.2
  0
LINE
  8
0
  6
CONTINUOUS
 62
     7
 10
-323.4368
 20
42.2
 11
-310.4368
 21
42.2
  0
LINE
  8
0
  6
CONTINUOUS
 62
     7
 10
-310.4368
 20
46.20001
 11
-310.4368
 21
42.20001
  0
LINE
  8
0
  6
CONTINUOUS
 62
     7
 10
-323.4368
 20
46.2
 11
-323.4368
 21
42.2
  0
LINE
  8
0
  6
CENTER
 62
     2
 10
-319.4368
 20
57.0
 11
-319.4368
 21
83.0
  0
LINE
  8
0
  6
CENTER
 62
     2
 10
-314.4368
 20
57.0
 11
-314.4368
 21
83.0
  0
LINE
  8
0
  6
CONTINUOUS
 62
     7
 10
-320.2868
 20
70.0
 11
-318.5868
 21
70.0
  0
LINE
  8
0
  6
CONTINUOUS
 62
     7
 10
-319.7568
 20
80.0
 11
-319.1168
 21
80.0
  0
LINE
  8
0
  6
CONTINUOUS
 62
     7
 10
-314.1168
 20
70.0
 11
-314.1168
 21
80.0
  0
LINE
  8
0
  6
CONTINUOUS
 62
     7
 10
-314.7568
 20
70.0
 11
-314.7568
 21
80.0
  0
LINE
  8
0
  6
CONTINUOUS
 62
     7
 10
-319.1168
 20
70.0
 11
-319.1168
 21
80.0
  0
LINE
  8
0
  6
CONTINUOUS
 62
     7
 10
-319.7568
 20
70.0
 11
-319.7568
 21
80.0
  0
LINE
  8
0
  6
CONTINUOUS
 62
     7
 10
-318.5868
 20
60.0
 11
-318.5868
 21
64.66565
  0
LINE
  8
0
  6
CONTINUOUS
 62
     7
 10
-320.2868
 20
60.0
 11
-320.2868
 21
65.12117
  0
LINE
  8
0
  6
CONTINUOUS
 62
     7
 10
-315.2868
 20
60.0
 11
-315.2868
 21
63.78143
  0
LINE
  8
0
  6
CONTINUOUS
 62
     7
 10
-313.5868
 20
60.0
 11
-313.5868
 21
63.32591
  0
LINE
  8
0
  6
CONTINUOUS
 62
     7
 10
-315.2868
 20
70.0
 11
-313.5868
 21
70.0
  0
LINE
  8
0
  6
CONTINUOUS
 62
     7
 10
-314.7568
 20
80.0
 11
-314.1168
 21
80.0
  0
LINE
  8
0
  6
CONTINUOUS
 62
     7
 10
-322.7247
 20
45.30678
 11
-320.3831
 21
45.30678
  0
LINE
  8
0
  6
CONTINUOUS
 62
     7
 10
-322.7247
 20
43.23019
 11
-320.7365
 21
43.23019
  0
LINE
  8
0
  6
CONTINUOUS
 62
     7
 10
-322.7247
 20
42.7
 11
-320.0296
 21
42.7
  0
LINE
  8
0
  6
CONTINUOUS
 62
     7
 10
-322.7247
 20
44.77658
 11
-320.7365
 21
44.77658
  0
LINE
  8
0
  6
CONTINUOUS
 62
     7
 10
-322.7247
 20
45.30678
 11
-322.7247
 21
44.77658
  0
LINE
  8
0
  6
CONTINUOUS
 62
     7
 10
-320.0296
 20
44.95331
 11
-320.0296
 21
42.7
  0
LINE
  8
0
  6
CONTINUOUS
 62
     7
 10
-320.7365
 20
44.77658
 11
-320.7365
 21
43.23019
  0
LINE
  8
0
  6
CONTINUOUS
 62
     7
 10
-319.632
 20
45.30678
 11
-319.632
 21
44.77658
  0
LINE
  8
0
  6
CONTINUOUS
 62
     7
 10
-317.1135
 20
44.77658
 11
-317.1135
 21
43.05345
  0
LINE
  8
0
  6
CONTINUOUS
 62
     7
 10
-317.8205
 20
44.77658
 11
-317.8205
 21
43.23019
  0
LINE
  8
0
  6
CONTINUOUS
 62
     7
 10
-322.7247
 20
43.23019
 11
-322.7247
 21
42.7
  0
LINE
  8
0
  6
CONTINUOUS
 62
     7
 10
-319.632
 20
45.30678
 11
-318.9335
 21
45.30678
  0
LINE
  8
0
  6
CONTINUOUS
 62
     7
 10
-319.632
 20
42.7
 11
-319.0831
 21
42.7
  0
LINE
  8
0
  6
CONTINUOUS
 62
     7
 10
-319.6319
 20
42.69998
 11
-319.0754
 21
44.77656
  0
LINE
  8
0
  6
CONTINUOUS
 62
     7
 10
-319.632
 20
44.77658
 11
-319.0756
 21
44.77658
  0
LINE
  8
0
  6
CONTINUOUS
 62
     7
 10
-319.0832
 20
42.70001
 11
-318.5267
 21
44.77658
  0
LINE
  8
0
  6
CONTINUOUS
 62
     7
 10
-318.3507
 20
43.23019
 11
-317.8205
 21
43.23019
  0
LINE
  8
0
  6
CONTINUOUS
 62
     7
 10
-318.3508
 20
43.23016
 11
-318.2088
 21
42.69997
  0
LINE
  8
0
  6
CONTINUOUS
 62
     7
 10
-318.2086
 20
42.7
 11
-317.467
 21
42.7
  0
LINE
  8
0
  6
CONTINUOUS
 62
     7
 10
-318.5266
 20
44.77658
 11
-317.8205
 21
44.77658
  0
LINE
  8
0
  6
CONTINUOUS
 62
     7
 10
-318.3846
 20
45.30678
 11
-317.6437
 21
45.30678
  0
LINE
  8
0
  6
CONTINUOUS
 62
     7
 10
-318.9335
 20
45.30677
 11
-318.8281
 21
45.69999
  0
LINE
  8
0
  6
CONTINUOUS
 62
     7
 10
-318.3845
 20
45.30677
 11
-318.2791
 21
45.70001
  0
LINE
  8
0
  6
CONTINUOUS
 62
     7
 10
-316.6717
 20
45.30678
 11
-315.8322
 21
45.30678
  0
LINE
  8
0
  6
CONTINUOUS
 62
     7
 10
-316.6717
 20
44.77658
 11
-314.61
 21
44.77658
  0
LINE
  8
0
  6
CONTINUOUS
 62
     7
 10
-315.8322
 20
42.7
 11
-315.1253
 21
42.7
  0
LINE
  8
0
  6
CONTINUOUS
 62
     7
 10
-316.6717
 20
45.30678
 11
-316.6717
 21
44.77658
  0
LINE
  8
0
  6
CONTINUOUS
 62
     7
 10
-314.0649
 20
43.81519
 11
-314.0649
 21
43.23019
  0
LINE
  8
0
  6
CONTINUOUS
 62
     7
 10
-316.6717
 20
43.23016
 11
-315.8322
 21
43.62162
  0
LINE
  8
0
  6
CONTINUOUS
 62
     7
 10
-316.6717
 20
43.81516
 11
-314.61
 21
44.77655
  0
LINE
  8
0
  6
CONTINUOUS
 62
     7
 10
-316.6717
 20
43.81519
 11
-316.6717
 21
43.23019
  0
LINE
  8
0
  6
CONTINUOUS
 62
     7
 10
-315.1253
 20
43.72467
 11
-314.0649
 21
43.23021
  0
LINE
  8
0
  6
CONTINUOUS
 62
     7
 10
-314.741
 20
44.13043
 11
-314.0649
 21
43.81515
  0
LINE
  8
0
  6
CONTINUOUS
 62
     7
 10
-314.0649
 20
44.95331
 11
-314.0649
 21
44.67093
  0
LINE
  8
0
  6
CONTINUOUS
 62
     7
 10
-315.8322
 20
45.7
 11
-315.8322
 21
45.30678
  0
LINE
  8
0
  6
CONTINUOUS
 62
     7
 10
-315.1253
 20
45.7
 11
-315.1253
 21
45.30678
  0
LINE
  8
0
  6
CONTINUOUS
 62
     7
 10
-315.1253
 20
45.30678
 11
-314.4184
 21
45.30678
  0
LINE
  8
0
  6
CONTINUOUS
 62
     7
 10
-315.8322
 20
43.62164
 11
-315.8322
 21
42.7
  0
LINE
  8
0
  6
CONTINUOUS
 62
     7
 10
-315.1253
 20
43.72464
 11
-315.1253
 21
42.7
  0
LINE
  8
0
  6
CONTINUOUS
 62
     7
 10
-314.741
 20
44.13038
 11
-314.269
 21
44.35048
  0
LINE
  8
0
  6
CONTINUOUS
 62
     7
 10
-311.6791
 20
45.54094
 11
-311.1489
 21
45.54094
  0
LINE
  8
0
  6
CONTINUOUS
 62
     7
 10
-313.844
 20
44.44576
 11
-313.844
 21
43.87517
  0
LINE
  8
0
  6
CONTINUOUS
 62
     7
 10
-311.1489
 20
45.54094
 11
-311.1489
 21
45.30678
  0
LINE
  8
0
  6
CONTINUOUS
 62
     7
 10
-311.6791
 20
45.54094
 11
-311.6791
 21
45.4267
  0
LINE
  8
0
  6
CONTINUOUS
 62
     7
 10
-312.386
 20
44.45505
 11
-312.386
 21
42.70001
  0
LINE
  8
0
  6
CONTINUOUS
 62
     7
 10
-313.844
 20
44.44571
 11
-311.7905
 21
45.26242
  0
LINE
  8
0
  6
CONTINUOUS
 62
     7
 10
-313.8441
 20
43.87513
 11
-312.386
 21
44.45501
  0
LINE
  8
0
  6
CONTINUOUS
 62
     7
 10
-312.386
 20
42.7
 11
-311.6791
 21
42.7
  0
LINE
  8
0
  6
CONTINUOUS
 62
     7
 10
-311.6791
 20
44.73619
 11
-311.6791
 21
42.70001
  0
LINE
  8
0
  6
CONTINUOUS
 62
     7
 10
-311.679
 20
44.73616
 11
-311.483
 21
44.81409
  0
LINE
  8
0
  6
CONTINUOUS
 62
     7
 10
-318.8281
 20
45.7
 11
-318.2792
 21
45.7
  0
LINE
  8
0
  6
CONTINUOUS
 62
     7
 10
-317.4008
 20
45.7
 11
-317.1747
 21
45.7
  0
LINE
  8
0
  6
CONTINUOUS
 62
     7
 10
-315.8322
 20
45.7
 11
-315.1253
 21
45.7
  0
LINE
  8
0
  6
CONTINUOUS
 62
     7
 10
-317.4008
 20
45.34653
 11
-317.1747
 21
45.34653
  0
LINE
  8
0
  6
CONTINUOUS
 62
     7
 10
-317.4007
 20
45.7
 11
-317.4007
 21
45.34653
  0
LINE
  8
0
  6
CONTINUOUS
 62
     7
 10
-317.1747
 20
45.7
 11
-317.1747
 21
45.34653
  0
LINE
  8
0
  6
CONTINUOUS
 62
     7
 10
-317.017
 20
45.7
 11
-317.017
 21
45.34653
  0
LINE
  8
0
  6
CONTINUOUS
 62
     7
 10
-316.791
 20
45.7
 11
-316.791
 21
45.34653
  0
LINE
  8
0
  6
CONTINUOUS
 62
     7
 10
-317.017
 20
45.7
 11
-316.791
 21
45.7
  0
LINE
  8
0
  6
CONTINUOUS
 62
     7
 10
-317.017
 20
45.34653
 11
-316.791
 21
45.34653
  0
LINE
  8
0
  6
CONTINUOUS
 62
     7
 10
-320.9368
 20
58.5
 11
-312.9368
 21
58.5
  0
LINE
  8
0
  6
PHANTOM
 62
     2
 10
-311.5868
 20
64.34293
 11
-322.2868
 21
67.20998
  0
LINE
  8
0
  6
PHANTOM
 62
     2
 10
-311.5868
 20
62.79002
 11
-322.2868
 21
65.65707
  0
LINE
  8
0
  6
CONTINUOUS
 62
     7
 10
-320.2868
 20
66.67409
 11
-320.2868
 21
70.0
  0
LINE
  8
0
  6
CONTINUOUS
 62
     7
 10
-318.5868
 20
66.21857
 11
-318.5868
 21
70.0
  0
LINE
  8
0
  6
CONTINUOUS
 62
     7
 10
-315.2868
 20
65.33434
 11
-315.2868
 21
70.0
  0
LINE
  8
0
  6
CONTINUOUS
 62
     7
 10
-313.5868
 20
64.87881
 11
-313.5868
 21
70.0
  0
LINE
  8
0
  6
CONTINUOUS
 62
     7
 10
-309.4368
 20
-76.19992
 11
-309.4368
 21
-49.99994
  0
LINE
  8
0
  6
CONTINUOUS
 62
     7
 10
-309.4368
 20
-49.99994
 11
-324.4368
 21
-49.99994
  0
LINE
  8
0
  6
CONTINUOUS
 62
     7
 10
-309.4368
 20
-75.19995
 11
-324.4368
 21
-75.19995
  0
LINE
  8
0
  6
CONTINUOUS
 62
     7
 10
-324.4368
 20
-76.19995
 11
-324.4368
 21
-49.99994
  0
LINE
  8
0
  6
CONTINUOUS
 62
     7
 10
-309.4368
 20
-76.19992
 11
-324.4368
 21
-76.19992
  0
LINE
  8
0
  6
CONTINUOUS
 62
     7
 10
-310.4368
 20
-78.19995
 11
-310.6111
 21
-78.19995
  0
LINE
  8
0
  6
CONTINUOUS
 62
     7
 10
-324.4367
 20
-76.19994
 11
-323.4367
 21
-78.19993
  0
LINE
  8
0
  6
CONTINUOUS
 62
     7
 10
-309.4368
 20
-76.19993
 11
-310.4368
 21
-78.19991
  0
LINE
  8
0
  6
CONTINUOUS
 62
     7
 10
-315.4368
 20
-78.19995
 11
-315.4368
 21
-76.19992
  0
LINE
  8
0
  6
CENTER
 62
     2
 10
-312.4368
 20
-81.19995
 11
-312.4368
 21
-73.19995
  0
LINE
  8
0
  6
CONTINUOUS
 62
     7
 10
-314.9868
 20
-76.79993
 11
-309.8868
 21
-76.79993
  0
LINE
  8
0
  6
CONTINUOUS
 62
     7
 10
-314.9868
 20
-76.79993
 11
-314.9868
 21
-76.19992
  0
LINE
  8
0
  6
CONTINUOUS
 62
     7
 10
-309.8868
 20
-76.79993
 11
-309.8868
 21
-76.19992
  0
LINE
  8
0
  6
CONTINUOUS
 62
     7
 10
-314.6868
 20
-77.49365
 11
-314.6868
 21
-76.79993
  0
LINE
  8
0
  6
CONTINUOUS
 62
     7
 10
-310.1868
 20
-77.49365
 11
-310.1868
 21
-76.79993
  0
LINE
  8
0
  6
CONTINUOUS
 62
     7
 10
-314.2626
 20
-78.19995
 11
-323.4368
 21
-78.19995
  0
LINE
  8
0
  6
CENTER
 62
     2
 10
-321.4368
 20
-81.19995
 11
-321.4368
 21
-73.19995
  0
LINE
  8
0
  6
CONTINUOUS
 62
     7
 10
-311.4368
 20
-85.99994
 11
-322.4368
 21
-85.99994
  0
LINE
  8
0
  6
CONTINUOUS
 62
     7
 10
-320.9368
 20
-78.47906
 11
-320.9368
 21
-85.99994
  0
LINE
  8
0
  6
CONTINUOUS
 62
     7
 10
-312.9368
 20
-78.47906
 11
-312.9368
 21
-85.99994
  0
LINE
  8
0
  6
CONTINUOUS
 62
     7
 10
-311.4368
 20
-78.41602
 11
-311.4368
 21
-85.99994
  0
LINE
  8
0
  6
CONTINUOUS
 62
     7
 10
-322.4368
 20
-78.41602
 11
-322.4368
 21
-85.99994
  0
LINE
  8
0
  6
CONTINUOUS
 62
     7
 10
-310.4368
 20
-72.19995
 11
-323.4368
 21
-72.19995
  0
LINE
  8
0
  6
CONTINUOUS
 62
     7
 10
-310.4368
 20
-68.19995
 11
-323.4368
 21
-68.19995
  0
LINE
  8
0
  6
CONTINUOUS
 62
     7
 10
-323.4368
 20
-72.19995
 11
-323.4368
 21
-68.19995
  0
LINE
  8
0
  6
CONTINUOUS
 62
     7
 10
-310.4368
 20
-72.19995
 11
-310.4368
 21
-68.19995
  0
LINE
  8
0
  6
CENTER
 62
     2
 10
-314.4368
 20
-82.99994
 11
-314.4368
 21
-108.9999
  0
LINE
  8
0
  6
CENTER
 62
     2
 10
-319.4368
 20
-82.99994
 11
-319.4368
 21
-108.9999
  0
LINE
  8
0
  6
CONTINUOUS
 62
     7
 10
-313.5868
 20
-95.99994
 11
-315.2868
 21
-95.99994
  0
LINE
  8
0
  6
CONTINUOUS
 62
     7
 10
-314.1168
 20
-105.9999
 11
-314.7568
 21
-105.9999
  0
LINE
  8
0
  6
CONTINUOUS
 62
     7
 10
-319.7568
 20
-95.99994
 11
-319.7568
 21
-105.9999
  0
LINE
  8
0
  6
CONTINUOUS
 62
     7
 10
-319.1168
 20
-95.99994
 11
-319.1168
 21
-105.9999
  0
LINE
  8
0
  6
CONTINUOUS
 62
     7
 10
-314.7568
 20
-95.99994
 11
-314.7568
 21
-105.9999
  0
LINE
  8
0
  6
CONTINUOUS
 62
     7
 10
-314.1168
 20
-95.99994
 11
-314.1168
 21
-105.9999
  0
LINE
  8
0
  6
CONTINUOUS
 62
     7
 10
-315.2868
 20
-85.99994
 11
-315.2868
 21
-90.66559
  0
LINE
  8
0
  6
CONTINUOUS
 62
     7
 10
-313.5868
 20
-85.99994
 11
-313.5868
 21
-91.12109
  0
LINE
  8
0
  6
CONTINUOUS
 62
     7
 10
-318.5868
 20
-85.99994
 11
-318.5868
 21
-89.78137
  0
LINE
  8
0
  6
CONTINUOUS
 62
     7
 10
-320.2868
 20
-85.99994
 11
-320.2868
 21
-89.32587
  0
LINE
  8
0
  6
CONTINUOUS
 62
     7
 10
-318.5868
 20
-95.99994
 11
-320.2868
 21
-95.99994
  0
LINE
  8
0
  6
CONTINUOUS
 62
     7
 10
-319.1168
 20
-105.9999
 11
-319.7568
 21
-105.9999
  0
LINE
  8
0
  6
CONTINUOUS
 62
     7
 10
-311.1489
 20
-71.3067
 11
-313.4905
 21
-71.3067
  0
LINE
  8
0
  6
CONTINUOUS
 62
     7
 10
-311.1489
 20
-69.23013
 11
-313.1371
 21
-69.23013
  0
LINE
  8
0
  6
CONTINUOUS
 62
     7
 10
-311.1489
 20
-68.69995
 11
-313.844
 21
-68.69995
  0
LINE
  8
0
  6
CONTINUOUS
 62
     7
 10
-311.1489
 20
-70.77652
 11
-313.1371
 21
-70.77652
  0
LINE
  8
0
  6
CONTINUOUS
 62
     7
 10
-311.1489
 20
-71.3067
 11
-311.1489
 21
-70.77652
  0
LINE
  8
0
  6
CONTINUOUS
 62
     7
 10
-313.844
 20
-70.95325
 11
-313.844
 21
-68.69995
  0
LINE
  8
0
  6
CONTINUOUS
 62
     7
 10
-313.1371
 20
-70.77652
 11
-313.1371
 21
-69.23013
  0
LINE
  8
0
  6
CONTINUOUS
 62
     7
 10
-314.2417
 20
-71.3067
 11
-314.2417
 21
-70.77652
  0
LINE
  8
0
  6
CONTINUOUS
 62
     7
 10
-316.7601
 20
-70.77652
 11
-316.7601
 21
-69.05341
  0
LINE
  8
0
  6
CONTINUOUS
 62
     7
 10
-316.0532
 20
-70.77652
 11
-316.0532
 21
-69.23013
  0
LINE
  8
0
  6
CONTINUOUS
 62
     7
 10
-311.1489
 20
-69.2301
 11
-311.1489
 21
-68.69995
  0
LINE
  8
0
  6
CONTINUOUS
 62
     7
 10
-314.2416
 20
-71.3067
 11
-314.9402
 21
-71.3067
  0
LINE
  8
0
  6
CONTINUOUS
 62
     7
 10
-314.2416
 20
-68.69995
 11
-314.7906
 21
-68.69995
  0
LINE
  8
0
  6
CONTINUOUS
 62
     7
 10
-314.2417
 20
-68.69991
 11
-314.7981
 21
-70.7765
  0
LINE
  8
0
  6
CONTINUOUS
 62
     7
 10
-314.2416
 20
-70.77652
 11
-314.7981
 21
-70.77652
  0
LINE
  8
0
  6
CONTINUOUS
 62
     7
 10
-314.7907
 20
-68.69988
 11
-315.3471
 21
-70.77647
  0
LINE
  8
0
  6
CONTINUOUS
 62
     7
 10
-315.5229
 20
-69.23013
 11
-316.0532
 21
-69.23013
  0
LINE
  8
0
  6
CONTINUOUS
 62
     7
 10
-315.5231
 20
-69.23013
 11
-315.6651
 21
-68.69994
  0
LINE
  8
0
  6
CONTINUOUS
 62
     7
 10
-315.665
 20
-68.69995
 11
-316.4066
 21
-68.69995
  0
LINE
  8
0
  6
CONTINUOUS
 62
     7
 10
-315.347
 20
-70.77652
 11
-316.0532
 21
-70.77652
  0
LINE
  8
0
  6
CONTINUOUS
 62
     7
 10
-315.489
 20
-71.3067
 11
-316.2299
 21
-71.3067
  0
LINE
  8
0
  6
CONTINUOUS
 62
     7
 10
-314.9402
 20
-71.30669
 11
-315.0455
 21
-71.6999
  0
LINE
  8
0
  6
CONTINUOUS
 62
     7
 10
-315.489
 20
-71.30675
 11
-315.5944
 21
-71.69998
  0
LINE
  8
0
  6
CONTINUOUS
 62
     7
 10
-317.2019
 20
-71.3067
 11
-318.0414
 21
-71.3067
  0
LINE
  8
0
  6
CONTINUOUS
 62
     7
 10
-317.2019
 20
-70.77652
 11
-319.2636
 21
-70.77652
  0
LINE
  8
0
  6
CONTINUOUS
 62
     7
 10
-318.0414
 20
-68.69995
 11
-318.7483
 21
-68.69995
  0
LINE
  8
0
  6
CONTINUOUS
 62
     7
 10
-317.2019
 20
-71.3067
 11
-317.2019
 21
-70.77652
  0
LINE
  8
0
  6
CONTINUOUS
 62
     7
 10
-319.8087
 20
-69.81512
 11
-319.8087
 21
-69.23013
  0
LINE
  8
0
  6
CONTINUOUS
 62
     7
 10
-317.2018
 20
-69.23008
 11
-318.0413
 21
-69.62154
  0
LINE
  8
0
  6
CONTINUOUS
 62
     7
 10
-317.2019
 20
-69.81509
 11
-319.2636
 21
-70.77649
  0
LINE
  8
0
  6
CONTINUOUS
 62
     7
 10
-317.2019
 20
-69.81512
 11
-317.2019
 21
-69.23013
  0
LINE
  8
0
  6
CONTINUOUS
 62
     7
 10
-318.7482
 20
-69.72461
 11
-319.8087
 21
-69.23013
  0
LINE
  8
0
  6
CONTINUOUS
 62
     7
 10
-319.1326
 20
-70.13042
 11
-319.8088
 21
-69.81513
  0
LINE
  8
0
  6
CONTINUOUS
 62
     7
 10
-319.8087
 20
-70.95325
 11
-319.8087
 21
-70.67087
  0
LINE
  8
0
  6
CONTINUOUS
 62
     7
 10
-318.0414
 20
-71.69995
 11
-318.0414
 21
-71.3067
  0
LINE
  8
0
  6
CONTINUOUS
 62
     7
 10
-318.7483
 20
-71.69995
 11
-318.7483
 21
-71.3067
  0
LINE
  8
0
  6
CONTINUOUS
 62
     7
 10
-318.7483
 20
-71.3067
 11
-319.4552
 21
-71.3067
  0
LINE
  8
0
  6
CONTINUOUS
 62
     7
 10
-318.0414
 20
-69.62158
 11
-318.0414
 21
-68.69995
  0
LINE
  8
0
  6
CONTINUOUS
 62
     7
 10
-318.7483
 20
-69.72458
 11
-318.7483
 21
-68.69995
  0
LINE
  8
0
  6
CONTINUOUS
 62
     7
 10
-319.1326
 20
-70.13035
 11
-319.6046
 21
-70.35046
  0
LINE
  8
0
  6
CONTINUOUS
 62
     7
 10
-322.1945
 20
-71.54089
 11
-322.7247
 21
-71.54089
  0
LINE
  8
0
  6
CONTINUOUS
 62
     7
 10
-320.0296
 20
-70.44568
 11
-320.0296
 21
-69.87512
  0
LINE
  8
0
  6
CONTINUOUS
 62
     7
 10
-322.7247
 20
-71.54089
 11
-322.7247
 21
-71.3067
  0
LINE
  8
0
  6
CONTINUOUS
 62
     7
 10
-322.1946
 20
-71.54089
 11
-322.1946
 21
-71.42664
  0
LINE
  8
0
  6
CONTINUOUS
 62
     7
 10
-321.4876
 20
-70.45496
 11
-321.4876
 21
-68.69995
  0
LINE
  8
0
  6
CONTINUOUS
 62
     7
 10
-320.0297
 20
-70.44565
 11
-322.0832
 21
-71.26236
  0
LINE
  8
0
  6
CONTINUOUS
 62
     7
 10
-320.0297
 20
-69.87509
 11
-321.4877
 21
-70.45496
  0
LINE
  8
0
  6
CONTINUOUS
 62
     7
 10
-321.4876
 20
-68.69995
 11
-322.1945
 21
-68.69995
  0
LINE
  8
0
  6
CONTINUOUS
 62
     7
 10
-322.1946
 20
-70.73615
 11
-322.1946
 21
-68.69995
  0
LINE
  8
0
  6
CONTINUOUS
 62
     7
 10
-322.1946
 20
-70.73611
 11
-322.3905
 21
-70.81403
  0
LINE
  8
0
  6
CONTINUOUS
 62
     7
 10
-315.0455
 20
-71.69995
 11
-315.5944
 21
-71.69995
  0
LINE
  8
0
  6
CONTINUOUS
 62
     7
 10
-316.4729
 20
-71.69995
 11
-316.6989
 21
-71.69995
  0
LINE
  8
0
  6
CONTINUOUS
 62
     7
 10
-318.0414
 20
-71.69995
 11
-318.7483
 21
-71.69995
  0
LINE
  8
0
  6
CONTINUOUS
 62
     7
 10
-316.4729
 20
-71.34647
 11
-316.6989
 21
-71.34647
  0
LINE
  8
0
  6
CONTINUOUS
 62
     7
 10
-316.4729
 20
-71.69995
 11
-316.4729
 21
-71.34647
  0
LINE
  8
0
  6
CONTINUOUS
 62
     7
 10
-316.6989
 20
-71.69995
 11
-316.6989
 21
-71.34647
  0
LINE
  8
0
  6
CONTINUOUS
 62
     7
 10
-316.8566
 20
-71.69995
 11
-316.8566
 21
-71.34647
  0
LINE
  8
0
  6
CONTINUOUS
 62
     7
 10
-317.0826
 20
-71.69995
 11
-317.0826
 21
-71.34647
  0
LINE
  8
0
  6
CONTINUOUS
 62
     7
 10
-316.8566
 20
-71.69995
 11
-317.0826
 21
-71.69995
  0
LINE
  8
0
  6
CONTINUOUS
 62
     7
 10
-316.8566
 20
-71.34647
 11
-317.0826
 21
-71.34647
  0
LINE
  8
0
  6
CONTINUOUS
 62
     7
 10
-312.9368
 20
-84.49994
 11
-320.9368
 21
-84.49994
  0
LINE
  8
0
  6
PHANTOM
 62
     2
 10
-322.2869
 20
-90.34294
 11
-311.5869
 21
-93.20999
  0
LINE
  8
0
  6
PHANTOM
 62
     2
 10
-322.2868
 20
-88.79
 11
-311.5868
 21
-91.65706
  0
LINE
  8
0
  6
CONTINUOUS
 62
     7
 10
-313.5868
 20
-92.67401
 11
-313.5868
 21
-95.99994
  0
LINE
  8
0
  6
CONTINUOUS
 62
     7
 10
-315.2868
 20
-92.21851
 11
-315.2868
 21
-95.99994
  0
LINE
  8
0
  6
CONTINUOUS
 62
     7
 10
-318.5868
 20
-91.33429
 11
-318.5868
 21
-95.99994
  0
LINE
  8
0
  6
CONTINUOUS
 62
     7
 10
-320.2868
 20
-90.87875
 11
-320.2868
 21
-95.99994
  0
LINE
  8
0
  6
CONTINUOUS
 62
     7
 10
-58.43681
 20
5.0
 11
-43.43681
 21
5.0
  0
LINE
  8
0
  6
CENTER
 62
     2
 10
-50.93681
 20
62.33333
 11
-50.93681
 21
-88.66666
  0
LINE
  8
0
  6
CENTER
 62
     2
 10
-53.32176
 20
-46.5
 11
-48.47514
 21
-46.5
  0
LINE
  8
0
  6
CENTER
 62
     2
 10
-59.00761
 20
0.0
 11
-52.89873
 21
0.0
  0
LINE
  8
0
  6
CENTER
 62
     2
 10
-45.43681
 20
-14.47299
 11
-45.43681
 21
-21.41016
  0
LINE
  8
0
  6
CENTER
 62
     2
 10
-56.43681
 20
3.43939
 11
-56.43681
 21
-3.34247
  0
LINE
  8
0
  6
CONTINUOUS
 62
     7
 10
-58.43681
 20
-23.0
 11
-43.43681
 21
-23.0
  0
LINE
  8
0
  6
CENTER
 62
     2
 10
-53.93681
 20
-10.5
 11
-53.93681
 21
-17.5
  0
LINE
  8
0
  6
CENTER
 62
     2
 10
-57.43681
 20
-14.0
 11
-50.43681
 21
-14.0
  0
LINE
  8
0
  6
CONTINUOUS
 62
     7
 10
-58.43681
 20
24.0
 11
-58.43681
 21
-50.0
  0
LINE
  8
0
  6
CONTINUOUS
 62
     7
 10
-43.43681
 20
24.0
 11
-43.43681
 21
-50.0
  0
LINE
  8
0
  6
CENTER
 62
     2
 10
-53.32176
 20
20.5
 11
-48.47514
 21
20.5
  0
LINE
  8
0
  6
CENTER
 62
     2
 10
-47.93681
 20
-0.5
 11
-47.93681
 21
-7.5
  0
LINE
  8
0
  6
CENTER
 62
     2
 10
-51.43681
 20
-4.0
 11
-44.43681
 21
-4.0
  0
LINE
  8
0
  6
CENTER
 62
     2
 10
-61.43681
 20
-9.0
 11
-40.43681
 21
-9.0
  0
LINE
  8
0
  6
CENTER
 62
     2
 10
-50.31291
 20
-18.0
 11
-42.85539
 21
-18.0
  0
LINE
  8
0
  6
CONTINUOUS
 62
     7
 10
-58.43681
 20
50.2
 11
-58.43681
 21
24.0
  0
LINE
  8
0
  6
CONTINUOUS
 62
     7
 10
-43.43681
 20
50.20001
 11
-43.43681
 21
24.0
  0
LINE
  8
0
  6
CONTINUOUS
 62
     7
 10
-58.43681
 20
49.2
 11
-57.93681
 21
49.2
  0
LINE
  8
0
  6
CONTINUOUS
 62
     7
 10
-58.43681
 20
24.0
 11
-43.43681
 21
24.0
  0
LINE
  8
0
  6
CONTINUOUS
 62
     7
 10
-43.93681
 20
50.0
 11
-43.93681
 21
45.0
  0
LINE
  8
0
  6
CONTINUOUS
 62
     7
 10
-57.93681
 20
50.0
 11
-57.93681
 21
45.0
  0
LINE
  8
0
  6
CONTINUOUS
 62
     7
 10
-43.93681
 20
49.2
 11
-43.43681
 21
49.2
  0
LINE
  8
0
  6
CONTINUOUS
 62
     7
 10
-57.93681
 20
44.2
 11
-57.93681
 21
24.8
  0
LINE
  8
0
  6
CONTINUOUS
 62
     7
 10
-43.93681
 20
44.2
 11
-43.93681
 21
24.8
  0
LINE
  8
0
  6
CONTINUOUS
 62
     7
 10
-56.43681
 20
25.5
 11
-45.43681
 21
25.5
  0
LINE
  8
0
  6
CONTINUOUS
 62
     7
 10
-56.43681
 20
34.0
 11
-45.43681
 21
34.0
  0
LINE
  8
0
  6
CONTINUOUS
 62
     7
 10
-56.43681
 20
34.0
 11
-56.43681
 21
25.5
  0
LINE
  8
0
  6
CONTINUOUS
 62
     7
 10
-45.43681
 20
34.0
 11
-45.43681
 21
25.5
  0
LINE
  8
0
  6
CENTER
 62
     2
 10
-54.93681
 20
36.5
 11
-46.93681
 21
36.5
  0
LINE
  8
0
  6
CONTINUOUS
 62
     7
 10
-52.93681
 20
37.5
 11
-48.93681
 21
37.5
  0
LINE
  8
0
  6
CONTINUOUS
 62
     7
 10
-52.93681
 20
35.5
 11
-48.93681
 21
35.5
  0
LINE
  8
0
  6
CONTINUOUS
 62
     7
 10
-52.93681
 20
37.5
 11
-52.93681
 21
35.5
  0
LINE
  8
0
  6
CONTINUOUS
 62
     7
 10
-48.93681
 20
37.5
 11
-48.93681
 21
35.5
  0
LINE
  8
0
  6
CONTINUOUS
 62
     7
 10
-53.43681
 20
38.0
 11
-48.43681
 21
38.0
  0
LINE
  8
0
  6
CONTINUOUS
 62
     7
 10
-53.43681
 20
38.0
 11
-53.43681
 21
35.0
  0
LINE
  8
0
  6
CONTINUOUS
 62
     7
 10
-53.43681
 20
35.0
 11
-48.43681
 21
35.0
  0
LINE
  8
0
  6
CONTINUOUS
 62
     7
 10
-48.43681
 20
38.0
 11
-48.43681
 21
35.0
  0
LINE
  8
0
  6
CONTINUOUS
 62
     7
 10
-52.93681
 20
37.49998
 11
-53.4368
 21
37.99998
  0
LINE
  8
0
  6
CONTINUOUS
 62
     7
 10
-48.93684
 20
37.50002
 11
-48.43684
 21
38.00002
  0
LINE
  8
0
  6
CONTINUOUS
 62
     7
 10
-48.93682
 20
35.49995
 11
-48.43683
 21
34.99996
  0
LINE
  8
0
  6
CONTINUOUS
 62
     7
 10
-52.93685
 20
35.50003
 11
-53.43685
 21
35.00003
  0
LINE
  8
0
  6
CONTINUOUS
 62
     7
 10
-57.43681
 20
52.2
 11
-57.26256
 21
52.2
  0
LINE
  8
0
  6
CONTINUOUS
 62
     7
 10
-57.93681
 20
50.0
 11
-55.13683
 21
50.0
  0
LINE
  8
0
  6
CONTINUOUS
 62
     7
 10
-58.43682
 20
50.20002
 11
-57.43682
 21
52.20001
  0
LINE
  8
0
  6
CONTINUOUS
 62
     7
 10
-43.43684
 20
50.20002
 11
-44.43685
 21
52.20003
  0
LINE
  8
0
  6
CONTINUOUS
 62
     7
 10
-56.43681
 20
50.8
 11
-57.9868
 21
50.8
  0
LINE
  8
0
  6
CONTINUOUS
 62
     7
 10
-57.9868
 20
50.8
 11
-57.9868
 21
50.2
  0
LINE
  8
0
  6
CONTINUOUS
 62
     7
 10
-57.68681
 20
51.49374
 11
-57.68681
 21
50.8
  0
LINE
  8
0
  6
CONTINUOUS
 62
     7
 10
-54.93681
 20
58.0
 11
-46.93681
 21
58.0
  0
LINE
  8
0
  6
CONTINUOUS
 62
     7
 10
-54.93681
 20
52.32872
 11
-46.93681
 21
52.32872
  0
LINE
  8
0
  6
CONTINUOUS
 62
     7
 10
-45.43681
 20
52.2
 11
-44.43681
 21
52.2
  0
LINE
  8
0
  6
CONTINUOUS
 62
     7
 10
-57.93681
 20
45.0
 11
-43.93681
 21
45.0
  0
LINE
  8
0
  6
CONTINUOUS
 62
     7
 10
-46.7368
 20
50.0
 11
-46.7368
 21
45.0
  0
LINE
  8
0
  6
CONTINUOUS
 62
     7
 10
-55.13683
 20
50.0
 11
-55.13683
 21
45.0
  0
LINE
  8
0
  6
CONTINUOUS
 62
     7
 10
-46.7368
 20
50.0
 11
-43.93681
 21
50.0
  0
LINE
  8
0
  6
CONTINUOUS
 62
     7
 10
-56.43681
 20
60.0
 11
-45.43681
 21
60.0
  0
LINE
  8
0
  6
CONTINUOUS
 62
     7
 10
-46.93681
 20
45.0
 11
-46.93681
 21
60.0
  0
LINE
  8
0
  6
CONTINUOUS
 62
     7
 10
-54.93681
 20
45.0
 11
-54.93681
 21
60.0
  0
LINE
  8
0
  6
CONTINUOUS
 62
     7
 10
-56.43681
 20
50.0
 11
-56.43681
 21
60.0
  0
LINE
  8
0
  6
CONTINUOUS
 62
     7
 10
-45.43681
 20
50.0
 11
-45.43681
 21
60.0
  0
LINE
  8
0
  6
CENTER
 62
     2
 10
-53.43681
 20
57.0
 11
-53.43681
 21
83.0
  0
LINE
  8
0
  6
CENTER
 62
     2
 10
-48.43681
 20
57.0
 11
-48.43681
 21
83.0
  0
LINE
  8
0
  6
CONTINUOUS
 62
     7
 10
-54.28685
 20
70.0
 11
-52.58684
 21
70.0
  0
LINE
  8
0
  6
CONTINUOUS
 62
     7
 10
-53.75682
 20
80.0
 11
-53.11681
 21
80.0
  0
LINE
  8
0
  6
CONTINUOUS
 62
     7
 10
-48.11681
 20
70.0
 11
-48.11681
 21
80.0
  0
LINE
  8
0
  6
CONTINUOUS
 62
     7
 10
-48.75682
 20
70.0
 11
-48.75682
 21
80.0
  0
LINE
  8
0
  6
CONTINUOUS
 62
     7
 10
-53.11681
 20
70.0
 11
-53.11681
 21
80.0
  0
LINE
  8
0
  6
CONTINUOUS
 62
     7
 10
-53.75682
 20
70.0
 11
-53.75682
 21
80.0
  0
LINE
  8
0
  6
CONTINUOUS
 62
     7
 10
-52.58684
 20
60.0
 11
-52.58684
 21
64.66565
  0
LINE
  8
0
  6
CONTINUOUS
 62
     7
 10
-54.28679
 20
60.0
 11
-54.28679
 21
65.12117
  0
LINE
  8
0
  6
CONTINUOUS
 62
     7
 10
-49.28679
 20
60.0
 11
-49.28679
 21
63.78143
  0
LINE
  8
0
  6
CONTINUOUS
 62
     7
 10
-47.58684
 20
60.0
 11
-47.58684
 21
63.32591
  0
LINE
  8
0
  6
CONTINUOUS
 62
     7
 10
-49.28685
 20
70.0
 11
-47.58684
 21
70.0
  0
LINE
  8
0
  6
CONTINUOUS
 62
     7
 10
-48.75682
 20
80.0
 11
-48.11681
 21
80.0
  0
LINE
  8
0
  6
CONTINUOUS
 62
     7
 10
-43.43681
 20
50.2
 11
-45.43681
 21
50.2
  0
LINE
  8
0
  6
CONTINUOUS
 62
     7
 10
-58.43681
 20
50.20001
 11
-56.43681
 21
50.20001
  0
LINE
  8
0
  6
PHANTOM
 62
     2
 10
-45.58684
 20
64.34294
 11
-56.28683
 21
67.21001
  0
LINE
  8
0
  6
PHANTOM
 62
     2
 10
-45.5868
 20
62.79001
 11
-56.2868
 21
65.65707
  0
LINE
  8
0
  6
CONTINUOUS
 62
     7
 10
-54.28679
 20
66.67409
 11
-54.28679
 21
70.0
  0
LINE
  8
0
  6
CONTINUOUS
 62
     7
 10
-52.58684
 20
66.21857
 11
-52.58684
 21
70.0
  0
LINE
  8
0
  6
CONTINUOUS
 62
     7
 10
-49.28679
 20
65.33434
 11
-49.28679
 21
70.0
  0
LINE
  8
0
  6
CONTINUOUS
 62
     7
 10
-47.58684
 20
64.87881
 11
-47.58684
 21
70.0
  0
LINE
  8
0
  6
CONTINUOUS
 62
     7
 10
-43.43681
 20
-76.20013
 11
-43.43681
 21
-50.00012
  0
LINE
  8
0
  6
CONTINUOUS
 62
     7
 10
-58.43681
 20
-76.20013
 11
-58.43681
 21
-50.00012
  0
LINE
  8
0
  6
CONTINUOUS
 62
     7
 10
-43.43681
 20
-75.20013
 11
-43.93681
 21
-75.20013
  0
LINE
  8
0
  6
CONTINUOUS
 62
     7
 10
-43.43681
 20
-50.00012
 11
-58.43681
 21
-50.00012
  0
LINE
  8
0
  6
CONTINUOUS
 62
     7
 10
-57.93681
 20
-76.00012
 11
-57.93681
 21
-71.00012
  0
LINE
  8
0
  6
CONTINUOUS
 62
     7
 10
-43.93681
 20
-76.00012
 11
-43.93681
 21
-71.00012
  0
LINE
  8
0
  6
CONTINUOUS
 62
     7
 10
-57.93681
 20
-75.20013
 11
-58.43681
 21
-75.20013
  0
LINE
  8
0
  6
CONTINUOUS
 62
     7
 10
-43.93681
 20
-70.20013
 11
-43.93681
 21
-50.80011
  0
LINE
  8
0
  6
CONTINUOUS
 62
     7
 10
-57.93681
 20
-70.20013
 11
-57.93681
 21
-50.80014
  0
LINE
  8
0
  6
CONTINUOUS
 62
     7
 10
-45.43681
 20
-51.50012
 11
-56.43681
 21
-51.50012
  0
LINE
  8
0
  6
CONTINUOUS
 62
     7
 10
-45.43681
 20
-60.00012
 11
-56.43681
 21
-60.00012
  0
LINE
  8
0
  6
CONTINUOUS
 62
     7
 10
-45.43681
 20
-60.00012
 11
-45.43681
 21
-51.50012
  0
LINE
  8
0
  6
CONTINUOUS
 62
     7
 10
-56.43681
 20
-60.00012
 11
-56.43681
 21
-51.50012
  0
LINE
  8
0
  6
CENTER
 62
     2
 10
-46.93681
 20
-62.50012
 11
-54.93681
 21
-62.50012
  0
LINE
  8
0
  6
CONTINUOUS
 62
     7
 10
-48.93681
 20
-63.50012
 11
-52.93681
 21
-63.50012
  0
LINE
  8
0
  6
CONTINUOUS
 62
     7
 10
-48.93681
 20
-61.50012
 11
-52.93681
 21
-61.50012
  0
LINE
  8
0
  6
CONTINUOUS
 62
     7
 10
-48.93681
 20
-63.50012
 11
-48.93681
 21
-61.50012
  0
LINE
  8
0
  6
CONTINUOUS
 62
     7
 10
-52.93681
 20
-63.50012
 11
-52.93681
 21
-61.50012
  0
LINE
  8
0
  6
CONTINUOUS
 62
     7
 10
-48.43681
 20
-64.00012
 11
-53.43681
 21
-64.00012
  0
LINE
  8
0
  6
CONTINUOUS
 62
     7
 10
-48.43681
 20
-64.00012
 11
-48.43681
 21
-61.00012
  0
LINE
  8
0
  6
CONTINUOUS
 62
     7
 10
-48.43681
 20
-61.00012
 11
-53.43681
 21
-61.00012
  0
LINE
  8
0
  6
CONTINUOUS
 62
     7
 10
-53.43681
 20
-64.00012
 11
-53.43681
 21
-61.00012
  0
LINE
  8
0
  6
CONTINUOUS
 62
     7
 10
-48.93684
 20
-63.50012
 11
-48.43685
 21
-64.00011
  0
LINE
  8
0
  6
CONTINUOUS
 62
     7
 10
-52.93683
 20
-63.50014
 11
-53.43682
 21
-64.00014
  0
LINE
  8
0
  6
CONTINUOUS
 62
     7
 10
-52.93682
 20
-61.50014
 11
-53.43681
 21
-61.00015
  0
LINE
  8
0
  6
CONTINUOUS
 62
     7
 10
-48.93683
 20
-61.50013
 11
-48.43683
 21
-61.00013
  0
LINE
  8
0
  6
CONTINUOUS
 62
     7
 10
-44.43681
 20
-78.20013
 11
-44.61101
 21
-78.20013
  0
LINE
  8
0
  6
CONTINUOUS
 62
     7
 10
-43.93681
 20
-76.00012
 11
-46.7368
 21
-76.00012
  0
LINE
  8
0
  6
CONTINUOUS
 62
     7
 10
-43.4368
 20
-76.20013
 11
-44.4368
 21
-78.20013
  0
LINE
  8
0
  6
CONTINUOUS
 62
     7
 10
-58.43682
 20
-76.2001
 11
-57.43681
 21
-78.20011
  0
LINE
  8
0
  6
CONTINUOUS
 62
     7
 10
-45.43681
 20
-76.80014
 11
-43.88683
 21
-76.80014
  0
LINE
  8
0
  6
CONTINUOUS
 62
     7
 10
-43.88683
 20
-76.80011
 11
-43.88683
 21
-76.20013
  0
LINE
  8
0
  6
CONTINUOUS
 62
     7
 10
-44.18681
 20
-77.49387
 11
-44.18681
 21
-76.80011
  0
LINE
  8
0
  6
CONTINUOUS
 62
     7
 10
-46.93681
 20
-84.00012
 11
-54.93681
 21
-84.00012
  0
LINE
  8
0
  6
CONTINUOUS
 62
     7
 10
-46.93681
 20
-78.32886
 11
-54.93681
 21
-78.32886
  0
LINE
  8
0
  6
CONTINUOUS
 62
     7
 10
-56.43681
 20
-78.20013
 11
-57.43681
 21
-78.20013
  0
LINE
  8
0
  6
CONTINUOUS
 62
     7
 10
-43.93681
 20
-71.00012
 11
-57.93681
 21
-71.00012
  0
LINE
  8
0
  6
CONTINUOUS
 62
     7
 10
-55.13683
 20
-76.00012
 11
-55.13683
 21
-71.00012
  0
LINE
  8
0
  6
CONTINUOUS
 62
     7
 10
-46.7368
 20
-76.00012
 11
-46.7368
 21
-71.00012
  0
LINE
  8
0
  6
CONTINUOUS
 62
     7
 10
-55.13683
 20
-76.00012
 11
-57.93681
 21
-76.00012
  0
LINE
  8
0
  6
CONTINUOUS
 62
     7
 10
-45.43681
 20
-86.00012
 11
-56.43681
 21
-86.00012
  0
LINE
  8
0
  6
CONTINUOUS
 62
     7
 10
-54.93681
 20
-71.00012
 11
-54.93681
 21
-86.00012
  0
LINE
  8
0
  6
CONTINUOUS
 62
     7
 10
-46.93681
 20
-71.00012
 11
-46.93681
 21
-86.00012
  0
LINE
  8
0
  6
CONTINUOUS
 62
     7
 10
-45.43681
 20
-76.00012
 11
-45.43681
 21
-86.00012
  0
LINE
  8
0
  6
CONTINUOUS
 62
     7
 10
-56.43681
 20
-76.00012
 11
-56.43681
 21
-86.00012
  0
LINE
  8
0
  6
CENTER
 62
     2
 10
-48.43681
 20
-83.00012
 11
-48.43681
 21
-109.0001
  0
LINE
  8
0
  6
CENTER
 62
     2
 10
-53.43681
 20
-83.00012
 11
-53.43681
 21
-109.0001
  0
LINE
  8
0
  6
CONTINUOUS
 62
     7
 10
-47.58678
 20
-96.00012
 11
-49.28679
 21
-96.00012
  0
LINE
  8
0
  6
CONTINUOUS
 62
     7
 10
-48.11681
 20
-106.0001
 11
-48.75682
 21
-106.0001
  0
LINE
  8
0
  6
CONTINUOUS
 62
     7
 10
-53.75682
 20
-96.00012
 11
-53.75682
 21
-106.0001
  0
LINE
  8
0
  6
CONTINUOUS
 62
     7
 10
-53.11681
 20
-96.00012
 11
-53.11681
 21
-106.0001
  0
LINE
  8
0
  6
CONTINUOUS
 62
     7
 10
-48.75682
 20
-96.00012
 11
-48.75682
 21
-106.0001
  0
LINE
  8
0
  6
CONTINUOUS
 62
     7
 10
-48.11681
 20
-96.00012
 11
-48.11681
 21
-106.0001
  0
LINE
  8
0
  6
CONTINUOUS
 62
     7
 10
-49.28679
 20
-86.00012
 11
-49.28679
 21
-90.66577
  0
LINE
  8
0
  6
CONTINUOUS
 62
     7
 10
-47.58684
 20
-86.00012
 11
-47.58684
 21
-91.12131
  0
LINE
  8
0
  6
CONTINUOUS
 62
     7
 10
-52.58684
 20
-86.00012
 11
-52.58684
 21
-89.78156
  0
LINE
  8
0
  6
CONTINUOUS
 62
     7
 10
-54.28679
 20
-86.00012
 11
-54.28679
 21
-89.32605
  0
LINE
  8
0
  6
CONTINUOUS
 62
     7
 10
-52.58678
 20
-96.00012
 11
-54.28679
 21
-96.00012
  0
LINE
  8
0
  6
CONTINUOUS
 62
     7
 10
-53.11681
 20
-106.0001
 11
-53.75682
 21
-106.0001
  0
LINE
  8
0
  6
CONTINUOUS
 62
     7
 10
-58.43681
 20
-76.20013
 11
-56.43681
 21
-76.20013
  0
LINE
  8
0
  6
CONTINUOUS
 62
     7
 10
-43.43681
 20
-76.20013
 11
-45.43681
 21
-76.20013
  0
LINE
  8
0
  6
PHANTOM
 62
     2
 10
-56.28675
 20
-90.34311
 11
-45.58675
 21
-93.21016
  0
LINE
  8
0
  6
PHANTOM
 62
     2
 10
-56.28683
 20
-88.79019
 11
-45.58683
 21
-91.65725
  0
LINE
  8
0
  6
CONTINUOUS
 62
     7
 10
-47.58684
 20
-92.67422
 11
-47.58684
 21
-96.00012
  0
LINE
  8
0
  6
CONTINUOUS
 62
     7
 10
-49.28679
 20
-92.21869
 11
-49.28679
 21
-96.00012
  0
LINE
  8
0
  6
CONTINUOUS
 62
     7
 10
-52.58684
 20
-91.33447
 11
-52.58684
 21
-96.00012
  0
LINE
  8
0
  6
CONTINUOUS
 62
     7
 10
-54.28679
 20
-90.87897
 11
-54.28679
 21
-96.00012
  0
LINE
  8
0
  6
CENTER
 62
     2
 10
-169.6226
 20
-169.0
 11
-208.4368
 21
-169.0
  0
LINE
  8
0
  6
CENTER
 62
     2
 10
-194.4368
 20
-178.9483
 11
-194.4368
 21
-159.0122
  0
LINE
  8
0
  6
CONTINUOUS
 62
     7
 10
-185.4368
 20
-170.5
 11
-182.4368
 21
-170.5
  0
LINE
  8
0
  6
CONTINUOUS
 62
     7
 10
-203.4368
 20
-167.5
 11
-206.4368
 21
-167.5
  0
LINE
  8
0
  6
CONTINUOUS
 62
     7
 10
-200.4368
 20
-164.5
 11
-200.4368
 21
-161.5
  0
LINE
  8
0
  6
CONTINUOUS
 62
     7
 10
-188.4368
 20
-173.5
 11
-188.4368
 21
-176.5
  0
LINE
  8
0
  6
CONTINUOUS
 62
     7
 10
-205.4368
 20
-167.5
 11
-205.4368
 21
-175.5
  0
LINE
  8
0
  6
CONTINUOUS
 62
     7
 10
-183.4368
 20
-162.5
 11
-183.4368
 21
-170.5
  0
LINE
  8
0
  6
CONTINUOUS
 62
     7
 10
-200.4368
 20
-162.5
 11
-183.4368
 21
-162.5
  0
LINE
  8
0
  6
CONTINUOUS
 62
     7
 10
-205.4368
 20
-175.5
 11
-188.4368
 21
-175.5
  0
LINE
  8
0
  6
CONTINUOUS
 62
     7
 10
-185.1368
 20
-175.7299
 11
-185.1368
 21
-176.0322
  0
LINE
  8
0
  6
CONTINUOUS
 62
     7
 10
-185.7368
 20
-175.7298
 11
-185.7368
 21
-176.0322
  0
LINE
  8
0
  6
CONTINUOUS
 62
     7
 10
-185.8976
 20
-176.008
 11
-185.8976
 21
-175.7023
  0
LINE
  8
0
  6
CONTINUOUS
 62
     7
 10
-203.7368
 20
-162.27
 11
-203.7368
 21
-161.9677
  0
LINE
  8
0
  6
CONTINUOUS
 62
     7
 10
-203.1368
 20
-162.27
 11
-203.1368
 21
-161.9677
  0
LINE
  8
0
  6
CONTINUOUS
 62
     7
 10
-202.9761
 20
-161.9919
 11
-202.9761
 21
-162.2977
  0
LINE
  8
0
  6
CONTINUOUS
 62
     7
 10
-186.5399
 20
-174.2354
 11
-186.1722
 21
-173.8677
  0
LINE
  8
0
  6
CONTINUOUS
 62
     7
 10
-186.1722
 20
-174.6031
 11
-185.8045
 21
-174.2354
  0
LINE
  8
0
  6
CONTINUOUS
 62
     7
 10
-186.5399
 20
-174.2354
 11
-186.1722
 21
-174.6031
  0
LINE
  8
0
  6
CONTINUOUS
 62
     7
 10
-184.7014
 20
-172.3969
 11
-184.3337
 21
-172.7646
  0
LINE
  8
0
  6
CONTINUOUS
 62
     7
 10
-187.201
 20
-172.1035
 11
-186.1722
 21
-173.1323
  0
LINE
  8
0
  6
CONTINUOUS
 62
     7
 10
-186.8333
 20
-171.7358
 11
-185.8046
 21
-172.7646
  0
LINE
  8
0
  6
CONTINUOUS
 62
     7
 10
-185.0691
 20
-172.7646
 11
-184.7014
 21
-172.3969
  0
LINE
  8
0
  6
CONTINUOUS
 62
     7
 10
-184.7014
 20
-173.1323
 11
-184.3338
 21
-172.7646
  0
LINE
  8
0
  6
CONTINUOUS
 62
     7
 10
-185.0691
 20
-174.2354
 11
-184.0403
 21
-175.2642
  0
LINE
  8
0
  6
CONTINUOUS
 62
     7
 10
-184.7015
 20
-173.8677
 11
-183.6727
 21
-174.8965
  0
LINE
  8
0
  6
CONTINUOUS
 62
     7
 10
-204.5399
 20
-165.2353
 11
-204.1722
 21
-164.8677
  0
LINE
  8
0
  6
CONTINUOUS
 62
     7
 10
-204.1722
 20
-165.603
 11
-203.8045
 21
-165.2354
  0
LINE
  8
0
  6
CONTINUOUS
 62
     7
 10
-204.5399
 20
-165.2354
 11
-204.1723
 21
-165.6031
  0
LINE
  8
0
  6
CONTINUOUS
 62
     7
 10
-202.7014
 20
-163.3969
 11
-202.3338
 21
-163.7646
  0
LINE
  8
0
  6
CONTINUOUS
 62
     7
 10
-205.201
 20
-163.1035
 11
-204.1722
 21
-164.1323
  0
LINE
  8
0
  6
CONTINUOUS
 62
     7
 10
-204.8333
 20
-162.7358
 11
-203.8045
 21
-163.7646
  0
LINE
  8
0
  6
CONTINUOUS
 62
     7
 10
-203.0691
 20
-163.7646
 11
-202.7014
 21
-163.3969
  0
LINE
  8
0
  6
CONTINUOUS
 62
     7
 10
-202.7014
 20
-164.1323
 11
-202.3337
 21
-163.7646
  0
LINE
  8
0
  6
CONTINUOUS
 62
     7
 10
-203.0692
 20
-165.2354
 11
-202.0404
 21
-166.2642
  0
LINE
  8
0
  6
CONTINUOUS
 62
     7
 10
-202.7014
 20
-164.8677
 11
-201.6727
 21
-165.8965
  0
LINE
  8
0
  6
CONTINUOUS
 62
     7
 10
-177.2368
 20
-163.5
 11
-177.2368
 21
-165.0
  0
LINE
  8
0
  6
CONTINUOUS
 62
     7
 10
-174.4368
 20
-165.0
 11
-174.4368
 21
-173.0
  0
LINE
  8
0
  6
CONTINUOUS
 62
     7
 10
-177.2368
 20
-163.5
 11
-179.0368
 21
-163.5
  0
LINE
  8
0
  6
CONTINUOUS
 62
     7
 10
-177.2368
 20
-174.5
 11
-179.0368
 21
-174.5
  0
LINE
  8
0
  6
CONTINUOUS
 62
     7
 10
-176.4368
 20
-164.9999
 11
-176.1368
 21
-165.2999
  0
LINE
  8
0
  6
CONTINUOUS
 62
     7
 10
-176.4369
 20
-172.9999
 11
-176.1369
 21
-172.6999
  0
LINE
  8
0
  6
CONTINUOUS
 62
     7
 10
-179.0368
 20
-165.0
 11
-181.4368
 21
-165.0
  0
LINE
  8
0
  6
CONTINUOUS
 62
     7
 10
-179.0368
 20
-173.0
 11
-181.4368
 21
-173.0
  0
LINE
  8
0
  6
CONTINUOUS
 62
     7
 10
-177.2368
 20
-173.0
 11
-177.2368
 21
-174.5
  0
LINE
  8
0
  6
CENTER
 62
     2
 10
-177.9368
 20
-165.0499
 11
-177.9368
 21
-172.9499
  0
LINE
  8
0
  6
CENTER
 62
     2
 10
-176.5868
 20
-166.5
 11
-179.3868
 21
-166.5
  0
LINE
  8
0
  6
CENTER
 62
     2
 10
-176.5868
 20
-171.5
 11
-179.3868
 21
-171.5
  0
LINE
  8
0
  6
CONTINUOUS
 62
     7
 10
-176.9868
 20
-165.5499
 11
-176.9868
 21
-167.4499
  0
LINE
  8
0
  6
CONTINUOUS
 62
     7
 10
-178.8868
 20
-165.5499
 11
-178.8868
 21
-167.4499
  0
LINE
  8
0
  6
CONTINUOUS
 62
     7
 10
-176.7868
 20
-165.5499
 11
-178.8868
 21
-165.5499
  0
LINE
  8
0
  6
CONTINUOUS
 62
     7
 10
-176.7868
 20
-167.4499
 11
-178.8868
 21
-167.4499
  0
LINE
  8
0
  6
CONTINUOUS
 62
     7
 10
-176.7868
 20
-168.0499
 11
-178.8868
 21
-168.0499
  0
LINE
  8
0
  6
CONTINUOUS
 62
     7
 10
-176.7868
 20
-169.9499
 11
-178.8868
 21
-169.9499
  0
LINE
  8
0
  6
CONTINUOUS
 62
     7
 10
-176.7868
 20
-172.4499
 11
-178.8868
 21
-172.4499
  0
LINE
  8
0
  6
CONTINUOUS
 62
     7
 10
-176.7868
 20
-170.5499
 11
-178.8868
 21
-170.5499
  0
LINE
  8
0
  6
CONTINUOUS
 62
     7
 10
-176.9868
 20
-168.0499
 11
-176.9868
 21
-169.9499
  0
LINE
  8
0
  6
CONTINUOUS
 62
     7
 10
-178.8868
 20
-168.0499
 11
-178.8868
 21
-169.9499
  0
LINE
  8
0
  6
CONTINUOUS
 62
     7
 10
-178.8868
 20
-170.5499
 11
-178.8868
 21
-172.4499
  0
LINE
  8
0
  6
CONTINUOUS
 62
     7
 10
-176.9868
 20
-170.5499
 11
-176.9868
 21
-172.4499
  0
LINE
  8
0
  6
CONTINUOUS
 62
     7
 10
-176.1368
 20
-165.2999
 11
-176.1368
 21
-172.7
  0
LINE
  8
0
  6
CONTINUOUS
 62
     7
 10
-173.4368
 20
-165.0
 11
-173.4368
 21
-173.0
  0
LINE
  8
0
  6
CONTINUOUS
 62
     7
 10
-173.4368
 20
-173.0
 11
-177.2368
 21
-173.0
  0
LINE
  8
0
  6
CONTINUOUS
 62
     7
 10
-173.4368
 20
-165.0
 11
-177.2368
 21
-165.0
  0
LINE
  8
0
  6
CONTINUOUS
 62
     7
 10
-176.7868
 20
-165.5499
 11
-176.7868
 21
-167.4499
  0
LINE
  8
0
  6
CONTINUOUS
 62
     7
 10
-176.7868
 20
-168.0499
 11
-176.7868
 21
-169.9499
  0
LINE
  8
0
  6
CONTINUOUS
 62
     7
 10
-176.7868
 20
-170.5499
 11
-176.7868
 21
-172.4499
  0
LINE
  8
0
  6
CONTINUOUS
 62
     7
 10
-179.1868
 20
-166.0
 11
-179.1868
 21
-167.0
  0
LINE
  8
0
  6
CONTINUOUS
 62
     7
 10
-179.1868
 20
-168.5
 11
-179.1868
 21
-169.5
  0
LINE
  8
0
  6
CONTINUOUS
 62
     7
 10
-179.1868
 20
-171.0
 11
-179.1868
 21
-172.0
  0
LINE
  8
0
  6
CONTINUOUS
 62
     7
 10
-178.8868
 20
-166.0
 11
-179.1868
 21
-166.0
  0
LINE
  8
0
  6
CONTINUOUS
 62
     7
 10
-178.8868
 20
-167.0
 11
-179.1868
 21
-167.0
  0
LINE
  8
0
  6
CONTINUOUS
 62
     7
 10
-178.8868
 20
-168.5
 11
-179.1868
 21
-168.5
  0
LINE
  8
0
  6
CONTINUOUS
 62
     7
 10
-178.8868
 20
-169.5
 11
-179.1868
 21
-169.5
  0
LINE
  8
0
  6
CONTINUOUS
 62
     7
 10
-178.8868
 20
-172.0
 11
-179.1868
 21
-172.0
  0
LINE
  8
0
  6
CONTINUOUS
 62
     7
 10
-178.8868
 20
-171.0
 11
-179.1868
 21
-171.0
  0
LINE
  8
0
  6
CONTINUOUS
 62
     7
 10
-180.3118
 20
-165.9999
 11
-180.3118
 21
-166.9999
  0
LINE
  8
0
  6
CONTINUOUS
 62
     7
 10
-179.8118
 20
-166.5
 11
-180.8118
 21
-166.5
  0
LINE
  8
0
  6
CONTINUOUS
 62
     7
 10
-180.3118
 20
-170.9999
 11
-180.3118
 21
-171.9999
  0
LINE
  8
0
  6
CENTER
 62
     2
 10
-185.4368
 20
-169.5
 11
-185.4368
 21
-177.5
  0
LINE
  8
0
  6
CENTER
 62
     2
 10
-203.4368
 20
-160.5
 11
-203.4368
 21
-168.5
  0
LINE
  8
0
  6
CENTER
 62
     2
 10
-207.4368
 20
-164.5
 11
-199.4368
 21
-164.5
  0
LINE
  8
0
  6
CENTER
 62
     2
 10
-189.4368
 20
-173.5
 11
-181.4368
 21
-173.5
  0
LINE
  8
0
  6
CONTINUOUS
 62
     7
 10
-175.4368
 20
-162.0
 11
-175.4368
 21
-176.0
  0
LINE
  8
0
  6
CONTINUOUS
 62
     7
 10
-177.0368
 20
-163.2999
 11
-177.0368
 21
-164.7999
  0
LINE
  8
0
  6
CONTINUOUS
 62
     7
 10
-179.0368
 20
-163.2999
 11
-179.0368
 21
-165.0
  0
LINE
  8
0
  6
CONTINUOUS
 62
     7
 10
-181.4368
 20
-164.7999
 11
-181.4368
 21
-173.2
  0
LINE
  8
0
  6
CONTINUOUS
 62
     7
 10
-181.4368
 20
-164.7999
 11
-179.0368
 21
-164.7999
  0
LINE
  8
0
  6
CONTINUOUS
 62
     7
 10
-181.4368
 20
-173.2
 11
-179.0368
 21
-173.2
  0
LINE
  8
0
  6
CONTINUOUS
 62
     7
 10
-179.0368
 20
-174.7
 11
-177.0368
 21
-174.7
  0
LINE
  8
0
  6
CONTINUOUS
 62
     7
 10
-179.0368
 20
-163.2999
 11
-177.0368
 21
-163.2999
  0
LINE
  8
0
  6
CONTINUOUS
 62
     7
 10
-179.0368
 20
-173.0
 11
-179.0368
 21
-174.7
  0
LINE
  8
0
  6
CONTINUOUS
 62
     7
 10
-177.0368
 20
-173.2
 11
-177.0368
 21
-174.7
  0
LINE
  8
0
  6
CONTINUOUS
 62
     7
 10
-177.0368
 20
-164.7999
 11
-175.4368
 21
-164.7999
  0
LINE
  8
0
  6
CONTINUOUS
 62
     7
 10
-177.0368
 20
-173.2
 11
-175.4368
 21
-173.2
  0
LINE
  8
0
  6
CONTINUOUS
 62
     7
 10
-176.4368
 20
-164.7999
 11
-176.4368
 21
-173.2
  0
LINE
  8
0
  6
CONTINUOUS
 62
     7
 10
-206.4368
 20
-162.0
 11
-206.4368
 21
-176.0
  0
LINE
  8
0
  6
CONTINUOUS
 62
     7
 10
-205.9368
 20
-161.5
 11
-182.4368
 21
-161.5
  0
LINE
  8
0
  6
CONTINUOUS
 62
     7
 10
-205.9368
 20
-176.5
 11
-182.4368
 21
-176.5
  0
LINE
  8
0
  6
CONTINUOUS
 62
     7
 10
-182.4368
 20
-161.5
 11
-182.4368
 21
-176.5
  0
LINE
  8
0
  6
CONTINUOUS
 62
     7
 10
-182.4368
 20
-162.0
 11
-173.2368
 21
-162.0
  0
LINE
  8
0
  6
CONTINUOUS
 62
     7
 10
-172.4368
 20
-162.7999
 11
-172.4368
 21
-175.2
  0
LINE
  8
0
  6
CONTINUOUS
 62
     7
 10
-182.4368
 20
-176.0
 11
-173.2368
 21
-176.0
  0
LINE
  8
0
  6
CONTINUOUS
 62
     7
 10
-173.9368
 20
-164.0
 11
-173.9368
 21
-165.0
  0
LINE
  8
0
  6
CONTINUOUS
 62
     7
 10
-173.2368
 20
-164.5
 11
-173.2368
 21
-173.5
  0
LINE
  8
0
  6
CONTINUOUS
 62
     7
 10
-175.4368
 20
-163.5
 11
-174.4368
 21
-163.5
  0
LINE
  8
0
  6
CONTINUOUS
 62
     7
 10
-175.4368
 20
-174.5
 11
-174.4368
 21
-174.5
  0
LINE
  8
0
  6
CONTINUOUS
 62
     7
 10
-173.9368
 20
-164.5
 11
-173.2368
 21
-164.5
  0
LINE
  8
0
  6
CONTINUOUS
 62
     7
 10
-173.9368
 20
-173.5
 11
-173.2368
 21
-173.5
  0
LINE
  8
0
  6
CONTINUOUS
 62
     7
 10
-173.9368
 20
-173.0
 11
-173.9368
 21
-174.0
  0
LINE
  8
0
  6
CENTER
 62
     2
 10
172.4368
 20
3.43936
 11
172.4368
 21
-3.34248
  0
LINE
  8
0
  6
CENTER
 62
     2
 10
183.4368
 20
-14.47301
 11
183.4368
 21
-21.41019
  0
LINE
  8
0
  6
CENTER
 62
     2
 10
180.1682
 20
-18.0
 11
186.545
 21
-18.0
  0
LINE
  8
0
  6
CENTER
 62
     2
 10
169.866
 20
0.0
 11
175.9748
 21
0.0
  0
LINE
  8
0
  6
CONTINUOUS
 62
     7
 10
170.4368
 20
5.00002
 11
185.4368
 21
5.00002
  0
LINE
  8
0
  6
CENTER
 62
     2
 10
175.5518
 20
18.50002
 11
180.3984
 21
18.50002
  0
LINE
  8
0
  6
CENTER
 62
     2
 10
168.2627
 20
-9.0
 11
187.5901
 21
-9.0
  0
LINE
  8
0
  6
CONTINUOUS
 62
     7
 10
170.4368
 20
22.0
 11
185.4368
 21
22.0
  0
LINE
  8
0
  6
CENTER
 62
     2
 10
177.9368
 20
-82.61198
 11
177.9368
 21
53.2531
  0
LINE
  8
0
  6
CONTINUOUS
 62
     7
 10
185.4368
 20
-78.19997
 11
185.4368
 21
48.19998
  0
LINE
  8
0
  6
CONTINUOUS
 62
     7
 10
170.4368
 20
-78.19997
 11
170.4368
 21
48.19998
  0
LINE
  8
0
  6
CONTINUOUS
 62
     7
 10
170.4368
 20
-52.00002
 11
185.4368
 21
-52.00002
  0
LINE
  8
0
  6
CONTINUOUS
 62
     7
 10
170.4368
 20
-23.00002
 11
185.4368
 21
-23.00002
  0
LINE
  8
0
  6
CENTER
 62
     2
 10
174.9368
 20
-48.50002
 11
180.6034
 21
-48.50002
  0
LINE
  8
0
  6
CONTINUOUS
 62
     7
 10
170.4368
 20
47.2
 11
170.9368
 21
47.2
  0
LINE
  8
0
  6
CONTINUOUS
 62
     7
 10
170.4368
 20
48.2
 11
172.4368
 21
48.2
  0
LINE
  8
0
  6
CONTINUOUS
 62
     7
 10
171.4368
 20
50.2
 11
171.611
 21
50.2
  0
LINE
  8
0
  6
CONTINUOUS
 62
     7
 10
185.4368
 20
48.2
 11
184.4368
 21
50.2
  0
LINE
  8
0
  6
CONTINUOUS
 62
     7
 10
170.4368
 20
48.19999
 11
171.4368
 21
50.2
  0
LINE
  8
0
  6
CONTINUOUS
 62
     7
 10
172.4368
 20
48.8
 11
170.8868
 21
48.8
  0
LINE
  8
0
  6
CONTINUOUS
 62
     7
 10
170.8868
 20
48.8
 11
170.8868
 21
48.2
  0
LINE
  8
0
  6
CONTINUOUS
 62
     7
 10
171.1868
 20
49.49373
 11
171.1868
 21
48.8
  0
LINE
  8
0
  6
CONTINUOUS
 62
     7
 10
184.9368
 20
48.0
 11
184.9368
 21
43.0
  0
LINE
  8
0
  6
CONTINUOUS
 62
     7
 10
170.9368
 20
48.0
 11
170.9368
 21
43.0
  0
LINE
  8
0
  6
CONTINUOUS
 62
     7
 10
170.9368
 20
42.2
 11
170.9368
 21
22.8
  0
LINE
  8
0
  6
CONTINUOUS
 62
     7
 10
184.9368
 20
42.2
 11
184.9368
 21
22.8
  0
LINE
  8
0
  6
CONTINUOUS
 62
     7
 10
172.4368
 20
23.5
 11
183.4368
 21
23.5
  0
LINE
  8
0
  6
CONTINUOUS
 62
     7
 10
172.4368
 20
32.0
 11
183.4368
 21
32.0
  0
LINE
  8
0
  6
CONTINUOUS
 62
     7
 10
172.4368
 20
32.0
 11
172.4368
 21
23.5
  0
LINE
  8
0
  6
CONTINUOUS
 62
     7
 10
183.4368
 20
32.0
 11
183.4368
 21
23.5
  0
LINE
  8
0
  6
CENTER
 62
     2
 10
173.9368
 20
34.5
 11
181.9368
 21
34.5
  0
LINE
  8
0
  6
CONTINUOUS
 62
     7
 10
175.9368
 20
35.5
 11
179.9368
 21
35.5
  0
LINE
  8
0
  6
CONTINUOUS
 62
     7
 10
175.9368
 20
33.5
 11
179.9368
 21
33.5
  0
LINE
  8
0
  6
CONTINUOUS
 62
     7
 10
175.9368
 20
35.5
 11
175.9368
 21
33.5
  0
LINE
  8
0
  6
CONTINUOUS
 62
     7
 10
179.9368
 20
35.5
 11
179.9368
 21
33.5
  0
LINE
  8
0
  6
CONTINUOUS
 62
     7
 10
175.4368
 20
36.0
 11
180.4368
 21
36.0
  0
LINE
  8
0
  6
CONTINUOUS
 62
     7
 10
175.4368
 20
36.0
 11
175.4368
 21
33.0
  0
LINE
  8
0
  6
CONTINUOUS
 62
     7
 10
175.4368
 20
33.0
 11
180.4368
 21
33.0
  0
LINE
  8
0
  6
CONTINUOUS
 62
     7
 10
180.4368
 20
36.0
 11
180.4368
 21
33.0
  0
LINE
  8
0
  6
CONTINUOUS
 62
     7
 10
175.9368
 20
35.5
 11
175.4368
 21
36.0
  0
LINE
  8
0
  6
CONTINUOUS
 62
     7
 10
179.9368
 20
35.5
 11
180.4368
 21
35.99999
  0
LINE
  8
0
  6
CONTINUOUS
 62
     7
 10
179.9368
 20
33.49999
 11
180.4368
 21
32.99998
  0
LINE
  8
0
  6
CONTINUOUS
 62
     7
 10
175.9368
 20
33.5
 11
175.4368
 21
33.00001
  0
LINE
  8
0
  6
CONTINUOUS
 62
     7
 10
170.9368
 20
48.0
 11
173.7368
 21
48.0
  0
LINE
  8
0
  6
CONTINUOUS
 62
     7
 10
173.9368
 20
56.0
 11
181.9368
 21
56.0
  0
LINE
  8
0
  6
CONTINUOUS
 62
     7
 10
173.9368
 20
50.32872
 11
181.9368
 21
50.32872
  0
LINE
  8
0
  6
CONTINUOUS
 62
     7
 10
170.9368
 20
43.0
 11
184.9368
 21
43.0
  0
LINE
  8
0
  6
CONTINUOUS
 62
     7
 10
182.1368
 20
48.0
 11
182.1368
 21
43.0
  0
LINE
  8
0
  6
CONTINUOUS
 62
     7
 10
173.7368
 20
48.0
 11
173.7368
 21
43.0
  0
LINE
  8
0
  6
CONTINUOUS
 62
     7
 10
182.1368
 20
48.0
 11
184.9368
 21
48.0
  0
LINE
  8
0
  6
CONTINUOUS
 62
     7
 10
172.4368
 20
58.0
 11
183.4368
 21
58.0
  0
LINE
  8
0
  6
CONTINUOUS
 62
     7
 10
181.9368
 20
43.0
 11
181.9368
 21
58.0
  0
LINE
  8
0
  6
CONTINUOUS
 62
     7
 10
173.9368
 20
43.0
 11
173.9368
 21
58.0
  0
LINE
  8
0
  6
CONTINUOUS
 62
     7
 10
172.4368
 20
48.0
 11
172.4368
 21
58.0
  0
LINE
  8
0
  6
CONTINUOUS
 62
     7
 10
183.4368
 20
48.0
 11
183.4368
 21
58.0
  0
LINE
  8
0
  6
CENTER
 62
     2
 10
175.4368
 20
55.0
 11
175.4368
 21
81.0
  0
LINE
  8
0
  6
CENTER
 62
     2
 10
180.4368
 20
55.0
 11
180.4368
 21
81.0
  0
LINE
  8
0
  6
CONTINUOUS
 62
     7
 10
174.5868
 20
68.0
 11
176.2868
 21
68.0
  0
LINE
  8
0
  6
CONTINUOUS
 62
     7
 10
175.1168
 20
78.0
 11
175.7568
 21
78.0
  0
LINE
  8
0
  6
CONTINUOUS
 62
     7
 10
180.7568
 20
68.0
 11
180.7568
 21
78.0
  0
LINE
  8
0
  6
CONTINUOUS
 62
     7
 10
180.1168
 20
68.0
 11
180.1168
 21
78.0
  0
LINE
  8
0
  6
CONTINUOUS
 62
     7
 10
175.7568
 20
68.0
 11
175.7568
 21
78.0
  0
LINE
  8
0
  6
CONTINUOUS
 62
     7
 10
175.1168
 20
68.0
 11
175.1168
 21
78.0
  0
LINE
  8
0
  6
CONTINUOUS
 62
     7
 10
176.2868
 20
58.0
 11
176.2868
 21
62.66566
  0
LINE
  8
0
  6
CONTINUOUS
 62
     7
 10
174.5868
 20
58.0
 11
174.5868
 21
63.12117
  0
LINE
  8
0
  6
CONTINUOUS
 62
     7
 10
179.5868
 20
58.0
 11
179.5868
 21
61.78142
  0
LINE
  8
0
  6
CONTINUOUS
 62
     7
 10
181.2868
 20
58.0
 11
181.2868
 21
61.32591
  0
LINE
  8
0
  6
CONTINUOUS
 62
     7
 10
179.5868
 20
68.0
 11
181.2868
 21
68.0
  0
LINE
  8
0
  6
CONTINUOUS
 62
     7
 10
180.1168
 20
78.0
 11
180.7568
 21
78.0
  0
LINE
  8
0
  6
PHANTOM
 62
     2
 10
183.2868
 20
62.34294
 11
172.5868
 21
65.21
  0
LINE
  8
0
  6
PHANTOM
 62
     2
 10
183.2868
 20
60.79002
 11
172.5868
 21
63.65708
  0
LINE
  8
0
  6
CONTINUOUS
 62
     7
 10
174.5868
 20
64.67409
 11
174.5868
 21
68.0
  0
LINE
  8
0
  6
CONTINUOUS
 62
     7
 10
176.2868
 20
64.21858
 11
176.2868
 21
68.0
  0
LINE
  8
0
  6
CONTINUOUS
 62
     7
 10
179.5868
 20
63.33434
 11
179.5868
 21
68.0
  0
LINE
  8
0
  6
CONTINUOUS
 62
     7
 10
181.2868
 20
62.87883
 11
181.2868
 21
68.0
  0
LINE
  8
0
  6
CONTINUOUS
 62
     7
 10
183.4368
 20
48.2
 11
185.4368
 21
48.2
  0
LINE
  8
0
  6
CONTINUOUS
 62
     7
 10
184.9368
 20
47.2
 11
185.4368
 21
47.2
  0
LINE
  8
0
  6
CONTINUOUS
 62
     7
 10
184.4368
 20
50.2
 11
183.4368
 21
50.2
  0
LINE
  8
0
  6
CONTINUOUS
 62
     7
 10
185.4368
 20
-77.2
 11
184.9368
 21
-77.2
  0
LINE
  8
0
  6
CONTINUOUS
 62
     7
 10
185.4368
 20
-78.2
 11
183.4368
 21
-78.2
  0
LINE
  8
0
  6
CONTINUOUS
 62
     7
 10
184.4368
 20
-80.2
 11
184.2625
 21
-80.2
  0
LINE
  8
0
  6
CONTINUOUS
 62
     7
 10
170.4368
 20
-78.19996
 11
171.4368
 21
-80.19996
  0
LINE
  8
0
  6
CONTINUOUS
 62
     7
 10
185.4368
 20
-78.20004
 11
184.4368
 21
-80.20004
  0
LINE
  8
0
  6
CONTINUOUS
 62
     7
 10
183.4368
 20
-78.8
 11
184.9868
 21
-78.8
  0
LINE
  8
0
  6
CONTINUOUS
 62
     7
 10
184.9868
 20
-78.8
 11
184.9868
 21
-78.2
  0
LINE
  8
0
  6
CONTINUOUS
 62
     7
 10
184.6868
 20
-79.49373
 11
184.6868
 21
-78.8
  0
LINE
  8
0
  6
CONTINUOUS
 62
     7
 10
170.9368
 20
-78.00002
 11
170.9368
 21
-73.00002
  0
LINE
  8
0
  6
CONTINUOUS
 62
     7
 10
184.9368
 20
-78.00002
 11
184.9368
 21
-73.00002
  0
LINE
  8
0
  6
CONTINUOUS
 62
     7
 10
184.9368
 20
-72.2
 11
184.9368
 21
-52.8
  0
LINE
  8
0
  6
CONTINUOUS
 62
     7
 10
170.9368
 20
-72.2
 11
170.9368
 21
-52.8
  0
LINE
  8
0
  6
CONTINUOUS
 62
     7
 10
183.4368
 20
-53.50002
 11
172.4368
 21
-53.50002
  0
LINE
  8
0
  6
CONTINUOUS
 62
     7
 10
183.4368
 20
-62.00002
 11
172.4368
 21
-62.00002
  0
LINE
  8
0
  6
CONTINUOUS
 62
     7
 10
183.4368
 20
-62.00002
 11
183.4368
 21
-53.50002
  0
LINE
  8
0
  6
CONTINUOUS
 62
     7
 10
172.4368
 20
-62.00002
 11
172.4368
 21
-53.50002
  0
LINE
  8
0
  6
CENTER
 62
     2
 10
181.9368
 20
-64.50002
 11
173.9368
 21
-64.50002
  0
LINE
  8
0
  6
CONTINUOUS
 62
     7
 10
179.9368
 20
-65.50002
 11
175.9368
 21
-65.50002
  0
LINE
  8
0
  6
CONTINUOUS
 62
     7
 10
179.9368
 20
-63.50002
 11
175.9368
 21
-63.50002
  0
LINE
  8
0
  6
CONTINUOUS
 62
     7
 10
179.9368
 20
-65.50002
 11
179.9368
 21
-63.50002
  0
LINE
  8
0
  6
CONTINUOUS
 62
     7
 10
175.9368
 20
-65.50002
 11
175.9368
 21
-63.50002
  0
LINE
  8
0
  6
CONTINUOUS
 62
     7
 10
180.4368
 20
-66.00002
 11
175.4368
 21
-66.00002
  0
LINE
  8
0
  6
CONTINUOUS
 62
     7
 10
180.4368
 20
-66.00002
 11
180.4368
 21
-63.00002
  0
LINE
  8
0
  6
CONTINUOUS
 62
     7
 10
180.4368
 20
-63.00002
 11
175.4368
 21
-63.00002
  0
LINE
  8
0
  6
CONTINUOUS
 62
     7
 10
175.4368
 20
-66.00002
 11
175.4368
 21
-63.00002
  0
LINE
  8
0
  6
CONTINUOUS
 62
     7
 10
179.9368
 20
-65.49999
 11
180.4368
 21
-66.0
  0
LINE
  8
0
  6
CONTINUOUS
 62
     7
 10
175.9368
 20
-65.5
 11
175.4367
 21
-66.00004
  0
LINE
  8
0
  6
CONTINUOUS
 62
     7
 10
175.9368
 20
-63.49996
 11
175.4369
 21
-62.99997
  0
LINE
  8
0
  6
CONTINUOUS
 62
     7
 10
179.9368
 20
-63.50001
 11
180.4368
 21
-63.00002
  0
LINE
  8
0
  6
CONTINUOUS
 62
     7
 10
184.9368
 20
-78.00002
 11
182.1367
 21
-78.00002
  0
LINE
  8
0
  6
CONTINUOUS
 62
     7
 10
181.9367
 20
-86.00002
 11
173.9368
 21
-86.00002
  0
LINE
  8
0
  6
CONTINUOUS
 62
     7
 10
181.9368
 20
-80.32872
 11
173.9368
 21
-80.32872
  0
LINE
  8
0
  6
CONTINUOUS
 62
     7
 10
184.9368
 20
-73.00002
 11
170.9368
 21
-73.00002
  0
LINE
  8
0
  6
CONTINUOUS
 62
     7
 10
173.7368
 20
-78.00002
 11
173.7368
 21
-73.00002
  0
LINE
  8
0
  6
CONTINUOUS
 62
     7
 10
182.1368
 20
-78.00002
 11
182.1368
 21
-73.00002
  0
LINE
  8
0
  6
CONTINUOUS
 62
     7
 10
173.7368
 20
-78.00002
 11
170.9368
 21
-78.00002
  0
LINE
  8
0
  6
CONTINUOUS
 62
     7
 10
183.4367
 20
-88.00002
 11
172.4368
 21
-88.00002
  0
LINE
  8
0
  6
CONTINUOUS
 62
     7
 10
173.9368
 20
-73.00002
 11
173.9368
 21
-88.00002
  0
LINE
  8
0
  6
CONTINUOUS
 62
     7
 10
181.9368
 20
-73.00002
 11
181.9368
 21
-88.00002
  0
LINE
  8
0
  6
CONTINUOUS
 62
     7
 10
183.4368
 20
-78.00002
 11
183.4368
 21
-88.00002
  0
LINE
  8
0
  6
CONTINUOUS
 62
     7
 10
172.4368
 20
-78.00002
 11
172.4368
 21
-88.00002
  0
LINE
  8
0
  6
CENTER
 62
     2
 10
180.4368
 20
-85.00002
 11
180.4368
 21
-111.0
  0
LINE
  8
0
  6
CENTER
 62
     2
 10
175.4368
 20
-85.00002
 11
175.4368
 21
-111.0
  0
LINE
  8
0
  6
CONTINUOUS
 62
     7
 10
181.2867
 20
-98.00002
 11
179.5868
 21
-98.00002
  0
LINE
  8
0
  6
CONTINUOUS
 62
     7
 10
180.7567
 20
-108.0
 11
180.1168
 21
-108.0
  0
LINE
  8
0
  6
CONTINUOUS
 62
     7
 10
175.1168
 20
-98.00002
 11
175.1168
 21
-108.0
  0
LINE
  8
0
  6
CONTINUOUS
 62
     7
 10
175.7568
 20
-98.00002
 11
175.7568
 21
-108.0
  0
LINE
  8
0
  6
CONTINUOUS
 62
     7
 10
180.1168
 20
-98.00002
 11
180.1168
 21
-108.0
  0
LINE
  8
0
  6
CONTINUOUS
 62
     7
 10
180.7568
 20
-98.00002
 11
180.7568
 21
-108.0
  0
LINE
  8
0
  6
CONTINUOUS
 62
     7
 10
179.5868
 20
-88.00002
 11
179.5868
 21
-92.66566
  0
LINE
  8
0
  6
CONTINUOUS
 62
     7
 10
181.2868
 20
-88.00002
 11
181.2868
 21
-93.12117
  0
LINE
  8
0
  6
CONTINUOUS
 62
     7
 10
176.2868
 20
-88.00002
 11
176.2868
 21
-91.78142
  0
LINE
  8
0
  6
CONTINUOUS
 62
     7
 10
174.5868
 20
-88.00002
 11
174.5868
 21
-91.32591
  0
LINE
  8
0
  6
CONTINUOUS
 62
     7
 10
176.2867
 20
-98.00002
 11
174.5868
 21
-98.00002
  0
LINE
  8
0
  6
CONTINUOUS
 62
     7
 10
175.7567
 20
-108.0
 11
175.1168
 21
-108.0
  0
LINE
  8
0
  6
PHANTOM
 62
     2
 10
172.5868
 20
-92.34293
 11
183.2868
 21
-95.20998
  0
LINE
  8
0
  6
PHANTOM
 62
     2
 10
172.5868
 20
-90.78999
 11
183.2868
 21
-93.65705
  0
LINE
  8
0
  6
CONTINUOUS
 62
     7
 10
181.2868
 20
-94.67409
 11
181.2868
 21
-98.00002
  0
LINE
  8
0
  6
CONTINUOUS
 62
     7
 10
179.5868
 20
-94.21858
 11
179.5868
 21
-98.00002
  0
LINE
  8
0
  6
CONTINUOUS
 62
     7
 10
176.2868
 20
-93.33434
 11
176.2868
 21
-98.00002
  0
LINE
  8
0
  6
CONTINUOUS
 62
     7
 10
174.5868
 20
-92.87883
 11
174.5868
 21
-98.00002
  0
LINE
  8
0
  6
CONTINUOUS
 62
     7
 10
172.4368
 20
-78.2
 11
170.4368
 21
-78.2
  0
LINE
  8
0
  6
CONTINUOUS
 62
     7
 10
170.9368
 20
-77.2
 11
170.4368
 21
-77.2
  0
LINE
  8
0
  6
CONTINUOUS
 62
     7
 10
171.4368
 20
-80.2
 11
172.4368
 21
-80.2
  0
LINE
  8
0
  6
CENTER
 62
     2
 10
177.9367
 20
120.6858
 11
177.9367
 21
159.5
  0
LINE
  8
0
  6
CENTER
 62
     2
 10
167.9884
 20
145.5
 11
187.9245
 21
145.5
  0
LINE
  8
0
  6
CONTINUOUS
 62
     7
 10
176.4367
 20
136.5
 11
176.4367
 21
133.5
  0
LINE
  8
0
  6
CONTINUOUS
 62
     7
 10
179.4367
 20
154.5
 11
179.4367
 21
157.5
  0
LINE
  8
0
  6
CONTINUOUS
 62
     7
 10
182.4367
 20
151.5
 11
185.4367
 21
151.5
  0
LINE
  8
0
  6
CONTINUOUS
 62
     7
 10
173.4367
 20
139.5
 11
170.4367
 21
139.5
  0
LINE
  8
0
  6
CONTINUOUS
 62
     7
 10
179.4367
 20
156.5
 11
171.4367
 21
156.5
  0
LINE
  8
0
  6
CONTINUOUS
 62
     7
 10
184.4367
 20
134.5
 11
176.4367
 21
134.5
  0
LINE
  8
0
  6
CONTINUOUS
 62
     7
 10
184.4367
 20
151.5
 11
184.4367
 21
134.5
  0
LINE
  8
0
  6
CONTINUOUS
 62
     7
 10
171.4367
 20
156.5
 11
171.4367
 21
139.5
  0
LINE
  8
0
  6
CONTINUOUS
 62
     7
 10
171.2068
 20
136.2
 11
170.9044
 21
136.2
  0
LINE
  8
0
  6
CONTINUOUS
 62
     7
 10
171.2068
 20
136.8
 11
170.9044
 21
136.8
  0
LINE
  8
0
  6
CONTINUOUS
 62
     7
 10
170.9287
 20
136.9608
 11
171.2344
 21
136.9608
  0
LINE
  8
0
  6
CONTINUOUS
 62
     7
 10
184.6666
 20
154.8
 11
184.969
 21
154.8
  0
LINE
  8
0
  6
CONTINUOUS
 62
     7
 10
184.6666
 20
154.2
 11
184.969
 21
154.2
  0
LINE
  8
0
  6
CONTINUOUS
 62
     7
 10
184.9448
 20
154.0392
 11
184.639
 21
154.0392
  0
LINE
  8
0
  6
CONTINUOUS
 62
     7
 10
172.7014
 20
137.6031
 11
173.0691
 21
137.2354
  0
LINE
  8
0
  6
CONTINUOUS
 62
     7
 10
172.3336
 20
137.2354
 11
172.7013
 21
136.8677
  0
LINE
  8
0
  6
CONTINUOUS
 62
     7
 10
172.7014
 20
137.6031
 11
172.3337
 21
137.2354
  0
LINE
  8
0
  6
CONTINUOUS
 62
     7
 10
174.5398
 20
135.7646
 11
174.1721
 21
135.3969
  0
LINE
  8
0
  6
CONTINUOUS
 62
     7
 10
174.8332
 20
138.2642
 11
173.8044
 21
137.2354
  0
LINE
  8
0
  6
CONTINUOUS
 62
     7
 10
175.201
 20
137.8965
 11
174.1722
 21
136.8677
  0
LINE
  8
0
  6
CONTINUOUS
 62
     7
 10
174.1721
 20
136.1323
 11
174.5398
 21
135.7646
  0
LINE
  8
0
  6
CONTINUOUS
 62
     7
 10
173.8044
 20
135.7646
 11
174.1721
 21
135.3969
  0
LINE
  8
0
  6
CONTINUOUS
 62
     7
 10
172.7013
 20
136.1323
 11
171.6726
 21
135.1035
  0
LINE
  8
0
  6
CONTINUOUS
 62
     7
 10
173.0691
 20
135.7646
 11
172.0403
 21
134.7359
  0
LINE
  8
0
  6
CONTINUOUS
 62
     7
 10
181.7014
 20
155.6031
 11
182.0691
 21
155.2354
  0
LINE
  8
0
  6
CONTINUOUS
 62
     7
 10
181.3337
 20
155.2354
 11
181.7013
 21
154.8677
  0
LINE
  8
0
  6
CONTINUOUS
 62
     7
 10
181.7013
 20
155.6031
 11
181.3336
 21
155.2354
  0
LINE
  8
0
  6
CONTINUOUS
 62
     7
 10
183.5398
 20
153.7646
 11
183.1721
 21
153.3969
  0
LINE
  8
0
  6
CONTINUOUS
 62
     7
 10
183.8332
 20
156.2642
 11
182.8044
 21
155.2354
  0
LINE
  8
0
  6
CONTINUOUS
 62
     7
 10
184.2009
 20
155.8965
 11
183.1721
 21
154.8677
  0
LINE
  8
0
  6
CONTINUOUS
 62
     7
 10
183.1721
 20
154.1323
 11
183.5399
 21
153.7646
  0
LINE
  8
0
  6
CONTINUOUS
 62
     7
 10
182.8044
 20
153.7646
 11
183.1721
 21
153.3969
  0
LINE
  8
0
  6
CONTINUOUS
 62
     7
 10
181.7014
 20
154.1323
 11
180.6725
 21
153.1035
  0
LINE
  8
0
  6
CONTINUOUS
 62
     7
 10
182.0691
 20
153.7646
 11
181.0403
 21
152.7358
  0
LINE
  8
0
  6
CONTINUOUS
 62
     7
 10
183.4367
 20
128.3
 11
181.9367
 21
128.3
  0
LINE
  8
0
  6
CONTINUOUS
 62
     7
 10
181.9367
 20
125.5
 11
173.9367
 21
125.5
  0
LINE
  8
0
  6
CONTINUOUS
 62
     7
 10
183.4367
 20
128.3
 11
183.4367
 21
130.1
  0
LINE
  8
0
  6
CONTINUOUS
 62
     7
 10
172.4367
 20
128.3
 11
172.4367
 21
130.1
  0
LINE
  8
0
  6
CONTINUOUS
 62
     7
 10
181.9367
 20
127.5
 11
181.6367
 21
127.2
  0
LINE
  8
0
  6
CONTINUOUS
 62
     7
 10
173.9368
 20
127.5
 11
174.2368
 21
127.2
  0
LINE
  8
0
  6
CONTINUOUS
 62
     7
 10
181.9367
 20
130.1
 11
181.9367
 21
132.5
  0
LINE
  8
0
  6
CONTINUOUS
 62
     7
 10
173.9367
 20
130.1
 11
173.9367
 21
132.5
  0
LINE
  8
0
  6
CONTINUOUS
 62
     7
 10
173.9367
 20
128.3
 11
172.4367
 21
128.3
  0
LINE
  8
0
  6
CENTER
 62
     2
 10
181.8867
 20
129.0
 11
173.9868
 21
129.0
  0
LINE
  8
0
  6
CENTER
 62
     2
 10
180.4367
 20
127.65
 11
180.4367
 21
130.45
  0
LINE
  8
0
  6
CENTER
 62
     2
 10
175.4367
 20
127.65
 11
175.4367
 21
130.45
  0
LINE
  8
0
  6
CONTINUOUS
 62
     7
 10
181.3867
 20
128.05
 11
179.4868
 21
128.05
  0
LINE
  8
0
  6
CONTINUOUS
 62
     7
 10
181.3867
 20
129.95
 11
179.4868
 21
129.95
  0
LINE
  8
0
  6
CONTINUOUS
 62
     7
 10
181.3867
 20
127.85
 11
181.3867
 21
129.95
  0
LINE
  8
0
  6
CONTINUOUS
 62
     7
 10
179.4867
 20
127.85
 11
179.4867
 21
129.95
  0
LINE
  8
0
  6
CONTINUOUS
 62
     7
 10
178.8867
 20
127.85
 11
178.8867
 21
129.95
  0
LINE
  8
0
  6
CONTINUOUS
 62
     7
 10
176.9867
 20
127.85
 11
176.9867
 21
129.95
  0
LINE
  8
0
  6
CONTINUOUS
 62
     7
 10
174.4867
 20
127.85
 11
174.4867
 21
129.95
  0
LINE
  8
0
  6
CONTINUOUS
 62
     7
 10
176.3867
 20
127.85
 11
176.3867
 21
129.95
  0
LINE
  8
0
  6
CONTINUOUS
 62
     7
 10
178.8867
 20
128.05
 11
176.9868
 21
128.05
  0
LINE
  8
0
  6
CONTINUOUS
 62
     7
 10
178.8867
 20
129.95
 11
176.9868
 21
129.95
  0
LINE
  8
0
  6
CONTINUOUS
 62
     7
 10
176.3867
 20
129.95
 11
174.4868
 21
129.95
  0
LINE
  8
0
  6
CONTINUOUS
 62
     7
 10
176.3867
 20
128.05
 11
174.4868
 21
128.05
  0
LINE
  8
0
  6
CONTINUOUS
 62
     7
 10
181.6367
 20
127.2
 11
174.2367
 21
127.2
  0
LINE
  8
0
  6
CONTINUOUS
 62
     7
 10
181.9367
 20
124.5
 11
173.9367
 21
124.5
  0
LINE
  8
0
  6
CONTINUOUS
 62
     7
 10
173.9367
 20
124.5
 11
173.9367
 21
128.3
  0
LINE
  8
0
  6
CONTINUOUS
 62
     7
 10
181.9367
 20
124.5
 11
181.9367
 21
128.3
  0
LINE
  8
0
  6
CONTINUOUS
 62
     7
 10
181.3867
 20
127.85
 11
179.4868
 21
127.85
  0
LINE
  8
0
  6
CONTINUOUS
 62
     7
 10
178.8867
 20
127.85
 11
176.9868
 21
127.85
  0
LINE
  8
0
  6
CONTINUOUS
 62
     7
 10
176.3867
 20
127.85
 11
174.4868
 21
127.85
  0
LINE
  8
0
  6
CONTINUOUS
 62
     7
 10
180.9367
 20
130.25
 11
179.9367
 21
130.25
  0
LINE
  8
0
  6
CONTINUOUS
 62
     7
 10
178.4367
 20
130.25
 11
177.4367
 21
130.25
  0
LINE
  8
0
  6
CONTINUOUS
 62
     7
 10
175.9367
 20
130.25
 11
174.9367
 21
130.25
  0
LINE
  8
0
  6
CONTINUOUS
 62
     7
 10
180.9367
 20
129.95
 11
180.9367
 21
130.25
  0
LINE
  8
0
  6
CONTINUOUS
 62
     7
 10
179.9367
 20
129.95
 11
179.9367
 21
130.25
  0
LINE
  8
0
  6
CONTINUOUS
 62
     7
 10
178.4367
 20
129.95
 11
178.4367
 21
130.25
  0
LINE
  8
0
  6
CONTINUOUS
 62
     7
 10
177.4367
 20
129.95
 11
177.4367
 21
130.25
  0
LINE
  8
0
  6
CONTINUOUS
 62
     7
 10
174.9367
 20
129.95
 11
174.9367
 21
130.25
  0
LINE
  8
0
  6
CONTINUOUS
 62
     7
 10
175.9367
 20
129.95
 11
175.9367
 21
130.25
  0
LINE
  8
0
  6
CONTINUOUS
 62
     7
 10
180.9367
 20
131.375
 11
179.9367
 21
131.375
  0
LINE
  8
0
  6
CONTINUOUS
 62
     7
 10
180.4367
 20
130.875
 11
180.4367
 21
131.875
  0
LINE
  8
0
  6
CONTINUOUS
 62
     7
 10
175.9367
 20
131.375
 11
174.9367
 21
131.375
  0
LINE
  8
0
  6
CENTER
 62
     2
 10
177.4367
 20
136.5
 11
169.4367
 21
136.5
  0
LINE
  8
0
  6
CENTER
 62
     2
 10
186.4367
 20
154.5
 11
178.4367
 21
154.5
  0
LINE
  8
0
  6
CENTER
 62
     2
 10
182.4367
 20
158.5
 11
182.4367
 21
150.5
  0
LINE
  8
0
  6
CENTER
 62
     2
 10
173.4367
 20
140.5
 11
173.4367
 21
132.5
  0
LINE
  8
0
  6
CONTINUOUS
 62
     7
 10
184.9367
 20
126.5
 11
170.9367
 21
126.5
  0
LINE
  8
0
  6
CONTINUOUS
 62
     7
 10
183.6367
 20
128.1
 11
182.1367
 21
128.1
  0
LINE
  8
0
  6
CONTINUOUS
 62
     7
 10
183.6367
 20
130.1
 11
181.9367
 21
130.1
  0
LINE
  8
0
  6
CONTINUOUS
 62
     7
 10
182.1367
 20
132.5
 11
173.7367
 21
132.5
  0
LINE
  8
0
  6
CONTINUOUS
 62
     7
 10
182.1367
 20
132.5
 11
182.1367
 21
130.1
  0
LINE
  8
0
  6
CONTINUOUS
 62
     7
 10
173.7367
 20
132.5
 11
173.7367
 21
130.1
  0
LINE
  8
0
  6
CONTINUOUS
 62
     7
 10
172.2367
 20
130.1
 11
172.2367
 21
128.1
  0
LINE
  8
0
  6
CONTINUOUS
 62
     7
 10
183.6367
 20
130.1
 11
183.6367
 21
128.1
  0
LINE
  8
0
  6
CONTINUOUS
 62
     7
 10
173.9367
 20
130.1
 11
172.2367
 21
130.1
  0
LINE
  8
0
  6
CONTINUOUS
 62
     7
 10
173.7367
 20
128.1
 11
172.2367
 21
128.1
  0
LINE
  8
0
  6
CONTINUOUS
 62
     7
 10
182.1367
 20
128.1
 11
182.1367
 21
126.5
  0
LINE
  8
0
  6
CONTINUOUS
 62
     7
 10
173.7367
 20
128.1
 11
173.7367
 21
126.5
  0
LINE
  8
0
  6
CONTINUOUS
 62
     7
 10
182.1367
 20
127.5
 11
173.7367
 21
127.5
  0
LINE
  8
0
  6
CONTINUOUS
 62
     7
 10
184.9367
 20
157.5
 11
170.9367
 21
157.5
  0
LINE
  8
0
  6
CONTINUOUS
 62
     7
 10
185.4367
 20
157.0
 11
185.4367
 21
133.5
  0
LINE
  8
0
  6
CONTINUOUS
 62
     7
 10
170.4367
 20
157.0
 11
170.4367
 21
133.5
  0
LINE
  8
0
  6
CONTINUOUS
 62
     7
 10
185.4367
 20
133.5
 11
170.4367
 21
133.5
  0
LINE
  8
0
  6
CONTINUOUS
 62
     7
 10
184.9367
 20
133.5
 11
184.9367
 21
124.3
  0
LINE
  8
0
  6
CONTINUOUS
 62
     7
 10
184.1367
 20
123.5
 11
171.7367
 21
123.5
  0
LINE
  8
0
  6
CONTINUOUS
 62
     7
 10
170.9367
 20
133.5
 11
170.9367
 21
124.3
  0
LINE
  8
0
  6
CONTINUOUS
 62
     7
 10
182.9367
 20
125.0
 11
181.9367
 21
125.0
  0
LINE
  8
0
  6
CONTINUOUS
 62
     7
 10
182.4367
 20
124.3
 11
173.4367
 21
124.3
  0
LINE
  8
0
  6
CONTINUOUS
 62
     7
 10
183.4367
 20
126.5
 11
183.4367
 21
125.5
  0
LINE
  8
0
  6
CONTINUOUS
 62
     7
 10
172.4367
 20
126.5
 11
172.4367
 21
125.5
  0
LINE
  8
0
  6
CONTINUOUS
 62
     7
 10
182.4367
 20
125.0
 11
182.4367
 21
124.3
  0
LINE
  8
0
  6
CONTINUOUS
 62
     7
 10
173.4367
 20
125.0
 11
173.4367
 21
124.3
  0
LINE
  8
0
  6
CONTINUOUS
 62
     7
 10
173.9367
 20
125.0
 11
172.9367
 21
125.0
  0
LINE
  8
0
  6
CONTINUOUS
 62
     7
 10
42.4368
 20
5.00002
 11
66.4368
 21
5.00002
  0
LINE
  8
0
  6
CENTER
 62
     2
 10
54.4368
 20
52.99998
 11
54.4368
 21
-84.2
  0
LINE
  8
0
  6
CENTER
 62
     2
 10
62.03232
 20
0.0
 11
67.26236
 21
0.0
  0
LINE
  8
0
  6
CONTINUOUS
 62
     7
 10
63.4368
 20
1.81383
 11
63.4368
 21
-1.81386
  0
LINE
  8
0
  6
CONTINUOUS
 62
     7
 10
63.4368
 20
1.81384
 11
66.4368
 21
1.81384
  0
LINE
  8
0
  6
CONTINUOUS
 62
     7
 10
63.4368
 20
-1.81384
 11
66.4368
 21
-1.81384
  0
LINE
  8
0
  6
CONTINUOUS
 62
     7
 10
42.4368
 20
22.0
 11
75.63681
 21
22.0
  0
LINE
  8
0
  6
CONTINUOUS
 62
     7
 10
42.4368
 20
-52.00002
 11
75.63681
 21
-52.00002
  0
LINE
  8
0
  6
CONTINUOUS
 62
     7
 10
66.4368
 20
-78.2
 11
66.4368
 21
48.2
  0
LINE
  8
0
  6
CONTINUOUS
 62
     7
 10
42.4368
 20
-78.2
 11
42.4368
 21
48.2
  0
LINE
  8
0
  6
CONTINUOUS
 62
     7
 10
42.4368
 20
-23.00002
 11
66.4368
 21
-23.00002
  0
LINE
  8
0
  6
PHANTOM
 62
     2
 10
73.78674
 20
61.45985
 11
68.08675
 21
62.98716
  0
LINE
  8
0
  6
PHANTOM
 62
     2
 10
73.78676
 20
63.01279
 11
68.08677
 21
64.5401
  0
LINE
  8
0
  6
CONTINUOUS
 62
     7
 10
71.78677
 20
63.54871
 11
71.78677
 21
68.0
  0
LINE
  8
0
  6
CONTINUOUS
 62
     7
 10
70.08682
 20
64.00421
 11
70.08682
 21
68.0
  0
LINE
  8
0
  6
CONTINUOUS
 62
     7
 10
42.4368
 20
47.2
 11
66.4368
 21
47.2
  0
LINE
  8
0
  6
CENTER
 62
     2
 10
45.4368
 20
53.2
 11
45.4368
 21
44.2
  0
LINE
  8
0
  6
CONTINUOUS
 62
     7
 10
65.26254
 20
50.2
 11
65.4368
 21
50.2
  0
LINE
  8
0
  6
CONTINUOUS
 62
     7
 10
61.1868
 20
49.49374
 11
61.1868
 21
48.79999
  0
LINE
  8
0
  6
CONTINUOUS
 62
     7
 10
65.6868
 20
49.49374
 11
65.6868
 21
48.8
  0
LINE
  8
0
  6
CONTINUOUS
 62
     7
 10
60.88681
 20
48.8
 11
60.88681
 21
48.2
  0
LINE
  8
0
  6
CONTINUOUS
 62
     7
 10
65.98679
 20
48.8
 11
65.98679
 21
48.2
  0
LINE
  8
0
  6
CONTINUOUS
 62
     7
 10
63.73683
 20
48.80002
 11
63.8976
 21
48.20002
  0
LINE
  8
0
  6
CONTINUOUS
 62
     7
 10
63.13675
 20
48.19999
 11
62.97598
 21
48.79998
  0
LINE
  8
0
  6
CONTINUOUS
 62
     7
 10
65.98679
 20
48.8
 11
60.88681
 21
48.8
  0
LINE
  8
0
  6
CENTER
 62
     2
 10
63.4368
 20
53.2
 11
63.4368
 21
44.2
  0
LINE
  8
0
  6
CONTINUOUS
 62
     7
 10
60.4368
 20
50.2
 11
60.4368
 21
48.2
  0
LINE
  8
0
  6
CONTINUOUS
 62
     7
 10
66.43679
 20
48.19997
 11
65.43679
 21
50.19997
  0
LINE
  8
0
  6
CONTINUOUS
 62
     7
 10
42.43677
 20
48.19999
 11
43.43678
 21
50.20001
  0
LINE
  8
0
  6
CONTINUOUS
 62
     7
 10
42.4368
 20
48.2
 11
66.4368
 21
48.2
  0
LINE
  8
0
  6
CONTINUOUS
 62
     7
 10
43.4368
 20
50.2
 11
61.61099
 21
50.2
  0
LINE
  8
0
  6
CONTINUOUS
 62
     7
 10
66.4368
 20
48.0
 11
73.4368
 21
48.0
  0
LINE
  8
0
  6
CONTINUOUS
 62
     7
 10
76.4368
 20
42.2
 11
76.4368
 21
22.8
  0
LINE
  8
0
  6
CONTINUOUS
 62
     7
 10
66.4368
 20
43.0
 11
75.63681
 21
43.0
  0
LINE
  8
0
  6
CONTINUOUS
 62
     7
 10
75.4368
 20
58.0
 11
74.4368
 21
58.0
  0
LINE
  8
0
  6
CONTINUOUS
 62
     7
 10
68.4368
 20
56.5
 11
67.4368
 21
56.5
  0
LINE
  8
0
  6
CONTINUOUS
 62
     7
 10
67.4368
 20
58.0
 11
67.4368
 21
56.5
  0
LINE
  8
0
  6
CONTINUOUS
 62
     7
 10
68.4368
 20
56.5
 11
68.4368
 21
50.0
  0
LINE
  8
0
  6
CONTINUOUS
 62
     7
 10
69.83682
 20
58.0
 11
69.83682
 21
48.0
  0
LINE
  8
0
  6
CONTINUOUS
 62
     7
 10
71.63681
 20
58.0
 11
71.63681
 21
48.0
  0
LINE
  8
0
  6
CONTINUOUS
 62
     7
 10
74.4368
 20
43.0
 11
74.4368
 21
50.32872
  0
LINE
  8
0
  6
CONTINUOUS
 62
     7
 10
75.4368
 20
58.0
 11
75.4368
 21
56.0
  0
LINE
  8
0
  6
CONTINUOUS
 62
     7
 10
74.4368
 20
58.0
 11
74.4368
 21
56.5
  0
LINE
  8
0
  6
CONTINUOUS
 62
     7
 10
75.43676
 20
56.00005
 11
74.43675
 21
50.32874
  0
LINE
  8
0
  6
CONTINUOUS
 62
     7
 10
74.43665
 20
56.50003
 11
73.43665
 21
50.82877
  0
LINE
  8
0
  6
CONTINUOUS
 62
     7
 10
72.4368
 20
48.0
 11
72.4368
 21
48.5
  0
LINE
  8
0
  6
CONTINUOUS
 62
     7
 10
68.4368
 20
50.0
 11
67.4368
 21
50.0
  0
LINE
  8
0
  6
CONTINUOUS
 62
     7
 10
72.73666
 20
57.69992
 11
72.43669
 21
57.99989
  0
LINE
  8
0
  6
CONTINUOUS
 62
     7
 10
72.43685
 20
51.50001
 11
72.7368
 21
51.79996
  0
LINE
  8
0
  6
CONTINUOUS
 62
     7
 10
72.73679
 20
51.8
 11
72.73679
 21
57.70001
  0
LINE
  8
0
  6
CONTINUOUS
 62
     7
 10
73.4368
 20
50.5
 11
73.4368
 21
50.82872
  0
LINE
  8
0
  6
CONTINUOUS
 62
     7
 10
72.4368
 20
50.5
 11
72.4368
 21
58.0
  0
LINE
  8
0
  6
CONTINUOUS
 62
     7
 10
72.4368
 20
58.0
 11
67.4368
 21
58.0
  0
LINE
  8
0
  6
CENTER
 62
     2
 10
70.9368
 20
55.0
 11
70.9368
 21
81.0
  0
LINE
  8
0
  6
CONTINUOUS
 62
     7
 10
70.08682
 20
58.0
 11
70.08682
 21
62.45129
  0
LINE
  8
0
  6
CONTINUOUS
 62
     7
 10
71.78677
 20
58.0
 11
71.78677
 21
61.99579
  0
LINE
  8
0
  6
CONTINUOUS
 62
     7
 10
71.25681
 20
68.0
 11
71.25681
 21
78.0
  0
LINE
  8
0
  6
CONTINUOUS
 62
     7
 10
70.61679
 20
68.0
 11
70.61679
 21
78.0
  0
LINE
  8
0
  6
CONTINUOUS
 62
     7
 10
71.78677
 20
68.0
 11
70.08676
 21
68.0
  0
LINE
  8
0
  6
CONTINUOUS
 62
     7
 10
71.25681
 20
78.0
 11
70.61679
 21
78.0
  0
LINE
  8
0
  6
CONTINUOUS
 62
     7
 10
73.4368
 20
48.5
 11
73.4368
 21
43.0
  0
LINE
  8
0
  6
CONTINUOUS
 62
     7
 10
67.4368
 20
50.0
 11
67.4368
 21
48.0
  0
LINE
  8
0
  6
PHANTOM
 62
     2
 10
68.08674
 20
-91.45977
 11
73.78672
 21
-92.98708
  0
LINE
  8
0
  6
PHANTOM
 62
     2
 10
68.08681
 20
-93.01272
 11
73.7868
 21
-94.54003
  0
LINE
  8
0
  6
CONTINUOUS
 62
     7
 10
70.08676
 20
-93.54872
 11
70.08676
 21
-98.00002
  0
LINE
  8
0
  6
CONTINUOUS
 62
     7
 10
71.78677
 20
-94.00423
 11
71.78677
 21
-98.00002
  0
LINE
  8
0
  6
CONTINUOUS
 62
     7
 10
66.4368
 20
-77.2
 11
42.4368
 21
-77.2
  0
LINE
  8
0
  6
CENTER
 62
     2
 10
63.4368
 20
-83.2
 11
63.4368
 21
-74.2
  0
LINE
  8
0
  6
CONTINUOUS
 62
     7
 10
43.61099
 20
-80.2
 11
43.4368
 21
-80.2
  0
LINE
  8
0
  6
CONTINUOUS
 62
     7
 10
47.6868
 20
-79.49373
 11
47.6868
 21
-78.8
  0
LINE
  8
0
  6
CONTINUOUS
 62
     7
 10
43.1868
 20
-79.49373
 11
43.1868
 21
-78.8
  0
LINE
  8
0
  6
CONTINUOUS
 62
     7
 10
47.98679
 20
-78.8
 11
47.98679
 21
-78.2
  0
LINE
  8
0
  6
CONTINUOUS
 62
     7
 10
42.88681
 20
-78.8
 11
42.88681
 21
-78.2
  0
LINE
  8
0
  6
CONTINUOUS
 62
     7
 10
45.13667
 20
-78.80005
 11
44.97589
 21
-78.20004
  0
LINE
  8
0
  6
CONTINUOUS
 62
     7
 10
45.73669
 20
-78.20004
 11
45.89746
 21
-78.80005
  0
LINE
  8
0
  6
CONTINUOUS
 62
     7
 10
42.88681
 20
-78.8
 11
47.98679
 21
-78.8
  0
LINE
  8
0
  6
CENTER
 62
     2
 10
45.4368
 20
-83.2
 11
45.4368
 21
-74.2
  0
LINE
  8
0
  6
CONTINUOUS
 62
     7
 10
48.4368
 20
-80.2
 11
48.4368
 21
-78.2
  0
LINE
  8
0
  6
CONTINUOUS
 62
     7
 10
42.43686
 20
-78.19994
 11
43.43686
 21
-80.19994
  0
LINE
  8
0
  6
CONTINUOUS
 62
     7
 10
66.43675
 20
-78.20002
 11
65.43674
 21
-80.20004
  0
LINE
  8
0
  6
CONTINUOUS
 62
     7
 10
66.4368
 20
-78.2
 11
42.4368
 21
-78.2
  0
LINE
  8
0
  6
CONTINUOUS
 62
     7
 10
65.4368
 20
-80.2
 11
47.26254
 21
-80.2
  0
LINE
  8
0
  6
CONTINUOUS
 62
     7
 10
66.4368
 20
-78.00002
 11
73.4368
 21
-78.00002
  0
LINE
  8
0
  6
CONTINUOUS
 62
     7
 10
76.4368
 20
-72.2
 11
76.4368
 21
-52.8
  0
LINE
  8
0
  6
CONTINUOUS
 62
     7
 10
66.4368
 20
-73.00002
 11
75.63681
 21
-73.00002
  0
LINE
  8
0
  6
CONTINUOUS
 62
     7
 10
75.4368
 20
-88.00002
 11
74.4368
 21
-88.00002
  0
LINE
  8
0
  6
CONTINUOUS
 62
     7
 10
68.4368
 20
-86.50002
 11
67.4368
 21
-86.50002
  0
LINE
  8
0
  6
CONTINUOUS
 62
     7
 10
67.4368
 20
-88.00002
 11
67.4368
 21
-86.50002
  0
LINE
  8
0
  6
CONTINUOUS
 62
     7
 10
68.4368
 20
-86.50002
 11
68.4368
 21
-80.00002
  0
LINE
  8
0
  6
CONTINUOUS
 62
     7
 10
69.83682
 20
-88.00002
 11
69.83682
 21
-78.00002
  0
LINE
  8
0
  6
CONTINUOUS
 62
     7
 10
71.63681
 20
-88.00002
 11
71.63681
 21
-78.00002
  0
LINE
  8
0
  6
CONTINUOUS
 62
     7
 10
74.4368
 20
-73.00002
 11
74.4368
 21
-80.32872
  0
LINE
  8
0
  6
CONTINUOUS
 62
     7
 10
75.4368
 20
-88.00002
 11
75.4368
 21
-86.00002
  0
LINE
  8
0
  6
CONTINUOUS
 62
     7
 10
74.4368
 20
-88.00002
 11
74.4368
 21
-86.50002
  0
LINE
  8
0
  6
CONTINUOUS
 62
     7
 10
75.43674
 20
-86.00001
 11
74.43674
 21
-80.32874
  0
LINE
  8
0
  6
CONTINUOUS
 62
     7
 10
74.43673
 20
-86.50002
 11
73.43674
 21
-80.82874
  0
LINE
  8
0
  6
CONTINUOUS
 62
     7
 10
72.4368
 20
-78.00002
 11
72.4368
 21
-78.50002
  0
LINE
  8
0
  6
CONTINUOUS
 62
     7
 10
68.4368
 20
-80.00002
 11
67.4368
 21
-80.00002
  0
LINE
  8
0
  6
CONTINUOUS
 62
     7
 10
72.73664
 20
-87.69997
 11
72.43668
 21
-87.99992
  0
LINE
  8
0
  6
CONTINUOUS
 62
     7
 10
72.43683
 20
-81.5
 11
72.73682
 21
-81.8
  0
LINE
  8
0
  6
CONTINUOUS
 62
     7
 10
72.73679
 20
-81.8
 11
72.73679
 21
-87.70003
  0
LINE
  8
0
  6
CONTINUOUS
 62
     7
 10
73.4368
 20
-80.50002
 11
73.4368
 21
-80.82872
  0
LINE
  8
0
  6
CONTINUOUS
 62
     7
 10
72.4368
 20
-80.50002
 11
72.4368
 21
-88.00002
  0
LINE
  8
0
  6
CONTINUOUS
 62
     7
 10
72.4368
 20
-88.00002
 11
67.4368
 21
-88.00002
  0
LINE
  8
0
  6
CENTER
 62
     2
 10
70.9368
 20
-85.00002
 11
70.9368
 21
-111.0
  0
LINE
  8
0
  6
CONTINUOUS
 62
     7
 10
71.78677
 20
-88.00002
 11
71.78677
 21
-92.45131
  0
LINE
  8
0
  6
CONTINUOUS
 62
     7
 10
70.08676
 20
-88.00002
 11
70.08676
 21
-91.9958
  0
LINE
  8
0
  6
CONTINUOUS
 62
     7
 10
71.25681
 20
-98.00002
 11
71.25681
 21
-108.0
  0
LINE
  8
0
  6
CONTINUOUS
 62
     7
 10
70.61679
 20
-98.00002
 11
70.61679
 21
-108.0
  0
LINE
  8
0
  6
CONTINUOUS
 62
     7
 10
71.78677
 20
-98.00002
 11
70.08676
 21
-98.00002
  0
LINE
  8
0
  6
CONTINUOUS
 62
     7
 10
71.25681
 20
-108.0
 11
70.61679
 21
-108.0
  0
LINE
  8
0
  6
CONTINUOUS
 62
     7
 10
73.4368
 20
-78.50002
 11
73.4368
 21
-73.00002
  0
LINE
  8
0
  6
CONTINUOUS
 62
     7
 10
67.4368
 20
-80.00002
 11
67.4368
 21
-78.00002
  0
LINE
  8
0
  6
CONTINUOUS
 62
     7
 10
322.4368
 20
5.00005
 11
298.4368
 21
5.00005
  0
LINE
  8
0
  6
CENTER
 62
     2
 10
310.4368
 20
53.20001
 11
310.4368
 21
-84.53331
  0
LINE
  8
0
  6
CENTER
 62
     2
 10
302.8412
 20
-17.99997
 11
297.6112
 21
-17.99997
  0
LINE
  8
0
  6
CONTINUOUS
 62
     7
 10
301.4368
 20
-16.18614
 11
301.4368
 21
-19.81383
  0
LINE
  8
0
  6
CONTINUOUS
 62
     7
 10
301.4368
 20
-16.18613
 11
298.4368
 21
-16.18613
  0
LINE
  8
0
  6
CONTINUOUS
 62
     7
 10
301.4368
 20
-19.81381
 11
298.4368
 21
-19.81381
  0
LINE
  8
0
  6
CONTINUOUS
 62
     7
 10
322.4368
 20
22.00003
 11
289.2368
 21
22.00003
  0
LINE
  8
0
  6
CONTINUOUS
 62
     7
 10
322.4368
 20
48.20003
 11
322.4368
 21
-78.19997
  0
LINE
  8
0
  6
CONTINUOUS
 62
     7
 10
322.4368
 20
-22.99998
 11
298.4368
 21
-22.99998
  0
LINE
  8
0
  6
CONTINUOUS
 62
     7
 10
322.4368
 20
-51.99995
 11
289.2368
 21
-51.99995
  0
LINE
  8
0
  6
CONTINUOUS
 62
     7
 10
298.4368
 20
-78.19997
 11
298.4368
 21
48.20003
  0
LINE
  8
0
  6
PHANTOM
 62
     2
 10
296.7868
 20
61.45988
 11
291.0868
 21
62.98719
  0
LINE
  8
0
  6
PHANTOM
 62
     2
 10
296.7867
 20
63.01279
 11
291.0867
 21
64.54011
  0
LINE
  8
0
  6
CONTINUOUS
 62
     7
 10
294.7868
 20
63.54874
 11
294.7868
 21
68.00003
  0
LINE
  8
0
  6
CONTINUOUS
 62
     7
 10
293.0868
 20
64.00424
 11
293.0868
 21
68.00003
  0
LINE
  8
0
  6
CONTINUOUS
 62
     7
 10
298.4368
 20
47.20003
 11
322.4368
 21
47.20003
  0
LINE
  8
0
  6
CENTER
 62
     2
 10
301.4368
 20
53.20003
 11
301.4368
 21
44.20003
  0
LINE
  8
0
  6
CONTINUOUS
 62
     7
 10
321.2625
 20
50.20003
 11
321.4368
 21
50.20003
  0
LINE
  8
0
  6
CONTINUOUS
 62
     7
 10
317.1868
 20
49.49377
 11
317.1868
 21
48.80002
  0
LINE
  8
0
  6
CONTINUOUS
 62
     7
 10
321.6868
 20
49.49377
 11
321.6868
 21
48.80003
  0
LINE
  8
0
  6
CONTINUOUS
 62
     7
 10
316.8868
 20
48.80003
 11
316.8868
 21
48.20003
  0
LINE
  8
0
  6
CONTINUOUS
 62
     7
 10
321.9868
 20
48.80003
 11
321.9868
 21
48.20003
  0
LINE
  8
0
  6
CONTINUOUS
 62
     7
 10
319.7368
 20
48.80008
 11
319.8976
 21
48.20008
  0
LINE
  8
0
  6
CONTINUOUS
 62
     7
 10
319.1369
 20
48.20006
 11
318.9761
 21
48.80005
  0
LINE
  8
0
  6
CONTINUOUS
 62
     7
 10
321.9868
 20
48.80003
 11
316.8868
 21
48.80003
  0
LINE
  8
0
  6
CENTER
 62
     2
 10
319.4368
 20
53.20003
 11
319.4368
 21
44.20003
  0
LINE
  8
0
  6
CONTINUOUS
 62
     7
 10
316.4368
 20
50.20003
 11
316.4368
 21
48.20003
  0
LINE
  8
0
  6
CONTINUOUS
 62
     7
 10
322.4367
 20
48.2
 11
321.4367
 21
50.2
  0
LINE
  8
0
  6
CONTINUOUS
 62
     7
 10
298.4367
 20
48.20002
 11
299.4368
 21
50.20004
  0
LINE
  8
0
  6
CONTINUOUS
 62
     7
 10
298.4368
 20
48.20003
 11
322.4368
 21
48.20003
  0
LINE
  8
0
  6
CONTINUOUS
 62
     7
 10
299.4368
 20
50.20003
 11
317.611
 21
50.20003
  0
LINE
  8
0
  6
CONTINUOUS
 62
     7
 10
298.4368
 20
48.00003
 11
291.4368
 21
48.00003
  0
LINE
  8
0
  6
CONTINUOUS
 62
     7
 10
288.4368
 20
42.20003
 11
288.4368
 21
22.80003
  0
LINE
  8
0
  6
CONTINUOUS
 62
     7
 10
298.4368
 20
43.00003
 11
289.2368
 21
43.00003
  0
LINE
  8
0
  6
CONTINUOUS
 62
     7
 10
289.4368
 20
58.00003
 11
290.4368
 21
58.00003
  0
LINE
  8
0
  6
CONTINUOUS
 62
     7
 10
296.4368
 20
56.50003
 11
297.4368
 21
56.50003
  0
LINE
  8
0
  6
CONTINUOUS
 62
     7
 10
297.4368
 20
58.00003
 11
297.4368
 21
56.50003
  0
LINE
  8
0
  6
CONTINUOUS
 62
     7
 10
296.4368
 20
56.50003
 11
296.4368
 21
50.00003
  0
LINE
  8
0
  6
CONTINUOUS
 62
     7
 10
295.0368
 20
58.00003
 11
295.0368
 21
48.00003
  0
LINE
  8
0
  6
CONTINUOUS
 62
     7
 10
293.2368
 20
58.00003
 11
293.2368
 21
48.00003
  0
LINE
  8
0
  6
CONTINUOUS
 62
     7
 10
290.4368
 20
43.00003
 11
290.4368
 21
50.32875
  0
LINE
  8
0
  6
CONTINUOUS
 62
     7
 10
289.4368
 20
58.00003
 11
289.4368
 21
56.00003
  0
LINE
  8
0
  6
CONTINUOUS
 62
     7
 10
290.4368
 20
58.00003
 11
290.4368
 21
56.50003
  0
LINE
  8
0
  6
CONTINUOUS
 62
     7
 10
289.4369
 20
56.00007
 11
290.4369
 21
50.32878
  0
LINE
  8
0
  6
CONTINUOUS
 62
     7
 10
290.4368
 20
56.50004
 11
291.4368
 21
50.82875
  0
LINE
  8
0
  6
CONTINUOUS
 62
     7
 10
292.4368
 20
48.00003
 11
292.4368
 21
48.50003
  0
LINE
  8
0
  6
CONTINUOUS
 62
     7
 10
296.4368
 20
50.00003
 11
297.4368
 21
50.00003
  0
LINE
  8
0
  6
CONTINUOUS
 62
     7
 10
292.1369
 20
57.69997
 11
292.4368
 21
57.99993
  0
LINE
  8
0
  6
CONTINUOUS
 62
     7
 10
292.4367
 20
51.50005
 11
292.1367
 21
51.80004
  0
LINE
  8
0
  6
CONTINUOUS
 62
     7
 10
292.1367
 20
51.80003
 11
292.1367
 21
57.70004
  0
LINE
  8
0
  6
CONTINUOUS
 62
     7
 10
291.4368
 20
50.50003
 11
291.4368
 21
50.82875
  0
LINE
  8
0
  6
CONTINUOUS
 62
     7
 10
292.4368
 20
50.50003
 11
292.4368
 21
58.00003
  0
LINE
  8
0
  6
CONTINUOUS
 62
     7
 10
292.4368
 20
58.00003
 11
297.4368
 21
58.00003
  0
LINE
  8
0
  6
CENTER
 62
     2
 10
293.9368
 20
55.00003
 11
293.9368
 21
81.00003
  0
LINE
  8
0
  6
CONTINUOUS
 62
     7
 10
293.0868
 20
58.00003
 11
293.0868
 21
62.45132
  0
LINE
  8
0
  6
CONTINUOUS
 62
     7
 10
294.7868
 20
58.00003
 11
294.7868
 21
61.99582
  0
LINE
  8
0
  6
CONTINUOUS
 62
     7
 10
293.6168
 20
68.00003
 11
293.6168
 21
78.00003
  0
LINE
  8
0
  6
CONTINUOUS
 62
     7
 10
294.2567
 20
68.00003
 11
294.2567
 21
78.00003
  0
LINE
  8
0
  6
CONTINUOUS
 62
     7
 10
293.0868
 20
68.00003
 11
294.7868
 21
68.00003
  0
LINE
  8
0
  6
CONTINUOUS
 62
     7
 10
293.6168
 20
78.00003
 11
294.2568
 21
78.00003
  0
LINE
  8
0
  6
CONTINUOUS
 62
     7
 10
291.4368
 20
48.50003
 11
291.4368
 21
43.00003
  0
LINE
  8
0
  6
CONTINUOUS
 62
     7
 10
297.4368
 20
50.00003
 11
297.4368
 21
48.00003
  0
LINE
  8
0
  6
PHANTOM
 62
     2
 10
291.0868
 20
-91.4598
 11
296.7867
 21
-92.98711
  0
LINE
  8
0
  6
PHANTOM
 62
     2
 10
291.0868
 20
-93.01275
 11
296.7868
 21
-94.54005
  0
LINE
  8
0
  6
CONTINUOUS
 62
     7
 10
293.0868
 20
-93.54866
 11
293.0868
 21
-97.99995
  0
LINE
  8
0
  6
CONTINUOUS
 62
     7
 10
294.7868
 20
-94.00417
 11
294.7868
 21
-97.99995
  0
LINE
  8
0
  6
CONTINUOUS
 62
     7
 10
322.4368
 20
-77.19997
 11
298.4368
 21
-77.19997
  0
LINE
  8
0
  6
CENTER
 62
     2
 10
319.4368
 20
-83.19997
 11
319.4368
 21
-74.19997
  0
LINE
  8
0
  6
CONTINUOUS
 62
     7
 10
299.611
 20
-80.19997
 11
299.4368
 21
-80.19997
  0
LINE
  8
0
  6
CONTINUOUS
 62
     7
 10
303.6868
 20
-79.4937
 11
303.6868
 21
-78.79994
  0
LINE
  8
0
  6
CONTINUOUS
 62
     7
 10
299.1868
 20
-79.49373
 11
299.1868
 21
-78.79997
  0
LINE
  8
0
  6
CONTINUOUS
 62
     7
 10
303.9868
 20
-78.79997
 11
303.9868
 21
-78.19997
  0
LINE
  8
0
  6
CONTINUOUS
 62
     7
 10
298.8868
 20
-78.79997
 11
298.8868
 21
-78.19997
  0
LINE
  8
0
  6
CONTINUOUS
 62
     7
 10
301.1367
 20
-78.80002
 11
300.9759
 21
-78.20001
  0
LINE
  8
0
  6
CONTINUOUS
 62
     7
 10
301.7368
 20
-78.19999
 11
301.8976
 21
-78.79997
  0
LINE
  8
0
  6
CONTINUOUS
 62
     7
 10
298.8867
 20
-78.79997
 11
303.9868
 21
-78.79997
  0
LINE
  8
0
  6
CENTER
 62
     2
 10
301.4368
 20
-83.19997
 11
301.4368
 21
-74.19997
  0
LINE
  8
0
  6
CONTINUOUS
 62
     7
 10
304.4368
 20
-80.19997
 11
304.4368
 21
-78.19997
  0
LINE
  8
0
  6
CONTINUOUS
 62
     7
 10
298.4368
 20
-78.19996
 11
299.4368
 21
-80.19996
  0
LINE
  8
0
  6
CONTINUOUS
 62
     7
 10
322.4368
 20
-78.19999
 11
321.4368
 21
-80.19998
  0
LINE
  8
0
  6
CONTINUOUS
 62
     7
 10
322.4368
 20
-78.19997
 11
298.4368
 21
-78.19997
  0
LINE
  8
0
  6
CONTINUOUS
 62
     7
 10
321.4368
 20
-80.19997
 11
303.2625
 21
-80.19997
  0
LINE
  8
0
  6
CONTINUOUS
 62
     7
 10
298.4368
 20
-77.99995
 11
291.4368
 21
-77.99995
  0
LINE
  8
0
  6
CONTINUOUS
 62
     7
 10
288.4368
 20
-72.19997
 11
288.4368
 21
-52.79997
  0
LINE
  8
0
  6
CONTINUOUS
 62
     7
 10
298.4368
 20
-72.99995
 11
289.2368
 21
-72.99995
  0
LINE
  8
0
  6
CONTINUOUS
 62
     7
 10
289.4368
 20
-87.99995
 11
290.4368
 21
-87.99995
  0
LINE
  8
0
  6
CONTINUOUS
 62
     7
 10
296.4368
 20
-86.49995
 11
297.4368
 21
-86.49995
  0
LINE
  8
0
  6
CONTINUOUS
 62
     7
 10
297.4368
 20
-87.99995
 11
297.4368
 21
-86.49995
  0
LINE
  8
0
  6
CONTINUOUS
 62
     7
 10
296.4368
 20
-86.49995
 11
296.4368
 21
-79.99995
  0
LINE
  8
0
  6
CONTINUOUS
 62
     7
 10
295.0368
 20
-87.99995
 11
295.0368
 21
-77.99995
  0
LINE
  8
0
  6
CONTINUOUS
 62
     7
 10
293.2368
 20
-87.99995
 11
293.2368
 21
-77.99995
  0
LINE
  8
0
  6
CONTINUOUS
 62
     7
 10
290.4368
 20
-72.99995
 11
290.4368
 21
-80.32869
  0
LINE
  8
0
  6
CONTINUOUS
 62
     7
 10
289.4368
 20
-87.99995
 11
289.4368
 21
-85.99995
  0
LINE
  8
0
  6
CONTINUOUS
 62
     7
 10
290.4368
 20
-87.99995
 11
290.4368
 21
-86.49995
  0
LINE
  8
0
  6
CONTINUOUS
 62
     7
 10
289.4368
 20
-85.99998
 11
290.4368
 21
-80.32867
  0
LINE
  8
0
  6
CONTINUOUS
 62
     7
 10
290.4369
 20
-86.50002
 11
291.4369
 21
-80.82871
  0
LINE
  8
0
  6
CONTINUOUS
 62
     7
 10
292.4368
 20
-77.99995
 11
292.4368
 21
-78.49995
  0
LINE
  8
0
  6
CONTINUOUS
 62
     7
 10
296.4368
 20
-79.99995
 11
297.4368
 21
-79.99995
  0
LINE
  8
0
  6
CONTINUOUS
 62
     7
 10
292.1368
 20
-87.69987
 11
292.4369
 21
-87.99986
  0
LINE
  8
0
  6
CONTINUOUS
 62
     7
 10
292.4367
 20
-81.49995
 11
292.1367
 21
-81.79994
  0
LINE
  8
0
  6
CONTINUOUS
 62
     7
 10
292.1367
 20
-81.79997
 11
292.1367
 21
-87.69997
  0
LINE
  8
0
  6
CONTINUOUS
 62
     7
 10
291.4368
 20
-80.49995
 11
291.4368
 21
-80.82869
  0
LINE
  8
0
  6
CONTINUOUS
 62
     7
 10
292.4368
 20
-80.49995
 11
292.4368
 21
-87.99995
  0
LINE
  8
0
  6
CONTINUOUS
 62
     7
 10
292.4368
 20
-87.99995
 11
297.4368
 21
-87.99995
  0
LINE
  8
0
  6
CENTER
 62
     2
 10
293.9368
 20
-84.99995
 11
293.9368
 21
-111.0
  0
LINE
  8
0
  6
CONTINUOUS
 62
     7
 10
294.7868
 20
-87.99995
 11
294.7868
 21
-92.45125
  0
LINE
  8
0
  6
CONTINUOUS
 62
     7
 10
293.0868
 20
-87.99995
 11
293.0868
 21
-91.99574
  0
LINE
  8
0
  6
CONTINUOUS
 62
     7
 10
293.6168
 20
-97.99995
 11
293.6168
 21
-108.0
  0
LINE
  8
0
  6
CONTINUOUS
 62
     7
 10
294.2567
 20
-97.99995
 11
294.2567
 21
-108.0
  0
LINE
  8
0
  6
CONTINUOUS
 62
     7
 10
293.0868
 20
-97.99995
 11
294.7868
 21
-97.99995
  0
LINE
  8
0
  6
CONTINUOUS
 62
     7
 10
293.6168
 20
-108.0
 11
294.2568
 21
-108.0
  0
LINE
  8
0
  6
CONTINUOUS
 62
     7
 10
291.4368
 20
-78.49995
 11
291.4368
 21
-72.99995
  0
LINE
  8
0
  6
CONTINUOUS
 62
     7
 10
297.4368
 20
-79.99995
 11
297.4368
 21
-77.99995
  0
LINE
  8
0
  6
CENTER
 62
     2
 10
177.9368
 20
-144.1857
 11
177.9368
 21
-182.9999
  0
LINE
  8
0
  6
CENTER
 62
     2
 10
187.8851
 20
-169.0
 11
167.949
 21
-169.0
  0
LINE
  8
0
  6
CONTINUOUS
 62
     7
 10
179.4368
 20
-160.0
 11
179.4368
 21
-157.0
  0
LINE
  8
0
  6
CONTINUOUS
 62
     7
 10
176.4368
 20
-178.0
 11
176.4368
 21
-181.0
  0
LINE
  8
0
  6
CONTINUOUS
 62
     7
 10
173.4368
 20
-175.0
 11
170.4368
 21
-175.0
  0
LINE
  8
0
  6
CONTINUOUS
 62
     7
 10
182.4368
 20
-163.0
 11
185.4368
 21
-163.0
  0
LINE
  8
0
  6
CONTINUOUS
 62
     7
 10
176.4368
 20
-180.0
 11
184.4368
 21
-180.0
  0
LINE
  8
0
  6
CONTINUOUS
 62
     7
 10
171.4368
 20
-158.0
 11
179.4368
 21
-158.0
  0
LINE
  8
0
  6
CONTINUOUS
 62
     7
 10
171.4368
 20
-175.0
 11
171.4368
 21
-158.0
  0
LINE
  8
0
  6
CONTINUOUS
 62
     7
 10
184.4368
 20
-180.0
 11
184.4368
 21
-163.0
  0
LINE
  8
0
  6
CONTINUOUS
 62
     7
 10
184.6667
 20
-159.7
 11
184.9691
 21
-159.7
  0
LINE
  8
0
  6
CONTINUOUS
 62
     7
 10
184.6667
 20
-160.2999
 11
184.9691
 21
-160.2999
  0
LINE
  8
0
  6
CONTINUOUS
 62
     7
 10
184.9448
 20
-160.4607
 11
184.6391
 21
-160.4607
  0
LINE
  8
0
  6
CONTINUOUS
 62
     7
 10
171.2068
 20
-178.2999
 11
170.9045
 21
-178.2999
  0
LINE
  8
0
  6
CONTINUOUS
 62
     7
 10
171.2068
 20
-177.7
 11
170.9045
 21
-177.7
  0
LINE
  8
0
  6
CONTINUOUS
 62
     7
 10
170.9287
 20
-177.5392
 11
171.2345
 21
-177.5392
  0
LINE
  8
0
  6
CONTINUOUS
 62
     7
 10
183.1721
 20
-161.1031
 11
182.8044
 21
-160.7354
  0
LINE
  8
0
  6
CONTINUOUS
 62
     7
 10
183.5399
 20
-160.7354
 11
183.1721
 21
-160.3677
  0
LINE
  8
0
  6
CONTINUOUS
 62
     7
 10
183.1721
 20
-161.1031
 11
183.5398
 21
-160.7353
  0
LINE
  8
0
  6
CONTINUOUS
 62
     7
 10
181.3337
 20
-159.2646
 11
181.7014
 21
-158.8969
  0
LINE
  8
0
  6
CONTINUOUS
 62
     7
 10
181.0403
 20
-161.7641
 11
182.0691
 21
-160.7353
  0
LINE
  8
0
  6
CONTINUOUS
 62
     7
 10
180.6726
 20
-161.3964
 11
181.7014
 21
-160.3676
  0
LINE
  8
0
  6
CONTINUOUS
 62
     7
 10
181.7013
 20
-159.6323
 11
181.3337
 21
-159.2646
  0
LINE
  8
0
  6
CONTINUOUS
 62
     7
 10
182.0691
 20
-159.2646
 11
181.7014
 21
-158.8969
  0
LINE
  8
0
  6
CONTINUOUS
 62
     7
 10
183.1722
 20
-159.6323
 11
184.201
 21
-158.6035
  0
LINE
  8
0
  6
CONTINUOUS
 62
     7
 10
182.8045
 20
-159.2645
 11
183.8332
 21
-158.2358
  0
LINE
  8
0
  6
CONTINUOUS
 62
     7
 10
174.1721
 20
-179.1031
 11
173.8044
 21
-178.7354
  0
LINE
  8
0
  6
CONTINUOUS
 62
     7
 10
174.5398
 20
-178.7354
 11
174.1721
 21
-178.3677
  0
LINE
  8
0
  6
CONTINUOUS
 62
     7
 10
174.1721
 20
-179.103
 11
174.5399
 21
-178.7353
  0
LINE
  8
0
  6
CONTINUOUS
 62
     7
 10
172.3337
 20
-177.2646
 11
172.7014
 21
-176.8969
  0
LINE
  8
0
  6
CONTINUOUS
 62
     7
 10
172.0403
 20
-179.7641
 11
173.0691
 21
-178.7354
  0
LINE
  8
0
  6
CONTINUOUS
 62
     7
 10
171.6726
 20
-179.3964
 11
172.7014
 21
-178.3676
  0
LINE
  8
0
  6
CONTINUOUS
 62
     7
 10
172.7013
 20
-177.6323
 11
172.3336
 21
-177.2646
  0
LINE
  8
0
  6
CONTINUOUS
 62
     7
 10
173.069
 20
-177.2646
 11
172.7013
 21
-176.8969
  0
LINE
  8
0
  6
CONTINUOUS
 62
     7
 10
174.1722
 20
-177.6323
 11
175.201
 21
-176.6035
  0
LINE
  8
0
  6
CONTINUOUS
 62
     7
 10
173.8045
 20
-177.2646
 11
174.8333
 21
-176.2358
  0
LINE
  8
0
  6
CONTINUOUS
 62
     7
 10
172.4368
 20
-151.7999
 11
173.9368
 21
-151.7999
  0
LINE
  8
0
  6
CONTINUOUS
 62
     7
 10
173.9368
 20
-149.0
 11
181.9368
 21
-149.0
  0
LINE
  8
0
  6
CONTINUOUS
 62
     7
 10
172.4368
 20
-151.7999
 11
172.4368
 21
-153.6
  0
LINE
  8
0
  6
CONTINUOUS
 62
     7
 10
183.4368
 20
-151.7999
 11
183.4368
 21
-153.6
  0
LINE
  8
0
  6
CONTINUOUS
 62
     7
 10
173.9368
 20
-151.0
 11
174.2368
 21
-150.6999
  0
LINE
  8
0
  6
CONTINUOUS
 62
     7
 10
181.9368
 20
-151.0
 11
181.6368
 21
-150.7
  0
LINE
  8
0
  6
CONTINUOUS
 62
     7
 10
173.9368
 20
-153.6
 11
173.9368
 21
-156.0
  0
LINE
  8
0
  6
CONTINUOUS
 62
     7
 10
181.9368
 20
-153.6
 11
181.9368
 21
-156.0
  0
LINE
  8
0
  6
CONTINUOUS
 62
     7
 10
181.9368
 20
-151.7999
 11
183.4368
 21
-151.7999
  0
LINE
  8
0
  6
CENTER
 62
     2
 10
173.9868
 20
-152.5
 11
181.8867
 21
-152.5
  0
LINE
  8
0
  6
CENTER
 62
     2
 10
175.4368
 20
-151.1499
 11
175.4368
 21
-153.95
  0
LINE
  8
0
  6
CENTER
 62
     2
 10
180.4368
 20
-151.1499
 11
180.4368
 21
-153.95
  0
LINE
  8
0
  6
CONTINUOUS
 62
     7
 10
174.4868
 20
-151.5499
 11
176.3867
 21
-151.5499
  0
LINE
  8
0
  6
CONTINUOUS
 62
     7
 10
174.4868
 20
-153.45
 11
176.3867
 21
-153.45
  0
LINE
  8
0
  6
CONTINUOUS
 62
     7
 10
174.4868
 20
-151.35
 11
174.4868
 21
-153.45
  0
LINE
  8
0
  6
CONTINUOUS
 62
     7
 10
176.3867
 20
-151.35
 11
176.3867
 21
-153.45
  0
LINE
  8
0
  6
CONTINUOUS
 62
     7
 10
176.9868
 20
-151.35
 11
176.9868
 21
-153.45
  0
LINE
  8
0
  6
CONTINUOUS
 62
     7
 10
178.8867
 20
-151.35
 11
178.8867
 21
-153.45
  0
LINE
  8
0
  6
CONTINUOUS
 62
     7
 10
181.3867
 20
-151.35
 11
181.3867
 21
-153.45
  0
LINE
  8
0
  6
CONTINUOUS
 62
     7
 10
179.4868
 20
-151.35
 11
179.4868
 21
-153.45
  0
LINE
  8
0
  6
CONTINUOUS
 62
     7
 10
176.9868
 20
-151.5499
 11
178.8867
 21
-151.5499
  0
LINE
  8
0
  6
CONTINUOUS
 62
     7
 10
176.9868
 20
-153.45
 11
178.8867
 21
-153.45
  0
LINE
  8
0
  6
CONTINUOUS
 62
     7
 10
179.4868
 20
-153.45
 11
181.3867
 21
-153.45
  0
LINE
  8
0
  6
CONTINUOUS
 62
     7
 10
179.4868
 20
-151.5499
 11
181.3867
 21
-151.5499
  0
LINE
  8
0
  6
CONTINUOUS
 62
     7
 10
174.2368
 20
-150.7
 11
181.6368
 21
-150.7
  0
LINE
  8
0
  6
CONTINUOUS
 62
     7
 10
173.9368
 20
-148.0
 11
181.9368
 21
-148.0
  0
LINE
  8
0
  6
CONTINUOUS
 62
     7
 10
181.9368
 20
-148.0
 11
181.9368
 21
-151.7999
  0
LINE
  8
0
  6
CONTINUOUS
 62
     7
 10
173.9368
 20
-148.0
 11
173.9368
 21
-151.7999
  0
LINE
  8
0
  6
CONTINUOUS
 62
     7
 10
174.4868
 20
-151.35
 11
176.3867
 21
-151.35
  0
LINE
  8
0
  6
CONTINUOUS
 62
     7
 10
176.9868
 20
-151.35
 11
178.8867
 21
-151.35
  0
LINE
  8
0
  6
CONTINUOUS
 62
     7
 10
179.4868
 20
-151.35
 11
181.3867
 21
-151.35
  0
LINE
  8
0
  6
CONTINUOUS
 62
     7
 10
174.9368
 20
-153.75
 11
175.9368
 21
-153.75
  0
LINE
  8
0
  6
CONTINUOUS
 62
     7
 10
177.4368
 20
-153.75
 11
178.4368
 21
-153.75
  0
LINE
  8
0
  6
CONTINUOUS
 62
     7
 10
179.9368
 20
-153.75
 11
180.9368
 21
-153.75
  0
LINE
  8
0
  6
CONTINUOUS
 62
     7
 10
174.9368
 20
-153.45
 11
174.9368
 21
-153.75
  0
LINE
  8
0
  6
CONTINUOUS
 62
     7
 10
175.9368
 20
-153.45
 11
175.9368
 21
-153.75
  0
LINE
  8
0
  6
CONTINUOUS
 62
     7
 10
177.4368
 20
-153.45
 11
177.4368
 21
-153.75
  0
LINE
  8
0
  6
CONTINUOUS
 62
     7
 10
178.4368
 20
-153.45
 11
178.4368
 21
-153.75
  0
LINE
  8
0
  6
CONTINUOUS
 62
     7
 10
180.9368
 20
-153.45
 11
180.9368
 21
-153.75
  0
LINE
  8
0
  6
CONTINUOUS
 62
     7
 10
179.9368
 20
-153.45
 11
179.9368
 21
-153.75
  0
LINE
  8
0
  6
CONTINUOUS
 62
     7
 10
174.9367
 20
-154.875
 11
175.9367
 21
-154.875
  0
LINE
  8
0
  6
CONTINUOUS
 62
     7
 10
175.4368
 20
-154.375
 11
175.4368
 21
-155.375
  0
LINE
  8
0
  6
CONTINUOUS
 62
     7
 10
179.9367
 20
-154.875
 11
180.9367
 21
-154.875
  0
LINE
  8
0
  6
CENTER
 62
     2
 10
178.4368
 20
-160.0
 11
186.4368
 21
-160.0
  0
LINE
  8
0
  6
CENTER
 62
     2
 10
169.4368
 20
-178.0
 11
177.4368
 21
-178.0
  0
LINE
  8
0
  6
CENTER
 62
     2
 10
173.4368
 20
-182.0
 11
173.4368
 21
-174.0
  0
LINE
  8
0
  6
CENTER
 62
     2
 10
182.4368
 20
-164.0
 11
182.4368
 21
-156.0
  0
LINE
  8
0
  6
CONTINUOUS
 62
     7
 10
170.9368
 20
-150.0
 11
184.9368
 21
-150.0
  0
LINE
  8
0
  6
CONTINUOUS
 62
     7
 10
172.2368
 20
-151.6
 11
173.7368
 21
-151.6
  0
LINE
  8
0
  6
CONTINUOUS
 62
     7
 10
172.2368
 20
-153.6
 11
173.9368
 21
-153.6
  0
LINE
  8
0
  6
CONTINUOUS
 62
     7
 10
173.7368
 20
-156.0
 11
182.1368
 21
-156.0
  0
LINE
  8
0
  6
CONTINUOUS
 62
     7
 10
173.7368
 20
-156.0
 11
173.7368
 21
-153.6
  0
LINE
  8
0
  6
CONTINUOUS
 62
     7
 10
182.1368
 20
-156.0
 11
182.1368
 21
-153.6
  0
LINE
  8
0
  6
CONTINUOUS
 62
     7
 10
183.6368
 20
-153.6
 11
183.6368
 21
-151.6
  0
LINE
  8
0
  6
CONTINUOUS
 62
     7
 10
172.2368
 20
-153.6
 11
172.2368
 21
-151.6
  0
LINE
  8
0
  6
CONTINUOUS
 62
     7
 10
181.9368
 20
-153.6
 11
183.6368
 21
-153.6
  0
LINE
  8
0
  6
CONTINUOUS
 62
     7
 10
182.1368
 20
-151.6
 11
183.6368
 21
-151.6
  0
LINE
  8
0
  6
CONTINUOUS
 62
     7
 10
173.7368
 20
-151.6
 11
173.7368
 21
-150.0
  0
LINE
  8
0
  6
CONTINUOUS
 62
     7
 10
182.1368
 20
-151.6
 11
182.1368
 21
-150.0
  0
LINE
  8
0
  6
CONTINUOUS
 62
     7
 10
173.7368
 20
-151.0
 11
182.1368
 21
-151.0
  0
LINE
  8
0
  6
CONTINUOUS
 62
     7
 10
170.9368
 20
-181.0
 11
184.9368
 21
-181.0
  0
LINE
  8
0
  6
CONTINUOUS
 62
     7
 10
170.4368
 20
-180.5
 11
170.4368
 21
-157.0
  0
LINE
  8
0
  6
CONTINUOUS
 62
     7
 10
185.4368
 20
-180.5
 11
185.4368
 21
-157.0
  0
LINE
  8
0
  6
CONTINUOUS
 62
     7
 10
170.4368
 20
-157.0
 11
185.4368
 21
-157.0
  0
LINE
  8
0
  6
CONTINUOUS
 62
     7
 10
170.9368
 20
-157.0
 11
170.9368
 21
-147.7999
  0
LINE
  8
0
  6
CONTINUOUS
 62
     7
 10
171.7368
 20
-147.0
 11
184.1368
 21
-147.0
  0
LINE
  8
0
  6
CONTINUOUS
 62
     7
 10
184.9368
 20
-157.0
 11
184.9368
 21
-147.7999
  0
LINE
  8
0
  6
CONTINUOUS
 62
     7
 10
172.9368
 20
-148.5
 11
173.9368
 21
-148.5
  0
LINE
  8
0
  6
CONTINUOUS
 62
     7
 10
173.4368
 20
-147.7999
 11
182.4368
 21
-147.7999
  0
LINE
  8
0
  6
CONTINUOUS
 62
     7
 10
172.4368
 20
-150.0
 11
172.4368
 21
-149.0
  0
LINE
  8
0
  6
CONTINUOUS
 62
     7
 10
183.4368
 20
-150.0
 11
183.4368
 21
-149.0
  0
LINE
  8
0
  6
CONTINUOUS
 62
     7
 10
173.4368
 20
-148.5
 11
173.4368
 21
-147.7999
  0
LINE
  8
0
  6
CONTINUOUS
 62
     7
 10
182.4368
 20
-148.5
 11
182.4368
 21
-147.7999
  0
LINE
  8
0
  6
CONTINUOUS
 62
     7
 10
181.9368
 20
-148.5
 11
182.9368
 21
-148.5
  0
ARC
  8
0
  6
CONTINUOUS
 62
     7
 10
273.0354
 20
-235.0457
 40
2.21188
 50
0.0
 51
89.99999
  0
ARC
  8
0
  6
CONTINUOUS
 62
     7
 10
291.2836
 20
-246.9346
 40
2.2119
 50
270.0
 51
0.0
  0
ARC
  8
0
  6
CONTINUOUS
 62
     7
 10
290.1776
 20
-236.1516
 40
3.31784
 50
0.0
 51
89.99999
  0
ARC
  8
0
  6
CONTINUOUS
 62
     7
 10
310.3611
 20
-236.8128
 40
2.21189
 50
295.0
 51
0.0
  0
ARC
  8
0
  6
CONTINUOUS
 62
     7
 10
310.3611
 20
-235.0457
 40
2.21188
 50
0.0
 51
89.99999
  0
ARC
  8
0
  6
CONTINUOUS
 62
     7
 10
327.5034
 20
-232.8338
 40
3.31784
 50
291.6884
 51
0.0
  0
ARC
  8
0
  6
CONTINUOUS
 62
     7
 10
326.3973
 20
-232.0834
 40
1.10595
 50
291.689
 51
0.0
  0
CIRCLE
  8
0
  6
CONTINUOUS
 62
     7
 10
-201.4368
 20
-4.0
 40
1.6
  0
CIRCLE
  8
0
  6
CONTINUOUS
 62
     7
 10
-201.4368
 20
-14.0
 40
1.6
  0
ARC
  8
0
  6
CONTINUOUS
 62
     7
 10
-173.2368
 20
44.20001
 40
0.8
 50
0.0
 51
89.99999
  0
ARC
  8
0
  6
CONTINUOUS
 62
     7
 10
-173.2368
 20
24.8
 40
0.8
 50
270.0
 51
0.0
  0
ARC
  8
0
  6
CONTINUOUS
 62
     7
 10
-185.4368
 20
46.5
 40
6.0
 50
73.80862
 51
106.1914
  0
ARC
  8
0
  6
CONTINUOUS
 62
     7
 10
-183.9868
 20
51.49374
 40
0.8
 50
0.0
 51
73.8082
  0
ARC
  8
0
  6
CONTINUOUS
 62
     7
 10
-186.8868
 20
51.49374
 40
0.8
 50
106.1918
 51
180.0
  0
ARC
  8
0
  6
CONTINUOUS
 62
     7
 10
-203.4368
 20
46.49998
 40
6.0
 50
73.80862
 51
106.1914
  0
ARC
  8
0
  6
CONTINUOUS
 62
     7
 10
-204.8868
 20
51.49373
 40
0.8
 50
106.1918
 51
118.0138
  0
ARC
  8
0
  6
CONTINUOUS
 62
     7
 10
-201.9868
 20
51.49373
 40
0.8
 50
61.98621
 51
73.8082
  0
ARC
  8
0
  6
CONTINUOUS
 62
     7
 10
-175.9368
 20
52.5
 40
0.5
 50
180.0
 51
0.0
  0
ARC
  8
0
  6
CONTINUOUS
 62
     7
 10
-175.9368
 20
50.5
 40
0.5
 50
0.0
 51
180.0
  0
ARC
  8
0
  6
CONTINUOUS
 62
     7
 10
-173.2368
 20
-70.20001
 40
0.8
 50
270.0
 51
0.0
  0
ARC
  8
0
  6
CONTINUOUS
 62
     7
 10
-173.2368
 20
-50.80002
 40
0.8
 50
0.0
 51
89.99999
  0
ARC
  8
0
  6
CONTINUOUS
 62
     7
 10
-203.4368
 20
-72.50003
 40
6.0
 50
253.8086
 51
286.1914
  0
ARC
  8
0
  6
CONTINUOUS
 62
     7
 10
-204.8868
 20
-77.49377
 40
0.8
 50
180.0
 51
253.8083
  0
ARC
  8
0
  6
CONTINUOUS
 62
     7
 10
-201.9868
 20
-77.49377
 40
0.80001
 50
286.1917
 51
0.0
  0
ARC
  8
0
  6
CONTINUOUS
 62
     7
 10
-185.4368
 20
-72.5
 40
6.0
 50
253.8086
 51
286.1914
  0
ARC
  8
0
  6
CONTINUOUS
 62
     7
 10
-183.9868
 20
-77.49374
 40
0.80001
 50
286.1917
 51
298.0138
  0
ARC
  8
0
  6
CONTINUOUS
 62
     7
 10
-186.8868
 20
-77.49374
 40
0.8
 50
241.9862
 51
253.8083
  0
ARC
  8
0
  6
CONTINUOUS
 62
     7
 10
-175.9368
 20
-78.50003
 40
0.5
 50
0.0
 51
180.0
  0
ARC
  8
0
  6
CONTINUOUS
 62
     7
 10
-175.9368
 20
-76.50003
 40
0.5
 50
180.0
 51
0.0
  0
ARC
  8
0
  6
CONTINUOUS
 62
     7
 10
-185.4368
 20
141.0
 40
3.0
 50
89.99999
 51
180.0
  0
ARC
  8
0
  6
CONTINUOUS
 62
     7
 10
-203.4368
 20
150.0
 40
3.0
 50
270.0
 51
0.0
  0
ARC
  8
0
  6
CONTINUOUS
 62
     7
 10
-185.4368
 20
141.0
 40
2.55
 50
276.7564
 51
263.2436
  0
ARC
  8
0
  6
CONTINUOUS
 62
     7
 10
-203.4368
 20
150.0
 40
2.55
 50
96.7564
 51
83.24359
  0
CIRCLE
  8
0
  6
CONTINUOUS
 62
     7
 10
-185.4368
 20
141.0
 40
2.25
  0
ARC
  8
0
  6
CONTINUOUS
 62
     7
 10
-185.4368
 20
142.1031
 40
0.51999
 50
225.0
 51
315.0
  0
ARC
  8
0
  6
CONTINUOUS
 62
     7
 10
-186.5399
 20
141.0
 40
0.51999
 50
315.0
 51
45.0
  0
ARC
  8
0
  6
CONTINUOUS
 62
     7
 10
-184.3337
 20
141.0
 40
0.51999
 50
135.0
 51
225.0
  0
ARC
  8
0
  6
CONTINUOUS
 62
     7
 10
-185.4368
 20
139.8969
 40
0.51999
 50
45.0
 51
135.0
  0
CIRCLE
  8
0
  6
CONTINUOUS
 62
     7
 10
-203.4368
 20
150.0
 40
2.25
  0
ARC
  8
0
  6
CONTINUOUS
 62
     7
 10
-203.4368
 20
151.1031
 40
0.51999
 50
225.0
 51
315.0
  0
ARC
  8
0
  6
CONTINUOUS
 62
     7
 10
-204.5399
 20
150.0
 40
0.51999
 50
315.0
 51
45.0
  0
ARC
  8
0
  6
CONTINUOUS
 62
     7
 10
-202.3338
 20
150.0
 40
0.51999
 50
135.0
 51
225.0
  0
ARC
  8
0
  6
CONTINUOUS
 62
     7
 10
-203.4368
 20
148.8969
 40
0.51999
 50
45.0
 51
135.0
  0
CIRCLE
  8
0
  6
CONTINUOUS
 62
     7
 10
-177.9368
 20
148.0
 40
0.85
  0
CIRCLE
  8
0
  6
CONTINUOUS
 62
     7
 10
-177.9368
 20
143.0
 40
0.85
  0
ARC
  8
0
  6
CONTINUOUS
 62
     7
 10
-180.3118
 20
145.5
 40
0.49999
 50
315.0
 51
225.0
  0
ARC
  8
0
  6
CONTINUOUS
 62
     7
 10
-205.9368
 20
152.5
 40
0.5
 50
89.99999
 51
180.0
  0
ARC
  8
0
  6
CONTINUOUS
 62
     7
 10
-205.9368
 20
138.5
 40
0.5
 50
180.0
 51
270.0
  0
ARC
  8
0
  6
CONTINUOUS
 62
     7
 10
-173.2368
 20
151.7
 40
0.8
 50
0.0
 51
89.99999
  0
ARC
  8
0
  6
CONTINUOUS
 62
     7
 10
-173.2368
 20
139.3
 40
0.8
 50
270.0
 51
0.0
  0
ARC
  8
0
  6
CONTINUOUS
 62
     7
 10
-174.4368
 20
150.5
 40
0.5
 50
0.0
 51
89.99999
  0
ARC
  8
0
  6
CONTINUOUS
 62
     7
 10
-174.4368
 20
140.5
 40
0.5
 50
270.0
 51
0.0
  0
CIRCLE
  8
0
  6
CONTINUOUS
 62
     7
 10
-311.4368
 20
0.0
 40
1.4
  0
CIRCLE
  8
0
  6
CONTINUOUS
 62
     7
 10
-322.4368
 20
-18.0
 40
1.4
  0
CIRCLE
  8
0
  6
CONTINUOUS
 62
     7
 10
-319.9368
 20
1.0
 40
2.5
  0
CIRCLE
  8
0
  6
CONTINUOUS
 62
     7
 10
-316.9368
 20
-9.0
 40
2.5
  0
CIRCLE
  8
0
  6
CONTINUOUS
 62
     7
 10
-316.9368
 20
-32.0
 40
2.65
  0
CIRCLE
  8
0
  6
CONTINUOUS
 62
     7
 10
-316.9368
 20
-32.0
 40
2.0
  0
CIRCLE
  8
0
  6
CONTINUOUS
 62
     7
 10
-313.9368
 20
-19.0
 40
2.5
  0
CIRCLE
  8
0
  6
CONTINUOUS
 62
     7
 10
-316.9368
 20
14.0
 40
2.65
  0
CIRCLE
  8
0
  6
CONTINUOUS
 62
     7
 10
-316.9368
 20
14.0
 40
2.0
  0
CIRCLE
  8
0
  6
CONTINUOUS
 62
     7
 10
-319.9368
 20
1.0
 40
1.75001
  0
CIRCLE
  8
0
  6
CONTINUOUS
 62
     7
 10
-316.9368
 20
-9.0
 40
1.75001
  0
CIRCLE
  8
0
  6
CONTINUOUS
 62
     7
 10
-313.9368
 20
-19.0
 40
1.75001
  0
ARC
  8
0
  6
CONTINUOUS
 62
     7
 10
-321.4368
 20
46.49998
 40
6.0
 50
73.80876
 51
106.1912
  0
ARC
  8
0
  6
CONTINUOUS
 62
     7
 10
-319.9868
 20
51.49374
 40
0.79999
 50
0.0
 51
73.8082
  0
ARC
  8
0
  6
CONTINUOUS
 62
     7
 10
-322.8868
 20
51.49373
 40
0.8
 50
106.1918
 51
180.0
  0
ARC
  8
0
  6
CONTINUOUS
 62
     7
 10
-312.4368
 20
46.49998
 40
6.0
 50
73.80876
 51
106.1912
  0
ARC
  8
0
  6
CONTINUOUS
 62
     7
 10
-313.8868
 20
51.49373
 40
0.8
 50
106.1918
 51
118.0148
  0
ARC
  8
0
  6
CONTINUOUS
 62
     7
 10
-310.9868
 20
51.49374
 40
0.80001
 50
61.98524
 51
73.8082
  0
ARC
  8
0
  6
CONTINUOUS
 62
     7
 10
-320.3831
 20
44.95331
 40
0.35345
 50
0.0
 51
89.99999
  0
ARC
  8
0
  6
CONTINUOUS
 62
     7
 10
-317.467
 20
43.05345
 40
0.35346
 50
270.0
 51
0.0
  0
ARC
  8
0
  6
CONTINUOUS
 62
     7
 10
-317.6437
 20
44.77658
 40
0.53018
 50
0.0
 51
89.99999
  0
ARC
  8
0
  6
CONTINUOUS
 62
     7
 10
-314.4184
 20
44.95331
 40
0.35345
 50
0.0
 51
89.99999
  0
ARC
  8
0
  6
CONTINUOUS
 62
     7
 10
-314.4184
 20
44.67093
 40
0.35347
 50
295.0005
 51
0.0
  0
ARC
  8
0
  6
CONTINUOUS
 62
     7
 10
-311.6791
 20
45.30678
 40
0.53019
 50
291.6869
 51
0.0
  0
ARC
  8
0
  6
CONTINUOUS
 62
     7
 10
-311.8558
 20
45.4267
 40
0.17673
 50
291.687
 51
0.0
  0
ARC
  8
0
  6
CONTINUOUS
 62
     7
 10
-312.4368
 20
-72.49994
 40
6.0
 50
253.8088
 51
286.1912
  0
ARC
  8
0
  6
CONTINUOUS
 62
     7
 10
-313.8868
 20
-77.49365
 40
0.79999
 50
180.0
 51
253.8083
  0
ARC
  8
0
  6
CONTINUOUS
 62
     7
 10
-310.9868
 20
-77.49365
 40
0.80001
 50
286.1917
 51
0.0
  0
ARC
  8
0
  6
CONTINUOUS
 62
     7
 10
-321.4368
 20
-72.49994
 40
6.0
 50
253.8088
 51
286.1912
  0
ARC
  8
0
  6
CONTINUOUS
 62
     7
 10
-319.9868
 20
-77.49365
 40
0.80001
 50
286.1917
 51
298.0148
  0
ARC
  8
0
  6
CONTINUOUS
 62
     7
 10
-322.8868
 20
-77.49365
 40
0.80001
 50
241.9852
 51
253.8083
  0
ARC
  8
0
  6
CONTINUOUS
 62
     7
 10
-313.4905
 20
-70.95325
 40
0.35345
 50
180.0
 51
270.0
  0
ARC
  8
0
  6
CONTINUOUS
 62
     7
 10
-316.4066
 20
-69.05341
 40
0.35346
 50
89.99999
 51
180.0
  0
ARC
  8
0
  6
CONTINUOUS
 62
     7
 10
-316.2299
 20
-70.77652
 40
0.53018
 50
180.0
 51
270.0
  0
ARC
  8
0
  6
CONTINUOUS
 62
     7
 10
-319.4552
 20
-70.95325
 40
0.35345
 50
180.0
 51
270.0
  0
ARC
  8
0
  6
CONTINUOUS
 62
     7
 10
-319.4552
 20
-70.67087
 40
0.35346
 50
115.0008
 51
180.0
  0
ARC
  8
0
  6
CONTINUOUS
 62
     7
 10
-322.1945
 20
-71.3067
 40
0.53019
 50
111.6869
 51
180.0
  0
ARC
  8
0
  6
CONTINUOUS
 62
     7
 10
-322.0178
 20
-71.42664
 40
0.17673
 50
111.6866
 51
180.0
  0
ARC
  8
0
  6
CONTINUOUS
 62
     7
 10
-45.43681
 20
-18.0
 40
2.7
 50
42.20544
 51
317.7946
  0
ARC
  8
0
  6
CONTINUOUS
 62
     7
 10
-56.43681
 20
0.0
 40
2.7
 50
0.0
 51
137.7946
  0
ARC
  8
0
  6
CONTINUOUS
 62
     7
 10
-56.43681
 20
0.0
 40
2.7
 50
222.2054
 51
0.0
  0
CIRCLE
  8
0
  6
CONTINUOUS
 62
     7
 10
-56.43681
 20
0.0
 40
1.4
  0
CIRCLE
  8
0
  6
CONTINUOUS
 62
     7
 10
-45.43681
 20
-18.0
 40
1.4
  0
CIRCLE
  8
0
  6
CONTINUOUS
 62
     7
 10
-53.93681
 20
-14.0
 40
2.5
  0
CIRCLE
  8
0
  6
CONTINUOUS
 62
     7
 10
-50.93681
 20
-46.5
 40
1.5
  0
CIRCLE
  8
0
  6
CONTINUOUS
 62
     7
 10
-50.93681
 20
20.5
 40
1.5
  0
CIRCLE
  8
0
  6
CONTINUOUS
 62
     7
 10
-47.93681
 20
-4.0
 40
2.5
  0
CIRCLE
  8
0
  6
CONTINUOUS
 62
     7
 10
-53.93681
 20
-14.0
 40
1.75001
  0
CIRCLE
  8
0
  6
CONTINUOUS
 62
     7
 10
-47.93681
 20
-4.0
 40
1.75001
  0
ARC
  8
0
  6
CONTINUOUS
 62
     7
 10
-57.13683
 20
44.2
 40
0.8
 50
89.99999
 51
180.0
  0
ARC
  8
0
  6
CONTINUOUS
 62
     7
 10
-44.7368
 20
44.2
 40
0.8
 50
0.0
 51
89.99999
  0
ARC
  8
0
  6
CONTINUOUS
 62
     7
 10
-57.13683
 20
24.8
 40
0.8
 50
180.0
 51
270.0
  0
ARC
  8
0
  6
CONTINUOUS
 62
     7
 10
-44.7368
 20
24.8
 40
0.8
 50
270.0
 51
0.0
  0
ARC
  8
0
  6
CONTINUOUS
 62
     7
 10
-55.43681
 20
46.5
 40
6.0
 50
99.5941
 51
106.1913
  0
ARC
  8
0
  6
CONTINUOUS
 62
     7
 10
-56.88683
 20
51.49374
 40
0.8
 50
106.1913
 51
180.0
  0
ARC
  8
0
  6
CONTINUOUS
 62
     7
 10
-46.43681
 20
46.49998
 40
6.0
 50
73.80865
 51
80.40593
  0
ARC
  8
0
  6
CONTINUOUS
 62
     7
 10
-44.9868
 20
51.49374
 40
0.8
 50
61.98621
 51
73.80872
  0
ARC
  8
0
  6
CONTINUOUS
 62
     7
 10
-44.7368
 20
-70.20013
 40
0.8
 50
270.0
 51
0.0
  0
ARC
  8
0
  6
CONTINUOUS
 62
     7
 10
-57.13683
 20
-70.20013
 40
0.8
 50
180.0
 51
270.0
  0
ARC
  8
0
  6
CONTINUOUS
 62
     7
 10
-44.7368
 20
-50.80011
 40
0.8
 50
0.0
 51
89.99999
  0
ARC
  8
0
  6
CONTINUOUS
 62
     7
 10
-57.13683
 20
-50.80014
 40
0.8
 50
89.99999
 51
180.0
  0
ARC
  8
0
  6
CONTINUOUS
 62
     7
 10
-46.43681
 20
-72.50012
 40
6.0
 50
279.5941
 51
286.1913
  0
ARC
  8
0
  6
CONTINUOUS
 62
     7
 10
-44.9868
 20
-77.49387
 40
0.8
 50
286.1912
 51
0.0
  0
ARC
  8
0
  6
CONTINUOUS
 62
     7
 10
-55.43681
 20
-72.50012
 40
6.0
 50
253.8087
 51
260.4059
  0
ARC
  8
0
  6
CONTINUOUS
 62
     7
 10
-56.88683
 20
-77.49387
 40
0.8
 50
241.9862
 51
253.8088
  0
ARC
  8
0
  6
CONTINUOUS
 62
     7
 10
-185.4368
 20
-173.5
 40
3.0
 50
89.99999
 51
180.0
  0
ARC
  8
0
  6
CONTINUOUS
 62
     7
 10
-203.4368
 20
-164.5
 40
3.0
 50
270.0
 51
0.0
  0
ARC
  8
0
  6
CONTINUOUS
 62
     7
 10
-185.4368
 20
-173.5
 40
2.55
 50
276.7564
 51
263.2436
  0
ARC
  8
0
  6
CONTINUOUS
 62
     7
 10
-203.4368
 20
-164.5
 40
2.55
 50
96.7564
 51
83.24359
  0
CIRCLE
  8
0
  6
CONTINUOUS
 62
     7
 10
-185.4368
 20
-173.5
 40
2.25
  0
ARC
  8
0
  6
CONTINUOUS
 62
     7
 10
-185.4368
 20
-172.3969
 40
0.51999
 50
225.0
 51
315.0
  0
ARC
  8
0
  6
CONTINUOUS
 62
     7
 10
-186.5399
 20
-173.5
 40
0.51999
 50
315.0
 51
45.0
  0
ARC
  8
0
  6
CONTINUOUS
 62
     7
 10
-184.3337
 20
-173.5
 40
0.51999
 50
135.0
 51
225.0
  0
ARC
  8
0
  6
CONTINUOUS
 62
     7
 10
-185.4368
 20
-174.603
 40
0.51999
 50
45.0
 51
135.0
  0
CIRCLE
  8
0
  6
CONTINUOUS
 62
     7
 10
-203.4368
 20
-164.5
 40
2.25
  0
ARC
  8
0
  6
CONTINUOUS
 62
     7
 10
-203.4368
 20
-163.3969
 40
0.51999
 50
225.0
 51
315.0
  0
ARC
  8
0
  6
CONTINUOUS
 62
     7
 10
-204.5399
 20
-164.5
 40
0.51999
 50
315.0
 51
45.0
  0
ARC
  8
0
  6
CONTINUOUS
 62
     7
 10
-202.3338
 20
-164.5
 40
0.51999
 50
135.0
 51
225.0
  0
ARC
  8
0
  6
CONTINUOUS
 62
     7
 10
-203.4368
 20
-165.603
 40
0.51999
 50
45.0
 51
135.0
  0
CIRCLE
  8
0
  6
CONTINUOUS
 62
     7
 10
-177.9368
 20
-166.5
 40
0.85
  0
CIRCLE
  8
0
  6
CONTINUOUS
 62
     7
 10
-177.9368
 20
-171.5
 40
0.85
  0
ARC
  8
0
  6
CONTINUOUS
 62
     7
 10
-180.3118
 20
-169.0
 40
0.49999
 50
315.0
 51
225.0
  0
ARC
  8
0
  6
CONTINUOUS
 62
     7
 10
-205.9368
 20
-162.0
 40
0.5
 50
89.99999
 51
180.0
  0
ARC
  8
0
  6
CONTINUOUS
 62
     7
 10
-205.9368
 20
-176.0
 40
0.5
 50
180.0
 51
270.0
  0
ARC
  8
0
  6
CONTINUOUS
 62
     7
 10
-173.2368
 20
-162.7999
 40
0.8
 50
0.0
 51
89.99999
  0
ARC
  8
0
  6
CONTINUOUS
 62
     7
 10
-173.2368
 20
-175.2
 40
0.8
 50
270.0
 51
0.0
  0
ARC
  8
0
  6
CONTINUOUS
 62
     7
 10
-174.4368
 20
-164.0
 40
0.5
 50
0.0
 51
89.99999
  0
ARC
  8
0
  6
CONTINUOUS
 62
     7
 10
-174.4368
 20
-174.0
 40
0.5
 50
270.0
 51
0.0
  0
ARC
  8
0
  6
CONTINUOUS
 62
     7
 10
172.4368
 20
0.0
 40
2.7
 50
222.2054
 51
0.0
  0
ARC
  8
0
  6
CONTINUOUS
 62
     7
 10
172.4368
 20
0.0
 40
2.7
 50
0.0
 51
137.7946
  0
ARC
  8
0
  6
CONTINUOUS
 62
     7
 10
183.4368
 20
-18.0
 40
2.7
 50
42.20544
 51
317.7946
  0
CIRCLE
  8
0
  6
CONTINUOUS
 62
     7
 10
183.4368
 20
-18.0
 40
1.4
  0
CIRCLE
  8
0
  6
CONTINUOUS
 62
     7
 10
172.4368
 20
0.0
 40
1.4
  0
CIRCLE
  8
0
  6
CONTINUOUS
 62
     7
 10
177.9368
 20
18.50002
 40
1.65
  0
CIRCLE
  8
0
  6
CONTINUOUS
 62
     7
 10
177.9368
 20
-48.50002
 40
1.65
  0
ARC
  8
0
  6
CONTINUOUS
 62
     7
 10
184.1368
 20
22.8
 40
0.8
 50
270.0
 51
0.0
  0
ARC
  8
0
  6
CONTINUOUS
 62
     7
 10
171.7368
 20
42.2
 40
0.8
 50
89.99999
 51
180.0
  0
ARC
  8
0
  6
CONTINUOUS
 62
     7
 10
171.7368
 20
22.8
 40
0.8
 50
180.0
 51
270.0
  0
ARC
  8
0
  6
CONTINUOUS
 62
     7
 10
184.1368
 20
42.2
 40
0.8
 50
0.0
 51
89.99999
  0
ARC
  8
0
  6
CONTINUOUS
 62
     7
 10
173.4368
 20
44.49998
 40
6.0
 50
99.59407
 51
106.1914
  0
ARC
  8
0
  6
CONTINUOUS
 62
     7
 10
171.9868
 20
49.49373
 40
0.8
 50
106.1918
 51
180.0
  0
ARC
  8
0
  6
CONTINUOUS
 62
     7
 10
182.4368
 20
44.49998
 40
6.0
 50
73.80862
 51
80.40593
  0
ARC
  8
0
  6
CONTINUOUS
 62
     7
 10
183.8868
 20
49.49374
 40
0.8
 50
61.98621
 51
73.8082
  0
ARC
  8
0
  6
CONTINUOUS
 62
     7
 10
171.7368
 20
-52.8
 40
0.8
 50
89.99999
 51
180.0
  0
ARC
  8
0
  6
CONTINUOUS
 62
     7
 10
184.1367
 20
-72.2
 40
0.8
 50
270.0
 51
0.0
  0
ARC
  8
0
  6
CONTINUOUS
 62
     7
 10
184.1368
 20
-52.8
 40
0.8
 50
0.0
 51
89.99999
  0
ARC
  8
0
  6
CONTINUOUS
 62
     7
 10
171.7368
 20
-72.2
 40
0.8
 50
180.0
 51
270.0
  0
ARC
  8
0
  6
CONTINUOUS
 62
     7
 10
182.4368
 20
-74.49998
 40
6.0
 50
279.5941
 51
286.1914
  0
ARC
  8
0
  6
CONTINUOUS
 62
     7
 10
183.8868
 20
-79.49373
 40
0.8
 50
286.1919
 51
0.0
  0
ARC
  8
0
  6
CONTINUOUS
 62
     7
 10
173.4368
 20
-74.49998
 40
6.0
 50
253.8086
 51
260.4059
  0
ARC
  8
0
  6
CONTINUOUS
 62
     7
 10
171.9868
 20
-79.49373
 40
0.8
 50
241.9862
 51
253.8083
  0
ARC
  8
0
  6
CONTINUOUS
 62
     7
 10
173.4367
 20
136.5
 40
3.0
 50
0.0
 51
89.99999
  0
ARC
  8
0
  6
CONTINUOUS
 62
     7
 10
182.4367
 20
154.5
 40
3.0
 50
180.0
 51
270.0
  0
ARC
  8
0
  6
CONTINUOUS
 62
     7
 10
173.4367
 20
136.5
 40
2.55
 50
186.7564
 51
173.2436
  0
ARC
  8
0
  6
CONTINUOUS
 62
     7
 10
182.4367
 20
154.5
 40
2.55
 50
6.75641
 51
353.2436
  0
CIRCLE
  8
0
  6
CONTINUOUS
 62
     7
 10
173.4367
 20
136.5
 40
2.25
  0
ARC
  8
0
  6
CONTINUOUS
 62
     7
 10
174.5398
 20
136.5
 40
0.51999
 50
135.0
 51
225.0
  0
ARC
  8
0
  6
CONTINUOUS
 62
     7
 10
173.4367
 20
137.6031
 40
0.51999
 50
225.0
 51
315.0
  0
ARC
  8
0
  6
CONTINUOUS
 62
     7
 10
173.4367
 20
135.3969
 40
0.51999
 50
45.0
 51
135.0
  0
ARC
  8
0
  6
CONTINUOUS
 62
     7
 10
172.3336
 20
136.5
 40
0.51999
 50
315.0
 51
45.0
  0
CIRCLE
  8
0
  6
CONTINUOUS
 62
     7
 10
182.4367
 20
154.5
 40
2.25
  0
ARC
  8
0
  6
CONTINUOUS
 62
     7
 10
183.5398
 20
154.5
 40
0.51999
 50
135.0
 51
225.0
  0
ARC
  8
0
  6
CONTINUOUS
 62
     7
 10
182.4367
 20
155.6031
 40
0.51999
 50
225.0
 51
315.0
  0
ARC
  8
0
  6
CONTINUOUS
 62
     7
 10
182.4367
 20
153.3969
 40
0.51999
 50
45.0
 51
135.0
  0
ARC
  8
0
  6
CONTINUOUS
 62
     7
 10
181.3336
 20
154.5
 40
0.51999
 50
315.0
 51
45.0
  0
CIRCLE
  8
0
  6
CONTINUOUS
 62
     7
 10
180.4367
 20
129.0
 40
0.85
  0
CIRCLE
  8
0
  6
CONTINUOUS
 62
     7
 10
175.4367
 20
129.0
 40
0.85
  0
ARC
  8
0
  6
CONTINUOUS
 62
     7
 10
177.9367
 20
131.375
 40
0.49999
 50
225.0
 51
135.0
  0
ARC
  8
0
  6
CONTINUOUS
 62
     7
 10
184.9367
 20
157.0
 40
0.5
 50
0.0
 51
89.99999
  0
ARC
  8
0
  6
CONTINUOUS
 62
     7
 10
170.9367
 20
157.0
 40
0.5
 50
89.99999
 51
180.0
  0
ARC
  8
0
  6
CONTINUOUS
 62
     7
 10
184.1367
 20
124.3
 40
0.8
 50
270.0
 51
0.0
  0
ARC
  8
0
  6
CONTINUOUS
 62
     7
 10
171.7367
 20
124.3
 40
0.8
 50
180.0
 51
270.0
  0
ARC
  8
0
  6
CONTINUOUS
 62
     7
 10
182.9367
 20
125.5
 40
0.5
 50
270.0
 51
0.0
  0
ARC
  8
0
  6
CONTINUOUS
 62
     7
 10
172.9367
 20
125.5
 40
0.5
 50
180.0
 51
270.0
  0
ARC
  8
0
  6
CONTINUOUS
 62
     7
 10
75.63681
 20
42.2
 40
0.8
 50
0.0
 51
89.99999
  0
ARC
  8
0
  6
CONTINUOUS
 62
     7
 10
72.9368
 20
50.5
 40
0.5
 50
180.0
 51
0.0
  0
ARC
  8
0
  6
CONTINUOUS
 62
     7
 10
75.63681
 20
22.8
 40
0.8
 50
270.0
 51
0.0
  0
ARC
  8
0
  6
CONTINUOUS
 62
     7
 10
72.9368
 20
48.5
 40
0.5
 50
0.0
 51
180.0
  0
ARC
  8
0
  6
CONTINUOUS
 62
     7
 10
63.4368
 20
44.5
 40
6.0
 50
73.80876
 51
106.1914
  0
ARC
  8
0
  6
CONTINUOUS
 62
     7
 10
64.88681
 20
49.49374
 40
0.8
 50
0.0
 51
73.80872
  0
ARC
  8
0
  6
CONTINUOUS
 62
     7
 10
61.98679
 20
49.49374
 40
0.8
 50
106.1913
 51
180.0
  0
ARC
  8
0
  6
CONTINUOUS
 62
     7
 10
46.88681
 20
49.49373
 40
0.8
 50
61.98621
 51
73.80872
  0
ARC
  8
0
  6
CONTINUOUS
 62
     7
 10
43.98679
 20
49.49373
 40
0.8
 50
106.1915
 51
118.0138
  0
ARC
  8
0
  6
CONTINUOUS
 62
     7
 10
45.4368
 20
44.49998
 40
6.0
 50
73.80872
 51
106.1914
  0
ARC
  8
0
  6
CONTINUOUS
 62
     7
 10
45.4368
 20
-74.50002
 40
6.0
 50
253.8087
 51
286.1914
  0
ARC
  8
0
  6
CONTINUOUS
 62
     7
 10
43.98679
 20
-79.49373
 40
0.8
 50
180.0
 51
253.8088
  0
ARC
  8
0
  6
CONTINUOUS
 62
     7
 10
46.88681
 20
-79.49373
 40
0.8
 50
286.1913
 51
0.0
  0
ARC
  8
0
  6
CONTINUOUS
 62
     7
 10
61.98679
 20
-79.49373
 40
0.8
 50
241.9862
 51
253.8088
  0
ARC
  8
0
  6
CONTINUOUS
 62
     7
 10
64.88681
 20
-79.49373
 40
0.8
 50
286.1913
 51
298.0138
  0
ARC
  8
0
  6
CONTINUOUS
 62
     7
 10
63.4368
 20
-74.49998
 40
6.0
 50
253.8087
 51
286.1914
  0
ARC
  8
0
  6
CONTINUOUS
 62
     7
 10
75.63681
 20
-72.2
 40
0.8
 50
270.0
 51
0.0
  0
ARC
  8
0
  6
CONTINUOUS
 62
     7
 10
75.63681
 20
-52.8
 40
0.8
 50
0.0
 51
89.99999
  0
ARC
  8
0
  6
CONTINUOUS
 62
     7
 10
72.9368
 20
-80.50002
 40
0.5
 50
0.0
 51
180.0
  0
ARC
  8
0
  6
CONTINUOUS
 62
     7
 10
72.9368
 20
-78.50002
 40
0.5
 50
180.0
 51
0.0
  0
ARC
  8
0
  6
CONTINUOUS
 62
     7
 10
319.4368
 20
44.50003
 40
6.0
 50
73.80876
 51
106.1912
  0
ARC
  8
0
  6
CONTINUOUS
 62
     7
 10
320.8868
 20
49.49377
 40
0.79999
 50
0.0
 51
73.8082
  0
ARC
  8
0
  6
CONTINUOUS
 62
     7
 10
317.9868
 20
49.49377
 40
0.8
 50
106.1918
 51
180.0
  0
ARC
  8
0
  6
CONTINUOUS
 62
     7
 10
302.8868
 20
49.49376
 40
0.80001
 50
61.98524
 51
73.8082
  0
ARC
  8
0
  6
CONTINUOUS
 62
     7
 10
299.9868
 20
49.49376
 40
0.8
 50
106.1918
 51
118.0148
  0
ARC
  8
0
  6
CONTINUOUS
 62
     7
 10
301.4368
 20
44.50002
 40
6.0
 50
73.80876
 51
106.1912
  0
ARC
  8
0
  6
CONTINUOUS
 62
     7
 10
289.2368
 20
42.20003
 40
0.8
 50
89.99999
 51
180.0
  0
ARC
  8
0
  6
CONTINUOUS
 62
     7
 10
289.2368
 20
22.80003
 40
0.79999
 50
179.9998
 51
270.0
  0
ARC
  8
0
  6
CONTINUOUS
 62
     7
 10
291.9368
 20
50.50003
 40
0.5
 50
180.0
 51
0.0
  0
ARC
  8
0
  6
CONTINUOUS
 62
     7
 10
291.9368
 20
48.50003
 40
0.5
 50
0.0
 51
180.0
  0
ARC
  8
0
  6
CONTINUOUS
 62
     7
 10
289.2368
 20
-72.19997
 40
0.79999
 50
180.0
 51
270.0
  0
ARC
  8
0
  6
CONTINUOUS
 62
     7
 10
291.9368
 20
-80.49995
 40
0.5
 50
0.0
 51
180.0
  0
ARC
  8
0
  6
CONTINUOUS
 62
     7
 10
289.2368
 20
-52.79997
 40
0.8
 50
89.99999
 51
180.0
  0
ARC
  8
0
  6
CONTINUOUS
 62
     7
 10
291.9368
 20
-78.49995
 40
0.5
 50
180.0
 51
0.0
  0
ARC
  8
0
  6
CONTINUOUS
 62
     7
 10
301.4368
 20
-74.49995
 40
6.0
 50
253.8088
 51
286.1915
  0
ARC
  8
0
  6
CONTINUOUS
 62
     7
 10
299.9868
 20
-79.49373
 40
0.79999
 50
180.0
 51
253.8083
  0
ARC
  8
0
  6
CONTINUOUS
 62
     7
 10
302.8867
 20
-79.49373
 40
0.8
 50
286.1919
 51
0.0
  0
ARC
  8
0
  6
CONTINUOUS
 62
     7
 10
317.9868
 20
-79.4937
 40
0.79999
 50
241.9872
 51
253.8083
  0
ARC
  8
0
  6
CONTINUOUS
 62
     7
 10
320.8867
 20
-79.4937
 40
0.8
 50
286.1919
 51
298.0148
  0
ARC
  8
0
  6
CONTINUOUS
 62
     7
 10
319.4368
 20
-74.49995
 40
6.0
 50
253.8088
 51
286.1915
  0
ARC
  8
0
  6
CONTINUOUS
 62
     7
 10
182.4368
 20
-160.0
 40
3.0
 50
180.0
 51
270.0
  0
ARC
  8
0
  6
CONTINUOUS
 62
     7
 10
173.4368
 20
-178.0
 40
3.0
 50
0.0
 51
89.99999
  0
ARC
  8
0
  6
CONTINUOUS
 62
     7
 10
182.4368
 20
-160.0
 40
2.55
 50
6.75641
 51
353.2436
  0
ARC
  8
0
  6
CONTINUOUS
 62
     7
 10
173.4368
 20
-178.0
 40
2.55
 50
186.7564
 51
173.2436
  0
CIRCLE
  8
0
  6
CONTINUOUS
 62
     7
 10
182.4368
 20
-160.0
 40
2.25
  0
ARC
  8
0
  6
CONTINUOUS
 62
     7
 10
181.3337
 20
-160.0
 40
0.51999
 50
315.0
 51
45.0
  0
ARC
  8
0
  6
CONTINUOUS
 62
     7
 10
182.4368
 20
-161.103
 40
0.51999
 50
45.0
 51
135.0
  0
ARC
  8
0
  6
CONTINUOUS
 62
     7
 10
182.4368
 20
-158.8969
 40
0.51999
 50
225.0
 51
315.0
  0
ARC
  8
0
  6
CONTINUOUS
 62
     7
 10
183.5399
 20
-160.0
 40
0.51999
 50
135.0
 51
225.0
  0
CIRCLE
  8
0
  6
CONTINUOUS
 62
     7
 10
173.4368
 20
-178.0
 40
2.25
  0
ARC
  8
0
  6
CONTINUOUS
 62
     7
 10
172.3337
 20
-178.0
 40
0.51999
 50
315.0
 51
45.0
  0
ARC
  8
0
  6
CONTINUOUS
 62
     7
 10
173.4368
 20
-179.103
 40
0.51999
 50
45.0
 51
135.0
  0
ARC
  8
0
  6
CONTINUOUS
 62
     7
 10
173.4368
 20
-176.8969
 40
0.51999
 50
225.0
 51
315.0
  0
ARC
  8
0
  6
CONTINUOUS
 62
     7
 10
174.5399
 20
-178.0
 40
0.51999
 50
135.0
 51
225.0
  0
CIRCLE
  8
0
  6
CONTINUOUS
 62
     7
 10
175.4368
 20
-152.5
 40
0.85
  0
CIRCLE
  8
0
  6
CONTINUOUS
 62
     7
 10
180.4368
 20
-152.5
 40
0.85
  0
ARC
  8
0
  6
CONTINUOUS
 62
     7
 10
177.9368
 20
-154.875
 40
0.49999
 50
45.0
 51
315.0
  0
ARC
  8
0
  6
CONTINUOUS
 62
     7
 10
170.9368
 20
-180.5
 40
0.5
 50
180.0
 51
270.0
  0
ARC
  8
0
  6
CONTINUOUS
 62
     7
 10
184.9368
 20
-180.5
 40
0.5
 50
270.0
 51
0.0
  0
ARC
  8
0
  6
CONTINUOUS
 62
     7
 10
171.7368
 20
-147.7999
 40
0.8
 50
89.99999
 51
180.0
  0
ARC
  8
0
  6
CONTINUOUS
 62
     7
 10
184.1368
 20
-147.7999
 40
0.8
 50
0.0
 51
89.99999
  0
ARC
  8
0
  6
CONTINUOUS
 62
     7
 10
172.9368
 20
-149.0
 40
0.5
 50
89.99999
 51
180.0
  0
ARC
  8
0
  6
CONTINUOUS
 62
     7
 10
182.9368
 20
-149.0
 40
0.5
 50
0.0
 51
89.99999
  0
TEXT
  8
0
  6
CONTINUOUS
 62
     7
 10
-350.9787
 20
200.5946
 40
8.5
  1
MODEL : 113-4E2-PSL
 41
0.8
  7
STANDARD
  0
TEXT
  8
0
  6
CONTINUOUS
 62
     7
 10
229.0661
 20
236.2625
 40
8.5
  1
DATE : NOV ,1989
 41
0.8
  7
STANDARD
  0
TEXT
  8
0
  6
CONTINUOUS
 62
     7
 10
-370.6519
 20
235.5575
 40
10.0
  1
110 CONNECTOR PSL
 41
0.73013
  7
STANDARD
  0
TEXT
  8
0
  6
CONTINUOUS
 62
     7
 10
19.88928
 20
200.5946
 40
8.5
  1
MODEL : A113-4E2-PSL
 41
0.8
  7
STANDARD
  0
TEXT
  8
0
  6
CONTINUOUS
 62
     7
 10
-323.4375
 20
-4.0816
 40
2.0
  1
R1
 41
0.8
  7
STANDARD
  0
TEXT
  8
0
  6
CONTINUOUS
 62
     7
 10
-320.7473
 20
-13.14355
 40
2.0
  1
P
 41
0.8
  7
STANDARD
  0
TEXT
  8
0
  6
CONTINUOUS
 62
     7
 10
-313.3844
 20
-15.8338
 40
2.0
  1
R2
 41
0.8
  7
STANDARD
  0
TEXT
  8
0
  6
CONTINUOUS
 62
     7
 10
-46.90065
 20
-1.29989
 40
2.0
  1
A
 41
0.8
  7
STANDARD
  0
TEXT
  8
0
  6
CONTINUOUS
 62
     7
 10
-57.30775
 20
-18.31463
 40
2.0
  1
B
 41
0.8
  7
STANDARD
  0
ENDSEC
  0
EOF
