  0
SECTION
  2
HEADER
  9
$ACADVER
  1
AC1002
  9
$INSBASE
 10
0.0
 20
0.0
  9
$EXTMIN
 10
-370.8736
 20
-254.5585
  9
$EXTMAX
 10
370.8736
 20
254.5585
  9
$LIMMIN
 10
0.0
 20
0.0
  9
$LIMMAX
 10
12.0
 20
9.0
  9
$VIEWCTR
 10
28.6093211
 20
0.0
  9
$VIEWSIZE
 40
509.117
  9
$SNAPMODE
 70
     0
  9
$SNAPUNIT
 10
1.0
 20
1.0
  9
$SNAPBASE
 10
0.0
 20
0.0
  9
$SNAPANG
 50
0.0
  9
$SNAPSTYLE
 70
     0
  9
$SNAPISOPAIR
 70
     0
  9
$GRIDMODE
 70
     0
  9
$GRIDUNIT
 10
0.0
 20
0.0
  9
$ORTHOMODE
 70
     0
  9
$REGENMODE
 70
     1
  9
$FILLMODE
 70
     1
  9
$QTEXTMODE
 70
     0
  9
$DRAGMODE
 70
     2
  9
$LTSCALE
 40
1.0
  9
$OSMODE
 70
     0
  9
$ATTMODE
 70
     1
  9
$TEXTSIZE
 40
0.2
  9
$TRACEWID
 40
0.05
  9
$TEXTSTYLE
  7
AAA
  9
$CLAYER
  8
0
  9
$CELTYPE
  6
BYLAYER
  9
$CECOLOR
 62
   256
  9
$DIMSCALE
 40
1.0
  9
$DIMASZ
 40
0.18
  9
$DIMEXO
 40
0.0625
  9
$DIMDLI
 40
0.38
  9
$DIMRND
 40
0.0
  9
$DIMDLE
 40
0.0
  9
$DIMEXE
 40
0.18
  9
$DIMTP
 40
0.0
  9
$DIMTM
 40
0.0
  9
$DIMTXT
 40
0.18
  9
$DIMCEN
 40
0.09
  9
$DIMTSZ
 40
0.0
  9
$DIMTOL
 70
     0
  9
$DIMLIM
 70
     0
  9
$DIMTIH
 70
     1
  9
$DIMTOH
 70
     1
  9
$DIMSE1
 70
     0
  9
$DIMSE2
 70
     0
  9
$DIMTAD
 70
     0
  9
$DIMZIN
 70
     0
  9
$DIMBLK
  1

  9
$LUNITS
 70
     2
  9
$LUPREC
 70
     4
  9
$AXISMODE
 70
     0
  9
$AXISUNIT
 10
0.0
 20
0.0
  9
$SKETCHINC
 40
0.1
  9
$FILLETRAD
 40
0.0
  9
$AUNITS
 70
     0
  9
$AUPREC
 70
     0
  9
$MENU
  1
ACAD
  9
$ELEVATION
 40
0.0
  9
$THICKNESS
 40
0.0
  9
$VIEWDIR
 10
0.0
 20
0.0
 30
1.0
  9
$LIMCHECK
 70
     0
  9
$BLIPMODE
 70
     1
  9
$CHAMFERA
 40
0.0
  9
$CHAMFERB
 40
0.0
  9
$FASTZOOM
 70
     1
  9
$SKPOLY
 70
     0
  9
$TDCREATE
 40
2447866.7073611606
  9
$TDUPDATE
 40
2447866.7073611606
  9
$TDINDWG
 40
0.0008101852
  9
$TDUSRTIMER
 40
0.0008101852
  9
$USRTIMER
 70
     1
  9
$ANGBASE
 50
0.0
  9
$ANGDIR
 70
     0
  9
$PDMODE
 70
     0
  9
$PDSIZE
 40
0.0
  9
$PLINEWID
 40
0.0
  9
$COORDS
 70
     0
  9
$USERI1
 70
     0
  9
$USERI2
 70
     0
  9
$USERI3
 70
     0
  9
$USERI4
 70
     0
  9
$USERI5
 70
     0
  9
$USERR1
 40
0.0
  9
$USERR2
 40
0.0
  9
$USERR3
 40
0.0
  9
$USERR4
 40
0.0
  9
$USERR5
 40
0.0
  0
ENDSEC
  0
SECTION
  2
TABLES
  0
TABLE
  2
LTYPE
 70
     3
  0
LTYPE
  2
CONTINUOUS
 70
    64
  3
SOLID
 72
    65
 73
     0
 40
0.0
  0
LTYPE
  2
CENTER
 70
    64
  3
CENTER
 72
    65
 73
     4
 40
2.0
 49
1.25
 49
-0.25
 49
0.25
 49
-0.25
  0
LTYPE
  2
PHANTOM
 70
    64
  3
PHANTOM
 72
    65
 73
     6
 40
2.5
 49
1.25
 49
-0.25
 49
0.25
 49
-0.25
 49
0.25
 49
-0.25
  0
ENDTAB
  0
TABLE
  2
LAYER
 70
     1
  0
LAYER
  2
0
 70
    64
 62
     7
  6
CONTINUOUS
  0
ENDTAB
  0
TABLE
  2
STYLE
 70
     2
  0
STYLE
  2
AAA
 70
     0
 40
0.0
 41
1.0
 50
0.0
 71
     0
 42
0.2
  3
TXT
  4

  0
STYLE
  2
STANDARD
 70
    64
 40
0.0
 41
1.0
 50
0.0
 71
     0
 42
0.2
  3
TXT
  4
BIGFONT
  0
ENDTAB
  0
TABLE
  2
VIEW
 70
     0
  0
ENDTAB
  0
ENDSEC
  0
SECTION
  2
BLOCKS
  0
ENDSEC
  0
SECTION
  2
ENTITIES
  0
POINT
  8
0
  6
CONTINUOUS
 62
     7
 10
-130.1362
 20
162.9607
  0
POINT
  8
0
  6
CONTINUOUS
 62
     7
 10
-114.1362
 20
162.9607
  0
POINT
  8
0
  6
CONTINUOUS
 62
     7
 10
-98.13618
 20
162.9607
  0
POINT
  8
0
  6
CONTINUOUS
 62
     7
 10
-82.13618
 20
162.9607
  0
POINT
  8
0
  6
CONTINUOUS
 62
     7
 10
-137.1362
 20
188.9607
  0
POINT
  8
0
  6
CONTINUOUS
 62
     7
 10
-44.63618
 20
188.9607
  0
POINT
  8
0
  6
CONTINUOUS
 62
     7
 10
-66.13618
 20
162.9607
  0
POINT
  8
0
  6
CONTINUOUS
 62
     7
 10
-53.13618
 20
162.9607
  0
POINT
  8
0
  6
CONTINUOUS
 62
     7
 10
-130.1362
 20
-10.58407
  0
POINT
  8
0
  6
CONTINUOUS
 62
     7
 10
-114.1362
 20
-10.58407
  0
POINT
  8
0
  6
CONTINUOUS
 62
     7
 10
-137.1362
 20
-27.58407
  0
POINT
  8
0
  6
CONTINUOUS
 62
     7
 10
-98.13618
 20
-10.58407
  0
POINT
  8
0
  6
CONTINUOUS
 62
     7
 10
-82.13618
 20
-10.58407
  0
POINT
  8
0
  6
CONTINUOUS
 62
     7
 10
-44.63618
 20
-27.58407
  0
POINT
  8
0
  6
CONTINUOUS
 62
     7
 10
-66.13618
 20
-10.58407
  0
POINT
  8
0
  6
CONTINUOUS
 62
     7
 10
-53.13618
 20
-10.58407
  0
POINT
  8
0
  6
CONTINUOUS
 62
     7
 10
-130.1362
 20
-173.1288
  0
POINT
  8
0
  6
CONTINUOUS
 62
     7
 10
-114.1362
 20
-173.1288
  0
POINT
  8
0
  6
CONTINUOUS
 62
     7
 10
-98.13618
 20
-173.1288
  0
POINT
  8
0
  6
CONTINUOUS
 62
     7
 10
-82.13618
 20
-173.1288
  0
POINT
  8
0
  6
CONTINUOUS
 62
     7
 10
-137.1362
 20
-199.1288
  0
POINT
  8
0
  6
CONTINUOUS
 62
     7
 10
-44.63618
 20
-199.1288
  0
POINT
  8
0
  6
CONTINUOUS
 62
     7
 10
-66.13618
 20
-173.1288
  0
POINT
  8
0
  6
CONTINUOUS
 62
     7
 10
-53.13618
 20
-173.1288
  0
POINT
  8
0
  6
CONTINUOUS
 62
     7
 10
170.0226
 20
-27.58407
  0
POINT
  8
0
  6
CONTINUOUS
 62
     7
 10
161.6226
 20
-3.58407
  0
POINT
  8
0
  6
CONTINUOUS
 62
     7
 10
158.0226
 20
-19.58407
  0
POINT
  8
0
  6
CONTINUOUS
 62
     7
 10
161.6226
 20
-35.58407
  0
POINT
  8
0
  6
CONTINUOUS
 62
     7
 10
144.0226
 20
-10.58407
  0
LINE
  8
0
  6
CONTINUOUS
 62
     7
 10
218.3292
 20
-225.9564
 11
370.8736
 21
-225.9564
  0
LINE
  8
0
  6
CONTINUOUS
 62
     7
 10
-218.3292
 20
225.9564
 11
-218.3292
 21
254.5585
  0
LINE
  8
0
  6
CONTINUOUS
 62
     7
 10
-370.8736
 20
225.9564
 11
-218.3292
 21
225.9564
  0
LINE
  8
0
  6
CONTINUOUS
 62
     7
 10
-370.8736
 20
254.5585
 11
370.8736
 21
254.5585
  0
LINE
  8
0
  6
CONTINUOUS
 62
     7
 10
-370.8736
 20
-254.5585
 11
370.8736
 21
-254.5585
  0
LINE
  8
0
  6
CONTINUOUS
 62
     7
 10
370.8736
 20
254.5585
 11
370.8736
 21
-254.5585
  0
LINE
  8
0
  6
CONTINUOUS
 62
     7
 10
-370.8736
 20
-254.5585
 11
-370.8736
 21
254.5585
  0
LINE
  8
0
  6
CONTINUOUS
 62
     7
 10
218.3292
 20
-225.9564
 11
218.3292
 21
-254.5585
  0
LINE
  8
0
  6
CONTINUOUS
 62
     7
 10
218.3292
 20
254.5585
 11
218.3292
 21
225.9564
  0
LINE
  8
0
  6
CONTINUOUS
 62
     7
 10
218.3292
 20
225.9564
 11
370.8736
 21
225.9564
  0
LINE
  8
0
  6
CONTINUOUS
 62
     7
 10
258.3816
 20
-232.8337
 11
258.3816
 21
-236.1516
  0
LINE
  8
0
  6
CONTINUOUS
 62
     7
 10
258.3816
 20
-236.1516
 11
270.8235
 21
-236.1516
  0
LINE
  8
0
  6
CONTINUOUS
 62
     7
 10
258.3816
 20
-249.1465
 11
275.2473
 21
-249.1465
  0
LINE
  8
0
  6
CONTINUOUS
 62
     7
 10
258.3816
 20
-245.8286
 11
270.8235
 21
-245.8286
  0
LINE
  8
0
  6
CONTINUOUS
 62
     7
 10
258.3816
 20
-232.8337
 11
273.0354
 21
-232.8337
  0
LINE
  8
0
  6
CONTINUOUS
 62
     7
 10
270.8235
 20
-236.1516
 11
270.8235
 21
-245.8286
  0
LINE
  8
0
  6
CONTINUOUS
 62
     7
 10
275.2473
 20
-235.0457
 11
275.2473
 21
-249.1465
  0
LINE
  8
0
  6
CONTINUOUS
 62
     7
 10
258.3816
 20
-245.8286
 11
258.3816
 21
-249.1465
  0
LINE
  8
0
  6
CONTINUOUS
 62
     7
 10
293.4954
 20
-236.1516
 11
293.4954
 21
-246.9346
  0
LINE
  8
0
  6
CONTINUOUS
 62
     7
 10
277.7357
 20
-232.8337
 11
277.7357
 21
-236.1516
  0
LINE
  8
0
  6
CONTINUOUS
 62
     7
 10
293.9378
 20
-232.585
 11
295.5138
 21
-232.585
  0
LINE
  8
0
  6
CONTINUOUS
 62
     7
 10
293.9378
 20
-230.373
 11
295.5138
 21
-230.373
  0
LINE
  8
0
  6
CONTINUOUS
 62
     7
 10
295.5138
 20
-230.373
 11
295.5138
 21
-232.585
  0
LINE
  8
0
  6
CONTINUOUS
 62
     7
 10
293.9378
 20
-230.373
 11
293.9378
 21
-232.585
  0
LINE
  8
0
  6
CONTINUOUS
 62
     7
 10
293.1083
 20
-230.373
 11
293.1083
 21
-232.585
  0
LINE
  8
0
  6
CONTINUOUS
 62
     7
 10
282.7661
 20
-230.373
 11
286.2009
 21
-230.373
  0
LINE
  8
0
  6
CONTINUOUS
 62
     7
 10
285.5413
 20
-232.8335
 11
286.2006
 21
-230.3727
  0
LINE
  8
0
  6
CONTINUOUS
 62
     7
 10
282.1067
 20
-232.8337
 11
282.766
 21
-230.373
  0
LINE
  8
0
  6
CONTINUOUS
 62
     7
 10
285.5416
 20
-232.8337
 11
290.1776
 21
-232.8337
  0
LINE
  8
0
  6
CONTINUOUS
 62
     7
 10
284.6526
 20
-236.1516
 11
289.0716
 21
-236.1516
  0
LINE
  8
0
  6
CONTINUOUS
 62
     7
 10
286.6429
 20
-249.1465
 11
291.2836
 21
-249.1465
  0
LINE
  8
0
  6
CONTINUOUS
 62
     7
 10
285.7537
 20
-245.8286
 11
286.6427
 21
-249.1463
  0
LINE
  8
0
  6
CONTINUOUS
 62
     7
 10
285.7538
 20
-245.8286
 11
289.0716
 21
-245.8286
  0
LINE
  8
0
  6
CONTINUOUS
 62
     7
 10
281.1707
 20
-249.1466
 11
284.6527
 21
-236.1517
  0
LINE
  8
0
  6
CONTINUOUS
 62
     7
 10
277.7357
 20
-236.1516
 11
281.2177
 21
-236.1516
  0
LINE
  8
0
  6
CONTINUOUS
 62
     7
 10
277.7354
 20
-249.1462
 11
281.2175
 21
-236.1513
  0
LINE
  8
0
  6
CONTINUOUS
 62
     7
 10
277.7357
 20
-249.1465
 11
281.1706
 21
-249.1465
  0
LINE
  8
0
  6
CONTINUOUS
 62
     7
 10
277.7357
 20
-232.8337
 11
282.1067
 21
-232.8337
  0
LINE
  8
0
  6
CONTINUOUS
 62
     7
 10
289.0716
 20
-236.1516
 11
289.0716
 21
-245.8286
  0
LINE
  8
0
  6
CONTINUOUS
 62
     7
 10
291.5323
 20
-230.373
 11
293.1083
 21
-230.373
  0
LINE
  8
0
  6
CONTINUOUS
 62
     7
 10
291.5323
 20
-232.585
 11
293.1083
 21
-232.585
  0
LINE
  8
0
  6
CONTINUOUS
 62
     7
 10
291.5323
 20
-230.373
 11
291.5323
 21
-232.585
  0
LINE
  8
0
  6
CONTINUOUS
 62
     7
 10
301.5135
 20
-230.373
 11
305.9373
 21
-230.373
  0
LINE
  8
0
  6
CONTINUOUS
 62
     7
 10
308.3423
 20
-240.1951
 11
311.2962
 21
-238.8176
  0
LINE
  8
0
  6
CONTINUOUS
 62
     7
 10
305.9373
 20
-242.7344
 11
305.9373
 21
-249.1465
  0
LINE
  8
0
  6
CONTINUOUS
 62
     7
 10
301.5135
 20
-243.379
 11
301.5135
 21
-249.1465
  0
LINE
  8
0
  6
CONTINUOUS
 62
     7
 10
305.9373
 20
-232.8337
 11
310.3611
 21
-232.8337
  0
LINE
  8
0
  6
CONTINUOUS
 62
     7
 10
305.9373
 20
-230.373
 11
305.9373
 21
-232.8337
  0
LINE
  8
0
  6
CONTINUOUS
 62
     7
 10
301.5135
 20
-230.373
 11
301.5135
 21
-232.8337
  0
LINE
  8
0
  6
CONTINUOUS
 62
     7
 10
312.573
 20
-235.0457
 11
312.573
 21
-236.8128
  0
LINE
  8
0
  6
CONTINUOUS
 62
     7
 10
308.3424
 20
-240.195
 11
312.5734
 21
-242.168
  0
LINE
  8
0
  6
CONTINUOUS
 62
     7
 10
305.9373
 20
-242.7343
 11
312.5731
 21
-245.8286
  0
LINE
  8
0
  6
CONTINUOUS
 62
     7
 10
296.2603
 20
-242.1678
 11
296.2603
 21
-245.8286
  0
LINE
  8
0
  6
CONTINUOUS
 62
     7
 10
296.2607
 20
-242.1682
 11
309.1626
 21
-236.1519
  0
LINE
  8
0
  6
CONTINUOUS
 62
     7
 10
296.2603
 20
-245.8286
 11
301.5136
 21
-243.3789
  0
LINE
  8
0
  6
CONTINUOUS
 62
     7
 10
312.573
 20
-242.1678
 11
312.573
 21
-245.8286
  0
LINE
  8
0
  6
CONTINUOUS
 62
     7
 10
296.2603
 20
-232.8337
 11
296.2603
 21
-236.1516
  0
LINE
  8
0
  6
CONTINUOUS
 62
     7
 10
301.5135
 20
-249.1465
 11
305.9373
 21
-249.1465
  0
LINE
  8
0
  6
CONTINUOUS
 62
     7
 10
296.2603
 20
-236.1516
 11
309.1621
 21
-236.1516
  0
LINE
  8
0
  6
CONTINUOUS
 62
     7
 10
296.2603
 20
-232.8337
 11
301.5135
 21
-232.8337
  0
LINE
  8
0
  6
CONTINUOUS
 62
     7
 10
327.504
 20
-236.4047
 11
328.73
 21
-235.9171
  0
LINE
  8
0
  6
CONTINUOUS
 62
     7
 10
327.5034
 20
-236.4044
 11
327.5034
 21
-249.1465
  0
LINE
  8
0
  6
CONTINUOUS
 62
     7
 10
323.0795
 20
-249.1465
 11
327.5034
 21
-249.1465
  0
LINE
  8
0
  6
CONTINUOUS
 62
     7
 10
313.9553
 20
-241.7925
 11
323.0794
 21
-238.1637
  0
LINE
  8
0
  6
CONTINUOUS
 62
     7
 10
313.9555
 20
-238.222
 11
326.8062
 21
-233.1111
  0
LINE
  8
0
  6
CONTINUOUS
 62
     7
 10
323.0795
 20
-238.1638
 11
323.0795
 21
-249.1465
  0
LINE
  8
0
  6
CONTINUOUS
 62
     7
 10
327.5034
 20
-231.3684
 11
327.5034
 21
-232.0834
  0
LINE
  8
0
  6
CONTINUOUS
 62
     7
 10
330.8211
 20
-231.3684
 11
330.8211
 21
-232.8338
  0
LINE
  8
0
  6
CONTINUOUS
 62
     7
 10
313.9554
 20
-238.2219
 11
313.9554
 21
-241.7925
  0
LINE
  8
0
  6
CONTINUOUS
 62
     7
 10
327.5034
 20
-231.3684
 11
330.8211
 21
-231.3684
  0
LINE
  8
0
  6
CONTINUOUS
 62
     2
 10
-137.1362
 20
-7.94942
 11
-137.1362
 21
61.00784
  0
LINE
  8
0
  6
CONTINUOUS
 62
     2
 10
-48.13618
 20
-7.94942
 11
-48.13618
 21
61.00784
  0
LINE
  8
0
  6
CONTINUOUS
 62
     2
 10
-137.1362
 20
60.00784
 11
-48.13618
 21
60.00784
  0
LINE
  8
0
  6
CONTINUOUS
 62
     2
 10
-140.6362
 20
77.97856
 11
-135.6362
 21
79.31831
  0
LINE
  8
0
  6
CONTINUOUS
 62
     7
 10
-274.30944069
 20
-241.7805
 11
-269.30944069
 21
-240.4408
  0
LINE
  8
0
  6
CONTINUOUS
 62
     7
 10
-274.30944069
 20
-239.1011
 11
-269.30944069
 21
-240.4408
  0
LINE
  8
0
  6
CONTINUOUS
 62
     2
 10
-140.6362
 20
77.97857
 11
-135.6362
 21
76.63882
  0
LINE
  8
0
  6
CONTINUOUS
 62
     2
 10
-140.6362
 20
10.41592
 11
-140.6362
 21
78.97857
  0
LINE
  8
0
  6
CONTINUOUS
 62
     2
 10
-44.63618
 20
10.41592
 11
-44.63618
 21
78.97857
  0
LINE
  8
0
  6
CONTINUOUS
 62
     2
 10
-53.13618
 20
61.34758
 11
-48.13618
 21
60.00784
  0
LINE
  8
0
  6
CONTINUOUS
 62
     2
 10
-53.13618
 20
58.66809
 11
-48.13618
 21
60.00784
  0
LINE
  8
0
  6
CONTINUOUS
 62
     2
 10
-137.1362
 20
60.00784
 11
-132.1362
 21
61.34758
  0
LINE
  8
0
  6
CONTINUOUS
 62
     2
 10
-137.1362
 20
60.00784
 11
-132.1362
 21
58.66809
  0
LINE
  8
0
  6
CONTINUOUS
 62
     7
 10
-291.33564069
 20
-240.4408
 11
-269.30944069
 21
-240.4408
  0
LINE
  8
0
  6
PHANTOM
 62
     2
 10
-132.1362
 20
37.61591
 11
-132.1362
 21
-40.58407
  0
LINE
  8
0
  6
PHANTOM
 62
     2
 10
-132.1362
 20
36.61593
 11
-117.1362
 21
36.61593
  0
LINE
  8
0
  6
PHANTOM
 62
     2
 10
-117.1362
 20
37.61591
 11
-117.1362
 21
-40.58407
  0
LINE
  8
0
  6
PHANTOM
 62
     2
 10
-132.1362
 20
11.41593
 11
-117.1362
 21
11.41593
  0
LINE
  8
0
  6
PHANTOM
 62
     2
 10
-132.1362
 20
37.61591
 11
-117.1362
 21
37.61591
  0
LINE
  8
0
  6
PHANTOM
 62
     2
 10
-117.1362
 20
37.61592
 11
-118.1362
 21
39.61592
  0
LINE
  8
0
  6
PHANTOM
 62
     2
 10
-132.1362
 20
37.61593
 11
-131.1362
 21
39.61593
  0
LINE
  8
0
  6
PHANTOM
 62
     2
 10
-131.1362
 20
39.61593
 11
-118.1362
 21
39.61593
  0
LINE
  8
0
  6
CENTER
 62
     2
 10
-125.9362
 20
32.41593
 11
-125.9362
 21
26.41593
  0
LINE
  8
0
  6
CENTER
 62
     2
 10
-123.3362
 20
32.41593
 11
-123.3362
 21
26.41593
  0
LINE
  8
0
  6
CENTER
 62
     2
 10
-128.6362
 20
29.41593
 11
-120.6362
 21
29.41593
  0
LINE
  8
0
  6
PHANTOM
 62
     2
 10
-132.1362
 20
-5.58407
 11
-117.1362
 21
-5.58407
  0
LINE
  8
0
  6
CENTER
 62
     2
 10
-124.6362
 20
41.61593
 11
-124.6362
 21
-43.0826
  0
LINE
  8
0
  6
PHANTOM
 62
     2
 10
-132.1362
 20
-33.58407
 11
-117.1362
 21
-33.58407
  0
LINE
  8
0
  6
PHANTOM
 62
     2
 10
-131.6362
 20
-41.08407
 11
-117.6362
 21
-41.08407
  0
LINE
  8
0
  6
PHANTOM
 62
     2
 10
-125.9362
 20
27.71593
 11
-123.3362
 21
27.71593
  0
LINE
  8
0
  6
PHANTOM
 62
     2
 10
-125.9362
 20
31.11593
 11
-123.3362
 21
31.11593
  0
LINE
  8
0
  6
CENTER
 62
     2
 10
-76.63618
 20
126.1465
 11
-76.63618
 21
164.9607
  0
LINE
  8
0
  6
CENTER
 62
     2
 10
-77.93617
 20
113.9607
 11
-77.93617
 21
141.9607
  0
LINE
  8
0
  6
PHANTOM
 62
     2
 10
-77.0862
 20
126.9607
 11
-77.0862
 21
131.3048
  0
LINE
  8
0
  6
PHANTOM
 62
     2
 10
-78.78618
 20
126.9607
 11
-78.78618
 21
131.7603
  0
LINE
  8
0
  6
PHANTOM
 62
     2
 10
-77.6162
 20
116.9607
 11
-77.6162
 21
126.9607
  0
LINE
  8
0
  6
PHANTOM
 62
     2
 10
-78.25618
 20
116.9607
 11
-78.25618
 21
126.9607
  0
LINE
  8
0
  6
PHANTOM
 62
     2
 10
-78.78618
 20
126.9607
 11
-77.08617
 21
126.9607
  0
LINE
  8
0
  6
PHANTOM
 62
     2
 10
-78.25618
 20
116.9607
 11
-77.61617
 21
116.9607
  0
LINE
  8
0
  6
CENTER
 62
     2
 10
-75.3362
 20
114.0697
 11
-75.3362
 21
141.9607
  0
LINE
  8
0
  6
PHANTOM
 62
     2
 10
-74.48619
 20
126.9607
 11
-74.48619
 21
130.6081
  0
LINE
  8
0
  6
PHANTOM
 62
     2
 10
-76.18619
 20
126.9607
 11
-76.18619
 21
131.0636
  0
LINE
  8
0
  6
PHANTOM
 62
     2
 10
-75.01619
 20
116.9607
 11
-75.01619
 21
126.9607
  0
LINE
  8
0
  6
PHANTOM
 62
     2
 10
-75.65619
 20
116.9607
 11
-75.65619
 21
126.9607
  0
LINE
  8
0
  6
PHANTOM
 62
     2
 10
-76.18617
 20
126.9607
 11
-74.48619
 21
126.9607
  0
LINE
  8
0
  6
PHANTOM
 62
     2
 10
-75.65617
 20
116.9607
 11
-75.01617
 21
116.9607
  0
LINE
  8
0
  6
PHANTOM
 62
     2
 10
-72.48621
 20
131.625
 11
-80.78619
 21
133.849
  0
LINE
  8
0
  6
PHANTOM
 62
     2
 10
-72.48618
 20
130.0722
 11
-80.78616
 21
132.2962
  0
LINE
  8
0
  6
PHANTOM
 62
     2
 10
-74.48619
 20
132.161
 11
-74.48619
 21
136.9607
  0
LINE
  8
0
  6
PHANTOM
 62
     2
 10
-76.18619
 20
132.6165
 11
-76.18619
 21
136.9607
  0
LINE
  8
0
  6
PHANTOM
 62
     2
 10
-77.0862
 20
132.8577
 11
-77.0862
 21
136.9607
  0
LINE
  8
0
  6
PHANTOM
 62
     2
 10
-78.78618
 20
133.3132
 11
-78.78618
 21
136.9607
  0
LINE
  8
0
  6
PHANTOM
 62
     2
 10
-73.66023
 20
138.9449
 11
-73.66023
 21
137.4449
  0
LINE
  8
0
  6
PHANTOM
 62
     2
 10
-74.16023
 20
136.9449
 11
-79.16023
 21
136.9449
  0
LINE
  8
0
  6
PHANTOM
 62
     2
 10
-79.66023
 20
138.9449
 11
-79.66023
 21
137.4449
  0
LINE
  8
0
  6
CENTER
 62
     2
 10
-86.58453
 20
150.9607
 11
-66.6484
 21
150.9607
  0
LINE
  8
0
  6
PHANTOM
 62
     2
 10
-70.13618
 20
161.9607
 11
-83.13618
 21
161.9607
  0
LINE
  8
0
  6
PHANTOM
 62
     2
 10
-70.13618
 20
139.9607
 11
-83.13618
 21
139.9607
  0
LINE
  8
0
  6
PHANTOM
 62
     2
 10
-70.13618
 20
161.9607
 11
-70.13618
 21
139.9607
  0
LINE
  8
0
  6
PHANTOM
 62
     2
 10
-83.13618
 20
161.9607
 11
-83.13618
 21
139.9607
  0
LINE
  8
0
  6
PHANTOM
 62
     2
 10
-69.63618
 20
162.9607
 11
-83.63618
 21
162.9607
  0
LINE
  8
0
  6
PHANTOM
 62
     2
 10
-69.13618
 20
162.4607
 11
-69.13618
 21
138.9607
  0
LINE
  8
0
  6
PHANTOM
 62
     2
 10
-84.13618
 20
162.4607
 11
-84.13618
 21
138.9607
  0
LINE
  8
0
  6
PHANTOM
 62
     2
 10
-69.13618
 20
138.9607
 11
-84.13618
 21
138.9607
  0
LINE
  8
0
  6
CENTER
 62
     2
 10
-133.6362
 20
-161.1288
 11
-115.9765
 21
-161.1288
  0
LINE
  8
0
  6
CENTER
 62
     2
 10
-124.6362
 20
-136.3147
 11
-124.6362
 21
-175.1288
  0
LINE
  8
0
  6
PHANTOM
 62
     2
 10
-117.1362
 20
-172.6288
 11
-117.1362
 21
-149.1288
  0
LINE
  8
0
  6
PHANTOM
 62
     2
 10
-132.1362
 20
-172.6288
 11
-132.1362
 21
-149.1288
  0
LINE
  8
0
  6
PHANTOM
 62
     2
 10
-131.6362
 20
-173.1288
 11
-117.6362
 21
-173.1288
  0
LINE
  8
0
  6
PHANTOM
 62
     2
 10
-132.1362
 20
-149.1288
 11
-127.6362
 21
-149.1288
  0
LINE
  8
0
  6
CENTER
 62
     2
 10
-123.3362
 20
-124.1288
 11
-123.3362
 21
-152.1288
  0
LINE
  8
0
  6
PHANTOM
 62
     2
 10
-124.1862
 20
-137.1288
 11
-124.1862
 21
-141.4729
  0
LINE
  8
0
  6
PHANTOM
 62
     2
 10
-122.4862
 20
-137.1288
 11
-122.4862
 21
-141.9285
  0
LINE
  8
0
  6
PHANTOM
 62
     2
 10
-123.6562
 20
-127.1288
 11
-123.6562
 21
-137.1288
  0
LINE
  8
0
  6
PHANTOM
 62
     2
 10
-123.0162
 20
-127.1288
 11
-123.0162
 21
-137.1288
  0
LINE
  8
0
  6
PHANTOM
 62
     2
 10
-122.4862
 20
-137.1288
 11
-124.1862
 21
-137.1288
  0
LINE
  8
0
  6
PHANTOM
 62
     2
 10
-123.0162
 20
-127.1288
 11
-123.6562
 21
-127.1288
  0
LINE
  8
0
  6
CENTER
 62
     2
 10
-125.9362
 20
-124.1288
 11
-125.9362
 21
-152.1288
  0
LINE
  8
0
  6
PHANTOM
 62
     2
 10
-126.7862
 20
-137.1288
 11
-126.7862
 21
-140.7763
  0
LINE
  8
0
  6
PHANTOM
 62
     2
 10
-125.0862
 20
-137.1288
 11
-125.0862
 21
-141.2318
  0
LINE
  8
0
  6
PHANTOM
 62
     2
 10
-126.2562
 20
-127.1288
 11
-126.2562
 21
-137.1288
  0
LINE
  8
0
  6
PHANTOM
 62
     2
 10
-125.6162
 20
-127.1288
 11
-125.6162
 21
-137.1288
  0
LINE
  8
0
  6
PHANTOM
 62
     2
 10
-125.0862
 20
-137.1288
 11
-126.7862
 21
-137.1288
  0
LINE
  8
0
  6
PHANTOM
 62
     2
 10
-125.6162
 20
-127.1288
 11
-126.2562
 21
-127.1288
  0
LINE
  8
0
  6
PHANTOM
 62
     2
 10
-128.7862
 20
-141.7933
 11
-120.4862
 21
-144.0173
  0
LINE
  8
0
  6
PHANTOM
 62
     2
 10
-128.7862
 20
-140.2404
 11
-120.4862
 21
-142.4644
  0
LINE
  8
0
  6
PHANTOM
 62
     2
 10
-126.7862
 20
-142.3292
 11
-126.7862
 21
-147.1288
  0
LINE
  8
0
  6
PHANTOM
 62
     2
 10
-125.0862
 20
-142.7847
 11
-125.0862
 21
-147.1288
  0
LINE
  8
0
  6
PHANTOM
 62
     2
 10
-124.1862
 20
-143.0258
 11
-124.1862
 21
-147.1288
  0
LINE
  8
0
  6
PHANTOM
 62
     2
 10
-122.4862
 20
-143.4814
 11
-122.4862
 21
-147.1288
  0
LINE
  8
0
  6
PHANTOM
 62
     2
 10
-121.6362
 20
-149.1288
 11
-117.1362
 21
-149.1288
  0
LINE
  8
0
  6
PHANTOM
 62
     2
 10
-127.6362
 20
-149.1288
 11
-121.6362
 21
-149.1288
  0
LINE
  8
0
  6
PHANTOM
 62
     2
 10
-127.6362
 20
-149.1288
 11
-127.6362
 21
-147.6288
  0
LINE
  8
0
  6
PHANTOM
 62
     2
 10
-127.1362
 20
-147.1288
 11
-122.1362
 21
-147.1288
  0
LINE
  8
0
  6
PHANTOM
 62
     2
 10
-121.6362
 20
-149.1288
 11
-121.6362
 21
-147.6288
  0
LINE
  8
0
  6
CENTER
 62
     2
 10
-124.6362
 20
126.1465
 11
-124.6362
 21
164.9607
  0
LINE
  8
0
  6
CENTER
 62
     2
 10
-125.9362
 20
113.9607
 11
-125.9362
 21
141.9607
  0
LINE
  8
0
  6
PHANTOM
 62
     2
 10
-125.0862
 20
126.9607
 11
-125.0862
 21
131.3048
  0
LINE
  8
0
  6
PHANTOM
 62
     2
 10
-126.7862
 20
126.9607
 11
-126.7862
 21
131.7603
  0
LINE
  8
0
  6
PHANTOM
 62
     2
 10
-125.6162
 20
116.9607
 11
-125.6162
 21
126.9607
  0
LINE
  8
0
  6
PHANTOM
 62
     2
 10
-126.2562
 20
116.9607
 11
-126.2562
 21
126.9607
  0
LINE
  8
0
  6
PHANTOM
 62
     2
 10
-126.7862
 20
126.9607
 11
-125.0862
 21
126.9607
  0
LINE
  8
0
  6
PHANTOM
 62
     2
 10
-126.2562
 20
116.9607
 11
-125.6162
 21
116.9607
  0
LINE
  8
0
  6
CENTER
 62
     2
 10
-123.3362
 20
114.0697
 11
-123.3362
 21
141.9607
  0
LINE
  8
0
  6
PHANTOM
 62
     2
 10
-122.4862
 20
126.9607
 11
-122.4862
 21
130.6081
  0
LINE
  8
0
  6
PHANTOM
 62
     2
 10
-124.1862
 20
126.9607
 11
-124.1862
 21
131.0636
  0
LINE
  8
0
  6
PHANTOM
 62
     2
 10
-123.0162
 20
116.9607
 11
-123.0162
 21
126.9607
  0
LINE
  8
0
  6
PHANTOM
 62
     2
 10
-123.6562
 20
116.9607
 11
-123.6562
 21
126.9607
  0
LINE
  8
0
  6
PHANTOM
 62
     2
 10
-124.1862
 20
126.9607
 11
-122.4862
 21
126.9607
  0
LINE
  8
0
  6
PHANTOM
 62
     2
 10
-123.6562
 20
116.9607
 11
-123.0162
 21
116.9607
  0
LINE
  8
0
  6
PHANTOM
 62
     2
 10
-120.4862
 20
131.6251
 11
-128.7861
 21
133.8491
  0
LINE
  8
0
  6
PHANTOM
 62
     2
 10
-120.4862
 20
130.0722
 11
-128.7862
 21
132.2962
  0
LINE
  8
0
  6
PHANTOM
 62
     2
 10
-122.4862
 20
132.161
 11
-122.4862
 21
136.9607
  0
LINE
  8
0
  6
PHANTOM
 62
     2
 10
-124.1862
 20
132.6165
 11
-124.1862
 21
136.9607
  0
LINE
  8
0
  6
PHANTOM
 62
     2
 10
-125.0862
 20
132.8577
 11
-125.0862
 21
136.9607
  0
LINE
  8
0
  6
PHANTOM
 62
     2
 10
-126.7862
 20
133.3132
 11
-126.7862
 21
136.9607
  0
LINE
  8
0
  6
PHANTOM
 62
     2
 10
-121.6602
 20
138.9449
 11
-121.6602
 21
137.4449
  0
LINE
  8
0
  6
PHANTOM
 62
     2
 10
-122.1602
 20
136.9449
 11
-127.1602
 21
136.9449
  0
LINE
  8
0
  6
PHANTOM
 62
     2
 10
-127.6602
 20
138.9449
 11
-127.6602
 21
137.4449
  0
LINE
  8
0
  6
CENTER
 62
     2
 10
-134.5845
 20
150.9607
 11
-114.6484
 21
150.9607
  0
LINE
  8
0
  6
PHANTOM
 62
     2
 10
-118.1362
 20
161.9607
 11
-131.1362
 21
161.9607
  0
LINE
  8
0
  6
PHANTOM
 62
     2
 10
-118.1362
 20
139.9607
 11
-131.1362
 21
139.9607
  0
LINE
  8
0
  6
PHANTOM
 62
     2
 10
-118.1362
 20
161.9607
 11
-118.1362
 21
139.9607
  0
LINE
  8
0
  6
PHANTOM
 62
     2
 10
-131.1362
 20
161.9607
 11
-131.1362
 21
139.9607
  0
LINE
  8
0
  6
PHANTOM
 62
     2
 10
-117.6362
 20
162.9607
 11
-131.6362
 21
162.9607
  0
LINE
  8
0
  6
PHANTOM
 62
     2
 10
-117.1362
 20
162.4607
 11
-117.1362
 21
138.9607
  0
LINE
  8
0
  6
PHANTOM
 62
     2
 10
-132.1362
 20
162.4607
 11
-132.1362
 21
138.9607
  0
LINE
  8
0
  6
PHANTOM
 62
     2
 10
-117.1362
 20
138.9607
 11
-132.1362
 21
138.9607
  0
LINE
  8
0
  6
CENTER
 62
     2
 10
-108.6362
 20
126.1465
 11
-108.6362
 21
164.9607
  0
LINE
  8
0
  6
CENTER
 62
     2
 10
-109.9362
 20
113.9607
 11
-109.9362
 21
141.9607
  0
LINE
  8
0
  6
PHANTOM
 62
     2
 10
-109.0862
 20
126.9607
 11
-109.0862
 21
131.3048
  0
LINE
  8
0
  6
PHANTOM
 62
     2
 10
-110.7862
 20
126.9607
 11
-110.7862
 21
131.7603
  0
LINE
  8
0
  6
PHANTOM
 62
     2
 10
-109.6162
 20
116.9607
 11
-109.6162
 21
126.9607
  0
LINE
  8
0
  6
PHANTOM
 62
     2
 10
-110.2562
 20
116.9607
 11
-110.2562
 21
126.9607
  0
LINE
  8
0
  6
PHANTOM
 62
     2
 10
-110.7862
 20
126.9607
 11
-109.0862
 21
126.9607
  0
LINE
  8
0
  6
PHANTOM
 62
     2
 10
-110.2562
 20
116.9607
 11
-109.6162
 21
116.9607
  0
LINE
  8
0
  6
CENTER
 62
     2
 10
-107.3362
 20
114.0697
 11
-107.3362
 21
141.9607
  0
LINE
  8
0
  6
PHANTOM
 62
     2
 10
-106.4862
 20
126.9607
 11
-106.4862
 21
130.6081
  0
LINE
  8
0
  6
PHANTOM
 62
     2
 10
-108.1862
 20
126.9607
 11
-108.1862
 21
131.0636
  0
LINE
  8
0
  6
PHANTOM
 62
     2
 10
-107.0162
 20
116.9607
 11
-107.0162
 21
126.9607
  0
LINE
  8
0
  6
PHANTOM
 62
     2
 10
-107.6562
 20
116.9607
 11
-107.6562
 21
126.9607
  0
LINE
  8
0
  6
PHANTOM
 62
     2
 10
-108.1862
 20
126.9607
 11
-106.4862
 21
126.9607
  0
LINE
  8
0
  6
PHANTOM
 62
     2
 10
-107.6562
 20
116.9607
 11
-107.0162
 21
116.9607
  0
LINE
  8
0
  6
PHANTOM
 62
     2
 10
-104.4862
 20
131.6251
 11
-112.7862
 21
133.849
  0
LINE
  8
0
  6
PHANTOM
 62
     2
 10
-104.4862
 20
130.0722
 11
-112.7862
 21
132.2962
  0
LINE
  8
0
  6
PHANTOM
 62
     2
 10
-106.4862
 20
132.161
 11
-106.4862
 21
136.9607
  0
LINE
  8
0
  6
PHANTOM
 62
     2
 10
-108.1862
 20
132.6165
 11
-108.1862
 21
136.9607
  0
LINE
  8
0
  6
PHANTOM
 62
     2
 10
-109.0862
 20
132.8577
 11
-109.0862
 21
136.9607
  0
LINE
  8
0
  6
PHANTOM
 62
     2
 10
-110.7862
 20
133.3132
 11
-110.7862
 21
136.9607
  0
LINE
  8
0
  6
PHANTOM
 62
     2
 10
-105.6602
 20
138.9449
 11
-105.6602
 21
137.4449
  0
LINE
  8
0
  6
PHANTOM
 62
     2
 10
-106.1602
 20
136.9449
 11
-111.1602
 21
136.9449
  0
LINE
  8
0
  6
PHANTOM
 62
     2
 10
-111.6602
 20
138.9449
 11
-111.6602
 21
137.4449
  0
LINE
  8
0
  6
CENTER
 62
     2
 10
-118.5845
 20
150.9607
 11
-98.6484
 21
150.9607
  0
LINE
  8
0
  6
PHANTOM
 62
     2
 10
-102.1362
 20
161.9607
 11
-115.1362
 21
161.9607
  0
LINE
  8
0
  6
PHANTOM
 62
     2
 10
-102.1362
 20
139.9607
 11
-115.1362
 21
139.9607
  0
LINE
  8
0
  6
PHANTOM
 62
     2
 10
-102.1362
 20
161.9607
 11
-102.1362
 21
139.9607
  0
LINE
  8
0
  6
PHANTOM
 62
     2
 10
-115.1362
 20
161.9607
 11
-115.1362
 21
139.9607
  0
LINE
  8
0
  6
PHANTOM
 62
     2
 10
-101.6362
 20
162.9607
 11
-115.6362
 21
162.9607
  0
LINE
  8
0
  6
PHANTOM
 62
     2
 10
-101.1362
 20
162.4607
 11
-101.1362
 21
138.9607
  0
LINE
  8
0
  6
PHANTOM
 62
     2
 10
-116.1362
 20
162.4607
 11
-116.1362
 21
138.9607
  0
LINE
  8
0
  6
PHANTOM
 62
     2
 10
-101.1362
 20
138.9607
 11
-116.1362
 21
138.9607
  0
LINE
  8
0
  6
CENTER
 62
     2
 10
-92.63618
 20
126.1465
 11
-92.63618
 21
164.9607
  0
LINE
  8
0
  6
CENTER
 62
     2
 10
-93.93617
 20
113.9607
 11
-93.93617
 21
141.9607
  0
LINE
  8
0
  6
PHANTOM
 62
     2
 10
-93.0862
 20
126.9607
 11
-93.0862
 21
131.3048
  0
LINE
  8
0
  6
PHANTOM
 62
     2
 10
-94.78618
 20
126.9607
 11
-94.78618
 21
131.7603
  0
LINE
  8
0
  6
PHANTOM
 62
     2
 10
-93.6162
 20
116.9607
 11
-93.6162
 21
126.9607
  0
LINE
  8
0
  6
PHANTOM
 62
     2
 10
-94.25618
 20
116.9607
 11
-94.25618
 21
126.9607
  0
LINE
  8
0
  6
PHANTOM
 62
     2
 10
-94.78618
 20
126.9607
 11
-93.08617
 21
126.9607
  0
LINE
  8
0
  6
PHANTOM
 62
     2
 10
-94.25618
 20
116.9607
 11
-93.61617
 21
116.9607
  0
LINE
  8
0
  6
CENTER
 62
     2
 10
-91.3362
 20
114.0697
 11
-91.3362
 21
141.9607
  0
LINE
  8
0
  6
PHANTOM
 62
     2
 10
-90.48619
 20
126.9607
 11
-90.48619
 21
130.6081
  0
LINE
  8
0
  6
PHANTOM
 62
     2
 10
-92.18619
 20
126.9607
 11
-92.18619
 21
131.0636
  0
LINE
  8
0
  6
PHANTOM
 62
     2
 10
-91.01619
 20
116.9607
 11
-91.01619
 21
126.9607
  0
LINE
  8
0
  6
PHANTOM
 62
     2
 10
-91.65619
 20
116.9607
 11
-91.65619
 21
126.9607
  0
LINE
  8
0
  6
PHANTOM
 62
     2
 10
-92.18617
 20
126.9607
 11
-90.48619
 21
126.9607
  0
LINE
  8
0
  6
PHANTOM
 62
     2
 10
-91.65617
 20
116.9607
 11
-91.01617
 21
116.9607
  0
LINE
  8
0
  6
PHANTOM
 62
     2
 10
-88.4862
 20
131.6251
 11
-96.78618
 21
133.849
  0
LINE
  8
0
  6
PHANTOM
 62
     2
 10
-88.48618
 20
130.0722
 11
-96.78616
 21
132.2962
  0
LINE
  8
0
  6
PHANTOM
 62
     2
 10
-90.48619
 20
132.161
 11
-90.48619
 21
136.9607
  0
LINE
  8
0
  6
PHANTOM
 62
     2
 10
-92.18619
 20
132.6165
 11
-92.18619
 21
136.9607
  0
LINE
  8
0
  6
PHANTOM
 62
     2
 10
-93.0862
 20
132.8577
 11
-93.0862
 21
136.9607
  0
LINE
  8
0
  6
PHANTOM
 62
     2
 10
-94.78618
 20
133.3132
 11
-94.78618
 21
136.9607
  0
LINE
  8
0
  6
PHANTOM
 62
     2
 10
-89.66023
 20
138.9449
 11
-89.66023
 21
137.4449
  0
LINE
  8
0
  6
PHANTOM
 62
     2
 10
-90.16023
 20
136.9449
 11
-95.16023
 21
136.9449
  0
LINE
  8
0
  6
PHANTOM
 62
     2
 10
-95.66023
 20
138.9449
 11
-95.66023
 21
137.4449
  0
LINE
  8
0
  6
CENTER
 62
     2
 10
-102.5845
 20
150.9607
 11
-82.6484
 21
150.9607
  0
LINE
  8
0
  6
PHANTOM
 62
     2
 10
-86.13618
 20
161.9607
 11
-99.13618
 21
161.9607
  0
LINE
  8
0
  6
PHANTOM
 62
     2
 10
-86.13618
 20
139.9607
 11
-99.13618
 21
139.9607
  0
LINE
  8
0
  6
PHANTOM
 62
     2
 10
-86.13618
 20
161.9607
 11
-86.13618
 21
139.9607
  0
LINE
  8
0
  6
PHANTOM
 62
     2
 10
-99.13618
 20
161.9607
 11
-99.13618
 21
139.9607
  0
LINE
  8
0
  6
PHANTOM
 62
     2
 10
-85.63618
 20
162.9607
 11
-99.63618
 21
162.9607
  0
LINE
  8
0
  6
PHANTOM
 62
     2
 10
-85.13618
 20
162.4607
 11
-85.13618
 21
138.9607
  0
LINE
  8
0
  6
PHANTOM
 62
     2
 10
-100.1362
 20
162.4607
 11
-100.1362
 21
138.9607
  0
LINE
  8
0
  6
PHANTOM
 62
     2
 10
-85.13618
 20
138.9607
 11
-100.1362
 21
138.9607
  0
LINE
  8
0
  6
PHANTOM
 62
     2
 10
-116.1362
 20
37.61591
 11
-116.1362
 21
-40.58407
  0
LINE
  8
0
  6
PHANTOM
 62
     2
 10
-116.1362
 20
36.61593
 11
-101.1362
 21
36.61593
  0
LINE
  8
0
  6
PHANTOM
 62
     2
 10
-101.1362
 20
37.61591
 11
-101.1362
 21
-40.58407
  0
LINE
  8
0
  6
PHANTOM
 62
     2
 10
-116.1362
 20
11.41593
 11
-101.1362
 21
11.41593
  0
LINE
  8
0
  6
PHANTOM
 62
     2
 10
-116.1362
 20
37.61591
 11
-101.1362
 21
37.61591
  0
LINE
  8
0
  6
PHANTOM
 62
     2
 10
-101.1362
 20
37.61592
 11
-102.1362
 21
39.61592
  0
LINE
  8
0
  6
PHANTOM
 62
     2
 10
-116.1362
 20
37.61592
 11
-115.1362
 21
39.61592
  0
LINE
  8
0
  6
PHANTOM
 62
     2
 10
-115.1362
 20
39.61593
 11
-102.1362
 21
39.61593
  0
LINE
  8
0
  6
CENTER
 62
     2
 10
-109.9362
 20
32.41593
 11
-109.9362
 21
26.41593
  0
LINE
  8
0
  6
CENTER
 62
     2
 10
-107.3362
 20
32.41593
 11
-107.3362
 21
26.41593
  0
LINE
  8
0
  6
CENTER
 62
     2
 10
-112.6362
 20
29.41593
 11
-104.6362
 21
29.41593
  0
LINE
  8
0
  6
PHANTOM
 62
     2
 10
-116.1362
 20
-5.58407
 11
-101.1362
 21
-5.58407
  0
LINE
  8
0
  6
CENTER
 62
     2
 10
-108.6362
 20
41.61593
 11
-108.6362
 21
-43.0826
  0
LINE
  8
0
  6
PHANTOM
 62
     2
 10
-116.1362
 20
-33.58407
 11
-101.1362
 21
-33.58407
  0
LINE
  8
0
  6
PHANTOM
 62
     2
 10
-115.6362
 20
-41.08407
 11
-101.6362
 21
-41.08407
  0
LINE
  8
0
  6
PHANTOM
 62
     2
 10
-109.9362
 20
27.71593
 11
-107.3362
 21
27.71593
  0
LINE
  8
0
  6
PHANTOM
 62
     2
 10
-109.9362
 20
31.11593
 11
-107.3362
 21
31.11593
  0
LINE
  8
0
  6
CENTER
 62
     2
 10
-108.6362
 20
-136.3147
 11
-108.6362
 21
-175.1288
  0
LINE
  8
0
  6
PHANTOM
 62
     2
 10
-101.1362
 20
-172.6288
 11
-101.1362
 21
-149.1288
  0
LINE
  8
0
  6
PHANTOM
 62
     2
 10
-116.1362
 20
-172.6288
 11
-116.1362
 21
-149.1288
  0
LINE
  8
0
  6
PHANTOM
 62
     2
 10
-115.6362
 20
-173.1288
 11
-101.6362
 21
-173.1288
  0
LINE
  8
0
  6
PHANTOM
 62
     2
 10
-116.1362
 20
-149.1288
 11
-111.6362
 21
-149.1288
  0
LINE
  8
0
  6
CENTER
 62
     2
 10
-107.3362
 20
-124.1288
 11
-107.3362
 21
-152.1288
  0
LINE
  8
0
  6
PHANTOM
 62
     2
 10
-108.1862
 20
-137.1288
 11
-108.1862
 21
-141.4729
  0
LINE
  8
0
  6
PHANTOM
 62
     2
 10
-106.4862
 20
-137.1288
 11
-106.4862
 21
-141.9285
  0
LINE
  8
0
  6
PHANTOM
 62
     2
 10
-107.6562
 20
-127.1288
 11
-107.6562
 21
-137.1288
  0
LINE
  8
0
  6
PHANTOM
 62
     2
 10
-107.0162
 20
-127.1288
 11
-107.0162
 21
-137.1288
  0
LINE
  8
0
  6
PHANTOM
 62
     2
 10
-106.4862
 20
-137.1288
 11
-108.1862
 21
-137.1288
  0
LINE
  8
0
  6
PHANTOM
 62
     2
 10
-107.0162
 20
-127.1288
 11
-107.6562
 21
-127.1288
  0
LINE
  8
0
  6
CENTER
 62
     2
 10
-109.9362
 20
-124.1288
 11
-109.9362
 21
-152.1288
  0
LINE
  8
0
  6
PHANTOM
 62
     2
 10
-110.7862
 20
-137.1288
 11
-110.7862
 21
-140.7763
  0
LINE
  8
0
  6
PHANTOM
 62
     2
 10
-109.0862
 20
-137.1288
 11
-109.0862
 21
-141.2318
  0
LINE
  8
0
  6
PHANTOM
 62
     2
 10
-110.2562
 20
-127.1288
 11
-110.2562
 21
-137.1288
  0
LINE
  8
0
  6
PHANTOM
 62
     2
 10
-109.6162
 20
-127.1288
 11
-109.6162
 21
-137.1288
  0
LINE
  8
0
  6
PHANTOM
 62
     2
 10
-109.0862
 20
-137.1288
 11
-110.7862
 21
-137.1288
  0
LINE
  8
0
  6
PHANTOM
 62
     2
 10
-109.6162
 20
-127.1288
 11
-110.2562
 21
-127.1288
  0
LINE
  8
0
  6
PHANTOM
 62
     2
 10
-112.7862
 20
-141.7933
 11
-104.4862
 21
-144.0173
  0
LINE
  8
0
  6
PHANTOM
 62
     2
 10
-112.7862
 20
-140.2404
 11
-104.4862
 21
-142.4644
  0
LINE
  8
0
  6
PHANTOM
 62
     2
 10
-110.7862
 20
-142.3292
 11
-110.7862
 21
-147.1288
  0
LINE
  8
0
  6
PHANTOM
 62
     2
 10
-109.0862
 20
-142.7847
 11
-109.0862
 21
-147.1288
  0
LINE
  8
0
  6
PHANTOM
 62
     2
 10
-108.1862
 20
-143.0258
 11
-108.1862
 21
-147.1288
  0
LINE
  8
0
  6
PHANTOM
 62
     2
 10
-106.4862
 20
-143.4814
 11
-106.4862
 21
-147.1288
  0
LINE
  8
0
  6
PHANTOM
 62
     2
 10
-105.6362
 20
-149.1288
 11
-101.1362
 21
-149.1288
  0
LINE
  8
0
  6
PHANTOM
 62
     2
 10
-111.6362
 20
-149.1288
 11
-105.6362
 21
-149.1288
  0
LINE
  8
0
  6
PHANTOM
 62
     2
 10
-111.6362
 20
-149.1288
 11
-111.6362
 21
-147.6288
  0
LINE
  8
0
  6
PHANTOM
 62
     2
 10
-111.1362
 20
-147.1288
 11
-106.1362
 21
-147.1288
  0
LINE
  8
0
  6
PHANTOM
 62
     2
 10
-105.6362
 20
-149.1288
 11
-105.6362
 21
-147.6288
  0
LINE
  8
0
  6
PHANTOM
 62
     2
 10
-100.1362
 20
37.61591
 11
-100.1362
 21
-76.78406
  0
LINE
  8
0
  6
PHANTOM
 62
     2
 10
-100.1362
 20
36.61592
 11
-85.13618
 21
36.61592
  0
LINE
  8
0
  6
PHANTOM
 62
     2
 10
-85.13618
 20
37.61591
 11
-85.13618
 21
-76.78406
  0
LINE
  8
0
  6
PHANTOM
 62
     2
 10
-100.1362
 20
11.41593
 11
-85.13618
 21
11.41593
  0
LINE
  8
0
  6
PHANTOM
 62
     2
 10
-100.1362
 20
37.61591
 11
-85.13618
 21
37.61591
  0
LINE
  8
0
  6
PHANTOM
 62
     2
 10
-85.13621
 20
37.61591
 11
-86.13621
 21
39.61591
  0
LINE
  8
0
  6
PHANTOM
 62
     2
 10
-100.1362
 20
37.61593
 11
-99.13619
 21
39.61592
  0
LINE
  8
0
  6
PHANTOM
 62
     2
 10
-99.13619
 20
39.61592
 11
-86.13618
 21
39.61592
  0
LINE
  8
0
  6
CENTER
 62
     2
 10
-93.93619
 20
32.41593
 11
-93.93619
 21
26.41593
  0
LINE
  8
0
  6
CENTER
 62
     2
 10
-91.33618
 20
32.41593
 11
-91.33618
 21
26.41593
  0
LINE
  8
0
  6
CENTER
 62
     2
 10
-96.63618
 20
29.41593
 11
-88.63618
 21
29.41593
  0
LINE
  8
0
  6
PHANTOM
 62
     2
 10
-100.1362
 20
-5.58407
 11
-85.13618
 21
-5.58407
  0
LINE
  8
0
  6
PHANTOM
 62
     2
 10
-100.1362
 20
-33.58407
 11
-85.13618
 21
-33.58407
  0
LINE
  8
0
  6
CENTER
 62
     2
 10
-92.63618
 20
41.41593
 11
-92.63618
 21
-82.06676
  0
LINE
  8
0
  6
PHANTOM
 62
     2
 10
-93.93619
 20
27.71593
 11
-91.33618
 21
27.71593
  0
LINE
  8
0
  6
PHANTOM
 62
     2
 10
-93.93619
 20
31.11592
 11
-91.33618
 21
31.11592
  0
LINE
  8
0
  6
PHANTOM
 62
     2
 10
-85.13618
 20
-75.78407
 11
-100.1362
 21
-75.78407
  0
LINE
  8
0
  6
PHANTOM
 62
     2
 10
-100.1362
 20
-50.58407
 11
-85.13618
 21
-50.58407
  0
LINE
  8
0
  6
PHANTOM
 62
     2
 10
-85.13618
 20
-76.78406
 11
-100.1362
 21
-76.78406
  0
LINE
  8
0
  6
PHANTOM
 62
     2
 10
-100.1362
 20
-76.78406
 11
-99.13615
 21
-78.78406
  0
LINE
  8
0
  6
PHANTOM
 62
     2
 10
-85.13618
 20
-76.78408
 11
-86.13618
 21
-78.78406
  0
LINE
  8
0
  6
PHANTOM
 62
     2
 10
-86.13618
 20
-78.78407
 11
-99.13618
 21
-78.78407
  0
LINE
  8
0
  6
CENTER
 62
     2
 10
-93.93619
 20
-71.78407
 11
-93.93619
 21
-65.58408
  0
LINE
  8
0
  6
CENTER
 62
     2
 10
-91.33618
 20
-71.78407
 11
-91.33618
 21
-65.58408
  0
LINE
  8
0
  6
CENTER
 62
     2
 10
-96.63618
 20
-68.58408
 11
-88.63618
 21
-68.58408
  0
LINE
  8
0
  6
PHANTOM
 62
     2
 10
-93.93619
 20
-66.88408
 11
-91.33618
 21
-66.88408
  0
LINE
  8
0
  6
PHANTOM
 62
     2
 10
-93.93619
 20
-70.28407
 11
-91.33618
 21
-70.28407
  0
LINE
  8
0
  6
CENTER
 62
     2
 10
-76.63618
 20
-136.3147
 11
-76.63618
 21
-175.1288
  0
LINE
  8
0
  6
CENTER
 62
     2
 10
-75.3362
 20
-124.1288
 11
-75.3362
 21
-152.1288
  0
LINE
  8
0
  6
PHANTOM
 62
     2
 10
-76.18617
 20
-137.1288
 11
-76.18617
 21
-141.4729
  0
LINE
  8
0
  6
PHANTOM
 62
     2
 10
-74.48619
 20
-137.1288
 11
-74.48619
 21
-141.9285
  0
LINE
  8
0
  6
PHANTOM
 62
     2
 10
-75.65617
 20
-127.1288
 11
-75.65617
 21
-137.1288
  0
LINE
  8
0
  6
PHANTOM
 62
     2
 10
-75.01619
 20
-127.1288
 11
-75.01619
 21
-137.1288
  0
LINE
  8
0
  6
PHANTOM
 62
     2
 10
-74.48619
 20
-137.1288
 11
-76.1862
 21
-137.1288
  0
LINE
  8
0
  6
PHANTOM
 62
     2
 10
-75.01619
 20
-127.1288
 11
-75.6562
 21
-127.1288
  0
LINE
  8
0
  6
CENTER
 62
     2
 10
-77.93617
 20
-124.2379
 11
-77.93617
 21
-152.1288
  0
LINE
  8
0
  6
PHANTOM
 62
     2
 10
-78.78618
 20
-137.1288
 11
-78.78618
 21
-140.7763
  0
LINE
  8
0
  6
PHANTOM
 62
     2
 10
-77.08618
 20
-137.1288
 11
-77.08618
 21
-141.2318
  0
LINE
  8
0
  6
PHANTOM
 62
     2
 10
-78.25618
 20
-127.1288
 11
-78.25618
 21
-137.1288
  0
LINE
  8
0
  6
PHANTOM
 62
     2
 10
-77.61618
 20
-127.1288
 11
-77.61618
 21
-137.1288
  0
LINE
  8
0
  6
PHANTOM
 62
     2
 10
-77.0862
 20
-137.1288
 11
-78.78618
 21
-137.1288
  0
LINE
  8
0
  6
PHANTOM
 62
     2
 10
-77.6162
 20
-127.1288
 11
-78.2562
 21
-127.1288
  0
LINE
  8
0
  6
PHANTOM
 62
     2
 10
-80.78617
 20
-141.7933
 11
-72.48618
 21
-144.0172
  0
LINE
  8
0
  6
PHANTOM
 62
     2
 10
-80.78617
 20
-140.2403
 11
-72.48618
 21
-142.4643
  0
LINE
  8
0
  6
PHANTOM
 62
     2
 10
-78.78618
 20
-142.3292
 11
-78.78618
 21
-147.1288
  0
LINE
  8
0
  6
PHANTOM
 62
     2
 10
-77.08618
 20
-142.7847
 11
-77.08618
 21
-147.1288
  0
LINE
  8
0
  6
PHANTOM
 62
     2
 10
-76.18617
 20
-143.0258
 11
-76.18617
 21
-147.1288
  0
LINE
  8
0
  6
PHANTOM
 62
     2
 10
-74.48619
 20
-143.4814
 11
-74.48619
 21
-147.1288
  0
LINE
  8
0
  6
PHANTOM
 62
     2
 10
-79.61214
 20
-149.113
 11
-79.61214
 21
-147.613
  0
LINE
  8
0
  6
PHANTOM
 62
     2
 10
-79.11214
 20
-147.113
 11
-74.11214
 21
-147.113
  0
LINE
  8
0
  6
PHANTOM
 62
     2
 10
-73.61214
 20
-149.113
 11
-73.61214
 21
-147.613
  0
LINE
  8
0
  6
CENTER
 62
     2
 10
-66.68784
 20
-161.1289
 11
-86.62397
 21
-161.1289
  0
LINE
  8
0
  6
PHANTOM
 62
     2
 10
-83.13618
 20
-172.1289
 11
-70.13618
 21
-172.1289
  0
LINE
  8
0
  6
PHANTOM
 62
     2
 10
-83.13618
 20
-150.1289
 11
-70.13618
 21
-150.1289
  0
LINE
  8
0
  6
PHANTOM
 62
     2
 10
-83.13618
 20
-172.1289
 11
-83.13618
 21
-150.1289
  0
LINE
  8
0
  6
PHANTOM
 62
     2
 10
-70.13618
 20
-172.1289
 11
-70.13618
 21
-150.1289
  0
LINE
  8
0
  6
PHANTOM
 62
     2
 10
-83.63618
 20
-173.1289
 11
-69.63618
 21
-173.1289
  0
LINE
  8
0
  6
PHANTOM
 62
     2
 10
-84.13618
 20
-172.6289
 11
-84.13618
 21
-149.1289
  0
LINE
  8
0
  6
PHANTOM
 62
     2
 10
-69.13618
 20
-172.6289
 11
-69.13618
 21
-149.1289
  0
LINE
  8
0
  6
PHANTOM
 62
     2
 10
-84.13618
 20
-149.1289
 11
-69.13618
 21
-149.1289
  0
LINE
  8
0
  6
CENTER
 62
     2
 10
-92.63618
 20
-136.3147
 11
-92.63618
 21
-175.1288
  0
LINE
  8
0
  6
CENTER
 62
     2
 10
-91.3362
 20
-124.1288
 11
-91.3362
 21
-152.1288
  0
LINE
  8
0
  6
PHANTOM
 62
     2
 10
-92.18617
 20
-137.1288
 11
-92.18617
 21
-141.4729
  0
LINE
  8
0
  6
PHANTOM
 62
     2
 10
-90.48619
 20
-137.1288
 11
-90.48619
 21
-141.9285
  0
LINE
  8
0
  6
PHANTOM
 62
     2
 10
-91.65617
 20
-127.1288
 11
-91.65617
 21
-137.1288
  0
LINE
  8
0
  6
PHANTOM
 62
     2
 10
-91.01619
 20
-127.1288
 11
-91.01619
 21
-137.1288
  0
LINE
  8
0
  6
PHANTOM
 62
     2
 10
-90.48619
 20
-137.1288
 11
-92.1862
 21
-137.1288
  0
LINE
  8
0
  6
PHANTOM
 62
     2
 10
-91.01619
 20
-127.1288
 11
-91.6562
 21
-127.1288
  0
LINE
  8
0
  6
CENTER
 62
     2
 10
-93.93617
 20
-124.2379
 11
-93.93617
 21
-152.1288
  0
LINE
  8
0
  6
PHANTOM
 62
     2
 10
-94.78618
 20
-137.1288
 11
-94.78618
 21
-140.7763
  0
LINE
  8
0
  6
PHANTOM
 62
     2
 10
-93.08618
 20
-137.1288
 11
-93.08618
 21
-141.2318
  0
LINE
  8
0
  6
PHANTOM
 62
     2
 10
-94.25618
 20
-127.1288
 11
-94.25618
 21
-137.1288
  0
LINE
  8
0
  6
PHANTOM
 62
     2
 10
-93.61618
 20
-127.1288
 11
-93.61618
 21
-137.1288
  0
LINE
  8
0
  6
PHANTOM
 62
     2
 10
-93.0862
 20
-137.1288
 11
-94.78618
 21
-137.1288
  0
LINE
  8
0
  6
PHANTOM
 62
     2
 10
-93.6162
 20
-127.1288
 11
-94.2562
 21
-127.1288
  0
LINE
  8
0
  6
PHANTOM
 62
     2
 10
-96.78617
 20
-141.7933
 11
-88.48618
 21
-144.0172
  0
LINE
  8
0
  6
PHANTOM
 62
     2
 10
-96.78617
 20
-140.2404
 11
-88.48618
 21
-142.4643
  0
LINE
  8
0
  6
PHANTOM
 62
     2
 10
-94.78618
 20
-142.3292
 11
-94.78618
 21
-147.1288
  0
LINE
  8
0
  6
PHANTOM
 62
     2
 10
-93.08618
 20
-142.7847
 11
-93.08618
 21
-147.1288
  0
LINE
  8
0
  6
PHANTOM
 62
     2
 10
-92.18617
 20
-143.0258
 11
-92.18617
 21
-147.1288
  0
LINE
  8
0
  6
PHANTOM
 62
     2
 10
-90.48619
 20
-143.4814
 11
-90.48619
 21
-147.1288
  0
LINE
  8
0
  6
PHANTOM
 62
     2
 10
-95.61214
 20
-149.113
 11
-95.61214
 21
-147.613
  0
LINE
  8
0
  6
PHANTOM
 62
     2
 10
-95.11214
 20
-147.113
 11
-90.11214
 21
-147.113
  0
LINE
  8
0
  6
PHANTOM
 62
     2
 10
-89.61214
 20
-149.113
 11
-89.61214
 21
-147.613
  0
LINE
  8
0
  6
CENTER
 62
     2
 10
-82.68784
 20
-161.1289
 11
-102.624
 21
-161.1289
  0
LINE
  8
0
  6
PHANTOM
 62
     2
 10
-99.13618
 20
-172.1289
 11
-86.13618
 21
-172.1289
  0
LINE
  8
0
  6
PHANTOM
 62
     2
 10
-99.13618
 20
-150.1289
 11
-86.13618
 21
-150.1289
  0
LINE
  8
0
  6
PHANTOM
 62
     2
 10
-99.13618
 20
-172.1289
 11
-99.13618
 21
-150.1289
  0
LINE
  8
0
  6
PHANTOM
 62
     2
 10
-86.13618
 20
-172.1289
 11
-86.13618
 21
-150.1289
  0
LINE
  8
0
  6
PHANTOM
 62
     2
 10
-99.63618
 20
-173.1289
 11
-85.63618
 21
-173.1289
  0
LINE
  8
0
  6
PHANTOM
 62
     2
 10
-100.1362
 20
-172.6289
 11
-100.1362
 21
-149.1289
  0
LINE
  8
0
  6
PHANTOM
 62
     2
 10
-85.13618
 20
-172.6289
 11
-85.13618
 21
-149.1289
  0
LINE
  8
0
  6
PHANTOM
 62
     2
 10
-100.1362
 20
-149.1289
 11
-85.13618
 21
-149.1289
  0
LINE
  8
0
  6
PHANTOM
 62
     2
 10
-84.13618
 20
-5.58407
 11
-69.13618
 21
-5.58407
  0
LINE
  8
0
  6
CENTER
 62
     2
 10
-76.63618
 20
45.40697
 11
-76.63618
 21
-92.67699
  0
LINE
  8
0
  6
PHANTOM
 62
     2
 10
-84.13618
 20
-33.58406
 11
-69.13618
 21
-33.58406
  0
LINE
  8
0
  6
PHANTOM
 62
     2
 10
-84.13618
 20
13.41592
 11
-84.13618
 21
-60.58406
  0
LINE
  8
0
  6
PHANTOM
 62
     2
 10
-69.13618
 20
13.41592
 11
-69.13618
 21
-60.58406
  0
LINE
  8
0
  6
PHANTOM
 62
     2
 10
-84.13618
 20
39.61592
 11
-84.13618
 21
13.41592
  0
LINE
  8
0
  6
PHANTOM
 62
     2
 10
-84.13618
 20
38.61593
 11
-69.13618
 21
38.61593
  0
LINE
  8
0
  6
PHANTOM
 62
     2
 10
-69.13618
 20
39.61592
 11
-69.13618
 21
13.41592
  0
LINE
  8
0
  6
PHANTOM
 62
     2
 10
-84.13618
 20
13.41593
 11
-69.13618
 21
13.41593
  0
LINE
  8
0
  6
PHANTOM
 62
     2
 10
-84.13618
 20
39.61592
 11
-69.13618
 21
39.61592
  0
LINE
  8
0
  6
PHANTOM
 62
     2
 10
-69.1363
 20
39.61589
 11
-70.1363
 21
41.61589
  0
LINE
  8
0
  6
PHANTOM
 62
     2
 10
-84.13622
 20
39.61592
 11
-83.13621
 21
41.61594
  0
LINE
  8
0
  6
PHANTOM
 62
     2
 10
-83.13621
 20
41.61593
 11
-70.13618
 21
41.61593
  0
LINE
  8
0
  6
CENTER
 62
     2
 10
-77.93617
 20
34.41593
 11
-77.93617
 21
28.41593
  0
LINE
  8
0
  6
CENTER
 62
     2
 10
-75.3362
 20
34.41593
 11
-75.3362
 21
28.41593
  0
LINE
  8
0
  6
CENTER
 62
     2
 10
-80.63618
 20
31.41593
 11
-72.63618
 21
31.41593
  0
LINE
  8
0
  6
PHANTOM
 62
     2
 10
-69.13618
 20
-86.78418
 11
-69.13618
 21
-60.58406
  0
LINE
  8
0
  6
PHANTOM
 62
     2
 10
-69.13615
 20
-85.78421
 11
-84.13615
 21
-85.78421
  0
LINE
  8
0
  6
PHANTOM
 62
     2
 10
-84.13618
 20
-86.78418
 11
-84.13618
 21
-60.58406
  0
LINE
  8
0
  6
PHANTOM
 62
     2
 10
-69.13618
 20
-60.5842
 11
-84.13618
 21
-60.5842
  0
LINE
  8
0
  6
PHANTOM
 62
     2
 10
-69.13615
 20
-86.78418
 11
-84.13618
 21
-86.78418
  0
LINE
  8
0
  6
PHANTOM
 62
     2
 10
-84.13625
 20
-86.7841
 11
-83.13624
 21
-88.78412
  0
LINE
  8
0
  6
PHANTOM
 62
     2
 10
-69.13618
 20
-86.78406
 11
-70.13618
 21
-88.78407
  0
LINE
  8
0
  6
PHANTOM
 62
     2
 10
-70.13625
 20
-88.78419
 11
-83.13618
 21
-88.78419
  0
LINE
  8
0
  6
CENTER
 62
     2
 10
-75.33614
 20
-81.58406
 11
-75.33614
 21
-75.58406
  0
LINE
  8
0
  6
CENTER
 62
     2
 10
-77.93617
 20
-81.58406
 11
-77.93617
 21
-75.58406
  0
LINE
  8
0
  6
CENTER
 62
     2
 10
-72.63618
 20
-78.5842
 11
-80.63618
 21
-78.5842
  0
LINE
  8
0
  6
PHANTOM
 62
     2
 10
-77.93617
 20
33.11592
 11
-75.3362
 21
33.11592
  0
LINE
  8
0
  6
PHANTOM
 62
     2
 10
-77.93617
 20
29.71592
 11
-75.3362
 21
29.71592
  0
LINE
  8
0
  6
PHANTOM
 62
     2
 10
-77.93617
 20
-76.88406
 11
-75.3362
 21
-76.88406
  0
LINE
  8
0
  6
PHANTOM
 62
     2
 10
-77.93617
 20
-80.28407
 11
-75.3362
 21
-80.28407
  0
LINE
  8
0
  6
PHANTOM
 62
     2
 10
144.0226
 20
-5.58407
 11
120.0226
 21
-5.58407
  0
LINE
  8
0
  6
CENTER
 62
     2
 10
132.0226
 20
45.18657
 11
132.0226
 21
-92.20657
  0
LINE
  8
0
  6
PHANTOM
 62
     2
 10
144.0226
 20
-33.58407
 11
120.0226
 21
-33.58407
  0
LINE
  8
0
  6
PHANTOM
 62
     2
 10
120.0226
 20
13.41592
 11
120.0226
 21
-60.58406
  0
LINE
  8
0
  6
PHANTOM
 62
     2
 10
144.0226
 20
38.61593
 11
120.0226
 21
38.61593
  0
LINE
  8
0
  6
PHANTOM
 62
     2
 10
144.0226
 20
13.41593
 11
120.0226
 21
13.41593
  0
LINE
  8
0
  6
PHANTOM
 62
     2
 10
144.0226
 20
39.61593
 11
144.0226
 21
5.41593
  0
LINE
  8
0
  6
PHANTOM
 62
     2
 10
120.0226
 20
39.61593
 11
120.0226
 21
33.11592
  0
LINE
  8
0
  6
PHANTOM
 62
     2
 10
143.0226
 20
41.61593
 11
121.0227
 21
41.61593
  0
LINE
  8
0
  6
PHANTOM
 62
     2
 10
144.0226
 20
39.61593
 11
120.0226
 21
39.61593
  0
LINE
  8
0
  6
PHANTOM
 62
     2
 10
144.0226
 20
39.61592
 11
143.0226
 21
41.61593
  0
LINE
  8
0
  6
PHANTOM
 62
     2
 10
120.0227
 20
39.6159
 11
121.0227
 21
41.6159
  0
LINE
  8
0
  6
CENTER
 62
     2
 10
95.02261
 20
-68.58408
 11
123.0226
 21
-68.58408
  0
LINE
  8
0
  6
PHANTOM
 62
     2
 10
108.0226
 20
-67.73409
 11
112.0184
 21
-67.73409
  0
LINE
  8
0
  6
PHANTOM
 62
     2
 10
108.0226
 20
-69.43407
 11
112.4739
 21
-69.43407
  0
LINE
  8
0
  6
PHANTOM
 62
     2
 10
98.02261
 20
-68.26408
 11
108.0226
 21
-68.26408
  0
LINE
  8
0
  6
PHANTOM
 62
     2
 10
98.02261
 20
-68.90408
 11
108.0226
 21
-68.90408
  0
LINE
  8
0
  6
PHANTOM
 62
     2
 10
108.0226
 20
-69.43407
 11
108.0226
 21
-67.73409
  0
LINE
  8
0
  6
PHANTOM
 62
     2
 10
98.0226
 20
-68.90407
 11
98.0226
 21
-68.26408
  0
LINE
  8
0
  6
PHANTOM
 62
     2
 10
111.4824
 20
-65.73409
 11
113.0098
 21
-71.43409
  0
LINE
  8
0
  6
PHANTOM
 62
     2
 10
113.0354
 20
-65.73409
 11
114.5627
 21
-71.43409
  0
LINE
  8
0
  6
PHANTOM
 62
     2
 10
113.5713
 20
-67.73409
 11
118.0226
 21
-67.73409
  0
LINE
  8
0
  6
PHANTOM
 62
     2
 10
114.0268
 20
-69.43407
 11
118.0226
 21
-69.43407
  0
LINE
  8
0
  6
PHANTOM
 62
     2
 10
120.0226
 20
29.71593
 11
120.0226
 21
13.41592
  0
LINE
  8
0
  6
PHANTOM
 62
     2
 10
144.0226
 20
-85.7841
 11
120.0226
 21
-85.7841
  0
LINE
  8
0
  6
PHANTOM
 62
     2
 10
144.0226
 20
-60.58409
 11
120.0226
 21
-60.58409
  0
LINE
  8
0
  6
PHANTOM
 62
     2
 10
144.0226
 20
-86.7841
 11
144.0226
 21
-60.58407
  0
LINE
  8
0
  6
PHANTOM
 62
     2
 10
120.0226
 20
-86.7841
 11
120.0226
 21
-80.28406
  0
LINE
  8
0
  6
PHANTOM
 62
     2
 10
121.0226
 20
-88.7841
 11
143.0226
 21
-88.7841
  0
LINE
  8
0
  6
PHANTOM
 62
     2
 10
144.0226
 20
-86.7841
 11
120.0226
 21
-86.7841
  0
LINE
  8
0
  6
PHANTOM
 62
     2
 10
120.0226
 20
-86.78404
 11
121.0226
 21
-88.78404
  0
LINE
  8
0
  6
PHANTOM
 62
     2
 10
144.0226
 20
-86.78407
 11
143.0226
 21
-88.78407
  0
LINE
  8
0
  6
CENTER
 62
     2
 10
95.02261
 20
-78.58409
 11
123.0226
 21
-78.58409
  0
LINE
  8
0
  6
PHANTOM
 62
     2
 10
108.0226
 20
-77.73409
 11
112.0184
 21
-77.73409
  0
LINE
  8
0
  6
PHANTOM
 62
     2
 10
108.0226
 20
-79.4341
 11
112.4739
 21
-79.4341
  0
LINE
  8
0
  6
PHANTOM
 62
     2
 10
98.0226
 20
-78.26408
 11
108.0226
 21
-78.26408
  0
LINE
  8
0
  6
PHANTOM
 62
     2
 10
98.0226
 20
-78.9041
 11
108.0226
 21
-78.9041
  0
LINE
  8
0
  6
PHANTOM
 62
     2
 10
108.0226
 20
-79.43405
 11
108.0226
 21
-77.73405
  0
LINE
  8
0
  6
PHANTOM
 62
     2
 10
98.0226
 20
-78.90404
 11
98.0226
 21
-78.26404
  0
LINE
  8
0
  6
PHANTOM
 62
     2
 10
111.4825
 20
-75.73405
 11
113.0098
 21
-81.43406
  0
LINE
  8
0
  6
PHANTOM
 62
     2
 10
113.0353
 20
-75.73406
 11
114.5627
 21
-81.43405
  0
LINE
  8
0
  6
PHANTOM
 62
     2
 10
114.0268
 20
-79.4341
 11
118.0226
 21
-79.4341
  0
LINE
  8
0
  6
PHANTOM
 62
     2
 10
113.5713
 20
-77.73409
 11
118.0226
 21
-77.73409
  0
LINE
  8
0
  6
PHANTOM
 62
     2
 10
120.0226
 20
-76.88406
 11
120.0226
 21
-60.58406
  0
LINE
  8
0
  6
PHANTOM
 62
     2
 10
120.0226
 20
33.11592
 11
120.0226
 21
29.71593
  0
LINE
  8
0
  6
PHANTOM
 62
     2
 10
118.5226
 20
-66.88408
 11
120.0226
 21
-66.88408
  0
LINE
  8
0
  6
PHANTOM
 62
     2
 10
118.0226
 20
-69.78407
 11
118.0226
 21
-67.38408
  0
LINE
  8
0
  6
PHANTOM
 62
     2
 10
118.5226
 20
-70.28407
 11
120.0226
 21
-70.28407
  0
LINE
  8
0
  6
PHANTOM
 62
     2
 10
120.0226
 20
-76.88405
 11
120.0226
 21
-80.28404
  0
LINE
  8
0
  6
PHANTOM
 62
     2
 10
118.5226
 20
-76.88405
 11
120.0226
 21
-76.88405
  0
LINE
  8
0
  6
PHANTOM
 62
     2
 10
118.0226
 20
-79.78404
 11
118.0226
 21
-77.38405
  0
LINE
  8
0
  6
PHANTOM
 62
     2
 10
118.5226
 20
-80.28404
 11
120.0226
 21
-80.28404
  0
LINE
  8
0
  6
CENTER
 62
     2
 10
95.02261
 20
31.41593
 11
123.0226
 21
31.41593
  0
LINE
  8
0
  6
PHANTOM
 62
     2
 10
108.0226
 20
32.26592
 11
112.0184
 21
32.26592
  0
LINE
  8
0
  6
PHANTOM
 62
     2
 10
108.0226
 20
30.56594
 11
112.4739
 21
30.56594
  0
LINE
  8
0
  6
PHANTOM
 62
     2
 10
98.02261
 20
31.73593
 11
108.0226
 21
31.73593
  0
LINE
  8
0
  6
PHANTOM
 62
     2
 10
98.02261
 20
31.09593
 11
108.0226
 21
31.09593
  0
LINE
  8
0
  6
PHANTOM
 62
     2
 10
108.0226
 20
30.56593
 11
108.0226
 21
32.26592
  0
LINE
  8
0
  6
PHANTOM
 62
     2
 10
98.0226
 20
31.09593
 11
98.0226
 21
31.73592
  0
LINE
  8
0
  6
PHANTOM
 62
     2
 10
111.4825
 20
34.26591
 11
113.0098
 21
28.56591
  0
LINE
  8
0
  6
PHANTOM
 62
     2
 10
113.0354
 20
34.26591
 11
114.5627
 21
28.56591
  0
LINE
  8
0
  6
PHANTOM
 62
     2
 10
113.5713
 20
32.26592
 11
118.0226
 21
32.26592
  0
LINE
  8
0
  6
PHANTOM
 62
     2
 10
114.0268
 20
30.56594
 11
118.0226
 21
30.56594
  0
LINE
  8
0
  6
PHANTOM
 62
     2
 10
118.5226
 20
33.11592
 11
120.0226
 21
33.11592
  0
LINE
  8
0
  6
PHANTOM
 62
     2
 10
118.0226
 20
30.21593
 11
118.0226
 21
32.61592
  0
LINE
  8
0
  6
PHANTOM
 62
     2
 10
118.5226
 20
29.71593
 11
120.0226
 21
29.71593
  0
LINE
  8
0
  6
CENTER
 62
     2
 10
95.02261
 20
29.41593
 11
123.0226
 21
29.41593
  0
LINE
  8
0
  6
PHANTOM
 62
     2
 10
108.0226
 20
30.26592
 11
112.0184
 21
30.26592
  0
LINE
  8
0
  6
PHANTOM
 62
     2
 10
108.0226
 20
28.56594
 11
112.4739
 21
28.56594
  0
LINE
  8
0
  6
PHANTOM
 62
     2
 10
98.02261
 20
29.73593
 11
108.0226
 21
29.73593
  0
LINE
  8
0
  6
PHANTOM
 62
     2
 10
98.02261
 20
29.09593
 11
108.0226
 21
29.09593
  0
LINE
  8
0
  6
PHANTOM
 62
     2
 10
108.0226
 20
28.56593
 11
108.0226
 21
30.26592
  0
LINE
  8
0
  6
PHANTOM
 62
     2
 10
98.0226
 20
29.09593
 11
98.0226
 21
29.73592
  0
LINE
  8
0
  6
PHANTOM
 62
     2
 10
111.4824
 20
32.26591
 11
113.0098
 21
26.56591
  0
LINE
  8
0
  6
PHANTOM
 62
     2
 10
113.0354
 20
32.26591
 11
114.5627
 21
26.56591
  0
LINE
  8
0
  6
PHANTOM
 62
     2
 10
113.5713
 20
30.26592
 11
118.0226
 21
30.26592
  0
LINE
  8
0
  6
PHANTOM
 62
     2
 10
114.0268
 20
28.56594
 11
118.0226
 21
28.56594
  0
LINE
  8
0
  6
PHANTOM
 62
     2
 10
118.5226
 20
31.11592
 11
120.0226
 21
31.11592
  0
LINE
  8
0
  6
PHANTOM
 62
     2
 10
118.0226
 20
28.21593
 11
118.0226
 21
30.61592
  0
LINE
  8
0
  6
PHANTOM
 62
     2
 10
118.5226
 20
27.71593
 11
120.0226
 21
27.71593
  0
LINE
  8
0
  6
CENTER
 62
     2
 10
-117.2045
 20
-161.1288
 11
-100.1421
 21
-161.1288
  0
LINE
  8
0
  6
CONTINUOUS
 62
     2
 10
-140.6362
 20
77.97857
 11
-44.63618
 21
77.97857
  0
LINE
  8
0
  6
CONTINUOUS
 62
     2
 10
-49.63618
 20
79.31831
 11
-44.63618
 21
77.97857
  0
LINE
  8
0
  6
CONTINUOUS
 62
     2
 10
-49.63618
 20
76.63883
 11
-44.63618
 21
77.97858
  0
LINE
  8
0
  6
CONTINUOUS
 62
     7
 10
-140.6362
 20
163.9607
 11
-79.98283
 21
163.9607
  0
LINE
  8
0
  6
CONTINUOUS
 62
     7
 10
-140.6362
 20
163.9607
 11
-140.6362
 21
188.9607
  0
LINE
  8
0
  6
CONTINUOUS
 62
     7
 10
-44.63618
 20
163.9607
 11
-44.63618
 21
188.9607
  0
LINE
  8
0
  6
CONTINUOUS
 62
     7
 10
-117.6362
 20
162.9607
 11
-115.6362
 21
163.9607
  0
LINE
  8
0
  6
CONTINUOUS
 62
     7
 10
-101.6362
 20
163.9607
 11
-99.63618
 21
163.9607
  0
LINE
  8
0
  6
CONTINUOUS
 62
     7
 10
-131.6362
 20
163.9607
 11
-131.6362
 21
162.9607
  0
LINE
  8
0
  6
CONTINUOUS
 62
     7
 10
-117.6362
 20
163.9607
 11
-117.6362
 21
162.9607
  0
LINE
  8
0
  6
CONTINUOUS
 62
     7
 10
-115.6362
 20
163.9607
 11
-115.6362
 21
162.9607
  0
LINE
  8
0
  6
CONTINUOUS
 62
     7
 10
-101.6362
 20
163.9607
 11
-101.6362
 21
162.9607
  0
LINE
  8
0
  6
CENTER
 62
     2
 10
-108.6362
 20
189.9607
 11
-108.6362
 21
160.9902
  0
LINE
  8
0
  6
CONTINUOUS
 62
     7
 10
-99.63618
 20
162.9607
 11
-99.63618
 21
163.9607
  0
LINE
  8
0
  6
CONTINUOUS
 62
     7
 10
-85.63618
 20
162.9607
 11
-85.63618
 21
163.9607
  0
LINE
  8
0
  6
CONTINUOUS
 62
     7
 10
-83.63618
 20
162.9607
 11
-83.63618
 21
163.9607
  0
LINE
  8
0
  6
CONTINUOUS
 62
     7
 10
-69.63618
 20
162.8998
 11
-69.63618
 21
163.9607
  0
LINE
  8
0
  6
CONTINUOUS
 62
     7
 10
-67.63618
 20
163.9607
 11
-67.63618
 21
162.9607
  0
LINE
  8
0
  6
CONTINUOUS
 62
     7
 10
-53.63618
 20
163.9607
 11
-53.63618
 21
162.9607
  0
LINE
  8
0
  6
CENTER
 62
     2
 10
-124.6362
 20
161.5172
 11
-124.6362
 21
189.9607
  0
LINE
  8
0
  6
CENTER
 62
     2
 10
-92.63618
 20
160.3314
 11
-92.63618
 21
189.9607
  0
LINE
  8
0
  6
CENTER
 62
     2
 10
-76.63618
 20
160.9902
 11
-76.63618
 21
189.9607
  0
LINE
  8
0
  6
CENTER
 62
     2
 10
-60.63618
 20
160.9902
 11
-60.63618
 21
189.9607
  0
LINE
  8
0
  6
PHANTOM
 62
     2
 10
-84.92107
 20
190.1178
 11
-77.78706
 21
163.4933
  0
LINE
  8
0
  6
PHANTOM
 62
     2
 10
-86.98913
 20
190.1085
 11
-79.86378
 21
163.5164
  0
LINE
  8
0
  6
CONTINUOUS
 62
     7
 10
-77.91228
 20
163.9607
 11
-44.63618
 21
163.9607
  0
LINE
  8
0
  6
CONTINUOUS
 62
     7
 10
-140.6362
 20
174.4607
 11
-82.7963
 21
174.4607
  0
LINE
  8
0
  6
CONTINUOUS
 62
     7
 10
-80.72574
 20
174.4607
 11
-44.63618
 21
174.4607
  0
LINE
  8
0
  6
CONTINUOUS
 62
     7
 10
-82.33344
 20
180.4607
 11
-44.63618
 21
180.4607
  0
LINE
  8
0
  6
CONTINUOUS
 62
     7
 10
-140.6362
 20
180.4607
 11
-84.40399
 21
180.4607
  0
LINE
  8
0
  6
CONTINUOUS
 62
     7
 10
-140.6362
 20
188.9607
 11
-86.68156
 21
188.9607
  0
LINE
  8
0
  6
CONTINUOUS
 62
     7
 10
-84.61101
 20
188.9607
 11
-44.63618
 21
188.9607
  0
LINE
  8
0
  6
CONTINUOUS
 62
     7
 10
-68.13618
 20
159.9607
 11
-68.13618
 21
162.9607
  0
LINE
  8
0
  6
CONTINUOUS
 62
     7
 10
-53.13618
 20
159.9607
 11
-53.13618
 21
162.9607
  0
LINE
  8
0
  6
CONTINUOUS
 62
     7
 10
-68.38615
 20
159.9607
 11
-52.88618
 21
159.9607
  0
LINE
  8
0
  6
CONTINUOUS
 62
     7
 10
-63.95463
 20
158.6787
 11
-63.88622
 21
159.4607
  0
LINE
  8
0
  6
CONTINUOUS
 62
     7
 10
-68.31776
 20
158.6786
 11
-68.38617
 21
159.4606
  0
LINE
  8
0
  6
CONTINUOUS
 62
     7
 10
-68.38615
 20
159.4607
 11
-63.88622
 21
159.4607
  0
LINE
  8
0
  6
CONTINUOUS
 62
     7
 10
-52.9546
 20
158.6787
 11
-52.88618
 21
159.4607
  0
LINE
  8
0
  6
CONTINUOUS
 62
     7
 10
-57.31779
 20
158.6787
 11
-57.3862
 21
159.4606
  0
LINE
  8
0
  6
CONTINUOUS
 62
     7
 10
-52.88618
 20
159.4607
 11
-57.38618
 21
159.4607
  0
LINE
  8
0
  6
CONTINUOUS
 62
     7
 10
-68.38615
 20
159.4607
 11
-68.38615
 21
159.9607
  0
LINE
  8
0
  6
CONTINUOUS
 62
     7
 10
-57.38618
 20
159.4607
 11
-57.38618
 21
159.9607
  0
LINE
  8
0
  6
CONTINUOUS
 62
     7
 10
-63.88622
 20
159.4607
 11
-63.88622
 21
159.9607
  0
LINE
  8
0
  6
CONTINUOUS
 62
     7
 10
-52.88618
 20
159.4607
 11
-52.88618
 21
159.9607
  0
LINE
  8
0
  6
CONTINUOUS
 62
     7
 10
-68.38615
 20
159.9607
 11
-52.88618
 21
159.9607
  0
LINE
  8
0
  6
CONTINUOUS
 62
     7
 10
-68.13618
 20
162.9607
 11
-53.13618
 21
162.9607
  0
LINE
  8
0
  6
CENTER
 62
     2
 10
-55.13618
 20
157.1495
 11
-55.13618
 21
160.5079
  0
LINE
  8
0
  6
CENTER
 62
     2
 10
-66.13618
 20
157.1155
 11
-66.13618
 21
160.6096
  0
LINE
  8
0
  6
CENTER
 62
     2
 10
-60.63618
 20
164.237
 11
-60.63618
 21
158.4075
  0
LINE
  8
0
  6
CONTINUOUS
 62
     7
 10
-140.6362
 20
10.41592
 11
-132.1362
 21
10.41592
  0
LINE
  8
0
  6
CONTINUOUS
 62
     7
 10
-140.6362
 20
10.41593
 11
-140.6362
 21
-49.58408
  0
LINE
  8
0
  6
CONTINUOUS
 62
     7
 10
-44.63618
 20
10.41593
 11
-44.63618
 21
-49.58408
  0
LINE
  8
0
  6
CENTER
 62
     2
 10
-48.13618
 20
-23.94942
 11
-48.13618
 21
-30.99274
  0
LINE
  8
0
  6
CENTER
 62
     2
 10
-137.1362
 20
-7.94942
 11
-137.1362
 21
-14.99274
  0
LINE
  8
0
  6
CENTER
 62
     2
 10
-137.1362
 20
-23.94942
 11
-137.1362
 21
-30.99274
  0
LINE
  8
0
  6
CENTER
 62
     2
 10
-48.13618
 20
-7.94942
 11
-48.13618
 21
-14.99274
  0
LINE
  8
0
  6
CONTINUOUS
 62
     7
 10
-117.1362
 20
10.41592
 11
-116.1362
 21
10.41592
  0
LINE
  8
0
  6
CONTINUOUS
 62
     7
 10
-140.6362
 20
-49.58408
 11
-100.1362
 21
-49.58408
  0
LINE
  8
0
  6
CONTINUOUS
 62
     7
 10
-101.1362
 20
10.41592
 11
-100.1362
 21
10.41592
  0
LINE
  8
0
  6
CENTER
 62
     2
 10
-140.6362
 20
-11.58407
 11
-134.0115
 21
-11.58407
  0
LINE
  8
0
  6
CENTER
 62
     2
 10
-140.6362
 20
-27.58407
 11
-133.5503
 21
-27.58407
  0
LINE
  8
0
  6
CONTINUOUS
 62
     7
 10
-85.13618
 20
10.41592
 11
-84.13618
 21
10.41592
  0
LINE
  8
0
  6
CONTINUOUS
 62
     7
 10
-69.13618
 20
10.41592
 11
-44.63618
 21
10.41592
  0
LINE
  8
0
  6
CONTINUOUS
 62
     7
 10
-85.13618
 20
-49.58408
 11
-84.13618
 21
-49.58408
  0
LINE
  8
0
  6
CONTINUOUS
 62
     7
 10
-69.13618
 20
-49.58408
 11
-44.63618
 21
-49.58408
  0
LINE
  8
0
  6
CONTINUOUS
 62
     7
 10
-51.96952
 20
-11.58407
 11
-44.96952
 21
-11.58407
  0
LINE
  8
0
  6
CONTINUOUS
 62
     7
 10
-51.63618
 20
-27.58407
 11
-44.96952
 21
-27.58407
  0
LINE
  8
0
  6
CONTINUOUS
 62
     7
 10
-53.13618
 20
5.41593
 11
-53.13618
 21
-27.5533
  0
LINE
  8
0
  6
CENTER
 62
     2
 10
-60.63618
 20
8.41593
 11
-60.63618
 21
-47.58407
  0
LINE
  8
0
  6
CONTINUOUS
 62
     7
 10
-68.13618
 20
5.41593
 11
-68.13618
 21
-9.5533
  0
LINE
  8
0
  6
CENTER
 62
     2
 10
-58.20448
 20
-28.58407
 11
-52.08522
 21
-28.58407
  0
LINE
  8
0
  6
CENTER
 62
     2
 10
-55.13618
 20
-25.67964
 11
-55.13618
 21
-31.47683
  0
LINE
  8
0
  6
CONTINUOUS
 62
     7
 10
-55.43617
 20
-29.88408
 11
-55.43617
 21
-29.68408
  0
LINE
  8
0
  6
CONTINUOUS
 62
     7
 10
-54.8362
 20
-29.88408
 11
-54.8362
 21
-29.68408
  0
LINE
  8
0
  6
CONTINUOUS
 62
     7
 10
-56.43617
 20
-28.28407
 11
-56.23616
 21
-28.28407
  0
LINE
  8
0
  6
CONTINUOUS
 62
     7
 10
-56.43617
 20
-28.88408
 11
-56.23616
 21
-28.88408
  0
LINE
  8
0
  6
CONTINUOUS
 62
     7
 10
-54.8362
 20
-27.48407
 11
-54.8362
 21
-27.28408
  0
LINE
  8
0
  6
CONTINUOUS
 62
     7
 10
-55.43617
 20
-27.48407
 11
-55.43617
 21
-27.28408
  0
LINE
  8
0
  6
CONTINUOUS
 62
     7
 10
-54.03621
 20
-28.28407
 11
-53.8362
 21
-28.28407
  0
LINE
  8
0
  6
CONTINUOUS
 62
     7
 10
-54.03621
 20
-28.88408
 11
-53.8362
 21
-28.88408
  0
LINE
  8
0
  6
CONTINUOUS
 62
     7
 10
-55.43617
 20
-29.88408
 11
-54.8362
 21
-29.88408
  0
LINE
  8
0
  6
CONTINUOUS
 62
     7
 10
-55.43617
 20
-27.28408
 11
-54.8362
 21
-27.28408
  0
LINE
  8
0
  6
CONTINUOUS
 62
     7
 10
-56.43617
 20
-28.28407
 11
-56.43617
 21
-28.88408
  0
LINE
  8
0
  6
CONTINUOUS
 62
     7
 10
-53.8362
 20
-28.28407
 11
-53.8362
 21
-28.88408
  0
LINE
  8
0
  6
CENTER
 62
     2
 10
-69.20448
 20
-10.58407
 11
-63.08522
 21
-10.58407
  0
LINE
  8
0
  6
CENTER
 62
     2
 10
-66.13618
 20
-7.67964
 11
-66.13618
 21
-13.47683
  0
LINE
  8
0
  6
CONTINUOUS
 62
     7
 10
-66.43617
 20
-11.88408
 11
-66.43617
 21
-11.68408
  0
LINE
  8
0
  6
CONTINUOUS
 62
     7
 10
-65.8362
 20
-11.88408
 11
-65.8362
 21
-11.68408
  0
LINE
  8
0
  6
CONTINUOUS
 62
     7
 10
-67.43617
 20
-10.28407
 11
-67.23616
 21
-10.28407
  0
LINE
  8
0
  6
CONTINUOUS
 62
     7
 10
-67.43617
 20
-10.88408
 11
-67.23616
 21
-10.88408
  0
LINE
  8
0
  6
CONTINUOUS
 62
     7
 10
-65.8362
 20
-9.48407
 11
-65.8362
 21
-9.28408
  0
LINE
  8
0
  6
CONTINUOUS
 62
     7
 10
-66.43617
 20
-9.48407
 11
-66.43617
 21
-9.28408
  0
LINE
  8
0
  6
CONTINUOUS
 62
     7
 10
-65.03621
 20
-10.28407
 11
-64.8362
 21
-10.28407
  0
LINE
  8
0
  6
CONTINUOUS
 62
     7
 10
-65.03621
 20
-10.88408
 11
-64.8362
 21
-10.88408
  0
LINE
  8
0
  6
CONTINUOUS
 62
     7
 10
-66.43617
 20
-11.88408
 11
-65.8362
 21
-11.88408
  0
LINE
  8
0
  6
CONTINUOUS
 62
     7
 10
-66.43617
 20
-9.28408
 11
-65.8362
 21
-9.28408
  0
LINE
  8
0
  6
CONTINUOUS
 62
     7
 10
-67.43617
 20
-10.28407
 11
-67.43617
 21
-10.88408
  0
LINE
  8
0
  6
CONTINUOUS
 62
     7
 10
-64.8362
 20
-10.28407
 11
-64.8362
 21
-10.88408
  0
LINE
  8
0
  6
CONTINUOUS
 62
     7
 10
-68.13618
 20
5.41593
 11
-53.13618
 21
5.41593
  0
LINE
  8
0
  6
CONTINUOUS
 62
     7
 10
-68.13618
 20
-44.58407
 11
-53.13618
 21
-44.58407
  0
LINE
  8
0
  6
CONTINUOUS
 62
     7
 10
-68.13618
 20
-11.61485
 11
-68.13618
 21
-44.58407
  0
LINE
  8
0
  6
CONTINUOUS
 62
     7
 10
-53.13618
 20
-29.61485
 11
-53.13618
 21
-44.58407
  0
LINE
  8
0
  6
CONTINUOUS
 62
     7
 10
-140.6362
 20
-174.1288
 11
-89.84688
 21
-174.1288
  0
LINE
  8
0
  6
CONTINUOUS
 62
     7
 10
-140.6362
 20
-174.1288
 11
-140.6362
 21
-199.1288
  0
LINE
  8
0
  6
CONTINUOUS
 62
     7
 10
-44.63618
 20
-174.1288
 11
-44.63618
 21
-199.1288
  0
LINE
  8
0
  6
CONTINUOUS
 62
     7
 10
-131.6362
 20
-174.1288
 11
-131.6362
 21
-173.1288
  0
LINE
  8
0
  6
CONTINUOUS
 62
     7
 10
-117.6362
 20
-174.1288
 11
-117.6362
 21
-173.1288
  0
LINE
  8
0
  6
CONTINUOUS
 62
     7
 10
-115.6362
 20
-174.1288
 11
-115.6362
 21
-173.1288
  0
LINE
  8
0
  6
CONTINUOUS
 62
     7
 10
-101.6362
 20
-174.1288
 11
-101.6362
 21
-173.1288
  0
LINE
  8
0
  6
CENTER
 62
     2
 10
-124.6362
 20
-172.1288
 11
-124.6362
 21
-200.1288
  0
LINE
  8
0
  6
CENTER
 62
     2
 10
-108.6362
 20
-200.1288
 11
-108.6362
 21
-172.1288
  0
LINE
  8
0
  6
CENTER
 62
     2
 10
-92.63618
 20
-172.1288
 11
-92.63618
 21
-200.1288
  0
LINE
  8
0
  6
CENTER
 62
     2
 10
-76.63618
 20
-172.1288
 11
-76.63618
 21
-200.1288
  0
LINE
  8
0
  6
CONTINUOUS
 62
     7
 10
-99.63618
 20
-173.1288
 11
-99.63618
 21
-174.1288
  0
LINE
  8
0
  6
CONTINUOUS
 62
     7
 10
-85.63618
 20
-173.1288
 11
-85.63618
 21
-174.1288
  0
LINE
  8
0
  6
CONTINUOUS
 62
     7
 10
-83.63618
 20
-173.1288
 11
-83.63618
 21
-174.1288
  0
LINE
  8
0
  6
CONTINUOUS
 62
     7
 10
-69.63618
 20
-173.0679
 11
-69.63618
 21
-174.1288
  0
LINE
  8
0
  6
CONTINUOUS
 62
     7
 10
-53.63618
 20
-173.1288
 11
-53.63618
 21
-174.1288
  0
LINE
  8
0
  6
CONTINUOUS
 62
     7
 10
-67.63618
 20
-173.1288
 11
-67.63618
 21
-174.1288
  0
LINE
  8
0
  6
CENTER
 62
     2
 10
-60.63618
 20
-172.1288
 11
-60.63618
 21
-200.1288
  0
LINE
  8
0
  6
PHANTOM
 62
     2
 10
-90.05487
 20
-173.3526
 11
-82.96952
 21
-199.7955
  0
LINE
  8
0
  6
PHANTOM
 62
     2
 10
-87.98767
 20
-173.34
 11
-80.96686
 21
-199.5421
  0
LINE
  8
0
  6
CONTINUOUS
 62
     7
 10
-87.77633
 20
-174.1288
 11
-44.63618
 21
-174.1288
  0
LINE
  8
0
  6
CONTINUOUS
 62
     7
 10
-84.96286
 20
-184.6288
 11
-44.63618
 21
-184.6288
  0
LINE
  8
0
  6
CONTINUOUS
 62
     7
 10
-140.6362
 20
-184.6288
 11
-87.03342
 21
-184.6288
  0
LINE
  8
0
  6
CONTINUOUS
 62
     7
 10
-83.35516
 20
-190.6288
 11
-44.63618
 21
-190.6288
  0
LINE
  8
0
  6
CONTINUOUS
 62
     7
 10
-140.6362
 20
-190.6288
 11
-85.42572
 21
-190.6288
  0
LINE
  8
0
  6
CONTINUOUS
 62
     7
 10
-81.0776
 20
-199.1288
 11
-44.63618
 21
-199.1288
  0
LINE
  8
0
  6
CONTINUOUS
 62
     7
 10
-140.6362
 20
-199.1288
 11
-83.14815
 21
-199.1288
  0
LINE
  8
0
  6
CONTINUOUS
 62
     7
 10
-68.13618
 20
-170.1288
 11
-68.13618
 21
-173.1288
  0
LINE
  8
0
  6
CONTINUOUS
 62
     7
 10
-53.13618
 20
-170.1288
 11
-53.13618
 21
-173.1288
  0
LINE
  8
0
  6
CONTINUOUS
 62
     7
 10
-68.38614
 20
-170.1288
 11
-52.88618
 21
-170.1288
  0
LINE
  8
0
  6
CONTINUOUS
 62
     7
 10
-52.95456
 20
-168.8469
 11
-52.88614
 21
-169.6289
  0
LINE
  8
0
  6
CONTINUOUS
 62
     7
 10
-57.31782
 20
-168.8468
 11
-57.38623
 21
-169.6288
  0
LINE
  8
0
  6
CONTINUOUS
 62
     7
 10
-52.88618
 20
-169.6288
 11
-57.38618
 21
-169.6288
  0
LINE
  8
0
  6
CONTINUOUS
 62
     7
 10
-57.38618
 20
-169.6288
 11
-57.38618
 21
-170.1288
  0
LINE
  8
0
  6
CONTINUOUS
 62
     7
 10
-52.88618
 20
-169.6288
 11
-52.88618
 21
-170.1288
  0
LINE
  8
0
  6
CONTINUOUS
 62
     7
 10
-63.95464
 20
-168.8468
 11
-63.88623
 21
-169.6288
  0
LINE
  8
0
  6
CONTINUOUS
 62
     7
 10
-68.31773
 20
-168.8468
 11
-68.38615
 21
-169.6288
  0
LINE
  8
0
  6
CONTINUOUS
 62
     7
 10
-68.38614
 20
-169.6288
 11
-63.88622
 21
-169.6288
  0
LINE
  8
0
  6
CONTINUOUS
 62
     7
 10
-68.38614
 20
-169.6288
 11
-68.38614
 21
-170.1288
  0
LINE
  8
0
  6
CONTINUOUS
 62
     7
 10
-63.88622
 20
-169.6288
 11
-63.88622
 21
-170.1288
  0
LINE
  8
0
  6
CONTINUOUS
 62
     7
 10
-68.13618
 20
-173.1288
 11
-53.13618
 21
-173.1288
  0
LINE
  8
0
  6
CENTER
 62
     2
 10
-60.63618
 20
-168.8151
 11
-60.63618
 21
-174.2965
  0
LINE
  8
0
  6
CENTER
 62
     2
 10
-55.13618
 20
-167.4326
 11
-55.13618
 21
-170.5669
  0
LINE
  8
0
  6
CENTER
 62
     2
 10
-66.13618
 20
-167.4695
 11
-66.13618
 21
-170.6406
  0
LINE
  8
0
  6
CONTINUOUS
 62
     7
 10
169.5226
 20
-38.58412
 11
170.0226
 21
-39.08411
  0
LINE
  8
0
  6
CONTINUOUS
 62
     7
 10
169.5226
 20
-38.58405
 11
170.0226
 21
-38.08406
  0
LINE
  8
0
  6
CENTER
 62
     2
 10
151.3834
 20
-19.58407
 11
164.9958
 21
-19.58407
  0
LINE
  8
0
  6
CONTINUOUS
 62
     7
 10
145.0226
 20
10.21593
 11
145.0226
 21
-49.38407
  0
LINE
  8
0
  6
CONTINUOUS
 62
     7
 10
170.0226
 20
-33.58407
 11
170.0226
 21
-38.0841
  0
LINE
  8
0
  6
CENTER
 62
     2
 10
161.6226
 20
3.41593
 11
161.6226
 21
-9.58407
  0
LINE
  8
0
  6
CENTER
 62
     2
 10
161.6226
 20
-29.58407
 11
161.6226
 21
-42.58407
  0
LINE
  8
0
  6
CENTER
 62
     2
 10
158.0226
 20
-12.90156
 11
158.0226
 21
-26.26941
  0
LINE
  8
0
  6
CONTINUOUS
 62
     7
 10
170.0226
 20
-39.0841
 11
170.0226
 21
-43.58407
  0
LINE
  8
0
  6
CENTER
 62
     2
 10
154.5102
 20
-3.58407
 11
168.1226
 21
-3.58407
  0
LINE
  8
0
  6
CENTER
 62
     2
 10
154.9178
 20
-35.58407
 11
168.2041
 21
-35.58407
  0
LINE
  8
0
  6
CONTINUOUS
 62
     7
 10
145.2226
 20
10.41593
 11
155.5226
 21
10.41593
  0
LINE
  8
0
  6
CONTINUOUS
 62
     7
 10
145.2226
 20
-49.58407
 11
155.5226
 21
-49.58407
  0
LINE
  8
0
  6
CONTINUOUS
 62
     7
 10
170.0226
 20
4.21593
 11
170.0226
 21
-5.58407
  0
LINE
  8
0
  6
CONTINUOUS
 62
     7
 10
161.5226
 20
4.41593
 11
169.8226
 21
4.41593
  0
LINE
  8
0
  6
CONTINUOUS
 62
     7
 10
161.5226
 20
-43.58407
 11
169.8226
 21
-43.58407
  0
LINE
  8
0
  6
CONTINUOUS
 62
     7
 10
155.5226
 20
-49.58409
 11
161.5226
 21
-43.58409
  0
LINE
  8
0
  6
CONTINUOUS
 62
     7
 10
155.5226
 20
10.41594
 11
161.5226
 21
4.41594
  0
LINE
  8
0
  6
CONTINUOUS
 62
     7
 10
166.0226
 20
-9.58407
 11
166.0226
 21
-29.58407
  0
LINE
  8
0
  6
CONTINUOUS
 62
     7
 10
166.0226
 20
-9.58407
 11
170.0226
 21
-5.58407
  0
LINE
  8
0
  6
CONTINUOUS
 62
     7
 10
166.0226
 20
-29.58407
 11
170.0226
 21
-33.58406
  0
LINE
  8
0
  6
CONTINUOUS
 62
     7
 10
144.0226
 20
6.61593
 11
145.0226
 21
6.61593
  0
LINE
  8
0
  6
CONTINUOUS
 62
     7
 10
144.0226
 20
-0.38407
 11
145.0226
 21
-0.38407
  0
LINE
  8
0
  6
CONTINUOUS
 62
     7
 10
144.0226
 20
-38.78407
 11
145.0226
 21
-38.78407
  0
LINE
  8
0
  6
CONTINUOUS
 62
     7
 10
144.0226
 20
-45.78407
 11
145.0226
 21
-45.78407
  0
LINE
  8
0
  6
CONTINUOUS
 62
     7
 10
144.0226
 20
-5.58407
 11
145.0226
 21
-5.58407
  0
LINE
  8
0
  6
CONTINUOUS
 62
     7
 10
144.0226
 20
-33.58407
 11
145.0226
 21
-33.58407
  0
LINE
  8
0
  6
CENTER
 62
     2
 10
150.5226
 20
6.75369
 11
150.5226
 21
-1.00688
  0
LINE
  8
0
  6
CENTER
 62
     2
 10
150.5226
 20
-38.25762
 11
150.5226
 21
-45.87709
  0
LINE
  8
0
  6
CENTER
 62
     2
 10
146.6487
 20
-42.08407
 11
154.2682
 21
-42.08407
  0
LINE
  8
0
  6
CENTER
 62
     2
 10
146.3665
 20
2.91593
 11
154.2682
 21
2.91593
  0
LINE
  8
0
  6
CONTINUOUS
 62
     7
 10
139.7406
 20
-26.40249
 11
140.5226
 21
-26.33407
  0
LINE
  8
0
  6
CONTINUOUS
 62
     7
 10
139.7406
 20
-30.76567
 11
140.5226
 21
-30.83408
  0
LINE
  8
0
  6
CONTINUOUS
 62
     7
 10
140.5226
 20
-30.83404
 11
140.5226
 21
-26.3341
  0
LINE
  8
0
  6
CONTINUOUS
 62
     7
 10
140.5227
 20
-29.08394
 11
141.0227
 21
-29.21791
  0
LINE
  8
0
  6
CONTINUOUS
 62
     7
 10
140.5227
 20
-28.08404
 11
141.0227
 21
-28.21801
  0
LINE
  8
0
  6
CONTINUOUS
 62
     7
 10
140.5226
 20
-30.83404
 11
141.0226
 21
-30.83404
  0
LINE
  8
0
  6
CONTINUOUS
 62
     7
 10
140.5226
 20
-26.3341
 11
141.0226
 21
-26.3341
  0
LINE
  8
0
  6
CENTER
 62
     2
 10
148.4372
 20
-19.58407
 11
118.3929
 21
-19.58407
  0
LINE
  8
0
  6
CONTINUOUS
 62
     7
 10
141.0226
 20
5.41593
 11
141.0226
 21
-44.58407
  0
LINE
  8
0
  6
CONTINUOUS
 62
     7
 10
139.7406
 20
-8.40251
 11
140.5226
 21
-8.3341
  0
LINE
  8
0
  6
CONTINUOUS
 62
     7
 10
139.7406
 20
-12.76564
 11
140.5226
 21
-12.83405
  0
LINE
  8
0
  6
CONTINUOUS
 62
     7
 10
140.5226
 20
-12.83404
 11
140.5226
 21
-8.3341
  0
LINE
  8
0
  6
CONTINUOUS
 62
     7
 10
140.5227
 20
-11.08394
 11
141.0227
 21
-11.21791
  0
LINE
  8
0
  6
CONTINUOUS
 62
     7
 10
140.5227
 20
-10.08404
 11
141.0227
 21
-10.21802
  0
LINE
  8
0
  6
CONTINUOUS
 62
     7
 10
140.5226
 20
-12.83404
 11
141.0226
 21
-12.83404
  0
LINE
  8
0
  6
CONTINUOUS
 62
     7
 10
140.5226
 20
-8.3341
 11
141.0226
 21
-8.3341
  0
LINE
  8
0
  6
CENTER
 62
     2
 10
137.59
 20
-10.58407
 11
142.4071
 21
-10.58407
  0
LINE
  8
0
  6
CENTER
 62
     2
 10
137.3805
 20
-28.58407
 11
142.5467
 21
-28.58407
  0
LINE
  8
0
  6
CONTINUOUS
 62
     7
 10
144.0226
 20
5.41593
 11
144.0226
 21
-44.58407
  0
LINE
  8
0
  6
CONTINUOUS
 62
     7
 10
144.0226
 20
-44.58407
 11
141.0226
 21
-44.58407
  0
LINE
  8
0
  6
CONTINUOUS
 62
     7
 10
144.0226
 20
5.41593
 11
141.0226
 21
5.41593
  0
LINE
  8
0
  6
PHANTOM
 62
     2
 10
144.0226
 20
-44.58407
 11
144.0226
 21
-60.58406
  0
LINE
  8
0
  6
CENTER
 62
     2
 10
-127.6362
 20
-21.13569
 11
-127.6362
 21
-28.08555
  0
LINE
  8
0
  6
CENTER
 62
     2
 10
-130.9533
 20
-24.58407
 11
-124.0034
 21
-24.58407
  0
LINE
  8
0
  6
CENTER
 62
     2
 10
-125.1008
 20
-14.58407
 11
-118.1509
 21
-14.58407
  0
LINE
  8
0
  6
CENTER
 62
     2
 10
-121.6362
 20
-10.98526
 11
-121.6362
 21
-18.75811
  0
LINE
  8
0
  6
CENTER
 62
     2
 10
-111.6362
 20
-21.13569
 11
-111.6362
 21
-28.08555
  0
LINE
  8
0
  6
CENTER
 62
     2
 10
-114.9533
 20
-24.58407
 11
-108.0034
 21
-24.58407
  0
LINE
  8
0
  6
CENTER
 62
     2
 10
-109.1008
 20
-14.58407
 11
-102.1509
 21
-14.58407
  0
LINE
  8
0
  6
CENTER
 62
     2
 10
-105.6362
 20
-10.98526
 11
-105.6362
 21
-18.75811
  0
LINE
  8
0
  6
CENTER
 62
     2
 10
-95.63618
 20
-21.13569
 11
-95.63618
 21
-28.08555
  0
LINE
  8
0
  6
CENTER
 62
     2
 10
-98.95329
 20
-24.58407
 11
-92.00345
 21
-24.58407
  0
LINE
  8
0
  6
CENTER
 62
     2
 10
-93.10078
 20
-14.58407
 11
-86.15094
 21
-14.58407
  0
LINE
  8
0
  6
CENTER
 62
     2
 10
-89.63618
 20
-10.98526
 11
-89.63618
 21
-18.75811
  0
LINE
  8
0
  6
CENTER
 62
     2
 10
-79.63618
 20
-21.13569
 11
-79.63618
 21
-28.08555
  0
LINE
  8
0
  6
CENTER
 62
     2
 10
-82.95329
 20
-24.58407
 11
-76.00345
 21
-24.58407
  0
LINE
  8
0
  6
CENTER
 62
     2
 10
-77.10078
 20
-14.58407
 11
-70.15094
 21
-14.58407
  0
LINE
  8
0
  6
CENTER
 62
     2
 10
-73.63618
 20
-10.98526
 11
-73.63618
 21
-18.75811
  0
ARC
  8
0
  6
CONTINUOUS
 62
     7
 10
273.0354
 20
-235.0457
 40
2.21188
 50
0.0
 51
89.99999
  0
ARC
  8
0
  6
CONTINUOUS
 62
     7
 10
291.2836
 20
-246.9346
 40
2.2119
 50
270.0
 51
0.0
  0
ARC
  8
0
  6
CONTINUOUS
 62
     7
 10
290.1776
 20
-236.1516
 40
3.31784
 50
0.0
 51
89.99999
  0
ARC
  8
0
  6
CONTINUOUS
 62
     7
 10
310.3611
 20
-236.8128
 40
2.21189
 50
295.0
 51
0.0
  0
ARC
  8
0
  6
CONTINUOUS
 62
     7
 10
310.3611
 20
-235.0457
 40
2.21188
 50
0.0
 51
89.99999
  0
ARC
  8
0
  6
CONTINUOUS
 62
     7
 10
327.5034
 20
-232.8338
 40
3.31784
 50
291.6884
 51
0.0
  0
ARC
  8
0
  6
CONTINUOUS
 62
     7
 10
326.3973
 20
-232.0834
 40
1.10595
 50
291.689
 51
0.0
  0
ARC
  8
0
  6
PHANTOM
 62
     2
 10
-131.6362
 20
-40.58407
 40
0.5
 50
180.0
 51
270.0
  0
ARC
  8
0
  6
PHANTOM
 62
     2
 10
-117.6362
 20
-40.58407
 40
0.5
 50
270.0
 51
0.0
  0
ARC
  8
0
  6
PHANTOM
 62
     2
 10
-125.9362
 20
29.41593
 40
1.7
 50
89.99999
 51
270.0
  0
CIRCLE
  8
0
  6
PHANTOM
 62
     2
 10
-125.9362
 20
29.41593
 40
0.85
  0
ARC
  8
0
  6
PHANTOM
 62
     2
 10
-123.3362
 20
29.41593
 40
1.7
 50
270.0
 51
89.99999
  0
CIRCLE
  8
0
  6
PHANTOM
 62
     2
 10
-123.3362
 20
29.41593
 40
0.85
  0
ARC
  8
0
  6
PHANTOM
 62
     2
 10
-74.16023
 20
137.4449
 40
0.5
 50
270.0
 51
0.0
  0
ARC
  8
0
  6
PHANTOM
 62
     2
 10
-79.16023
 20
137.4449
 40
0.5
 50
180.0
 51
270.0
  0
ARC
  8
0
  6
PHANTOM
 62
     2
 10
-69.63618
 20
162.4607
 40
0.5
 50
0.0
 51
89.99999
  0
ARC
  8
0
  6
PHANTOM
 62
     2
 10
-83.63618
 20
162.4607
 40
0.5
 50
89.99999
 51
180.0
  0
ARC
  8
0
  6
PHANTOM
 62
     2
 10
-131.6362
 20
-172.6288
 40
0.5
 50
180.0
 51
270.0
  0
ARC
  8
0
  6
PHANTOM
 62
     2
 10
-127.1362
 20
-147.6288
 40
0.5
 50
89.99999
 51
180.0
  0
ARC
  8
0
  6
PHANTOM
 62
     2
 10
-122.1362
 20
-147.6288
 40
0.5
 50
0.0
 51
89.99999
  0
ARC
  8
0
  6
PHANTOM
 62
     2
 10
-117.6362
 20
-172.6288
 40
0.5
 50
270.0
 51
0.0
  0
ARC
  8
0
  6
PHANTOM
 62
     2
 10
-122.1602
 20
137.4449
 40
0.5
 50
270.0
 51
0.0
  0
ARC
  8
0
  6
PHANTOM
 62
     2
 10
-127.1602
 20
137.4449
 40
0.5
 50
180.0
 51
270.0
  0
ARC
  8
0
  6
PHANTOM
 62
     2
 10
-117.6362
 20
162.4607
 40
0.5
 50
0.0
 51
89.99999
  0
ARC
  8
0
  6
PHANTOM
 62
     2
 10
-131.6362
 20
162.4607
 40
0.5
 50
89.99999
 51
180.0
  0
ARC
  8
0
  6
PHANTOM
 62
     2
 10
-106.1602
 20
137.4449
 40
0.5
 50
270.0
 51
0.0
  0
ARC
  8
0
  6
PHANTOM
 62
     2
 10
-111.1602
 20
137.4449
 40
0.5
 50
180.0
 51
270.0
  0
ARC
  8
0
  6
PHANTOM
 62
     2
 10
-101.6362
 20
162.4607
 40
0.5
 50
0.0
 51
89.99999
  0
ARC
  8
0
  6
PHANTOM
 62
     2
 10
-115.6362
 20
162.4607
 40
0.5
 50
89.99999
 51
180.0
  0
ARC
  8
0
  6
PHANTOM
 62
     2
 10
-90.16023
 20
137.4449
 40
0.5
 50
270.0
 51
0.0
  0
ARC
  8
0
  6
PHANTOM
 62
     2
 10
-95.16023
 20
137.4449
 40
0.5
 50
180.0
 51
270.0
  0
ARC
  8
0
  6
PHANTOM
 62
     2
 10
-85.63618
 20
162.4607
 40
0.5
 50
0.0
 51
89.99999
  0
ARC
  8
0
  6
PHANTOM
 62
     2
 10
-99.63618
 20
162.4607
 40
0.5
 50
89.99999
 51
180.0
  0
ARC
  8
0
  6
PHANTOM
 62
     2
 10
-115.6362
 20
-40.58407
 40
0.5
 50
180.0
 51
270.0
  0
ARC
  8
0
  6
PHANTOM
 62
     2
 10
-101.6362
 20
-40.58407
 40
0.5
 50
270.0
 51
0.0
  0
ARC
  8
0
  6
PHANTOM
 62
     2
 10
-109.9362
 20
29.41593
 40
1.7
 50
89.99999
 51
270.0
  0
CIRCLE
  8
0
  6
PHANTOM
 62
     2
 10
-109.9362
 20
29.41593
 40
0.85
  0
ARC
  8
0
  6
PHANTOM
 62
     2
 10
-107.3362
 20
29.41593
 40
1.7
 50
270.0
 51
89.99999
  0
CIRCLE
  8
0
  6
PHANTOM
 62
     2
 10
-107.3362
 20
29.41593
 40
0.85
  0
ARC
  8
0
  6
PHANTOM
 62
     2
 10
-115.6362
 20
-172.6288
 40
0.5
 50
180.0
 51
270.0
  0
ARC
  8
0
  6
PHANTOM
 62
     2
 10
-111.1362
 20
-147.6288
 40
0.5
 50
89.99999
 51
180.0
  0
ARC
  8
0
  6
PHANTOM
 62
     2
 10
-106.1362
 20
-147.6288
 40
0.5
 50
0.0
 51
89.99999
  0
ARC
  8
0
  6
PHANTOM
 62
     2
 10
-101.6362
 20
-172.6288
 40
0.5
 50
270.0
 51
0.0
  0
ARC
  8
0
  6
PHANTOM
 62
     2
 10
-93.93619
 20
29.41593
 40
1.7
 50
89.99999
 51
270.0
  0
CIRCLE
  8
0
  6
PHANTOM
 62
     2
 10
-93.93619
 20
29.41593
 40
0.85
  0
ARC
  8
0
  6
PHANTOM
 62
     2
 10
-91.33618
 20
29.41593
 40
1.7
 50
270.0
 51
89.99999
  0
CIRCLE
  8
0
  6
PHANTOM
 62
     2
 10
-91.33618
 20
29.41593
 40
0.85
  0
CIRCLE
  8
0
  6
PHANTOM
 62
     2
 10
-91.33618
 20
-68.58408
 40
0.85
  0
ARC
  8
0
  6
PHANTOM
 62
     2
 10
-91.33618
 20
-68.58408
 40
1.7
 50
270.0
 51
89.99999
  0
ARC
  8
0
  6
PHANTOM
 62
     2
 10
-93.93619
 20
-68.58408
 40
1.7
 50
89.99999
 51
270.0
  0
CIRCLE
  8
0
  6
PHANTOM
 62
     2
 10
-93.93619
 20
-68.58408
 40
0.85
  0
ARC
  8
0
  6
PHANTOM
 62
     2
 10
-79.11214
 20
-147.613
 40
0.5
 50
89.99999
 51
180.0
  0
ARC
  8
0
  6
PHANTOM
 62
     2
 10
-74.11214
 20
-147.613
 40
0.5
 50
0.0
 51
89.99999
  0
ARC
  8
0
  6
PHANTOM
 62
     2
 10
-83.63618
 20
-172.6289
 40
0.5
 50
180.0
 51
270.0
  0
ARC
  8
0
  6
PHANTOM
 62
     2
 10
-69.63618
 20
-172.6289
 40
0.5
 50
270.0
 51
0.0
  0
ARC
  8
0
  6
PHANTOM
 62
     2
 10
-99.63618
 20
-172.6289
 40
0.5
 50
180.0
 51
270.0
  0
ARC
  8
0
  6
PHANTOM
 62
     2
 10
-85.63618
 20
-172.6289
 40
0.5
 50
270.0
 51
0.0
  0
ARC
  8
0
  6
PHANTOM
 62
     2
 10
-95.11214
 20
-147.613
 40
0.5
 50
89.99999
 51
180.0
  0
ARC
  8
0
  6
PHANTOM
 62
     2
 10
-90.11214
 20
-147.613
 40
0.5
 50
0.0
 51
89.99999
  0
ARC
  8
0
  6
PHANTOM
 62
     2
 10
-77.93617
 20
31.41593
 40
1.7
 50
89.99999
 51
270.0
  0
ARC
  8
0
  6
PHANTOM
 62
     2
 10
-75.33617
 20
31.41593
 40
1.7
 50
270.0
 51
89.99999
  0
CIRCLE
  8
0
  6
PHANTOM
 62
     2
 10
-77.93617
 20
31.41593
 40
0.85
  0
CIRCLE
  8
0
  6
PHANTOM
 62
     2
 10
-75.33617
 20
31.41593
 40
0.85
  0
ARC
  8
0
  6
PHANTOM
 62
     2
 10
-77.93617
 20
-78.58406
 40
1.7
 50
89.99999
 51
270.0
  0
ARC
  8
0
  6
PHANTOM
 62
     2
 10
-75.33617
 20
-78.58406
 40
1.7
 50
270.0
 51
89.99999
  0
CIRCLE
  8
0
  6
PHANTOM
 62
     2
 10
-77.93617
 20
-78.58406
 40
0.85
  0
CIRCLE
  8
0
  6
PHANTOM
 62
     2
 10
-75.33617
 20
-78.58406
 40
0.85
  0
ARC
  8
0
  6
PHANTOM
 62
     2
 10
118.5226
 20
-67.38408
 40
0.5
 50
89.99999
 51
180.0
  0
ARC
  8
0
  6
PHANTOM
 62
     2
 10
118.5226
 20
-69.78407
 40
0.5
 50
180.0
 51
270.0
  0
ARC
  8
0
  6
PHANTOM
 62
     2
 10
118.5226
 20
-77.38405
 40
0.5
 50
89.99999
 51
180.0
  0
ARC
  8
0
  6
PHANTOM
 62
     2
 10
118.5226
 20
-79.78404
 40
0.5
 50
180.0
 51
270.0
  0
ARC
  8
0
  6
PHANTOM
 62
     2
 10
118.5226
 20
32.61592
 40
0.5
 50
89.99999
 51
180.0
  0
ARC
  8
0
  6
PHANTOM
 62
     2
 10
118.5226
 20
30.21593
 40
0.5
 50
180.0
 51
270.0
  0
ARC
  8
0
  6
PHANTOM
 62
     2
 10
118.5226
 20
30.61592
 40
0.5
 50
89.99999
 51
180.0
  0
ARC
  8
0
  6
PHANTOM
 62
     2
 10
118.5226
 20
28.21593
 40
0.5
 50
180.0
 51
270.0
  0
ARC
  8
0
  6
CONTINUOUS
 62
     7
 10
-53.75156
 20
158.7484
 40
0.8
 50
285.4427
 51
354.9994
  0
ARC
  8
0
  6
CONTINUOUS
 62
     7
 10
-55.13618
 20
163.7607
 40
6.0
 50
269.9999
 51
285.4426
  0
ARC
  8
0
  6
CONTINUOUS
 62
     7
 10
-56.52083
 20
158.7484
 40
0.8
 50
185.0006
 51
254.5572
  0
ARC
  8
0
  6
CONTINUOUS
 62
     7
 10
-55.13618
 20
163.7607
 40
6.0
 50
254.5573
 51
269.9999
  0
ARC
  8
0
  6
CONTINUOUS
 62
     7
 10
-66.13618
 20
163.7607
 40
6.0
 50
270.0
 51
285.4426
  0
ARC
  8
0
  6
CONTINUOUS
 62
     7
 10
-64.75156
 20
158.7484
 40
0.8
 50
285.4427
 51
354.9994
  0
ARC
  8
0
  6
CONTINUOUS
 62
     7
 10
-67.52083
 20
158.7484
 40
0.8
 50
185.0005
 51
254.5572
  0
ARC
  8
0
  6
CONTINUOUS
 62
     7
 10
-66.13618
 20
163.7607
 40
6.0
 50
254.5573
 51
269.9999
  0
CIRCLE
  8
0
  6
CONTINUOUS
 62
     7
 10
-48.13618
 20
-27.58407
 40
2.1
  0
CIRCLE
  8
0
  6
CONTINUOUS
 62
     7
 10
-137.1362
 20
-11.58407
 40
2.1
  0
CIRCLE
  8
0
  6
CONTINUOUS
 62
     7
 10
-137.1362
 20
-27.58407
 40
2.1
  0
CIRCLE
  8
0
  6
CONTINUOUS
 62
     7
 10
-48.13618
 20
-11.58407
 40
2.1
  0
ARC
  8
0
  6
CONTINUOUS
 62
     7
 10
-65.03621
 20
-9.48407
 40
0.8
 50
180.0
 51
270.0
  0
CIRCLE
  8
0
  6
CONTINUOUS
 62
     7
 10
-55.13618
 20
-28.58407
 40
2.25
  0
ARC
  8
0
  6
CONTINUOUS
 62
     7
 10
-54.03621
 20
-29.68408
 40
0.8
 50
89.99999
 51
180.0
  0
ARC
  8
0
  6
CONTINUOUS
 62
     7
 10
-56.23616
 20
-29.68408
 40
0.8
 50
0.0
 51
89.99999
  0
ARC
  8
0
  6
CONTINUOUS
 62
     7
 10
-56.23616
 20
-27.48407
 40
0.8
 50
270.0
 51
0.0
  0
ARC
  8
0
  6
CONTINUOUS
 62
     7
 10
-54.03621
 20
-27.48407
 40
0.8
 50
180.0
 51
270.0
  0
CIRCLE
  8
0
  6
CONTINUOUS
 62
     7
 10
-66.13618
 20
-10.58407
 40
2.25
  0
ARC
  8
0
  6
CONTINUOUS
 62
     7
 10
-65.03621
 20
-11.68408
 40
0.8
 50
89.99999
 51
179.9999
  0
ARC
  8
0
  6
CONTINUOUS
 62
     7
 10
-67.23616
 20
-11.68408
 40
0.8
 50
0.0
 51
89.99999
  0
ARC
  8
0
  6
CONTINUOUS
 62
     7
 10
-67.23616
 20
-9.48407
 40
0.8
 50
270.0
 51
0.0
  0
ARC
  8
0
  6
CONTINUOUS
 62
     7
 10
-67.52083
 20
-168.9165
 40
0.8
 50
105.4427
 51
174.9995
  0
ARC
  8
0
  6
CONTINUOUS
 62
     7
 10
-66.13618
 20
-173.9288
 40
6.0
 50
89.99999
 51
105.4426
  0
ARC
  8
0
  6
CONTINUOUS
 62
     7
 10
-55.13618
 20
-173.9288
 40
6.0
 50
74.55729
 51
89.99996
  0
ARC
  8
0
  6
CONTINUOUS
 62
     7
 10
-53.75156
 20
-168.9165
 40
0.8
 50
5.00058
 51
74.55726
  0
ARC
  8
0
  6
CONTINUOUS
 62
     7
 10
-55.13618
 20
-173.9288
 40
6.0
 50
89.99999
 51
105.4427
  0
ARC
  8
0
  6
CONTINUOUS
 62
     7
 10
-56.52083
 20
-168.9165
 40
0.8
 50
105.4427
 51
174.9994
  0
ARC
  8
0
  6
CONTINUOUS
 62
     7
 10
-66.13618
 20
-173.9288
 40
6.0
 50
74.55729
 51
89.99999
  0
ARC
  8
0
  6
CONTINUOUS
 62
     7
 10
-64.75156
 20
-168.9165
 40
0.8
 50
5.00058
 51
74.55726
  0
ARC
  8
0
  6
CONTINUOUS
 62
     7
 10
145.2226
 20
-49.38407
 40
0.2
 50
180.0
 51
270.0
  0
CIRCLE
  8
0
  6
CONTINUOUS
 62
     7
 10
161.6226
 20
-3.58407
 40
4.864
  0
CIRCLE
  8
0
  6
CONTINUOUS
 62
     7
 10
158.0226
 20
-19.58407
 40
4.864
  0
CIRCLE
  8
0
  6
CONTINUOUS
 62
     7
 10
161.6226
 20
-35.58407
 40
4.864
  0
CIRCLE
  8
0
  6
CONTINUOUS
 62
     7
 10
161.6226
 20
-3.58407
 40
4.283
  0
CIRCLE
  8
0
  6
CONTINUOUS
 62
     7
 10
158.0226
 20
-19.58407
 40
4.283
  0
CIRCLE
  8
0
  6
CONTINUOUS
 62
     7
 10
161.6226
 20
-35.58407
 40
4.283
  0
ARC
  8
0
  6
CONTINUOUS
 62
     7
 10
169.8226
 20
4.21593
 40
0.2
 50
0.0
 51
89.99999
  0
ARC
  8
0
  6
CONTINUOUS
 62
     7
 10
169.8226
 20
-43.38407
 40
0.2
 50
270.0
 51
0.0
  0
ARC
  8
0
  6
CONTINUOUS
 62
     7
 10
145.2226
 20
10.21593
 40
0.2
 50
89.99999
 51
180.0
  0
CIRCLE
  8
0
  6
CONTINUOUS
 62
     7
 10
150.5226
 20
2.91593
 40
2.5
  0
CIRCLE
  8
0
  6
CONTINUOUS
 62
     7
 10
150.5226
 20
-42.08407
 40
2.5
  0
CIRCLE
  8
0
  6
CONTINUOUS
 62
     7
 10
150.5226
 20
-42.08407
 40
2.067
  0
CIRCLE
  8
0
  6
CONTINUOUS
 62
     7
 10
150.5226
 20
2.91593
 40
2.067
  0
ARC
  8
0
  6
CONTINUOUS
 62
     7
 10
139.8103
 20
-11.96872
 40
0.8
 50
195.4427
 51
264.9994
  0
ARC
  8
0
  6
CONTINUOUS
 62
     7
 10
144.8226
 20
-10.58407
 40
6.0
 50
180.0
 51
195.4427
  0
ARC
  8
0
  6
CONTINUOUS
 62
     7
 10
139.8103
 20
-9.19944
 40
0.8
 50
95.00057
 51
164.5573
  0
ARC
  8
0
  6
CONTINUOUS
 62
     7
 10
144.8226
 20
-28.58407
 40
6.0
 50
164.5573
 51
180.0
  0
ARC
  8
0
  6
CONTINUOUS
 62
     7
 10
139.8103
 20
-27.19944
 40
0.8
 50
95.00057
 51
164.5573
  0
ARC
  8
0
  6
CONTINUOUS
 62
     7
 10
139.8103
 20
-29.96872
 40
0.8
 50
195.4426
 51
264.9994
  0
ARC
  8
0
  6
CONTINUOUS
 62
     7
 10
144.8226
 20
-28.58407
 40
6.0
 50
180.0
 51
195.4427
  0
ARC
  8
0
  6
CONTINUOUS
 62
     7
 10
144.8226
 20
-10.58407
 40
6.0
 50
164.5573
 51
180.0
  0
CIRCLE
  8
0
  6
PHANTOM
 62
     2
 10
-127.6362
 20
-24.58407
 40
1.75
  0
CIRCLE
  8
0
  6
PHANTOM
 62
     2
 10
-127.6362
 20
-24.58407
 40
2.5
  0
CIRCLE
  8
0
  6
PHANTOM
 62
     2
 10
-121.6362
 20
-14.58407
 40
1.75
  0
CIRCLE
  8
0
  6
PHANTOM
 62
     2
 10
-121.6362
 20
-14.58407
 40
2.5
  0
CIRCLE
  8
0
  6
PHANTOM
 62
     2
 10
-111.6362
 20
-24.58407
 40
1.75
  0
CIRCLE
  8
0
  6
PHANTOM
 62
     2
 10
-111.6362
 20
-24.58407
 40
2.5
  0
CIRCLE
  8
0
  6
PHANTOM
 62
     2
 10
-105.6362
 20
-14.58407
 40
1.75
  0
CIRCLE
  8
0
  6
PHANTOM
 62
     2
 10
-105.6362
 20
-14.58407
 40
2.5
  0
CIRCLE
  8
0
  6
PHANTOM
 62
     2
 10
-95.63618
 20
-24.58407
 40
1.75
  0
CIRCLE
  8
0
  6
PHANTOM
 62
     2
 10
-95.63618
 20
-24.58407
 40
2.5
  0
CIRCLE
  8
0
  6
PHANTOM
 62
     2
 10
-89.63618
 20
-14.58407
 40
1.75
  0
CIRCLE
  8
0
  6
PHANTOM
 62
     2
 10
-89.63618
 20
-14.58407
 40
2.5
  0
CIRCLE
  8
0
  6
PHANTOM
 62
     2
 10
-79.63618
 20
-24.58407
 40
1.75
  0
CIRCLE
  8
0
  6
PHANTOM
 62
     2
 10
-79.63618
 20
-24.58407
 40
2.5
  0
CIRCLE
  8
0
  6
PHANTOM
 62
     2
 10
-73.63618
 20
-14.58407
 40
1.75
  0
CIRCLE
  8
0
  6
PHANTOM
 62
     2
 10
-73.63618
 20
-14.58407
 40
2.5
  0
TEXT
  8
0
  6
CONTINUOUS
 62
     7
 10
-350.9787
 20
200.5946
 40
8.5
  1
MODEL : 110M*FE
 41
0.8
  7
STANDARD
  0
TEXT
  8
0
  6
CONTINUOUS
 62
     7
 10
229.0661
 20
236.2625
 40
8.5
  1
DATE : AUG ,1989
 41
0.8
  7
STANDARD
  0
TEXT
  8
0
  6
CONTINUOUS
 62
     7
 10
-327.9299
 20
235.5575
 40
10.0
  1
110M*FE
 41
0.8
  7
STANDARD
  0
TEXT
  8
0
  6
CONTINUOUS
 62
     7
 10
-94.96649
 20
61.96784
 40
7.0
  1
P
 41
0.8
  7
STANDARD
  0
TEXT
  8
0
  6
CONTINUOUS
 62
     7
 10
-94.96649
 20
79.93857
 40
7.0
  1
L
 41
0.8
  7
STANDARD
  0
TEXT
  8
0
  6
CONTINUOUS
 62
     7
 10
-337.2688
 20
-243.5423
 40
7.0
  1
NOTE : L,P
 41
0.8
  7
STANDARD
  0
TEXT
  8
0
  6
CONTINUOUS
 62
     7
 10
165.3151
 20
-18.13937
 40
2.0
  1
P
 50
90.0
 41
0.8
  7
STANDARD
  0
TEXT
  8
0
  6
CONTINUOUS
 62
     7
 10
156.0262
 20
-34.6792
 40
2.0
  1
R2
 50
90.0
 41
0.8
  7
STANDARD
  0
TEXT
  8
0
  6
CONTINUOUS
 62
     7
 10
155.9387
 20
-7.55038
 40
2.0
  1
R1
 50
90.0
 41
0.8
  7
STANDARD
  0
TEXT
  8
0
  6
CONTINUOUS
 62
     7
 10
-261.45954069
 20
-243.7308
 40
7.0
  1
CATALOG
 41
0.8
  7
STANDARD
  0
TEXT
  8
0
  6
CONTINUOUS
 62
     7
 10
-130.7161
 20
-28.47688
 40
2.0
  1
B
 41
0.8
  7
STANDARD
  0
TEXT
  8
0
  6
CONTINUOUS
 62
     7
 10
-119.8616
 20
-18.14551
 40
2.0
  1
A
 41
0.8
  7
STANDARD
  0
TEXT
  8
0
  6
CONTINUOUS
 62
     7
 10
-114.7161
 20
-28.47688
 40
2.0
  1
B
 41
0.8
  7
STANDARD
  0
TEXT
  8
0
  6
CONTINUOUS
 62
     7
 10
-103.8616
 20
-18.14551
 40
2.0
  1
A
 41
0.8
  7
STANDARD
  0
TEXT
  8
0
  6
CONTINUOUS
 62
     7
 10
-98.71606
 20
-28.47688
 40
2.0
  1
B
 41
0.8
  7
STANDARD
  0
TEXT
  8
0
  6
CONTINUOUS
 62
     7
 10
-87.86159
 20
-18.14551
 40
2.0
  1
A
 41
0.8
  7
STANDARD
  0
TEXT
  8
0
  6
CONTINUOUS
 62
     7
 10
-82.71606
 20
-28.47688
 40
2.0
  1
B
 41
0.8
  7
STANDARD
  0
TEXT
  8
0
  6
CONTINUOUS
 62
     7
 10
-71.86159
 20
-18.14551
 40
2.0
  1
A
 41
0.8
  7
STANDARD
  0
ENDSEC
  0
EOF
