  0
SECTION
  2
HEADER
  9
$ACADVER
  1
AC1012
  9
$DWGCODEPAGE
  3
dos932
  9
$INSBASE
 10
0.0
 20
0.0
 30
0.0
  9
$EXTMIN
 10
-194.25
 20
-133.5
 30
0.0
  9
$EXTMAX
 10
194.80000305
 20
132.6000061
 30
0.0
  9
$LIMMIN
 10
-210.0
 20
-148.5
  9
$LIMMAX
 10
210.0
 20
148.5
  9
$ORTHOMODE
 70
       0
  9
$REGENMODE
 70
       1
  9
$FILLMODE
 70
       1
  9
$QTEXTMODE
 70
       0
  9
$MIRRTEXT
 70
       1
  9
$DRAGMODE
 70
       2
  9
$LTSCALE
 40
1.0
  9
$OSMODE
 70
       0
  9
$ATTMODE
 70
       1
  9
$TEXTSIZE
 40
3.20000005
  9
$TRACEWID
 40
0.05
  9
$TEXTSTYLE
  7
MX_NOTE_STANDARD
  9
$CLAYER
  8
0
  9
$CELTYPE
  6
CONTINUOUS
  9
$CECOLOR
 62
     256
  9
$CELTSCALE
 40
1.0
  9
$DELOBJ
 70
       1
  9
$DISPSILH
 70
       0
  9
$DIMSCALE
 40
1.0
  9
$DIMASZ
 40
2.5
  9
$DIMEXO
 40
1.5
  9
$DIMDLI
 40
3.75
  9
$DIMRND
 40
0.0
  9
$DIMDLE
 40
0.0
  9
$DIMEXE
 40
1.5
  9
$DIMTP
 40
0.0
  9
$DIMTM
 40
0.0
  9
$DIMTXT
 40
3.20000005
  9
$DIMCEN
 40
2.5
  9
$DIMTSZ
 40
0.0
  9
$DIMTOL
 70
       0
  9
$DIMLIM
 70
       0
  9
$DIMTIH
 70
       0
  9
$DIMTOH
 70
       0
  9
$DIMSE1
 70
       0
  9
$DIMSE2
 70
       0
  9
$DIMTAD
 70
       1
  9
$DIMZIN
 70
       8
  9
$DIMBLK
  1

  9
$DIMASO
 70
       1
  9
$DIMSHO
 70
       1
  9
$DIMPOST
  1

  9
$DIMAPOST
  1

  9
$DIMALT
 70
       0
  9
$DIMALTD
 70
       4
  9
$DIMALTF
 40
0.03937008
  9
$DIMLFAC
 40
1.0
  9
$DIMTOFL
 70
       1
  9
$DIMTVP
 40
0.0
  9
$DIMTIX
 70
       0
  9
$DIMSOXD
 70
       0
  9
$DIMSAH
 70
       1
  9
$DIMBLK1
  1
_OPEN30
  9
$DIMBLK2
  1
_OPEN30
  9
$DIMSTYLE
  2
MXDIMSTYLE
  9
$DIMCLRD
 70
       0
  9
$DIMCLRE
 70
       0
  9
$DIMCLRT
 70
       0
  9
$DIMTFAC
 40
1.0
  9
$DIMGAP
 40
1.0
  9
$DIMJUST
 70
       0
  9
$DIMSD1
 70
       0
  9
$DIMSD2
 70
       0
  9
$DIMTOLJ
 70
       0
  9
$DIMTZIN
 70
       0
  9
$DIMALTZ
 70
       0
  9
$DIMALTTZ
 70
       0
  9
$DIMFIT
 70
       3
  9
$DIMUPT
 70
       1
  9
$DIMUNIT
 70
       2
  9
$DIMDEC
 70
       2
  9
$DIMTDEC
 70
       2
  9
$DIMALTU
 70
       2
  9
$DIMALTTD
 70
       4
  9
$DIMTXSTY
  7
MX_NOTE_STANDARD
  9
$DIMAUNIT
 70
       0
  9
$LUNITS
 70
       2
  9
$LUPREC
 70
       4
  9
$SKETCHINC
 40
0.1
  9
$FILLETRAD
 40
0.0
  9
$AUNITS
 70
       0
  9
$AUPREC
 70
       0
  9
$MENU
  1
acad
  9
$ELEVATION
 40
0.0
  9
$PELEVATION
 40
0.0
  9
$THICKNESS
 40
0.0
  9
$LIMCHECK
 70
       0
  9
$BLIPMODE
 70
       1
  9
$CHAMFERA
 40
0.0
  9
$CHAMFERB
 40
0.0
  9
$CHAMFERC
 40
0.0
  9
$CHAMFERD
 40
0.0
  9
$SKPOLY
 70
       0
  9
$TDCREATE
 40
2454418.596909722
  9
$TDUPDATE
 40
2454418.596909722
  9
$TDINDWG
 40
0.0000000000
  9
$TDUSRTIMER
 40
0.0000000000
  9
$USRTIMER
 70
       1
  9
$ANGBASE
 50
0.0
  9
$ANGDIR
 70
       0
  9
$PDMODE
 70
       0
  9
$PDSIZE
 40
0.0
  9
$PLINEWID
 40
0.0
  9
$COORDS
 70
       1
  9
$SPLFRAME
 70
       0
  9
$SPLINETYPE
 70
       6
  9
$SPLINESEGS
 70
       8
  9
$ATTDIA
 70
       0
  9
$ATTREQ
 70
       1
  9
$HANDLING
 70
       1
  9
$HANDSEED
  5
317
  9
$SURFTAB1
 70
       6
  9
$SURFTAB2
 70
       6
  9
$SURFTYPE
 70
       6
  9
$SURFU
 70
       6
  9
$SURFV
 70
       6
  9
$UCSNAME
  2

  9
$UCSORG
 10
0.0
 20
0.0
 30
0.0
  9
$UCSXDIR
 10
1.0
 20
0.0
 30
0.0
  9
$UCSYDIR
 10
0.0
 20
1.0
 30
0.0
  9
$PUCSNAME
  2

  9
$PUCSORG
 10
0.0
 20
0.0
 30
0.0
  9
$PUCSXDIR
 10
1.0
 20
0.0
 30
0.0
  9
$PUCSYDIR
 10
0.0
 20
1.0
 30
0.0
  9
$USERI1
 70
       0
  9
$USERI2
 70
       0
  9
$USERI3
 70
       0
  9
$USERI4
 70
       0
  9
$USERI5
 70
       0
  9
$USERR1
 40
0.0
  9
$USERR2
 40
0.0
  9
$USERR3
 40
0.0
  9
$USERR4
 40
0.0
  9
$USERR5
 40
0.0
  9
$WORLDVIEW
 70
       1
  9
$SHADEDGE
 70
       3
  9
$SHADEDIF
 70
      70
  9
$TILEMODE
 70
       1
  9
$MAXACTVP
 70
      16
  9
$PINSBASE
 10
0.0
 20
0.0
 30
0.0
  9
$PLIMCHECK
 70
       0
  9
$PEXTMIN
 10
1.00000000E+20
 20
1.00000000E+20
 30
1.00000000E+20
  9
$PEXTMAX
 10
-1.00000000E+20
 20
-1.00000000E+20
 30
-1.00000000E+20
  9
$PLIMMIN
 10
0.0
 20
0.0
  9
$PLIMMAX
 10
12.0
 20
9.0
  9
$UNITMODE
 70
       0
  9
$VISRETAIN
 70
       0
  9
$PLINEGEN
 70
       1
  9
$PSLTSCALE
 70
       0
  9
$TREEDEPTH
 70
    3020
  9
$PICKSTYLE
 70
       1
  9
$CMLSTYLE
  2
Standard
  9
$CMLJUST
 70
       0
  9
$CMLSCALE
 40
1.0
  9
$SAVEIMAGES
 70
       0
  0
ENDSEC
  0
SECTION
  2
CLASSES
  0
CLASS
  1
LWPOLYLINE
  2
AcDbPolyline
  3
"AutoCAD"
 90
    32768
280
       0
281
       1
  0
CLASS
  1
IMAGE
  2
AcDbRasterImage
  3
ISM
 90
    32895
280
       0
281
       1
  0
CLASS
  1
OLE2FRAME
  2
AcDbOle2Frame
  3
""
 90
    32768
280
       0
281
       1
  0
CLASS
  1
HATCH
  2
AcDbHatch
  3
"ACAD_SEDONA"
 90
    32768
280
       0
281
       1
  0
CLASS
  1
DICTIONARYVAR
  2
AcDbDictionaryVar
  3
"AutoCAD"
 90
    32768
280
       0
281
       0
  0
CLASS
  1
RASTERVARIABLES
  2
AcDbRasterVariables
  3
ISM
 90
    32768
280
       0
281
       0
  0
CLASS
  1
IMAGEDEF
  2
AcDbRasterImageDef
  3
ISM
 90
    32768
280
       0
281
       0
  0
CLASS
  1
IMAGEDEF_REACTOR
  2
AcDbRasterImageDefReactor
  3
ISM
 90
    32769
280
       0
281
       0
  0
CLASS
  1
IDBUFFER
  2
AcDbIdBuffer
  3
"Acad"
 90
    32768
280
       0
281
       0
  0
CLASS
  1
SPATIAL_FILTER
  2
AcDbSpatialFilter
  3
"Acad"
 90
    32768
280
       0
281
       0
  0
CLASS
  1
XRECORD
  2
AcDbXrecord
  3
"<Built In>"
 90
    32768
280
       0
281
       0
  0
CLASS
  1
SORTENTSTABLE
  2
AcDbSortentsTable
  3
"AutoCAD"
 90
    32768
280
       0
281
       0
  0
CLASS
  1
LAYER_INDEX
  2
AcDbLayerIndex
  3
"Acad"
 90
    32768
280
       0
281
       0
  0
CLASS
  1
SPATIAL_INDEX
  2
AcDbSpatialIndex
  3
"Acad"
 90
    32768
280
       0
281
       0
  0
CLASS
  1
OBJECT_PTR
  2
CAseDLPNTableRecord
  3
"ASE-LPNTableRecord"
 90
    32769
280
       0
281
       0
  0
CLASS
  1
LAYOUT
  2
AcDbLayout
  3
"AutoCAD 2000"
 90
    32768
280
       0
281
       0
  0
CLASS
  1
PLOTSETTINGS
  2
AcDbPlotSettings
  3
"AutoCAD 2000"
 90
    32768
280
       0
281
       0
  0
CLASS
  1
ACDBDICTIONARYWDFLT
  2
AcDbDictionaryWithDefault
  3
"AutoCAD 2000"
 90
    32768
280
       0
281
       0
  0
CLASS
  1
ACDBPLACEHOLDER
  2
AcDbPlaceHolder
  3
"AutoCAD 2000"
 90
    32768
280
       0
281
       0
  0
ENDSEC
  0
SECTION
  2
TABLES
  0
TABLE
  2
VPORT
  5
7
100
AcDbSymbolTable
 70
       1
  0
VPORT
  5
15
100
AcDbSymbolTableRecord
100
AcDbViewportTableRecord
  2
*ACTIVE
 70
       0
 10
0.0
 20
0.0
 11
1.0
 21
1.0
 12
0.0
 22
0.0
 13
0.0
 23
0.0
 14
1.0
 24
1.0
 15
0.0
 25
0.0
 16
0.0
 26
0.0
 36
1.0
 17
0.0
 27
0.0
 37
0.0
 40
299.97
 41
1.73205081
 42
50.0
 43
0.0
 44
0.0
 50
0.0
 51
0.0
 71
       0
 72
     100
 73
       1
 74
       1
 75
       0
 76
       0
 77
       0
 78
       0
  0
ENDTAB
  0
TABLE
  2
LTYPE
  5
4
100
AcDbSymbolTable
 70
       4
  0
LTYPE
  5
11
100
AcDbSymbolTableRecord
100
AcDbLinetypeTableRecord
  2
BYBLOCK
 70
      64
  3

 72
      65
 73
       0
 40
0.0
  0
LTYPE
  5
12
100
AcDbSymbolTableRecord
100
AcDbLinetypeTableRecord
  2
BYLAYER
 70
      64
  3

 72
      65
 73
       0
 40
0.0
  0
LTYPE
  5
13
100
AcDbSymbolTableRecord
100
AcDbLinetypeTableRecord
  2
CONTINUOUS
 70
      64
  3
Solid line
 72
      65
 73
       0
 40
0.0
  0
LTYPE
  5
22E
100
AcDbSymbolTableRecord
100
AcDbLinetypeTableRecord
  2
DASHED
 70
      64
  3
Dashed __ __ __ __ __ __ __ __ __ __ __ __ __ _
 72
      65
 73
       2
 40
19.05
 49
12.7
 74
       0
 49
-6.35
 74
       0
  0
ENDTAB
  0
TABLE
  2
LAYER
  5
2
100
AcDbSymbolTable
 70
       2
  0
LAYER
  5
14
100
AcDbSymbolTableRecord
100
AcDbLayerTableRecord
  2
0
 70
       0
 62
       7
  6
CONTINUOUS
  0
LAYER
  5
1D
100
AcDbSymbolTableRecord
100
AcDbLayerTableRecord
  2
DEFPOINTS
 70
       0
 62
       7
  6
CONTINUOUS
  0
ENDTAB
  0
TABLE
  2
STYLE
  5
3
100
AcDbSymbolTable
 70
       1
  0
STYLE
  5
17
100
AcDbSymbolTableRecord
100
AcDbTextStyleTableRecord
  2
MX_NOTE_STANDARD
 70
       0
 40
0.0
 41
1.0
 50
0.0
 71
       0
 42
3.20000005
  3
txt.shx
  4
extfont.shx
  0
ENDTAB
  0
TABLE
  2
VIEW
  5
5
100
AcDbSymbolTable
 70
       0
  0
ENDTAB
  0
TABLE
  2
UCS
  5
6
100
AcDbSymbolTable
 70
       0
  0
ENDTAB
  0
TABLE
  2
APPID
  5
8
100
AcDbSymbolTable
 70
       1
  0
APPID
  5
16
100
AcDbSymbolTableRecord
100
AcDbRegAppTableRecord
  2
ACAD
 70
       0
  0
ENDTAB
  0
TABLE
  2
DIMSTYLE
  5
9
100
AcDbSymbolTable
 70
       1
  0
DIMSTYLE
105
18
100
AcDbSymbolTableRecord
100
AcDbDimStyleTableRecord
  2
MXDIMSTYLE
 70
       0
  3

  4

  5

  6
_OPEN30
  7
_OPEN30
 40
1.0
 41
2.5
 42
1.5
 43
3.75
 44
1.5
 45
0.0
 46
0.0
 47
0.0
 48
0.0
 71
       0
 72
       0
 73
       0
 74
       0
 75
       0
 76
       0
 77
       1
 78
       8
140
3.20000005
141
2.5
142
0.0
143
0.03937008
144
1.0
145
0.0
146
1.0
147
1.0
170
       0
171
       4
172
       1
173
       1
174
       0
175
       0
176
       0
177
       0
178
       0
270
       2
271
       2
272
       2
273
       2
274
       4
275
       0
280
       0
281
       0
282
       0
283
       0
284
       0
285
       0
286
       0
287
       3
288
       1
340
17
  0
ENDTAB
  0
TABLE
  2
BLOCK_RECORD
  5
1
100
AcDbSymbolTable
 70
       8
  0
BLOCK_RECORD
  5
A
100
AcDbSymbolTableRecord
100
AcDbBlockTableRecord
  2
*MODEL_SPACE
  0
BLOCK_RECORD
  5
B
100
AcDbSymbolTableRecord
100
AcDbBlockTableRecord
  2
*PAPER_SPACE
  0
BLOCK_RECORD
  5
1E
100
AcDbSymbolTableRecord
100
AcDbBlockTableRecord
  2
MS_1
  0
BLOCK_RECORD
  5
1F
100
AcDbSymbolTableRecord
100
AcDbBlockTableRecord
  2
MS_2
  0
BLOCK_RECORD
  5
20
100
AcDbSymbolTableRecord
100
AcDbBlockTableRecord
  2
_OPEN30
  0
BLOCK_RECORD
  5
33
100
AcDbSymbolTableRecord
100
AcDbBlockTableRecord
  2
*X3
  0
BLOCK_RECORD
  5
39
100
AcDbSymbolTableRecord
100
AcDbBlockTableRecord
  2
*X4
  0
BLOCK_RECORD
  5
3F
100
AcDbSymbolTableRecord
100
AcDbBlockTableRecord
  2
*X5
  0
BLOCK_RECORD
  5
45
100
AcDbSymbolTableRecord
100
AcDbBlockTableRecord
  2
*X6
  0
BLOCK_RECORD
  5
12D
100
AcDbSymbolTableRecord
100
AcDbBlockTableRecord
  2
*X7
  0
ENDTAB
  0
ENDSEC
  0
SECTION
  2
BLOCKS
  0
BLOCK
  5
D
100
AcDbEntity
  8
0
100
AcDbBlockBegin
  2
*MODEL_SPACE
 70
       0
 10
0.0
 20
0.0
 30
0.0
  3
*MODEL_SPACE
  1

  0
ENDBLK
  5
E
100
AcDbEntity
  8
0
100
AcDbBlockEnd
  0
BLOCK
  5
F
100
AcDbEntity
 67
       1
  8
0
100
AcDbBlockBegin
  2
*PAPER_SPACE
 70
       0
 10
0.0
 20
0.0
 30
0.0
  3
*PAPER_SPACE
  1

  0
ENDBLK
  5
10
100
AcDbEntity
 67
       1
  8
0
100
AcDbBlockEnd
  0
BLOCK
  5
26
100
AcDbEntity
  8
0
100
AcDbBlockBegin
  2
MS_1
 70
       0
 10
0.0
 20
0.0
 30
0.0
  3
MS_1
  1

  0
LINE
  5
27
100
AcDbEntity
  8
0
  6
CONTINUOUS
 62
       7
100
AcDbLine
 10
-1.0
 20
0.0
 30
0.0
 11
0.0
 21
0.0
 31
0.0
  0
LINE
  5
28
100
AcDbEntity
  8
0
  6
CONTINUOUS
 62
       7
100
AcDbLine
 10
-1.0
 20
-28.0
 30
0.0
 11
0.0
 21
-28.0
 31
0.0
  0
LINE
  5
29
100
AcDbEntity
  8
0
  6
CONTINUOUS
 62
       3
100
AcDbLine
 10
0.0
 20
0.0
 30
0.0
 11
0.0
 21
-28.0
 31
0.0
  0
LINE
  5
2A
100
AcDbEntity
  8
0
  6
CONTINUOUS
 62
       7
100
AcDbLine
 10
-1.0
 20
0.0
 30
0.0
 11
-1.0
 21
-28.0
 31
0.0
  0
ENDBLK
  5
2B
100
AcDbEntity
  8
0
100
AcDbBlockEnd
  0
BLOCK
  5
2C
100
AcDbEntity
  8
0
100
AcDbBlockBegin
  2
MS_2
 70
       0
 10
0.0
 20
0.0
 30
0.0
  3
MS_2
  1

  0
LINE
  5
2D
100
AcDbEntity
  8
0
  6
CONTINUOUS
 62
       7
100
AcDbLine
 10
7.0
 20
0.0
 30
0.0
 11
7.0
 21
-1.0
 31
0.0
  0
LINE
  5
2E
100
AcDbEntity
  8
0
  6
CONTINUOUS
 62
       7
100
AcDbLine
 10
-7.0
 20
-1.0
 30
0.0
 11
7.0
 21
-1.0
 31
0.0
  0
LINE
  5
2F
100
AcDbEntity
  8
0
  6
CONTINUOUS
 62
       7
100
AcDbLine
 10
-7.0
 20
0.0
 30
0.0
 11
7.0
 21
0.0
 31
0.0
  0
LINE
  5
30
100
AcDbEntity
  8
0
  6
CONTINUOUS
 62
       7
100
AcDbLine
 10
-7.0
 20
0.0
 30
0.0
 11
-7.0
 21
-1.0
 31
0.0
  0
ENDBLK
  5
31
100
AcDbEntity
  8
0
100
AcDbBlockEnd
  0
BLOCK
  5
21
100
AcDbEntity
  8
0
  6
ByBlock
 62
       0
100
AcDbBlockBegin
  2
_OPEN30
 70
       2
 10
0.0
 20
0.0
 30
0.0
  3
_OPEN30
  1

  0
LINE
  5
22
100
AcDbEntity
  8
0
  6
ByBlock
 62
       0
100
AcDbLine
 10
-1.0
 20
0.267949
 30
0.0
 11
0.0
 21
0.0
 31
0.0
  0
LINE
  5
23
100
AcDbEntity
  8
0
  6
ByBlock
 62
       0
100
AcDbLine
 10
0.0
 20
0.0
 30
0.0
 11
-1.0
 21
-0.267949
 31
0.0
  0
LINE
  5
24
100
AcDbEntity
  8
0
  6
ByBlock
 62
       0
100
AcDbLine
 10
0.0
 20
0.0
 30
0.0
 11
-1.0
 21
0.0
 31
0.0
  0
ENDBLK
  5
25
100
AcDbEntity
  8
0
  6
ByBlock
 62
       0
100
AcDbBlockEnd
  0
BLOCK
  5
34
100
AcDbEntity
  8
0
  6
ByBlock
 62
       0
100
AcDbBlockBegin
  2
*X3
 70
       1
 10
0.0
 20
0.0
 30
0.0
  3
*X3
  1

  0
LINE
  5
35
100
AcDbEntity
  8
0
  6
CONTINUOUS
 62
       0
100
AcDbLine
 10
89.21670937
 20
-70.0
 30
0.0
 11
103.21670937
 21
-70.0
 31
0.0
  0
ENDBLK
  5
36
100
AcDbEntity
  8
0
  6
ByBlock
 62
       0
100
AcDbBlockEnd
  0
BLOCK
  5
3A
100
AcDbEntity
  8
0
  6
ByBlock
 62
       0
100
AcDbBlockBegin
  2
*X4
 70
       1
 10
0.0
 20
0.0
 30
0.0
  3
*X4
  1

  0
LINE
  5
3B
100
AcDbEntity
  8
0
  6
CONTINUOUS
 62
       0
100
AcDbLine
 10
73.21670937
 20
-70.0
 30
0.0
 11
87.21670937
 21
-70.0
 31
0.0
  0
ENDBLK
  5
3C
100
AcDbEntity
  8
0
  6
ByBlock
 62
       0
100
AcDbBlockEnd
  0
BLOCK
  5
40
100
AcDbEntity
  8
0
  6
ByBlock
 62
       0
100
AcDbBlockBegin
  2
*X5
 70
       1
 10
0.0
 20
0.0
 30
0.0
  3
*X5
  1

  0
LINE
  5
41
100
AcDbEntity
  8
0
  6
CONTINUOUS
 62
       0
100
AcDbLine
 10
57.21670937
 20
-70.0
 30
0.0
 11
71.21670937
 21
-70.0
 31
0.0
  0
ENDBLK
  5
42
100
AcDbEntity
  8
0
  6
ByBlock
 62
       0
100
AcDbBlockEnd
  0
BLOCK
  5
46
100
AcDbEntity
  8
0
  6
ByBlock
 62
       0
100
AcDbBlockBegin
  2
*X6
 70
       1
 10
0.0
 20
0.0
 30
0.0
  3
*X6
  1

  0
LINE
  5
47
100
AcDbEntity
  8
0
  6
CONTINUOUS
 62
       0
100
AcDbLine
 10
41.21670937
 20
-70.0
 30
0.0
 11
55.21670937
 21
-70.0
 31
0.0
  0
ENDBLK
  5
48
100
AcDbEntity
  8
0
  6
ByBlock
 62
       0
100
AcDbBlockEnd
  0
BLOCK
  5
12E
100
AcDbEntity
  8
0
  6
ByBlock
 62
       0
100
AcDbBlockBegin
  2
*X7
 70
       1
 10
0.0
 20
0.0
 30
0.0
  3
*X7
  1

  0
LINE
  5
12F
100
AcDbEntity
  8
0
  6
CONTINUOUS
 62
       0
100
AcDbLine
 10
-83.11661887
 20
24.0
 30
0.0
 11
-82.11661887
 21
24.0
 31
0.0
  0
LINE
  5
130
100
AcDbEntity
  8
0
  6
CONTINUOUS
 62
       0
100
AcDbLine
 10
-83.11661887
 20
25.0
 30
0.0
 11
-82.11661887
 21
25.0
 31
0.0
  0
LINE
  5
131
100
AcDbEntity
  8
0
  6
CONTINUOUS
 62
       0
100
AcDbLine
 10
-83.11661887
 20
26.0
 30
0.0
 11
-82.11661887
 21
26.0
 31
0.0
  0
LINE
  5
132
100
AcDbEntity
  8
0
  6
CONTINUOUS
 62
       0
100
AcDbLine
 10
-83.11661887
 20
27.0
 30
0.0
 11
-82.11661887
 21
27.0
 31
0.0
  0
LINE
  5
133
100
AcDbEntity
  8
0
  6
CONTINUOUS
 62
       0
100
AcDbLine
 10
-83.11661887
 20
28.0
 30
0.0
 11
-82.11661887
 21
28.0
 31
0.0
  0
LINE
  5
134
100
AcDbEntity
  8
0
  6
CONTINUOUS
 62
       0
100
AcDbLine
 10
-83.11661887
 20
29.0
 30
0.0
 11
-82.11661887
 21
29.0
 31
0.0
  0
LINE
  5
135
100
AcDbEntity
  8
0
  6
CONTINUOUS
 62
       0
100
AcDbLine
 10
-83.11661887
 20
30.0
 30
0.0
 11
-82.11661887
 21
30.0
 31
0.0
  0
LINE
  5
136
100
AcDbEntity
  8
0
  6
CONTINUOUS
 62
       0
100
AcDbLine
 10
-83.11661887
 20
31.0
 30
0.0
 11
-82.11661887
 21
31.0
 31
0.0
  0
LINE
  5
137
100
AcDbEntity
  8
0
  6
CONTINUOUS
 62
       0
100
AcDbLine
 10
-83.11661887
 20
32.0
 30
0.0
 11
-82.11661887
 21
32.0
 31
0.0
  0
LINE
  5
138
100
AcDbEntity
  8
0
  6
CONTINUOUS
 62
       0
100
AcDbLine
 10
-83.11661887
 20
33.0
 30
0.0
 11
-82.11661887
 21
33.0
 31
0.0
  0
LINE
  5
139
100
AcDbEntity
  8
0
  6
CONTINUOUS
 62
       0
100
AcDbLine
 10
-83.11661887
 20
34.0
 30
0.0
 11
-82.11661887
 21
34.0
 31
0.0
  0
LINE
  5
13A
100
AcDbEntity
  8
0
  6
CONTINUOUS
 62
       0
100
AcDbLine
 10
-83.11661887
 20
35.0
 30
0.0
 11
-82.11661887
 21
35.0
 31
0.0
  0
LINE
  5
13B
100
AcDbEntity
  8
0
  6
CONTINUOUS
 62
       0
100
AcDbLine
 10
-83.11661887
 20
36.0
 30
0.0
 11
-82.11661887
 21
36.0
 31
0.0
  0
LINE
  5
13C
100
AcDbEntity
  8
0
  6
CONTINUOUS
 62
       0
100
AcDbLine
 10
-83.11661887
 20
37.0
 30
0.0
 11
-82.11661887
 21
37.0
 31
0.0
  0
LINE
  5
13D
100
AcDbEntity
  8
0
  6
CONTINUOUS
 62
       0
100
AcDbLine
 10
-83.11661887
 20
38.0
 30
0.0
 11
-82.11661887
 21
38.0
 31
0.0
  0
LINE
  5
13E
100
AcDbEntity
  8
0
  6
CONTINUOUS
 62
       0
100
AcDbLine
 10
-83.11661887
 20
39.0
 30
0.0
 11
-82.11661887
 21
39.0
 31
0.0
  0
LINE
  5
13F
100
AcDbEntity
  8
0
  6
CONTINUOUS
 62
       0
100
AcDbLine
 10
-83.11661887
 20
40.0
 30
0.0
 11
-82.11661887
 21
40.0
 31
0.0
  0
LINE
  5
140
100
AcDbEntity
  8
0
  6
CONTINUOUS
 62
       0
100
AcDbLine
 10
-83.11661887
 20
41.0
 30
0.0
 11
-82.11661887
 21
41.0
 31
0.0
  0
LINE
  5
141
100
AcDbEntity
  8
0
  6
CONTINUOUS
 62
       0
100
AcDbLine
 10
-83.11661887
 20
42.0
 30
0.0
 11
-82.11661887
 21
42.0
 31
0.0
  0
LINE
  5
142
100
AcDbEntity
  8
0
  6
CONTINUOUS
 62
       0
100
AcDbLine
 10
-83.11661887
 20
43.0
 30
0.0
 11
-82.11661887
 21
43.0
 31
0.0
  0
LINE
  5
143
100
AcDbEntity
  8
0
  6
CONTINUOUS
 62
       0
100
AcDbLine
 10
-83.11661887
 20
44.0
 30
0.0
 11
-82.11661887
 21
44.0
 31
0.0
  0
LINE
  5
144
100
AcDbEntity
  8
0
  6
CONTINUOUS
 62
       0
100
AcDbLine
 10
-83.11661887
 20
45.0
 30
0.0
 11
-82.11661887
 21
45.0
 31
0.0
  0
LINE
  5
145
100
AcDbEntity
  8
0
  6
CONTINUOUS
 62
       0
100
AcDbLine
 10
-83.11661887
 20
46.0
 30
0.0
 11
-82.11661887
 21
46.0
 31
0.0
  0
LINE
  5
146
100
AcDbEntity
  8
0
  6
CONTINUOUS
 62
       0
100
AcDbLine
 10
-83.11661887
 20
47.0
 30
0.0
 11
-82.11661887
 21
47.0
 31
0.0
  0
LINE
  5
147
100
AcDbEntity
  8
0
  6
CONTINUOUS
 62
       0
100
AcDbLine
 10
-83.11661887
 20
48.0
 30
0.0
 11
-82.11661887
 21
48.0
 31
0.0
  0
LINE
  5
148
100
AcDbEntity
  8
0
  6
CONTINUOUS
 62
       0
100
AcDbLine
 10
-83.11661887
 20
49.0
 30
0.0
 11
-82.11661887
 21
49.0
 31
0.0
  0
LINE
  5
149
100
AcDbEntity
  8
0
  6
CONTINUOUS
 62
       0
100
AcDbLine
 10
-83.11661887
 20
50.0
 30
0.0
 11
-82.11661887
 21
50.0
 31
0.0
  0
LINE
  5
14A
100
AcDbEntity
  8
0
  6
CONTINUOUS
 62
       0
100
AcDbLine
 10
-83.11661887
 20
51.0
 30
0.0
 11
-82.11661887
 21
51.0
 31
0.0
  0
ENDBLK
  5
14B
100
AcDbEntity
  8
0
  6
ByBlock
 62
       0
100
AcDbBlockEnd
  0
ENDSEC
  0
SECTION
  2
ENTITIES
  0
INSERT
  5
32
100
AcDbEntity
  8
0
  6
ByBlock
 62
       7
100
AcDbBlockReference
  2
MS_2
 10
96.21670937
 20
-69.83596859
 30
0.0
  0
INSERT
  5
37
100
AcDbEntity
  8
0
  6
ByBlock
 62
       7
100
AcDbBlockReference
  2
*X3
 10
0.0
 20
0.0
 30
0.0
  0
INSERT
  5
38
100
AcDbEntity
  8
0
  6
ByBlock
 62
       7
100
AcDbBlockReference
  2
MS_2
 10
80.21670937
 20
-69.83596859
 30
0.0
  0
INSERT
  5
3D
100
AcDbEntity
  8
0
  6
ByBlock
 62
       7
100
AcDbBlockReference
  2
*X4
 10
0.0
 20
0.0
 30
0.0
  0
INSERT
  5
3E
100
AcDbEntity
  8
0
  6
ByBlock
 62
       7
100
AcDbBlockReference
  2
MS_2
 10
64.21670937
 20
-69.83596859
 30
0.0
  0
INSERT
  5
43
100
AcDbEntity
  8
0
  6
ByBlock
 62
       7
100
AcDbBlockReference
  2
*X5
 10
0.0
 20
0.0
 30
0.0
  0
INSERT
  5
44
100
AcDbEntity
  8
0
  6
ByBlock
 62
       7
100
AcDbBlockReference
  2
MS_2
 10
48.21670937
 20
-69.83596859
 30
0.0
  0
INSERT
  5
49
100
AcDbEntity
  8
0
  6
ByBlock
 62
       7
100
AcDbBlockReference
  2
*X6
 10
0.0
 20
0.0
 30
0.0
  0
LINE
  5
4A
100
AcDbEntity
  8
0
  6
CONTINUOUS
 62
       2
100
AcDbLine
 10
96.21338113
 20
-44.19584957
 30
0.0
 11
96.21338113
 21
-71.83584957
 31
0.0
  0
LINE
  5
4B
100
AcDbEntity
  8
0
  6
CONTINUOUS
 62
       2
100
AcDbLine
 10
80.21338113
 20
-44.19584957
 30
0.0
 11
80.21338113
 21
-71.83584957
 31
0.0
  0
LINE
  5
4C
100
AcDbEntity
  8
0
  6
CONTINUOUS
 62
       2
100
AcDbLine
 10
64.21338113
 20
-44.19584957
 30
0.0
 11
64.21338113
 21
-71.83584957
 31
0.0
  0
LINE
  5
4D
100
AcDbEntity
  8
0
  6
CONTINUOUS
 62
       2
100
AcDbLine
 10
48.21338113
 20
-44.19584957
 30
0.0
 11
48.21338113
 21
-71.83584957
 31
0.0
  0
LINE
  5
4E
100
AcDbEntity
  8
0
  6
CONTINUOUS
 62
       2
100
AcDbLine
 10
39.21338113
 20
-57.83584957
 30
0.0
 11
105.42338113
 21
-57.83584957
 31
0.0
  0
LINE
  5
4F
100
AcDbEntity
  8
0
  6
CONTINUOUS
 62
       7
100
AcDbLine
 10
112.21338113
 20
-70.83584957
 30
0.0
 11
112.21338113
 21
-88.83584957
 31
0.0
  0
LINE
  5
50
100
AcDbEntity
  8
0
  6
CONTINUOUS
 62
       7
100
AcDbLine
 10
32.21338113
 20
-88.83584957
 30
0.0
 11
112.21338113
 21
-88.83584957
 31
0.0
  0
LINE
  5
51
100
AcDbEntity
  8
0
  6
CONTINUOUS
 62
       7
100
AcDbLine
 10
32.21338113
 20
-77.33584957
 30
0.0
 11
112.21338113
 21
-77.33584957
 31
0.0
  0
LINE
  5
52
100
AcDbEntity
  8
0
  6
CONTINUOUS
 62
       7
100
AcDbLine
 10
32.21338113
 20
-70.83584957
 30
0.0
 11
32.21338113
 21
-88.83584957
 31
0.0
  0
LINE
  5
53
100
AcDbEntity
  8
0
  6
CONTINUOUS
 62
       7
100
AcDbLine
 10
103.21338113
 20
-70.83584957
 30
0.0
 11
112.21338113
 21
-70.83584957
 31
0.0
  0
LINE
  5
54
100
AcDbEntity
  8
0
  6
CONTINUOUS
 62
       7
100
AcDbLine
 10
87.21338113
 20
-70.83584957
 30
0.0
 11
89.21338113
 21
-70.83584957
 31
0.0
  0
LINE
  5
55
100
AcDbEntity
  8
0
  6
CONTINUOUS
 62
       7
100
AcDbLine
 10
71.21338113
 20
-70.83584957
 30
0.0
 11
73.21338113
 21
-70.83584957
 31
0.0
  0
LINE
  5
56
100
AcDbEntity
  8
0
  6
CONTINUOUS
 62
       7
100
AcDbLine
 10
55.21338113
 20
-70.83584957
 30
0.0
 11
57.21338113
 21
-70.83584957
 31
0.0
  0
LINE
  5
57
100
AcDbEntity
  8
0
  6
CONTINUOUS
 62
       7
100
AcDbLine
 10
32.21338113
 20
-70.83584957
 30
0.0
 11
41.21338113
 21
-70.83584957
 31
0.0
  0
LINE
  5
58
100
AcDbEntity
  8
0
  6
CONTINUOUS
 62
       7
100
AcDbLine
 10
55.71338113
 20
-69.33584957
 30
0.0
 11
55.71338113
 21
-46.33584957
 31
0.0
  0
LINE
  5
59
100
AcDbEntity
  8
0
  6
CONTINUOUS
 62
       7
100
AcDbLine
 10
40.71338113
 20
-69.33584957
 30
0.0
 11
40.71338113
 21
-46.33584957
 31
0.0
  0
LINE
  5
5A
100
AcDbEntity
  8
0
  6
CONTINUOUS
 62
       2
100
AcDbLine
 10
50.01338113
 20
-34.81584957
 30
0.0
 11
50.01338113
 21
-47.24584957
 31
0.0
  0
CIRCLE
  5
5B
100
AcDbEntity
  8
0
  6
CONTINUOUS
 62
       2
100
AcDbCircle
 10
43.71669411
 20
-48.83595333
 30
0.0
 40
1.29999924
  0
CIRCLE
  5
5C
100
AcDbEntity
  8
0
  6
CONTINUOUS
 62
       7
100
AcDbCircle
 10
43.71669411
 20
-48.83595333
 30
0.0
 40
1.05649948
  0
CIRCLE
  5
5D
100
AcDbEntity
  8
0
  6
CONTINUOUS
 62
       7
100
AcDbCircle
 10
43.71669411
 20
-48.83595333
 30
0.0
 40
2.75
  0
ARC
  5
5E
100
AcDbEntity
  8
0
  6
CONTINUOUS
 62
       7
100
AcDbCircle
 10
47.4151058
 20
-46.33757425
 30
0.0
 40
0.50172764
100
AcDbArc
 50
90.19695326
 51
179.80304674
  0
ARC
  5
5F
100
AcDbEntity
  8
0
  6
CONTINUOUS
 62
       7
100
AcDbCircle
 10
41.21509816
 20
-52.53756661
 30
0.0
 40
0.50171997
100
AcDbArc
 50
90.19608333
 51
179.80391667
  0
ARC
  5
60
100
AcDbEntity
  8
0
  6
CONTINUOUS
 62
       7
100
AcDbCircle
 10
43.71509673
 20
-48.83756518
 30
0.0
 40
3.19828486
100
AcDbArc
 50
269.96926574
 51
0.03073426
  0
ARC
  5
61
100
AcDbEntity
  8
0
  6
CONTINUOUS
 62
       7
100
AcDbCircle
 10
55.21497517
 20
-46.33425553
 30
0.0
 40
0.49840851
100
AcDbArc
 50
359.81675286
 51
90.18324714
  0
ARC
  5
62
100
AcDbEntity
  8
0
  6
CONTINUOUS
 62
       7
100
AcDbCircle
 10
41.21509968
 20
-46.33756813
 30
0.0
 40
0.5017215
100
AcDbArc
 50
90.19625643
 51
179.80374357
  0
LINE
  5
63
100
AcDbEntity
  8
0
  6
CONTINUOUS
 62
       7
100
AcDbLine
 10
53.76338113
 20
-38.70584957
 30
0.0
 11
55.01338113
 21
-39.43584957
 31
0.0
  0
LINE
  5
64
100
AcDbEntity
  8
0
  6
CONTINUOUS
 62
       7
100
AcDbLine
 10
53.76338113
 20
-38.70584957
 30
0.0
 11
53.76338113
 21
-38.43584957
 31
0.0
  0
LINE
  5
65
100
AcDbEntity
  8
0
  6
CONTINUOUS
 62
       7
100
AcDbLine
 10
53.91338113
 20
-37.93584957
 30
0.0
 11
53.91338113
 21
-36.73584957
 31
0.0
  0
LINE
  5
66
100
AcDbEntity
  8
0
  6
CONTINUOUS
 62
       7
100
AcDbLine
 10
55.01338113
 20
-45.83584957
 30
0.0
 11
55.01338113
 21
-39.43584957
 31
0.0
  0
LINE
  5
67
100
AcDbEntity
  8
0
  6
CONTINUOUS
 62
       7
100
AcDbLine
 10
52.51338113
 20
-38.43584957
 30
0.0
 11
52.51338113
 21
-37.93584957
 31
0.0
  0
LINE
  5
68
100
AcDbEntity
  8
0
  6
CONTINUOUS
 62
       7
100
AcDbLine
 10
42.66338113
 20
-38.70584957
 30
0.0
 11
53.76338113
 21
-38.70584957
 31
0.0
  0
LINE
  5
69
100
AcDbEntity
  8
0
  6
CONTINUOUS
 62
       7
100
AcDbLine
 10
50.16338113
 20
-38.70584957
 30
0.0
 11
51.41338113
 21
-39.43584957
 31
0.0
  0
LINE
  5
6A
100
AcDbEntity
  8
0
  6
CONTINUOUS
 62
       7
100
AcDbLine
 10
41.41338113
 20
-39.43584957
 30
0.0
 11
42.66338113
 21
-38.70584957
 31
0.0
  0
LINE
  5
6B
100
AcDbEntity
  8
0
  6
CONTINUOUS
 62
       7
100
AcDbLine
 10
41.41338113
 20
-39.43584957
 30
0.0
 11
55.01338113
 21
-39.43584957
 31
0.0
  0
LINE
  5
6C
100
AcDbEntity
  8
0
  6
CONTINUOUS
 62
       7
100
AcDbLine
 10
42.66338113
 20
-38.70584957
 30
0.0
 11
42.66338113
 21
-38.43584957
 31
0.0
  0
LINE
  5
6D
100
AcDbEntity
  8
0
  6
CONTINUOUS
 62
       7
100
AcDbLine
 10
50.16338113
 20
-38.70584957
 30
0.0
 11
50.16338113
 21
-38.43584957
 31
0.0
  0
LINE
  5
6E
100
AcDbEntity
  8
0
  6
CONTINUOUS
 62
       7
100
AcDbLine
 10
42.51338113
 20
-37.93584957
 30
0.0
 11
42.51338113
 21
-36.73584957
 31
0.0
  0
LINE
  5
6F
100
AcDbEntity
  8
0
  6
CONTINUOUS
 62
       7
100
AcDbLine
 10
50.31338113
 20
-37.93584957
 30
0.0
 11
50.31338113
 21
-36.73584957
 31
0.0
  0
LINE
  5
70
100
AcDbEntity
  8
0
  6
CONTINUOUS
 62
       7
100
AcDbLine
 10
41.41338113
 20
-45.83584957
 30
0.0
 11
41.41338113
 21
-39.43584957
 31
0.0
  0
LINE
  5
71
100
AcDbEntity
  8
0
  6
CONTINUOUS
 62
       7
100
AcDbLine
 10
51.41338113
 20
-45.83584957
 30
0.0
 11
51.41338113
 21
-39.43584957
 31
0.0
  0
LINE
  5
72
100
AcDbEntity
  8
0
  6
CONTINUOUS
 62
       7
100
AcDbLine
 10
42.66338113
 20
-38.43584957
 30
0.0
 11
53.76338113
 21
-38.43584957
 31
0.0
  0
LINE
  5
73
100
AcDbEntity
  8
0
  6
CONTINUOUS
 62
       7
100
AcDbLine
 10
43.91338113
 20
-38.43584957
 30
0.0
 11
43.91338113
 21
-37.93584957
 31
0.0
  0
LINE
  5
74
100
AcDbEntity
  8
0
  6
CONTINUOUS
 62
       7
100
AcDbLine
 10
48.91338113
 20
-38.43584957
 30
0.0
 11
48.91338113
 21
-37.93584957
 31
0.0
  0
LINE
  5
75
100
AcDbEntity
  8
0
  6
CONTINUOUS
 62
       7
100
AcDbLine
 10
42.51338113
 20
-37.93584957
 30
0.0
 11
53.91338113
 21
-37.93584957
 31
0.0
  0
LINE
  5
76
100
AcDbEntity
  8
0
  6
CONTINUOUS
 62
       7
100
AcDbLine
 10
42.51338113
 20
-36.73584957
 30
0.0
 11
53.91338113
 21
-36.73584957
 31
0.0
  0
LINE
  5
77
100
AcDbEntity
  8
0
  6
CONTINUOUS
 62
       2
100
AcDbLine
 10
46.41338113
 20
-34.91584957
 30
0.0
 11
46.41338113
 21
-47.35584957
 31
0.0
  0
LINE
  5
78
100
AcDbEntity
  8
0
  6
CONTINUOUS
 62
       7
100
AcDbLine
 10
44.75338113
 20
-49.02584957
 30
0.0
 11
46.03338113
 21
-50.30584957
 31
0.0
  0
LINE
  5
79
100
AcDbEntity
  8
0
  6
CONTINUOUS
 62
       7
100
AcDbLine
 10
43.90338113
 20
-49.86584957
 30
0.0
 11
45.18338113
 21
-51.15584957
 31
0.0
  0
LINE
  5
7A
100
AcDbEntity
  8
0
  6
CONTINUOUS
 62
       7
100
AcDbLine
 10
41.39338113
 20
-47.35584957
 30
0.0
 11
42.67338113
 21
-48.63584957
 31
0.0
  0
LINE
  5
7B
100
AcDbEntity
  8
0
  6
CONTINUOUS
 62
       7
100
AcDbLine
 10
42.24338113
 20
-46.50584957
 30
0.0
 11
43.52338113
 21
-47.79584957
 31
0.0
  0
LINE
  5
7C
100
AcDbEntity
  8
0
  6
CONTINUOUS
 62
       7
100
AcDbLine
 10
41.21338113
 20
-52.03584957
 30
0.0
 11
43.71338113
 21
-52.03584957
 31
0.0
  0
LINE
  5
7D
100
AcDbEntity
  8
0
  6
CONTINUOUS
 62
       7
100
AcDbLine
 10
46.91338113
 20
-48.83584957
 30
0.0
 11
46.91338113
 21
-46.33584957
 31
0.0
  0
LINE
  5
7E
100
AcDbEntity
  8
0
  6
CONTINUOUS
 62
       7
100
AcDbLine
 10
41.21338113
 20
-45.83584957
 30
0.0
 11
55.21338113
 21
-45.83584957
 31
0.0
  0
ARC
  5
7F
100
AcDbEntity
  8
0
  6
CONTINUOUS
 62
       7
100
AcDbCircle
 10
41.21498105
 20
-69.33424964
 30
0.0
 40
0.50160248
100
AcDbArc
 50
180.18275301
 51
269.81724699
  0
LINE
  5
80
100
AcDbEntity
  8
0
  6
CONTINUOUS
 62
       7
100
AcDbLine
 10
49.51338113
 20
-69.33584957
 30
0.0
 11
49.51338113
 21
-66.83584957
 31
0.0
  0
LINE
  5
81
100
AcDbEntity
  8
0
  6
CONTINUOUS
 62
       7
100
AcDbLine
 10
52.90338113
 20
-67.87584957
 30
0.0
 11
54.18338113
 21
-69.15584957
 31
0.0
  0
CIRCLE
  5
82
100
AcDbEntity
  8
0
  6
CONTINUOUS
 62
       7
100
AcDbCircle
 10
52.71669411
 20
-66.83595333
 30
0.0
 40
2.75
  0
CIRCLE
  5
83
100
AcDbEntity
  8
0
  6
CONTINUOUS
 62
       2
100
AcDbCircle
 10
52.71669411
 20
-66.83595333
 30
0.0
 40
1.29999924
  0
CIRCLE
  5
84
100
AcDbEntity
  8
0
  6
CONTINUOUS
 62
       7
100
AcDbCircle
 10
52.71669411
 20
-66.83595333
 30
0.0
 40
1.05649948
  0
ARC
  5
85
100
AcDbEntity
  8
0
  6
CONTINUOUS
 62
       7
100
AcDbCircle
 10
55.21509611
 20
-63.13756456
 30
0.0
 40
0.49828797
100
AcDbArc
 50
269.80280172
 51
0.19719828
  0
ARC
  5
86
100
AcDbEntity
  8
0
  6
CONTINUOUS
 62
       7
100
AcDbCircle
 10
52.71509753
 20
-66.83756598
 30
0.0
 40
3.20171686
100
AcDbArc
 50
90.03071558
 51
179.96928442
  0
LINE
  5
87
100
AcDbEntity
  8
0
  6
CONTINUOUS
 62
       7
100
AcDbLine
 10
53.75338113
 20
-67.02584957
 30
0.0
 11
55.03338113
 21
-68.30584957
 31
0.0
  0
LINE
  5
88
100
AcDbEntity
  8
0
  6
CONTINUOUS
 62
       7
100
AcDbLine
 10
50.39338113
 20
-65.35584957
 30
0.0
 11
51.67338113
 21
-66.64584957
 31
0.0
  0
LINE
  5
89
100
AcDbEntity
  8
0
  6
CONTINUOUS
 62
       7
100
AcDbLine
 10
51.24338113
 20
-64.50584957
 30
0.0
 11
52.52338113
 21
-65.79584957
 31
0.0
  0
LINE
  5
8A
100
AcDbEntity
  8
0
  6
CONTINUOUS
 62
       7
100
AcDbLine
 10
52.71338113
 20
-63.63584957
 30
0.0
 11
55.21338113
 21
-63.63584957
 31
0.0
  0
ARC
  5
8B
100
AcDbEntity
  8
0
  6
CONTINUOUS
 62
       7
100
AcDbCircle
 10
55.21509458
 20
-69.33756303
 30
0.0
 40
0.49828949
100
AcDbArc
 50
269.80297834
 51
0.19702166
  0
ARC
  5
8C
100
AcDbEntity
  8
0
  6
CONTINUOUS
 62
       7
100
AcDbCircle
 10
49.0151037
 20
-69.33757215
 30
0.0
 40
0.4982804
100
AcDbArc
 50
269.80192537
 51
0.19807463
  0
LINE
  5
8D
100
AcDbEntity
  8
0
  6
CONTINUOUS
 62
       7
100
AcDbLine
 10
71.71338113
 20
-69.33584957
 30
0.0
 11
71.71338113
 21
-46.33584957
 31
0.0
  0
LINE
  5
8E
100
AcDbEntity
  8
0
  6
CONTINUOUS
 62
       7
100
AcDbLine
 10
56.71338113
 20
-69.33584957
 30
0.0
 11
56.71338113
 21
-46.33584957
 31
0.0
  0
LINE
  5
8F
100
AcDbEntity
  8
0
  6
CONTINUOUS
 62
       2
100
AcDbLine
 10
66.01338113
 20
-34.81584957
 30
0.0
 11
66.01338113
 21
-47.24584957
 31
0.0
  0
CIRCLE
  5
90
100
AcDbEntity
  8
0
  6
CONTINUOUS
 62
       2
100
AcDbCircle
 10
59.71669411
 20
-48.83595333
 30
0.0
 40
1.29999924
  0
CIRCLE
  5
91
100
AcDbEntity
  8
0
  6
CONTINUOUS
 62
       7
100
AcDbCircle
 10
59.71669411
 20
-48.83595333
 30
0.0
 40
1.05649948
  0
CIRCLE
  5
92
100
AcDbEntity
  8
0
  6
CONTINUOUS
 62
       7
100
AcDbCircle
 10
59.71669411
 20
-48.83595333
 30
0.0
 40
2.75
  0
ARC
  5
93
100
AcDbEntity
  8
0
  6
CONTINUOUS
 62
       7
100
AcDbCircle
 10
63.4151058
 20
-46.33757425
 30
0.0
 40
0.50172764
100
AcDbArc
 50
90.19695326
 51
179.80304674
  0
ARC
  5
94
100
AcDbEntity
  8
0
  6
CONTINUOUS
 62
       7
100
AcDbCircle
 10
57.21509816
 20
-52.53756661
 30
0.0
 40
0.50171997
100
AcDbArc
 50
90.19608333
 51
179.80391667
  0
ARC
  5
95
100
AcDbEntity
  8
0
  6
CONTINUOUS
 62
       7
100
AcDbCircle
 10
59.71509673
 20
-48.83756518
 30
0.0
 40
3.19828486
100
AcDbArc
 50
269.96926574
 51
0.03073426
  0
ARC
  5
96
100
AcDbEntity
  8
0
  6
CONTINUOUS
 62
       7
100
AcDbCircle
 10
71.21497517
 20
-46.33425553
 30
0.0
 40
0.49840851
100
AcDbArc
 50
359.81675286
 51
90.18324714
  0
ARC
  5
97
100
AcDbEntity
  8
0
  6
CONTINUOUS
 62
       7
100
AcDbCircle
 10
57.21509968
 20
-46.33756813
 30
0.0
 40
0.5017215
100
AcDbArc
 50
90.19625643
 51
179.80374357
  0
LINE
  5
98
100
AcDbEntity
  8
0
  6
CONTINUOUS
 62
       7
100
AcDbLine
 10
69.76338113
 20
-38.70584957
 30
0.0
 11
71.01338113
 21
-39.43584957
 31
0.0
  0
LINE
  5
99
100
AcDbEntity
  8
0
  6
CONTINUOUS
 62
       7
100
AcDbLine
 10
69.76338113
 20
-38.70584957
 30
0.0
 11
69.76338113
 21
-38.43584957
 31
0.0
  0
LINE
  5
9A
100
AcDbEntity
  8
0
  6
CONTINUOUS
 62
       7
100
AcDbLine
 10
69.91338113
 20
-37.93584957
 30
0.0
 11
69.91338113
 21
-36.73584957
 31
0.0
  0
LINE
  5
9B
100
AcDbEntity
  8
0
  6
CONTINUOUS
 62
       7
100
AcDbLine
 10
71.01338113
 20
-45.83584957
 30
0.0
 11
71.01338113
 21
-39.43584957
 31
0.0
  0
LINE
  5
9C
100
AcDbEntity
  8
0
  6
CONTINUOUS
 62
       7
100
AcDbLine
 10
68.51338113
 20
-38.43584957
 30
0.0
 11
68.51338113
 21
-37.93584957
 31
0.0
  0
LINE
  5
9D
100
AcDbEntity
  8
0
  6
CONTINUOUS
 62
       7
100
AcDbLine
 10
58.66338113
 20
-38.70584957
 30
0.0
 11
69.76338113
 21
-38.70584957
 31
0.0
  0
LINE
  5
9E
100
AcDbEntity
  8
0
  6
CONTINUOUS
 62
       7
100
AcDbLine
 10
66.16338113
 20
-38.70584957
 30
0.0
 11
67.41338113
 21
-39.43584957
 31
0.0
  0
LINE
  5
9F
100
AcDbEntity
  8
0
  6
CONTINUOUS
 62
       7
100
AcDbLine
 10
57.41338113
 20
-39.43584957
 30
0.0
 11
58.66338113
 21
-38.70584957
 31
0.0
  0
LINE
  5
A0
100
AcDbEntity
  8
0
  6
CONTINUOUS
 62
       7
100
AcDbLine
 10
57.41338113
 20
-39.43584957
 30
0.0
 11
71.01338113
 21
-39.43584957
 31
0.0
  0
LINE
  5
A1
100
AcDbEntity
  8
0
  6
CONTINUOUS
 62
       7
100
AcDbLine
 10
58.66338113
 20
-38.70584957
 30
0.0
 11
58.66338113
 21
-38.43584957
 31
0.0
  0
LINE
  5
A2
100
AcDbEntity
  8
0
  6
CONTINUOUS
 62
       7
100
AcDbLine
 10
66.16338113
 20
-38.70584957
 30
0.0
 11
66.16338113
 21
-38.43584957
 31
0.0
  0
LINE
  5
A3
100
AcDbEntity
  8
0
  6
CONTINUOUS
 62
       7
100
AcDbLine
 10
58.51338113
 20
-37.93584957
 30
0.0
 11
58.51338113
 21
-36.73584957
 31
0.0
  0
LINE
  5
A4
100
AcDbEntity
  8
0
  6
CONTINUOUS
 62
       7
100
AcDbLine
 10
66.31338113
 20
-37.93584957
 30
0.0
 11
66.31338113
 21
-36.73584957
 31
0.0
  0
LINE
  5
A5
100
AcDbEntity
  8
0
  6
CONTINUOUS
 62
       7
100
AcDbLine
 10
57.41338113
 20
-45.83584957
 30
0.0
 11
57.41338113
 21
-39.43584957
 31
0.0
  0
LINE
  5
A6
100
AcDbEntity
  8
0
  6
CONTINUOUS
 62
       7
100
AcDbLine
 10
67.41338113
 20
-45.83584957
 30
0.0
 11
67.41338113
 21
-39.43584957
 31
0.0
  0
LINE
  5
A7
100
AcDbEntity
  8
0
  6
CONTINUOUS
 62
       7
100
AcDbLine
 10
58.66338113
 20
-38.43584957
 30
0.0
 11
69.76338113
 21
-38.43584957
 31
0.0
  0
LINE
  5
A8
100
AcDbEntity
  8
0
  6
CONTINUOUS
 62
       7
100
AcDbLine
 10
59.91338113
 20
-38.43584957
 30
0.0
 11
59.91338113
 21
-37.93584957
 31
0.0
  0
LINE
  5
A9
100
AcDbEntity
  8
0
  6
CONTINUOUS
 62
       7
100
AcDbLine
 10
64.91338113
 20
-38.43584957
 30
0.0
 11
64.91338113
 21
-37.93584957
 31
0.0
  0
LINE
  5
AA
100
AcDbEntity
  8
0
  6
CONTINUOUS
 62
       7
100
AcDbLine
 10
58.51338113
 20
-37.93584957
 30
0.0
 11
69.91338113
 21
-37.93584957
 31
0.0
  0
LINE
  5
AB
100
AcDbEntity
  8
0
  6
CONTINUOUS
 62
       7
100
AcDbLine
 10
58.51338113
 20
-36.73584957
 30
0.0
 11
69.91338113
 21
-36.73584957
 31
0.0
  0
LINE
  5
AC
100
AcDbEntity
  8
0
  6
CONTINUOUS
 62
       2
100
AcDbLine
 10
62.41338113
 20
-34.91584957
 30
0.0
 11
62.41338113
 21
-47.35584957
 31
0.0
  0
LINE
  5
AD
100
AcDbEntity
  8
0
  6
CONTINUOUS
 62
       7
100
AcDbLine
 10
60.75338113
 20
-49.02584957
 30
0.0
 11
62.03338113
 21
-50.30584957
 31
0.0
  0
LINE
  5
AE
100
AcDbEntity
  8
0
  6
CONTINUOUS
 62
       7
100
AcDbLine
 10
59.90338113
 20
-49.86584957
 30
0.0
 11
61.18338113
 21
-51.15584957
 31
0.0
  0
LINE
  5
AF
100
AcDbEntity
  8
0
  6
CONTINUOUS
 62
       7
100
AcDbLine
 10
57.39338113
 20
-47.35584957
 30
0.0
 11
58.67338113
 21
-48.63584957
 31
0.0
  0
LINE
  5
B0
100
AcDbEntity
  8
0
  6
CONTINUOUS
 62
       7
100
AcDbLine
 10
58.24338113
 20
-46.50584957
 30
0.0
 11
59.52338113
 21
-47.79584957
 31
0.0
  0
LINE
  5
B1
100
AcDbEntity
  8
0
  6
CONTINUOUS
 62
       7
100
AcDbLine
 10
57.21338113
 20
-52.03584957
 30
0.0
 11
59.71338113
 21
-52.03584957
 31
0.0
  0
LINE
  5
B2
100
AcDbEntity
  8
0
  6
CONTINUOUS
 62
       7
100
AcDbLine
 10
62.91338113
 20
-48.83584957
 30
0.0
 11
62.91338113
 21
-46.33584957
 31
0.0
  0
LINE
  5
B3
100
AcDbEntity
  8
0
  6
CONTINUOUS
 62
       7
100
AcDbLine
 10
57.21338113
 20
-45.83584957
 30
0.0
 11
71.21338113
 21
-45.83584957
 31
0.0
  0
ARC
  5
B4
100
AcDbEntity
  8
0
  6
CONTINUOUS
 62
       7
100
AcDbCircle
 10
57.21498105
 20
-69.33424964
 30
0.0
 40
0.50160248
100
AcDbArc
 50
180.18275301
 51
269.81724699
  0
LINE
  5
B5
100
AcDbEntity
  8
0
  6
CONTINUOUS
 62
       7
100
AcDbLine
 10
65.51338113
 20
-69.33584957
 30
0.0
 11
65.51338113
 21
-66.83584957
 31
0.0
  0
LINE
  5
B6
100
AcDbEntity
  8
0
  6
CONTINUOUS
 62
       7
100
AcDbLine
 10
68.90338113
 20
-67.87584957
 30
0.0
 11
70.18338113
 21
-69.15584957
 31
0.0
  0
CIRCLE
  5
B7
100
AcDbEntity
  8
0
  6
CONTINUOUS
 62
       7
100
AcDbCircle
 10
68.71669411
 20
-66.83595333
 30
0.0
 40
2.75
  0
CIRCLE
  5
B8
100
AcDbEntity
  8
0
  6
CONTINUOUS
 62
       2
100
AcDbCircle
 10
68.71669411
 20
-66.83595333
 30
0.0
 40
1.29999924
  0
CIRCLE
  5
B9
100
AcDbEntity
  8
0
  6
CONTINUOUS
 62
       7
100
AcDbCircle
 10
68.71669411
 20
-66.83595333
 30
0.0
 40
1.05649948
  0
ARC
  5
BA
100
AcDbEntity
  8
0
  6
CONTINUOUS
 62
       7
100
AcDbCircle
 10
71.21509611
 20
-63.13756456
 30
0.0
 40
0.49828797
100
AcDbArc
 50
269.80280172
 51
0.19719828
  0
ARC
  5
BB
100
AcDbEntity
  8
0
  6
CONTINUOUS
 62
       7
100
AcDbCircle
 10
68.71509753
 20
-66.83756598
 30
0.0
 40
3.20171686
100
AcDbArc
 50
90.03071558
 51
179.96928442
  0
LINE
  5
BC
100
AcDbEntity
  8
0
  6
CONTINUOUS
 62
       7
100
AcDbLine
 10
69.75338113
 20
-67.02584957
 30
0.0
 11
71.03338113
 21
-68.30584957
 31
0.0
  0
LINE
  5
BD
100
AcDbEntity
  8
0
  6
CONTINUOUS
 62
       7
100
AcDbLine
 10
66.39338113
 20
-65.35584957
 30
0.0
 11
67.67338113
 21
-66.64584957
 31
0.0
  0
LINE
  5
BE
100
AcDbEntity
  8
0
  6
CONTINUOUS
 62
       7
100
AcDbLine
 10
67.24338113
 20
-64.50584957
 30
0.0
 11
68.52338113
 21
-65.79584957
 31
0.0
  0
LINE
  5
BF
100
AcDbEntity
  8
0
  6
CONTINUOUS
 62
       7
100
AcDbLine
 10
68.71338113
 20
-63.63584957
 30
0.0
 11
71.21338113
 21
-63.63584957
 31
0.0
  0
ARC
  5
C0
100
AcDbEntity
  8
0
  6
CONTINUOUS
 62
       7
100
AcDbCircle
 10
71.21509458
 20
-69.33756303
 30
0.0
 40
0.49828949
100
AcDbArc
 50
269.80297834
 51
0.19702166
  0
ARC
  5
C1
100
AcDbEntity
  8
0
  6
CONTINUOUS
 62
       7
100
AcDbCircle
 10
65.0151037
 20
-69.33757215
 30
0.0
 40
0.4982804
100
AcDbArc
 50
269.80192537
 51
0.19807463
  0
LINE
  5
C2
100
AcDbEntity
  8
0
  6
CONTINUOUS
 62
       7
100
AcDbLine
 10
87.71338113
 20
-69.33584957
 30
0.0
 11
87.71338113
 21
-46.33584957
 31
0.0
  0
LINE
  5
C3
100
AcDbEntity
  8
0
  6
CONTINUOUS
 62
       7
100
AcDbLine
 10
72.71338113
 20
-69.33584957
 30
0.0
 11
72.71338113
 21
-46.33584957
 31
0.0
  0
LINE
  5
C4
100
AcDbEntity
  8
0
  6
CONTINUOUS
 62
       2
100
AcDbLine
 10
82.01338113
 20
-34.81584957
 30
0.0
 11
82.01338113
 21
-46.94584957
 31
0.0
  0
CIRCLE
  5
C5
100
AcDbEntity
  8
0
  6
CONTINUOUS
 62
       2
100
AcDbCircle
 10
75.71669411
 20
-48.83595333
 30
0.0
 40
1.29999924
  0
CIRCLE
  5
C6
100
AcDbEntity
  8
0
  6
CONTINUOUS
 62
       7
100
AcDbCircle
 10
75.71669411
 20
-48.83595333
 30
0.0
 40
1.05649948
  0
CIRCLE
  5
C7
100
AcDbEntity
  8
0
  6
CONTINUOUS
 62
       7
100
AcDbCircle
 10
75.71669411
 20
-48.83595333
 30
0.0
 40
2.75
  0
ARC
  5
C8
100
AcDbEntity
  8
0
  6
CONTINUOUS
 62
       7
100
AcDbCircle
 10
79.4151058
 20
-46.33757425
 30
0.0
 40
0.50172764
100
AcDbArc
 50
90.19695326
 51
179.80304674
  0
ARC
  5
C9
100
AcDbEntity
  8
0
  6
CONTINUOUS
 62
       7
100
AcDbCircle
 10
73.21509816
 20
-52.53756661
 30
0.0
 40
0.50171997
100
AcDbArc
 50
90.19608333
 51
179.80391667
  0
ARC
  5
CA
100
AcDbEntity
  8
0
  6
CONTINUOUS
 62
       7
100
AcDbCircle
 10
75.71509673
 20
-48.83756518
 30
0.0
 40
3.19828486
100
AcDbArc
 50
269.96926574
 51
0.03073426
  0
ARC
  5
CB
100
AcDbEntity
  8
0
  6
CONTINUOUS
 62
       7
100
AcDbCircle
 10
87.21497517
 20
-46.33425553
 30
0.0
 40
0.49840851
100
AcDbArc
 50
359.81675286
 51
90.18324714
  0
ARC
  5
CC
100
AcDbEntity
  8
0
  6
CONTINUOUS
 62
       7
100
AcDbCircle
 10
73.21509968
 20
-46.33756813
 30
0.0
 40
0.5017215
100
AcDbArc
 50
90.19625643
 51
179.80374357
  0
LINE
  5
CD
100
AcDbEntity
  8
0
  6
CONTINUOUS
 62
       7
100
AcDbLine
 10
85.76338113
 20
-38.70584957
 30
0.0
 11
87.01338113
 21
-39.43584957
 31
0.0
  0
LINE
  5
CE
100
AcDbEntity
  8
0
  6
CONTINUOUS
 62
       7
100
AcDbLine
 10
85.76338113
 20
-38.70584957
 30
0.0
 11
85.76338113
 21
-38.43584957
 31
0.0
  0
LINE
  5
CF
100
AcDbEntity
  8
0
  6
CONTINUOUS
 62
       7
100
AcDbLine
 10
85.91338113
 20
-37.93584957
 30
0.0
 11
85.91338113
 21
-36.73584957
 31
0.0
  0
LINE
  5
D0
100
AcDbEntity
  8
0
  6
CONTINUOUS
 62
       7
100
AcDbLine
 10
87.01338113
 20
-45.83584957
 30
0.0
 11
87.01338113
 21
-39.43584957
 31
0.0
  0
LINE
  5
D1
100
AcDbEntity
  8
0
  6
CONTINUOUS
 62
       7
100
AcDbLine
 10
84.51338113
 20
-38.43584957
 30
0.0
 11
84.51338113
 21
-37.93584957
 31
0.0
  0
LINE
  5
D2
100
AcDbEntity
  8
0
  6
CONTINUOUS
 62
       7
100
AcDbLine
 10
74.66338113
 20
-38.70584957
 30
0.0
 11
85.76338113
 21
-38.70584957
 31
0.0
  0
LINE
  5
D3
100
AcDbEntity
  8
0
  6
CONTINUOUS
 62
       7
100
AcDbLine
 10
82.16338113
 20
-38.70584957
 30
0.0
 11
83.41338113
 21
-39.43584957
 31
0.0
  0
LINE
  5
D4
100
AcDbEntity
  8
0
  6
CONTINUOUS
 62
       7
100
AcDbLine
 10
73.41338113
 20
-39.43584957
 30
0.0
 11
74.66338113
 21
-38.70584957
 31
0.0
  0
LINE
  5
D5
100
AcDbEntity
  8
0
  6
CONTINUOUS
 62
       7
100
AcDbLine
 10
73.41338113
 20
-39.43584957
 30
0.0
 11
87.01338113
 21
-39.43584957
 31
0.0
  0
LINE
  5
D6
100
AcDbEntity
  8
0
  6
CONTINUOUS
 62
       7
100
AcDbLine
 10
74.66338113
 20
-38.70584957
 30
0.0
 11
74.66338113
 21
-38.43584957
 31
0.0
  0
LINE
  5
D7
100
AcDbEntity
  8
0
  6
CONTINUOUS
 62
       7
100
AcDbLine
 10
82.16338113
 20
-38.70584957
 30
0.0
 11
82.16338113
 21
-38.43584957
 31
0.0
  0
LINE
  5
D8
100
AcDbEntity
  8
0
  6
CONTINUOUS
 62
       7
100
AcDbLine
 10
74.51338113
 20
-37.93584957
 30
0.0
 11
74.51338113
 21
-36.73584957
 31
0.0
  0
LINE
  5
D9
100
AcDbEntity
  8
0
  6
CONTINUOUS
 62
       7
100
AcDbLine
 10
82.31338113
 20
-37.93584957
 30
0.0
 11
82.31338113
 21
-36.73584957
 31
0.0
  0
LINE
  5
DA
100
AcDbEntity
  8
0
  6
CONTINUOUS
 62
       7
100
AcDbLine
 10
73.41338113
 20
-45.83584957
 30
0.0
 11
73.41338113
 21
-39.43584957
 31
0.0
  0
LINE
  5
DB
100
AcDbEntity
  8
0
  6
CONTINUOUS
 62
       7
100
AcDbLine
 10
83.41338113
 20
-45.83584957
 30
0.0
 11
83.41338113
 21
-39.43584957
 31
0.0
  0
LINE
  5
DC
100
AcDbEntity
  8
0
  6
CONTINUOUS
 62
       7
100
AcDbLine
 10
74.66338113
 20
-38.43584957
 30
0.0
 11
85.76338113
 21
-38.43584957
 31
0.0
  0
LINE
  5
DD
100
AcDbEntity
  8
0
  6
CONTINUOUS
 62
       7
100
AcDbLine
 10
75.91338113
 20
-38.43584957
 30
0.0
 11
75.91338113
 21
-37.93584957
 31
0.0
  0
LINE
  5
DE
100
AcDbEntity
  8
0
  6
CONTINUOUS
 62
       7
100
AcDbLine
 10
80.91338113
 20
-38.43584957
 30
0.0
 11
80.91338113
 21
-37.93584957
 31
0.0
  0
LINE
  5
DF
100
AcDbEntity
  8
0
  6
CONTINUOUS
 62
       7
100
AcDbLine
 10
74.51338113
 20
-37.93584957
 30
0.0
 11
85.91338113
 21
-37.93584957
 31
0.0
  0
LINE
  5
E0
100
AcDbEntity
  8
0
  6
CONTINUOUS
 62
       7
100
AcDbLine
 10
74.51338113
 20
-36.73584957
 30
0.0
 11
85.91338113
 21
-36.73584957
 31
0.0
  0
LINE
  5
E1
100
AcDbEntity
  8
0
  6
CONTINUOUS
 62
       2
100
AcDbLine
 10
78.41338113
 20
-34.91584957
 30
0.0
 11
78.41338113
 21
-47.05584957
 31
0.0
  0
LINE
  5
E2
100
AcDbEntity
  8
0
  6
CONTINUOUS
 62
       7
100
AcDbLine
 10
76.75338113
 20
-49.02584957
 30
0.0
 11
78.03338113
 21
-50.30584957
 31
0.0
  0
LINE
  5
E3
100
AcDbEntity
  8
0
  6
CONTINUOUS
 62
       7
100
AcDbLine
 10
75.90338113
 20
-49.86584957
 30
0.0
 11
77.18338113
 21
-51.15584957
 31
0.0
  0
LINE
  5
E4
100
AcDbEntity
  8
0
  6
CONTINUOUS
 62
       7
100
AcDbLine
 10
73.39338113
 20
-47.35584957
 30
0.0
 11
74.67338113
 21
-48.63584957
 31
0.0
  0
LINE
  5
E5
100
AcDbEntity
  8
0
  6
CONTINUOUS
 62
       7
100
AcDbLine
 10
74.24338113
 20
-46.50584957
 30
0.0
 11
75.52338113
 21
-47.79584957
 31
0.0
  0
LINE
  5
E6
100
AcDbEntity
  8
0
  6
CONTINUOUS
 62
       7
100
AcDbLine
 10
73.21338113
 20
-52.03584957
 30
0.0
 11
75.71338113
 21
-52.03584957
 31
0.0
  0
LINE
  5
E7
100
AcDbEntity
  8
0
  6
CONTINUOUS
 62
       7
100
AcDbLine
 10
78.91338113
 20
-48.83584957
 30
0.0
 11
78.91338113
 21
-46.33584957
 31
0.0
  0
LINE
  5
E8
100
AcDbEntity
  8
0
  6
CONTINUOUS
 62
       7
100
AcDbLine
 10
73.21338113
 20
-45.83584957
 30
0.0
 11
87.21338113
 21
-45.83584957
 31
0.0
  0
ARC
  5
E9
100
AcDbEntity
  8
0
  6
CONTINUOUS
 62
       7
100
AcDbCircle
 10
73.21498105
 20
-69.33424964
 30
0.0
 40
0.50160248
100
AcDbArc
 50
180.18275301
 51
269.81724699
  0
LINE
  5
EA
100
AcDbEntity
  8
0
  6
CONTINUOUS
 62
       7
100
AcDbLine
 10
81.51338113
 20
-69.33584957
 30
0.0
 11
81.51338113
 21
-66.83584957
 31
0.0
  0
LINE
  5
EB
100
AcDbEntity
  8
0
  6
CONTINUOUS
 62
       7
100
AcDbLine
 10
84.90338113
 20
-67.87584957
 30
0.0
 11
86.18338113
 21
-69.15584957
 31
0.0
  0
CIRCLE
  5
EC
100
AcDbEntity
  8
0
  6
CONTINUOUS
 62
       7
100
AcDbCircle
 10
84.71669411
 20
-66.83595333
 30
0.0
 40
2.75
  0
CIRCLE
  5
ED
100
AcDbEntity
  8
0
  6
CONTINUOUS
 62
       2
100
AcDbCircle
 10
84.71669411
 20
-66.83595333
 30
0.0
 40
1.29999924
  0
CIRCLE
  5
EE
100
AcDbEntity
  8
0
  6
CONTINUOUS
 62
       7
100
AcDbCircle
 10
84.71669411
 20
-66.83595333
 30
0.0
 40
1.05649948
  0
ARC
  5
EF
100
AcDbEntity
  8
0
  6
CONTINUOUS
 62
       7
100
AcDbCircle
 10
87.21509611
 20
-63.13756456
 30
0.0
 40
0.49828797
100
AcDbArc
 50
269.80280172
 51
0.19719828
  0
ARC
  5
F0
100
AcDbEntity
  8
0
  6
CONTINUOUS
 62
       7
100
AcDbCircle
 10
84.71509753
 20
-66.83756598
 30
0.0
 40
3.20171686
100
AcDbArc
 50
90.03071558
 51
179.96928442
  0
LINE
  5
F1
100
AcDbEntity
  8
0
  6
CONTINUOUS
 62
       7
100
AcDbLine
 10
85.75338113
 20
-67.02584957
 30
0.0
 11
87.03338113
 21
-68.30584957
 31
0.0
  0
LINE
  5
F2
100
AcDbEntity
  8
0
  6
CONTINUOUS
 62
       7
100
AcDbLine
 10
82.39338113
 20
-65.35584957
 30
0.0
 11
83.67338113
 21
-66.64584957
 31
0.0
  0
LINE
  5
F3
100
AcDbEntity
  8
0
  6
CONTINUOUS
 62
       7
100
AcDbLine
 10
83.24338113
 20
-64.50584957
 30
0.0
 11
84.52338113
 21
-65.79584957
 31
0.0
  0
LINE
  5
F4
100
AcDbEntity
  8
0
  6
CONTINUOUS
 62
       7
100
AcDbLine
 10
84.71338113
 20
-63.63584957
 30
0.0
 11
87.21338113
 21
-63.63584957
 31
0.0
  0
ARC
  5
F5
100
AcDbEntity
  8
0
  6
CONTINUOUS
 62
       7
100
AcDbCircle
 10
87.21509458
 20
-69.33756303
 30
0.0
 40
0.49828949
100
AcDbArc
 50
269.80297834
 51
0.19702166
  0
ARC
  5
F6
100
AcDbEntity
  8
0
  6
CONTINUOUS
 62
       7
100
AcDbCircle
 10
81.0151037
 20
-69.33757215
 30
0.0
 40
0.4982804
100
AcDbArc
 50
269.80192537
 51
0.19807463
  0
LINE
  5
F7
100
AcDbEntity
  8
0
  6
CONTINUOUS
 62
       7
100
AcDbLine
 10
103.71338113
 20
-69.33584957
 30
0.0
 11
103.71338113
 21
-46.33584957
 31
0.0
  0
LINE
  5
F8
100
AcDbEntity
  8
0
  6
CONTINUOUS
 62
       7
100
AcDbLine
 10
88.71338113
 20
-69.33584957
 30
0.0
 11
88.71338113
 21
-46.33584957
 31
0.0
  0
LINE
  5
F9
100
AcDbEntity
  8
0
  6
CONTINUOUS
 62
       2
100
AcDbLine
 10
98.01338113
 20
-34.81584957
 30
0.0
 11
98.01338113
 21
-46.94584957
 31
0.0
  0
CIRCLE
  5
FA
100
AcDbEntity
  8
0
  6
CONTINUOUS
 62
       2
100
AcDbCircle
 10
91.71669411
 20
-48.83595333
 30
0.0
 40
1.29999924
  0
CIRCLE
  5
FB
100
AcDbEntity
  8
0
  6
CONTINUOUS
 62
       7
100
AcDbCircle
 10
91.71669411
 20
-48.83595333
 30
0.0
 40
1.05649948
  0
CIRCLE
  5
FC
100
AcDbEntity
  8
0
  6
CONTINUOUS
 62
       7
100
AcDbCircle
 10
91.71669411
 20
-48.83595333
 30
0.0
 40
2.75
  0
ARC
  5
FD
100
AcDbEntity
  8
0
  6
CONTINUOUS
 62
       7
100
AcDbCircle
 10
95.4151058
 20
-46.33757425
 30
0.0
 40
0.50172764
100
AcDbArc
 50
90.19695326
 51
179.80304674
  0
ARC
  5
FE
100
AcDbEntity
  8
0
  6
CONTINUOUS
 62
       7
100
AcDbCircle
 10
89.21509816
 20
-52.53756661
 30
0.0
 40
0.50171997
100
AcDbArc
 50
90.19608333
 51
179.80391667
  0
ARC
  5
FF
100
AcDbEntity
  8
0
  6
CONTINUOUS
 62
       7
100
AcDbCircle
 10
91.71509673
 20
-48.83756518
 30
0.0
 40
3.19828486
100
AcDbArc
 50
269.96926574
 51
0.03073426
  0
ARC
  5
100
100
AcDbEntity
  8
0
  6
CONTINUOUS
 62
       7
100
AcDbCircle
 10
103.21497517
 20
-46.33425553
 30
0.0
 40
0.49840851
100
AcDbArc
 50
359.81675286
 51
90.18324714
  0
ARC
  5
101
100
AcDbEntity
  8
0
  6
CONTINUOUS
 62
       7
100
AcDbCircle
 10
89.21509968
 20
-46.33756813
 30
0.0
 40
0.5017215
100
AcDbArc
 50
90.19625643
 51
179.80374357
  0
LINE
  5
102
100
AcDbEntity
  8
0
  6
CONTINUOUS
 62
       7
100
AcDbLine
 10
101.76338113
 20
-38.70584957
 30
0.0
 11
103.01338113
 21
-39.43584957
 31
0.0
  0
LINE
  5
103
100
AcDbEntity
  8
0
  6
CONTINUOUS
 62
       7
100
AcDbLine
 10
101.76338113
 20
-38.70584957
 30
0.0
 11
101.76338113
 21
-38.43584957
 31
0.0
  0
LINE
  5
104
100
AcDbEntity
  8
0
  6
CONTINUOUS
 62
       7
100
AcDbLine
 10
101.91338113
 20
-37.93584957
 30
0.0
 11
101.91338113
 21
-36.73584957
 31
0.0
  0
LINE
  5
105
100
AcDbEntity
  8
0
  6
CONTINUOUS
 62
       7
100
AcDbLine
 10
103.01338113
 20
-45.83584957
 30
0.0
 11
103.01338113
 21
-39.43584957
 31
0.0
  0
LINE
  5
106
100
AcDbEntity
  8
0
  6
CONTINUOUS
 62
       7
100
AcDbLine
 10
100.51338113
 20
-38.43584957
 30
0.0
 11
100.51338113
 21
-37.93584957
 31
0.0
  0
LINE
  5
107
100
AcDbEntity
  8
0
  6
CONTINUOUS
 62
       7
100
AcDbLine
 10
90.66338113
 20
-38.70584957
 30
0.0
 11
101.76338113
 21
-38.70584957
 31
0.0
  0
LINE
  5
108
100
AcDbEntity
  8
0
  6
CONTINUOUS
 62
       7
100
AcDbLine
 10
98.16338113
 20
-38.70584957
 30
0.0
 11
99.41338113
 21
-39.43584957
 31
0.0
  0
LINE
  5
109
100
AcDbEntity
  8
0
  6
CONTINUOUS
 62
       7
100
AcDbLine
 10
89.41338113
 20
-39.43584957
 30
0.0
 11
90.66338113
 21
-38.70584957
 31
0.0
  0
LINE
  5
10A
100
AcDbEntity
  8
0
  6
CONTINUOUS
 62
       7
100
AcDbLine
 10
89.41338113
 20
-39.43584957
 30
0.0
 11
103.01338113
 21
-39.43584957
 31
0.0
  0
LINE
  5
10B
100
AcDbEntity
  8
0
  6
CONTINUOUS
 62
       7
100
AcDbLine
 10
90.66338113
 20
-38.70584957
 30
0.0
 11
90.66338113
 21
-38.43584957
 31
0.0
  0
LINE
  5
10C
100
AcDbEntity
  8
0
  6
CONTINUOUS
 62
       7
100
AcDbLine
 10
98.16338113
 20
-38.70584957
 30
0.0
 11
98.16338113
 21
-38.43584957
 31
0.0
  0
LINE
  5
10D
100
AcDbEntity
  8
0
  6
CONTINUOUS
 62
       7
100
AcDbLine
 10
90.51338113
 20
-37.93584957
 30
0.0
 11
90.51338113
 21
-36.73584957
 31
0.0
  0
LINE
  5
10E
100
AcDbEntity
  8
0
  6
CONTINUOUS
 62
       7
100
AcDbLine
 10
98.31338113
 20
-37.93584957
 30
0.0
 11
98.31338113
 21
-36.73584957
 31
0.0
  0
LINE
  5
10F
100
AcDbEntity
  8
0
  6
CONTINUOUS
 62
       7
100
AcDbLine
 10
89.41338113
 20
-45.83584957
 30
0.0
 11
89.41338113
 21
-39.43584957
 31
0.0
  0
LINE
  5
110
100
AcDbEntity
  8
0
  6
CONTINUOUS
 62
       7
100
AcDbLine
 10
99.41338113
 20
-45.83584957
 30
0.0
 11
99.41338113
 21
-39.43584957
 31
0.0
  0
LINE
  5
111
100
AcDbEntity
  8
0
  6
CONTINUOUS
 62
       7
100
AcDbLine
 10
90.66338113
 20
-38.43584957
 30
0.0
 11
101.76338113
 21
-38.43584957
 31
0.0
  0
LINE
  5
112
100
AcDbEntity
  8
0
  6
CONTINUOUS
 62
       7
100
AcDbLine
 10
91.91338113
 20
-38.43584957
 30
0.0
 11
91.91338113
 21
-37.93584957
 31
0.0
  0
LINE
  5
113
100
AcDbEntity
  8
0
  6
CONTINUOUS
 62
       7
100
AcDbLine
 10
96.91338113
 20
-38.43584957
 30
0.0
 11
96.91338113
 21
-37.93584957
 31
0.0
  0
LINE
  5
114
100
AcDbEntity
  8
0
  6
CONTINUOUS
 62
       7
100
AcDbLine
 10
90.51338113
 20
-37.93584957
 30
0.0
 11
101.91338113
 21
-37.93584957
 31
0.0
  0
LINE
  5
115
100
AcDbEntity
  8
0
  6
CONTINUOUS
 62
       7
100
AcDbLine
 10
90.51338113
 20
-36.73584957
 30
0.0
 11
101.91338113
 21
-36.73584957
 31
0.0
  0
LINE
  5
116
100
AcDbEntity
  8
0
  6
CONTINUOUS
 62
       2
100
AcDbLine
 10
94.41338113
 20
-34.91584957
 30
0.0
 11
94.41338113
 21
-47.05584957
 31
0.0
  0
LINE
  5
117
100
AcDbEntity
  8
0
  6
CONTINUOUS
 62
       7
100
AcDbLine
 10
92.75338113
 20
-49.02584957
 30
0.0
 11
94.03338113
 21
-50.30584957
 31
0.0
  0
LINE
  5
118
100
AcDbEntity
  8
0
  6
CONTINUOUS
 62
       7
100
AcDbLine
 10
91.90338113
 20
-49.86584957
 30
0.0
 11
93.18338113
 21
-51.15584957
 31
0.0
  0
LINE
  5
119
100
AcDbEntity
  8
0
  6
CONTINUOUS
 62
       7
100
AcDbLine
 10
89.39338113
 20
-47.35584957
 30
0.0
 11
90.67338113
 21
-48.63584957
 31
0.0
  0
LINE
  5
11A
100
AcDbEntity
  8
0
  6
CONTINUOUS
 62
       7
100
AcDbLine
 10
90.24338113
 20
-46.50584957
 30
0.0
 11
91.52338113
 21
-47.79584957
 31
0.0
  0
LINE
  5
11B
100
AcDbEntity
  8
0
  6
CONTINUOUS
 62
       7
100
AcDbLine
 10
89.21338113
 20
-52.03584957
 30
0.0
 11
91.71338113
 21
-52.03584957
 31
0.0
  0
LINE
  5
11C
100
AcDbEntity
  8
0
  6
CONTINUOUS
 62
       7
100
AcDbLine
 10
94.91338113
 20
-48.83584957
 30
0.0
 11
94.91338113
 21
-46.33584957
 31
0.0
  0
LINE
  5
11D
100
AcDbEntity
  8
0
  6
CONTINUOUS
 62
       7
100
AcDbLine
 10
89.21338113
 20
-45.83584957
 30
0.0
 11
103.21338113
 21
-45.83584957
 31
0.0
  0
ARC
  5
11E
100
AcDbEntity
  8
0
  6
CONTINUOUS
 62
       7
100
AcDbCircle
 10
89.21498105
 20
-69.33424964
 30
0.0
 40
0.50160248
100
AcDbArc
 50
180.18275301
 51
269.81724699
  0
LINE
  5
11F
100
AcDbEntity
  8
0
  6
CONTINUOUS
 62
       7
100
AcDbLine
 10
97.51338113
 20
-69.33584957
 30
0.0
 11
97.51338113
 21
-66.83584957
 31
0.0
  0
LINE
  5
120
100
AcDbEntity
  8
0
  6
CONTINUOUS
 62
       7
100
AcDbLine
 10
100.90338113
 20
-67.87584957
 30
0.0
 11
102.18338113
 21
-69.15584957
 31
0.0
  0
CIRCLE
  5
121
100
AcDbEntity
  8
0
  6
CONTINUOUS
 62
       7
100
AcDbCircle
 10
100.71669411
 20
-66.83595333
 30
0.0
 40
2.75
  0
CIRCLE
  5
122
100
AcDbEntity
  8
0
  6
CONTINUOUS
 62
       2
100
AcDbCircle
 10
100.71669411
 20
-66.83595333
 30
0.0
 40
1.29999924
  0
CIRCLE
  5
123
100
AcDbEntity
  8
0
  6
CONTINUOUS
 62
       7
100
AcDbCircle
 10
100.71669411
 20
-66.83595333
 30
0.0
 40
1.05649948
  0
ARC
  5
124
100
AcDbEntity
  8
0
  6
CONTINUOUS
 62
       7
100
AcDbCircle
 10
103.21509611
 20
-63.13756456
 30
0.0
 40
0.49828797
100
AcDbArc
 50
269.80280172
 51
0.19719828
  0
ARC
  5
125
100
AcDbEntity
  8
0
  6
CONTINUOUS
 62
       7
100
AcDbCircle
 10
100.71509753
 20
-66.83756598
 30
0.0
 40
3.20171686
100
AcDbArc
 50
90.03071558
 51
179.96928442
  0
LINE
  5
126
100
AcDbEntity
  8
0
  6
CONTINUOUS
 62
       7
100
AcDbLine
 10
101.75338113
 20
-67.02584957
 30
0.0
 11
103.03338113
 21
-68.30584957
 31
0.0
  0
LINE
  5
127
100
AcDbEntity
  8
0
  6
CONTINUOUS
 62
       7
100
AcDbLine
 10
98.39338113
 20
-65.35584957
 30
0.0
 11
99.67338113
 21
-66.64584957
 31
0.0
  0
LINE
  5
128
100
AcDbEntity
  8
0
  6
CONTINUOUS
 62
       7
100
AcDbLine
 10
99.24338113
 20
-64.50584957
 30
0.0
 11
100.52338113
 21
-65.79584957
 31
0.0
  0
LINE
  5
129
100
AcDbEntity
  8
0
  6
CONTINUOUS
 62
       7
100
AcDbLine
 10
100.71338113
 20
-63.63584957
 30
0.0
 11
103.21338113
 21
-63.63584957
 31
0.0
  0
ARC
  5
12A
100
AcDbEntity
  8
0
  6
CONTINUOUS
 62
       7
100
AcDbCircle
 10
103.21509458
 20
-69.33756303
 30
0.0
 40
0.49828949
100
AcDbArc
 50
269.80297834
 51
0.19702166
  0
ARC
  5
12B
100
AcDbEntity
  8
0
  6
CONTINUOUS
 62
       7
100
AcDbCircle
 10
97.0151037
 20
-69.33757215
 30
0.0
 40
0.4982804
100
AcDbArc
 50
269.80192537
 51
0.19807463
  0
INSERT
  5
12C
100
AcDbEntity
  8
0
  6
ByBlock
 62
       7
100
AcDbBlockReference
  2
MS_1
 10
-82.11661887
 20
51.36415043
 30
0.0
  0
INSERT
  5
14C
100
AcDbEntity
  8
0
  6
ByBlock
 62
       7
100
AcDbBlockReference
  2
*X7
 10
0.0
 20
0.0
 30
0.0
  0
ARC
  5
14D
100
AcDbEntity
  8
0
  6
CONTINUOUS
 62
       7
100
AcDbCircle
 10
90.71338113
 20
45.26105456
 30
0.0
 40
0.51840004
100
AcDbArc
 50
44.46041674
 51
135.53958326
  0
ARC
  5
14E
100
AcDbEntity
  8
0
  6
CONTINUOUS
 62
       7
100
AcDbCircle
 10
89.61360387
 20
46.35915043
 30
0.0
 40
0.51250822
100
AcDbArc
 50
314.58713365
 51
45.41286635
  0
CIRCLE
  5
14F
100
AcDbEntity
  8
0
  6
CONTINUOUS
 62
       7
100
AcDbCircle
 10
90.71670937
 20
46.36415043
 30
0.0
 40
2.25
  0
ARC
  5
150
100
AcDbEntity
  8
0
  6
CONTINUOUS
 62
       7
100
AcDbCircle
 10
90.71670937
 20
46.36415043
 30
0.0
 40
2.5510296
100
AcDbArc
 50
186.75358747
 51
173.24641253
  0
ARC
  5
151
100
AcDbEntity
  8
0
  6
CONTINUOUS
 62
       7
100
AcDbCircle
 10
90.71338113
 20
47.46724629
 30
0.0
 40
0.52545268
100
AcDbArc
 50
225.23870255
 51
314.76129745
  0
ARC
  5
152
100
AcDbEntity
  8
0
  6
CONTINUOUS
 62
       7
100
AcDbCircle
 10
91.81981487
 20
46.35915043
 30
0.0
 40
0.52433516
100
AcDbArc
 50
135.88349528
 51
224.11650472
  0
ARC
  5
153
100
AcDbEntity
  8
0
  6
CONTINUOUS
 62
       7
100
AcDbCircle
 10
85.71338113
 20
27.26105456
 30
0.0
 40
0.51840004
100
AcDbArc
 50
44.46041674
 51
135.53958326
  0
ARC
  5
154
100
AcDbEntity
  8
0
  6
CONTINUOUS
 62
       7
100
AcDbCircle
 10
84.61360387
 20
28.35915043
 30
0.0
 40
0.51250822
100
AcDbArc
 50
314.58713365
 51
45.41286635
  0
CIRCLE
  5
155
100
AcDbEntity
  8
0
  6
CONTINUOUS
 62
       7
100
AcDbCircle
 10
85.71670937
 20
28.36415043
 30
0.0
 40
2.25
  0
ARC
  5
156
100
AcDbEntity
  8
0
  6
CONTINUOUS
 62
       7
100
AcDbCircle
 10
85.71670937
 20
28.36415043
 30
0.0
 40
2.5510296
100
AcDbArc
 50
186.75358747
 51
173.24641253
  0
ARC
  5
157
100
AcDbEntity
  8
0
  6
CONTINUOUS
 62
       7
100
AcDbCircle
 10
85.71338113
 20
29.46724629
 30
0.0
 40
0.52545268
100
AcDbArc
 50
225.23870255
 51
314.76129745
  0
ARC
  5
158
100
AcDbEntity
  8
0
  6
CONTINUOUS
 62
       7
100
AcDbCircle
 10
86.81981487
 20
28.35915043
 30
0.0
 40
0.52433516
100
AcDbArc
 50
135.88349528
 51
224.11650472
  0
ARC
  5
159
100
AcDbEntity
  8
0
  6
CONTINUOUS
 62
       7
100
AcDbCircle
 10
74.71338113
 20
45.26105456
 30
0.0
 40
0.51840004
100
AcDbArc
 50
44.46041674
 51
135.53958326
  0
ARC
  5
15A
100
AcDbEntity
  8
0
  6
CONTINUOUS
 62
       7
100
AcDbCircle
 10
73.61360387
 20
46.35915043
 30
0.0
 40
0.51250822
100
AcDbArc
 50
314.58713365
 51
45.41286635
  0
CIRCLE
  5
15B
100
AcDbEntity
  8
0
  6
CONTINUOUS
 62
       7
100
AcDbCircle
 10
74.71670937
 20
46.36415043
 30
0.0
 40
2.25
  0
ARC
  5
15C
100
AcDbEntity
  8
0
  6
CONTINUOUS
 62
       7
100
AcDbCircle
 10
74.71670937
 20
46.36415043
 30
0.0
 40
2.5510296
100
AcDbArc
 50
186.75358747
 51
173.24641253
  0
ARC
  5
15D
100
AcDbEntity
  8
0
  6
CONTINUOUS
 62
       7
100
AcDbCircle
 10
74.71338113
 20
47.46724629
 30
0.0
 40
0.52545268
100
AcDbArc
 50
225.23870255
 51
314.76129745
  0
ARC
  5
15E
100
AcDbEntity
  8
0
  6
CONTINUOUS
 62
       7
100
AcDbCircle
 10
75.81981487
 20
46.35915043
 30
0.0
 40
0.52433516
100
AcDbArc
 50
135.88349528
 51
224.11650472
  0
ARC
  5
15F
100
AcDbEntity
  8
0
  6
CONTINUOUS
 62
       7
100
AcDbCircle
 10
69.71338113
 20
27.26105456
 30
0.0
 40
0.51840004
100
AcDbArc
 50
44.46041674
 51
135.53958326
  0
ARC
  5
160
100
AcDbEntity
  8
0
  6
CONTINUOUS
 62
       7
100
AcDbCircle
 10
68.61360387
 20
28.35915043
 30
0.0
 40
0.51250822
100
AcDbArc
 50
314.58713365
 51
45.41286635
  0
CIRCLE
  5
161
100
AcDbEntity
  8
0
  6
CONTINUOUS
 62
       7
100
AcDbCircle
 10
69.71670937
 20
28.36415043
 30
0.0
 40
2.25
  0
ARC
  5
162
100
AcDbEntity
  8
0
  6
CONTINUOUS
 62
       7
100
AcDbCircle
 10
69.71670937
 20
28.36415043
 30
0.0
 40
2.5510296
100
AcDbArc
 50
186.75358747
 51
173.24641253
  0
ARC
  5
163
100
AcDbEntity
  8
0
  6
CONTINUOUS
 62
       7
100
AcDbCircle
 10
69.71338113
 20
29.46724629
 30
0.0
 40
0.52545268
100
AcDbArc
 50
225.23870255
 51
314.76129745
  0
ARC
  5
164
100
AcDbEntity
  8
0
  6
CONTINUOUS
 62
       7
100
AcDbCircle
 10
70.81981487
 20
28.35915043
 30
0.0
 40
0.52433516
100
AcDbArc
 50
135.88349528
 51
224.11650472
  0
ARC
  5
165
100
AcDbEntity
  8
0
  6
CONTINUOUS
 62
       7
100
AcDbCircle
 10
58.71338113
 20
45.26105456
 30
0.0
 40
0.51840004
100
AcDbArc
 50
44.46041674
 51
135.53958326
  0
ARC
  5
166
100
AcDbEntity
  8
0
  6
CONTINUOUS
 62
       7
100
AcDbCircle
 10
57.61360387
 20
46.35915043
 30
0.0
 40
0.51250822
100
AcDbArc
 50
314.58713365
 51
45.41286635
  0
CIRCLE
  5
167
100
AcDbEntity
  8
0
  6
CONTINUOUS
 62
       7
100
AcDbCircle
 10
58.71670937
 20
46.36415043
 30
0.0
 40
2.25
  0
ARC
  5
168
100
AcDbEntity
  8
0
  6
CONTINUOUS
 62
       7
100
AcDbCircle
 10
58.71670937
 20
46.36415043
 30
0.0
 40
2.5510296
100
AcDbArc
 50
186.75358747
 51
173.24641253
  0
ARC
  5
169
100
AcDbEntity
  8
0
  6
CONTINUOUS
 62
       7
100
AcDbCircle
 10
58.71338113
 20
47.46724629
 30
0.0
 40
0.52545268
100
AcDbArc
 50
225.23870255
 51
314.76129745
  0
ARC
  5
16A
100
AcDbEntity
  8
0
  6
CONTINUOUS
 62
       7
100
AcDbCircle
 10
59.81981487
 20
46.35915043
 30
0.0
 40
0.52433516
100
AcDbArc
 50
135.88349528
 51
224.11650472
  0
ARC
  5
16B
100
AcDbEntity
  8
0
  6
CONTINUOUS
 62
       7
100
AcDbCircle
 10
53.71338113
 20
27.26105456
 30
0.0
 40
0.51840004
100
AcDbArc
 50
44.46041674
 51
135.53958326
  0
ARC
  5
16C
100
AcDbEntity
  8
0
  6
CONTINUOUS
 62
       7
100
AcDbCircle
 10
52.61360387
 20
28.35915043
 30
0.0
 40
0.51250822
100
AcDbArc
 50
314.58713365
 51
45.41286635
  0
CIRCLE
  5
16D
100
AcDbEntity
  8
0
  6
CONTINUOUS
 62
       7
100
AcDbCircle
 10
53.71670937
 20
28.36415043
 30
0.0
 40
2.25
  0
ARC
  5
16E
100
AcDbEntity
  8
0
  6
CONTINUOUS
 62
       7
100
AcDbCircle
 10
53.71670937
 20
28.36415043
 30
0.0
 40
2.5510296
100
AcDbArc
 50
186.75358747
 51
173.24641253
  0
ARC
  5
16F
100
AcDbEntity
  8
0
  6
CONTINUOUS
 62
       7
100
AcDbCircle
 10
53.71338113
 20
29.46724629
 30
0.0
 40
0.52545268
100
AcDbArc
 50
225.23870255
 51
314.76129745
  0
ARC
  5
170
100
AcDbEntity
  8
0
  6
CONTINUOUS
 62
       7
100
AcDbCircle
 10
54.81981487
 20
28.35915043
 30
0.0
 40
0.52433516
100
AcDbArc
 50
135.88349528
 51
224.11650472
  0
ARC
  5
171
100
AcDbEntity
  8
0
  6
CONTINUOUS
 62
       7
100
AcDbCircle
 10
42.71338113
 20
45.26105456
 30
0.0
 40
0.51840004
100
AcDbArc
 50
44.46041674
 51
135.53958326
  0
ARC
  5
172
100
AcDbEntity
  8
0
  6
CONTINUOUS
 62
       7
100
AcDbCircle
 10
41.61360387
 20
46.35915043
 30
0.0
 40
0.51250822
100
AcDbArc
 50
314.58713365
 51
45.41286635
  0
CIRCLE
  5
173
100
AcDbEntity
  8
0
  6
CONTINUOUS
 62
       7
100
AcDbCircle
 10
42.71670937
 20
46.36415043
 30
0.0
 40
2.25
  0
ARC
  5
174
100
AcDbEntity
  8
0
  6
CONTINUOUS
 62
       7
100
AcDbCircle
 10
42.71670937
 20
46.36415043
 30
0.0
 40
2.5510296
100
AcDbArc
 50
186.75358747
 51
173.24641253
  0
ARC
  5
175
100
AcDbEntity
  8
0
  6
CONTINUOUS
 62
       7
100
AcDbCircle
 10
42.71338113
 20
47.46724629
 30
0.0
 40
0.52545268
100
AcDbArc
 50
225.23870255
 51
314.76129745
  0
ARC
  5
176
100
AcDbEntity
  8
0
  6
CONTINUOUS
 62
       7
100
AcDbCircle
 10
43.81981487
 20
46.35915043
 30
0.0
 40
0.52433516
100
AcDbArc
 50
135.88349528
 51
224.11650472
  0
ARC
  5
177
100
AcDbEntity
  8
0
  6
CONTINUOUS
 62
       7
100
AcDbCircle
 10
102.81981487
 20
28.35915043
 30
0.0
 40
0.52433516
100
AcDbArc
 50
135.88349528
 51
224.11650472
  0
ARC
  5
178
100
AcDbEntity
  8
0
  6
CONTINUOUS
 62
       7
100
AcDbCircle
 10
101.71338113
 20
29.46724629
 30
0.0
 40
0.52545268
100
AcDbArc
 50
225.23870255
 51
314.76129745
  0
ARC
  5
179
100
AcDbEntity
  8
0
  6
CONTINUOUS
 62
       7
100
AcDbCircle
 10
101.71338113
 20
27.26105456
 30
0.0
 40
0.51840004
100
AcDbArc
 50
44.46041674
 51
135.53958326
  0
ARC
  5
17A
100
AcDbEntity
  8
0
  6
CONTINUOUS
 62
       7
100
AcDbCircle
 10
100.61360387
 20
28.35915043
 30
0.0
 40
0.51250822
100
AcDbArc
 50
314.58713365
 51
45.41286635
  0
CIRCLE
  5
17B
100
AcDbEntity
  8
0
  6
CONTINUOUS
 62
       7
100
AcDbCircle
 10
101.71670937
 20
28.36415043
 30
0.0
 40
2.25
  0
ARC
  5
17C
100
AcDbEntity
  8
0
  6
CONTINUOUS
 62
       7
100
AcDbCircle
 10
101.71670937
 20
28.36415043
 30
0.0
 40
2.5510296
100
AcDbArc
 50
186.75358747
 51
173.24641253
  0
ARC
  5
17D
100
AcDbEntity
  8
0
  6
CONTINUOUS
 62
       7
100
AcDbCircle
 10
42.71174219
 20
46.36222899
 30
0.0
 40
2.70163962
100
AcDbArc
 50
222.29544961
 51
0.04074933
  0
ARC
  5
17E
100
AcDbEntity
  8
0
  6
CONTINUOUS
 62
       7
100
AcDbCircle
 10
42.71509865
 20
46.36477051
 30
0.0
 40
2.69828255
100
AcDbArc
 50
359.98683296
 51
137.88913934
  0
ARC
  5
17F
100
AcDbEntity
  8
0
  6
CONTINUOUS
 62
       7
100
AcDbCircle
 10
53.71670594
 20
28.35915043
 30
0.0
 40
2.6983211
100
AcDbArc
 50
42.27118682
 51
317.72881318
  0
ARC
  5
180
100
AcDbEntity
  8
0
  6
CONTINUOUS
 62
       7
100
AcDbCircle
 10
58.71174219
 20
46.36222899
 30
0.0
 40
2.70163962
100
AcDbArc
 50
222.29544961
 51
0.04074933
  0
ARC
  5
181
100
AcDbEntity
  8
0
  6
CONTINUOUS
 62
       7
100
AcDbCircle
 10
58.71509865
 20
46.36477051
 30
0.0
 40
2.69828255
100
AcDbArc
 50
359.98683296
 51
137.88913934
  0
ARC
  5
182
100
AcDbEntity
  8
0
  6
CONTINUOUS
 62
       7
100
AcDbCircle
 10
69.71670594
 20
28.35915043
 30
0.0
 40
2.6983211
100
AcDbArc
 50
42.27118682
 51
317.72881318
  0
ARC
  5
183
100
AcDbEntity
  8
0
  6
CONTINUOUS
 62
       7
100
AcDbCircle
 10
90.71174219
 20
46.36222899
 30
0.0
 40
2.70163962
100
AcDbArc
 50
222.29544961
 51
0.04074933
  0
ARC
  5
184
100
AcDbEntity
  8
0
  6
CONTINUOUS
 62
       7
100
AcDbCircle
 10
90.71509865
 20
46.36477051
 30
0.0
 40
2.69828255
100
AcDbArc
 50
359.98683296
 51
137.88913934
  0
ARC
  5
185
100
AcDbEntity
  8
0
  6
CONTINUOUS
 62
       7
100
AcDbCircle
 10
101.71670594
 20
28.35915043
 30
0.0
 40
2.6983211
100
AcDbArc
 50
42.27118682
 51
317.72881318
  0
ARC
  5
186
100
AcDbEntity
  8
0
  6
CONTINUOUS
 62
       7
100
AcDbCircle
 10
74.71174219
 20
46.36222899
 30
0.0
 40
2.70163962
100
AcDbArc
 50
222.29544961
 51
0.04074933
  0
ARC
  5
187
100
AcDbEntity
  8
0
  6
CONTINUOUS
 62
       7
100
AcDbCircle
 10
74.71509865
 20
46.36477051
 30
0.0
 40
2.69828255
100
AcDbArc
 50
359.98683296
 51
137.88913934
  0
ARC
  5
188
100
AcDbEntity
  8
0
  6
CONTINUOUS
 62
       7
100
AcDbCircle
 10
85.71670594
 20
28.35915043
 30
0.0
 40
2.6983211
100
AcDbArc
 50
42.27118682
 51
317.72881318
  0
CIRCLE
  5
189
100
AcDbEntity
  8
0
  6
CONTINUOUS
 62
       7
100
AcDbCircle
 10
-93.11661887
 20
21.36415043
 30
0.0
 40
4.28299999
  0
CIRCLE
  5
18A
100
AcDbEntity
  8
0
  6
CONTINUOUS
 62
       7
100
AcDbCircle
 10
-90.11661887
 20
37.36415043
 30
0.0
 40
4.28299999
  0
CIRCLE
  5
18B
100
AcDbEntity
  8
0
  6
CONTINUOUS
 62
       7
100
AcDbCircle
 10
-93.11661887
 20
53.36415043
 30
0.0
 40
4.28299999
  0
CIRCLE
  5
18C
100
AcDbEntity
  8
0
  6
CONTINUOUS
 62
       2
100
AcDbCircle
 10
-93.11661887
 20
21.36415043
 30
0.0
 40
4.86399937
  0
CIRCLE
  5
18D
100
AcDbEntity
  8
0
  6
CONTINUOUS
 62
       2
100
AcDbCircle
 10
-90.11661887
 20
37.36415043
 30
0.0
 40
4.86399937
  0
CIRCLE
  5
18E
100
AcDbEntity
  8
0
  6
CONTINUOUS
 62
       2
100
AcDbCircle
 10
-93.11661887
 20
53.36415043
 30
0.0
 40
4.86399937
  0
CIRCLE
  5
18F
100
AcDbEntity
  8
0
  6
CONTINUOUS
 62
       7
100
AcDbCircle
 10
108.71670937
 20
29.36415043
 30
0.0
 40
2.09999943
  0
CIRCLE
  5
190
100
AcDbEntity
  8
0
  6
CONTINUOUS
 62
       7
100
AcDbCircle
 10
108.71670937
 20
45.36415043
 30
0.0
 40
2.09999943
  0
CIRCLE
  5
191
100
AcDbEntity
  8
0
  6
CONTINUOUS
 62
       7
100
AcDbCircle
 10
35.71670937
 20
29.36415043
 30
0.0
 40
2.09999943
  0
CIRCLE
  5
192
100
AcDbEntity
  8
0
  6
CONTINUOUS
 62
       7
100
AcDbCircle
 10
35.71670937
 20
45.36415043
 30
0.0
 40
2.09999943
  0
LINE
  5
193
100
AcDbEntity
  8
0
  6
CONTINUOUS
 62
       2
100
AcDbLine
 10
28.76338113
 20
37.36415043
 30
0.0
 11
115.80338113
 21
37.36415043
 31
0.0
  0
LINE
  5
194
100
AcDbEntity
  8
0
  6
CONTINUOUS
 62
       7
100
AcDbLine
 10
91.08338113
 20
47.09415043
 30
0.0
 11
92.11338113
 21
48.12415043
 31
0.0
  0
LINE
  5
195
100
AcDbEntity
  8
0
  6
CONTINUOUS
 62
       7
100
AcDbLine
 10
91.44338113
 20
46.72415043
 30
0.0
 11
92.47338113
 21
47.75415043
 31
0.0
  0
LINE
  5
196
100
AcDbEntity
  8
0
  6
CONTINUOUS
 62
       7
100
AcDbLine
 10
90.34338113
 20
47.09415043
 30
0.0
 11
89.97338113
 21
47.46415043
 31
0.0
  0
LINE
  5
197
100
AcDbEntity
  8
0
  6
CONTINUOUS
 62
       7
100
AcDbLine
 10
89.97338113
 20
46.72415043
 30
0.0
 11
89.61338113
 21
47.09415043
 31
0.0
  0
LINE
  5
198
100
AcDbEntity
  8
0
  6
CONTINUOUS
 62
       7
100
AcDbLine
 10
88.95338113
 20
44.96415043
 30
0.0
 11
89.97338113
 21
45.99415043
 31
0.0
  0
LINE
  5
199
100
AcDbEntity
  8
0
  6
CONTINUOUS
 62
       7
100
AcDbLine
 10
89.31338113
 20
44.59415043
 30
0.0
 11
90.34338113
 21
45.62415043
 31
0.0
  0
LINE
  5
19A
100
AcDbEntity
  8
0
  6
CONTINUOUS
 62
       7
100
AcDbLine
 10
89.61338113
 20
47.09415043
 30
0.0
 11
89.97338113
 21
47.46415043
 31
0.0
  0
LINE
  5
19B
100
AcDbEntity
  8
0
  6
CONTINUOUS
 62
       7
100
AcDbLine
 10
91.44338113
 20
45.25415043
 30
0.0
 11
91.81338113
 21
45.62415043
 31
0.0
  0
LINE
  5
19C
100
AcDbEntity
  8
0
  6
CONTINUOUS
 62
       7
100
AcDbLine
 10
91.81338113
 20
45.62415043
 30
0.0
 11
91.44338113
 21
45.99415043
 31
0.0
  0
LINE
  5
19D
100
AcDbEntity
  8
0
  6
CONTINUOUS
 62
       7
100
AcDbLine
 10
91.44338113
 20
45.25415043
 30
0.0
 11
91.08338113
 21
45.62415043
 31
0.0
  0
LINE
  5
19E
100
AcDbEntity
  8
0
  6
CONTINUOUS
 62
       7
100
AcDbLine
 10
88.20338113
 20
46.82415043
 30
0.0
 11
88.51338113
 21
46.82415043
 31
0.0
  0
LINE
  5
19F
100
AcDbEntity
  8
0
  6
CONTINUOUS
 62
       7
100
AcDbLine
 10
88.48338113
 20
46.66415043
 30
0.0
 11
88.18338113
 21
46.66415043
 31
0.0
  0
LINE
  5
1A0
100
AcDbEntity
  8
0
  6
CONTINUOUS
 62
       7
100
AcDbLine
 10
88.48338113
 20
46.06415043
 30
0.0
 11
88.18338113
 21
46.06415043
 31
0.0
  0
LINE
  5
1A1
100
AcDbEntity
  8
0
  6
CONTINUOUS
 62
       7
100
AcDbLine
 10
86.08338113
 20
29.09415043
 30
0.0
 11
87.11338113
 21
30.12415043
 31
0.0
  0
LINE
  5
1A2
100
AcDbEntity
  8
0
  6
CONTINUOUS
 62
       7
100
AcDbLine
 10
86.44338113
 20
28.72415043
 30
0.0
 11
87.47338113
 21
29.75415043
 31
0.0
  0
LINE
  5
1A3
100
AcDbEntity
  8
0
  6
CONTINUOUS
 62
       7
100
AcDbLine
 10
85.34338113
 20
29.09415043
 30
0.0
 11
84.97338113
 21
29.46415043
 31
0.0
  0
LINE
  5
1A4
100
AcDbEntity
  8
0
  6
CONTINUOUS
 62
       7
100
AcDbLine
 10
84.97338113
 20
28.72415043
 30
0.0
 11
84.61338113
 21
29.09415043
 31
0.0
  0
LINE
  5
1A5
100
AcDbEntity
  8
0
  6
CONTINUOUS
 62
       7
100
AcDbLine
 10
83.95338113
 20
26.96415043
 30
0.0
 11
84.97338113
 21
27.99415043
 31
0.0
  0
LINE
  5
1A6
100
AcDbEntity
  8
0
  6
CONTINUOUS
 62
       7
100
AcDbLine
 10
84.31338113
 20
26.59415043
 30
0.0
 11
85.34338113
 21
27.62415043
 31
0.0
  0
LINE
  5
1A7
100
AcDbEntity
  8
0
  6
CONTINUOUS
 62
       7
100
AcDbLine
 10
84.61338113
 20
29.09415043
 30
0.0
 11
84.97338113
 21
29.46415043
 31
0.0
  0
LINE
  5
1A8
100
AcDbEntity
  8
0
  6
CONTINUOUS
 62
       7
100
AcDbLine
 10
86.44338113
 20
27.25415043
 30
0.0
 11
86.81338113
 21
27.62415043
 31
0.0
  0
LINE
  5
1A9
100
AcDbEntity
  8
0
  6
CONTINUOUS
 62
       7
100
AcDbLine
 10
86.81338113
 20
27.62415043
 30
0.0
 11
86.44338113
 21
27.99415043
 31
0.0
  0
LINE
  5
1AA
100
AcDbEntity
  8
0
  6
CONTINUOUS
 62
       7
100
AcDbLine
 10
86.44338113
 20
27.25415043
 30
0.0
 11
86.08338113
 21
27.62415043
 31
0.0
  0
LINE
  5
1AB
100
AcDbEntity
  8
0
  6
CONTINUOUS
 62
       7
100
AcDbLine
 10
83.20338113
 20
28.82415043
 30
0.0
 11
83.51338113
 21
28.82415043
 31
0.0
  0
LINE
  5
1AC
100
AcDbEntity
  8
0
  6
CONTINUOUS
 62
       7
100
AcDbLine
 10
83.48338113
 20
28.66415043
 30
0.0
 11
83.18338113
 21
28.66415043
 31
0.0
  0
LINE
  5
1AD
100
AcDbEntity
  8
0
  6
CONTINUOUS
 62
       7
100
AcDbLine
 10
83.48338113
 20
28.06415043
 30
0.0
 11
83.18338113
 21
28.06415043
 31
0.0
  0
LINE
  5
1AE
100
AcDbEntity
  8
0
  6
CONTINUOUS
 62
       7
100
AcDbLine
 10
75.08338113
 20
47.09415043
 30
0.0
 11
76.11338113
 21
48.12415043
 31
0.0
  0
LINE
  5
1AF
100
AcDbEntity
  8
0
  6
CONTINUOUS
 62
       7
100
AcDbLine
 10
75.44338113
 20
46.72415043
 30
0.0
 11
76.47338113
 21
47.75415043
 31
0.0
  0
LINE
  5
1B0
100
AcDbEntity
  8
0
  6
CONTINUOUS
 62
       7
100
AcDbLine
 10
74.34338113
 20
47.09415043
 30
0.0
 11
73.97338113
 21
47.46415043
 31
0.0
  0
LINE
  5
1B1
100
AcDbEntity
  8
0
  6
CONTINUOUS
 62
       7
100
AcDbLine
 10
73.97338113
 20
46.72415043
 30
0.0
 11
73.61338113
 21
47.09415043
 31
0.0
  0
LINE
  5
1B2
100
AcDbEntity
  8
0
  6
CONTINUOUS
 62
       7
100
AcDbLine
 10
72.95338113
 20
44.96415043
 30
0.0
 11
73.97338113
 21
45.99415043
 31
0.0
  0
LINE
  5
1B3
100
AcDbEntity
  8
0
  6
CONTINUOUS
 62
       7
100
AcDbLine
 10
73.31338113
 20
44.59415043
 30
0.0
 11
74.34338113
 21
45.62415043
 31
0.0
  0
LINE
  5
1B4
100
AcDbEntity
  8
0
  6
CONTINUOUS
 62
       7
100
AcDbLine
 10
73.61338113
 20
47.09415043
 30
0.0
 11
73.97338113
 21
47.46415043
 31
0.0
  0
LINE
  5
1B5
100
AcDbEntity
  8
0
  6
CONTINUOUS
 62
       7
100
AcDbLine
 10
75.44338113
 20
45.25415043
 30
0.0
 11
75.81338113
 21
45.62415043
 31
0.0
  0
LINE
  5
1B6
100
AcDbEntity
  8
0
  6
CONTINUOUS
 62
       7
100
AcDbLine
 10
75.81338113
 20
45.62415043
 30
0.0
 11
75.44338113
 21
45.99415043
 31
0.0
  0
LINE
  5
1B7
100
AcDbEntity
  8
0
  6
CONTINUOUS
 62
       7
100
AcDbLine
 10
75.44338113
 20
45.25415043
 30
0.0
 11
75.08338113
 21
45.62415043
 31
0.0
  0
LINE
  5
1B8
100
AcDbEntity
  8
0
  6
CONTINUOUS
 62
       7
100
AcDbLine
 10
72.20338113
 20
46.82415043
 30
0.0
 11
72.51338113
 21
46.82415043
 31
0.0
  0
LINE
  5
1B9
100
AcDbEntity
  8
0
  6
CONTINUOUS
 62
       7
100
AcDbLine
 10
72.48338113
 20
46.66415043
 30
0.0
 11
72.18338113
 21
46.66415043
 31
0.0
  0
LINE
  5
1BA
100
AcDbEntity
  8
0
  6
CONTINUOUS
 62
       7
100
AcDbLine
 10
72.48338113
 20
46.06415043
 30
0.0
 11
72.18338113
 21
46.06415043
 31
0.0
  0
LINE
  5
1BB
100
AcDbEntity
  8
0
  6
CONTINUOUS
 62
       7
100
AcDbLine
 10
70.08338113
 20
29.09415043
 30
0.0
 11
71.11338113
 21
30.12415043
 31
0.0
  0
LINE
  5
1BC
100
AcDbEntity
  8
0
  6
CONTINUOUS
 62
       7
100
AcDbLine
 10
70.44338113
 20
28.72415043
 30
0.0
 11
71.47338113
 21
29.75415043
 31
0.0
  0
LINE
  5
1BD
100
AcDbEntity
  8
0
  6
CONTINUOUS
 62
       7
100
AcDbLine
 10
69.34338113
 20
29.09415043
 30
0.0
 11
68.97338113
 21
29.46415043
 31
0.0
  0
LINE
  5
1BE
100
AcDbEntity
  8
0
  6
CONTINUOUS
 62
       7
100
AcDbLine
 10
68.97338113
 20
28.72415043
 30
0.0
 11
68.61338113
 21
29.09415043
 31
0.0
  0
LINE
  5
1BF
100
AcDbEntity
  8
0
  6
CONTINUOUS
 62
       7
100
AcDbLine
 10
67.95338113
 20
26.96415043
 30
0.0
 11
68.97338113
 21
27.99415043
 31
0.0
  0
LINE
  5
1C0
100
AcDbEntity
  8
0
  6
CONTINUOUS
 62
       7
100
AcDbLine
 10
68.31338113
 20
26.59415043
 30
0.0
 11
69.34338113
 21
27.62415043
 31
0.0
  0
LINE
  5
1C1
100
AcDbEntity
  8
0
  6
CONTINUOUS
 62
       7
100
AcDbLine
 10
68.61338113
 20
29.09415043
 30
0.0
 11
68.97338113
 21
29.46415043
 31
0.0
  0
LINE
  5
1C2
100
AcDbEntity
  8
0
  6
CONTINUOUS
 62
       7
100
AcDbLine
 10
70.44338113
 20
27.25415043
 30
0.0
 11
70.81338113
 21
27.62415043
 31
0.0
  0
LINE
  5
1C3
100
AcDbEntity
  8
0
  6
CONTINUOUS
 62
       7
100
AcDbLine
 10
70.81338113
 20
27.62415043
 30
0.0
 11
70.44338113
 21
27.99415043
 31
0.0
  0
LINE
  5
1C4
100
AcDbEntity
  8
0
  6
CONTINUOUS
 62
       7
100
AcDbLine
 10
70.44338113
 20
27.25415043
 30
0.0
 11
70.08338113
 21
27.62415043
 31
0.0
  0
LINE
  5
1C5
100
AcDbEntity
  8
0
  6
CONTINUOUS
 62
       7
100
AcDbLine
 10
67.20338113
 20
28.82415043
 30
0.0
 11
67.51338113
 21
28.82415043
 31
0.0
  0
LINE
  5
1C6
100
AcDbEntity
  8
0
  6
CONTINUOUS
 62
       7
100
AcDbLine
 10
67.48338113
 20
28.66415043
 30
0.0
 11
67.18338113
 21
28.66415043
 31
0.0
  0
LINE
  5
1C7
100
AcDbEntity
  8
0
  6
CONTINUOUS
 62
       7
100
AcDbLine
 10
67.48338113
 20
28.06415043
 30
0.0
 11
67.18338113
 21
28.06415043
 31
0.0
  0
LINE
  5
1C8
100
AcDbEntity
  8
0
  6
CONTINUOUS
 62
       7
100
AcDbLine
 10
59.08338113
 20
47.09415043
 30
0.0
 11
60.11338113
 21
48.12415043
 31
0.0
  0
LINE
  5
1C9
100
AcDbEntity
  8
0
  6
CONTINUOUS
 62
       7
100
AcDbLine
 10
59.44338113
 20
46.72415043
 30
0.0
 11
60.47338113
 21
47.75415043
 31
0.0
  0
LINE
  5
1CA
100
AcDbEntity
  8
0
  6
CONTINUOUS
 62
       7
100
AcDbLine
 10
58.34338113
 20
47.09415043
 30
0.0
 11
57.97338113
 21
47.46415043
 31
0.0
  0
LINE
  5
1CB
100
AcDbEntity
  8
0
  6
CONTINUOUS
 62
       7
100
AcDbLine
 10
57.97338113
 20
46.72415043
 30
0.0
 11
57.61338113
 21
47.09415043
 31
0.0
  0
LINE
  5
1CC
100
AcDbEntity
  8
0
  6
CONTINUOUS
 62
       7
100
AcDbLine
 10
56.95338113
 20
44.96415043
 30
0.0
 11
57.97338113
 21
45.99415043
 31
0.0
  0
LINE
  5
1CD
100
AcDbEntity
  8
0
  6
CONTINUOUS
 62
       7
100
AcDbLine
 10
57.31338113
 20
44.59415043
 30
0.0
 11
58.34338113
 21
45.62415043
 31
0.0
  0
LINE
  5
1CE
100
AcDbEntity
  8
0
  6
CONTINUOUS
 62
       7
100
AcDbLine
 10
57.61338113
 20
47.09415043
 30
0.0
 11
57.97338113
 21
47.46415043
 31
0.0
  0
LINE
  5
1CF
100
AcDbEntity
  8
0
  6
CONTINUOUS
 62
       7
100
AcDbLine
 10
59.44338113
 20
45.25415043
 30
0.0
 11
59.81338113
 21
45.62415043
 31
0.0
  0
LINE
  5
1D0
100
AcDbEntity
  8
0
  6
CONTINUOUS
 62
       7
100
AcDbLine
 10
59.81338113
 20
45.62415043
 30
0.0
 11
59.44338113
 21
45.99415043
 31
0.0
  0
LINE
  5
1D1
100
AcDbEntity
  8
0
  6
CONTINUOUS
 62
       7
100
AcDbLine
 10
59.44338113
 20
45.25415043
 30
0.0
 11
59.08338113
 21
45.62415043
 31
0.0
  0
LINE
  5
1D2
100
AcDbEntity
  8
0
  6
CONTINUOUS
 62
       7
100
AcDbLine
 10
56.20338113
 20
46.82415043
 30
0.0
 11
56.51338113
 21
46.82415043
 31
0.0
  0
LINE
  5
1D3
100
AcDbEntity
  8
0
  6
CONTINUOUS
 62
       7
100
AcDbLine
 10
56.48338113
 20
46.66415043
 30
0.0
 11
56.18338113
 21
46.66415043
 31
0.0
  0
LINE
  5
1D4
100
AcDbEntity
  8
0
  6
CONTINUOUS
 62
       7
100
AcDbLine
 10
56.48338113
 20
46.06415043
 30
0.0
 11
56.18338113
 21
46.06415043
 31
0.0
  0
LINE
  5
1D5
100
AcDbEntity
  8
0
  6
CONTINUOUS
 62
       7
100
AcDbLine
 10
54.08338113
 20
29.09415043
 30
0.0
 11
55.11338113
 21
30.12415043
 31
0.0
  0
LINE
  5
1D6
100
AcDbEntity
  8
0
  6
CONTINUOUS
 62
       7
100
AcDbLine
 10
54.44338113
 20
28.72415043
 30
0.0
 11
55.47338113
 21
29.75415043
 31
0.0
  0
LINE
  5
1D7
100
AcDbEntity
  8
0
  6
CONTINUOUS
 62
       7
100
AcDbLine
 10
53.34338113
 20
29.09415043
 30
0.0
 11
52.97338113
 21
29.46415043
 31
0.0
  0
LINE
  5
1D8
100
AcDbEntity
  8
0
  6
CONTINUOUS
 62
       7
100
AcDbLine
 10
52.97338113
 20
28.72415043
 30
0.0
 11
52.61338113
 21
29.09415043
 31
0.0
  0
LINE
  5
1D9
100
AcDbEntity
  8
0
  6
CONTINUOUS
 62
       7
100
AcDbLine
 10
51.95338113
 20
26.96415043
 30
0.0
 11
52.97338113
 21
27.99415043
 31
0.0
  0
LINE
  5
1DA
100
AcDbEntity
  8
0
  6
CONTINUOUS
 62
       7
100
AcDbLine
 10
52.31338113
 20
26.59415043
 30
0.0
 11
53.34338113
 21
27.62415043
 31
0.0
  0
LINE
  5
1DB
100
AcDbEntity
  8
0
  6
CONTINUOUS
 62
       7
100
AcDbLine
 10
52.61338113
 20
29.09415043
 30
0.0
 11
52.97338113
 21
29.46415043
 31
0.0
  0
LINE
  5
1DC
100
AcDbEntity
  8
0
  6
CONTINUOUS
 62
       7
100
AcDbLine
 10
54.44338113
 20
27.25415043
 30
0.0
 11
54.81338113
 21
27.62415043
 31
0.0
  0
LINE
  5
1DD
100
AcDbEntity
  8
0
  6
CONTINUOUS
 62
       7
100
AcDbLine
 10
54.81338113
 20
27.62415043
 30
0.0
 11
54.44338113
 21
27.99415043
 31
0.0
  0
LINE
  5
1DE
100
AcDbEntity
  8
0
  6
CONTINUOUS
 62
       7
100
AcDbLine
 10
54.44338113
 20
27.25415043
 30
0.0
 11
54.08338113
 21
27.62415043
 31
0.0
  0
LINE
  5
1DF
100
AcDbEntity
  8
0
  6
CONTINUOUS
 62
       7
100
AcDbLine
 10
51.20338113
 20
28.82415043
 30
0.0
 11
51.51338113
 21
28.82415043
 31
0.0
  0
LINE
  5
1E0
100
AcDbEntity
  8
0
  6
CONTINUOUS
 62
       7
100
AcDbLine
 10
51.48338113
 20
28.66415043
 30
0.0
 11
51.18338113
 21
28.66415043
 31
0.0
  0
LINE
  5
1E1
100
AcDbEntity
  8
0
  6
CONTINUOUS
 62
       7
100
AcDbLine
 10
51.48338113
 20
28.06415043
 30
0.0
 11
51.18338113
 21
28.06415043
 31
0.0
  0
LINE
  5
1E2
100
AcDbEntity
  8
0
  6
CONTINUOUS
 62
       7
100
AcDbLine
 10
43.08338113
 20
47.09415043
 30
0.0
 11
44.11338113
 21
48.12415043
 31
0.0
  0
LINE
  5
1E3
100
AcDbEntity
  8
0
  6
CONTINUOUS
 62
       7
100
AcDbLine
 10
43.44338113
 20
46.72415043
 30
0.0
 11
44.47338113
 21
47.75415043
 31
0.0
  0
LINE
  5
1E4
100
AcDbEntity
  8
0
  6
CONTINUOUS
 62
       7
100
AcDbLine
 10
42.34338113
 20
47.09415043
 30
0.0
 11
41.97338113
 21
47.46415043
 31
0.0
  0
LINE
  5
1E5
100
AcDbEntity
  8
0
  6
CONTINUOUS
 62
       7
100
AcDbLine
 10
41.97338113
 20
46.72415043
 30
0.0
 11
41.61338113
 21
47.09415043
 31
0.0
  0
LINE
  5
1E6
100
AcDbEntity
  8
0
  6
CONTINUOUS
 62
       7
100
AcDbLine
 10
40.95338113
 20
44.96415043
 30
0.0
 11
41.97338113
 21
45.99415043
 31
0.0
  0
LINE
  5
1E7
100
AcDbEntity
  8
0
  6
CONTINUOUS
 62
       7
100
AcDbLine
 10
41.31338113
 20
44.59415043
 30
0.0
 11
42.34338113
 21
45.62415043
 31
0.0
  0
LINE
  5
1E8
100
AcDbEntity
  8
0
  6
CONTINUOUS
 62
       7
100
AcDbLine
 10
41.61338113
 20
47.09415043
 30
0.0
 11
41.97338113
 21
47.46415043
 31
0.0
  0
LINE
  5
1E9
100
AcDbEntity
  8
0
  6
CONTINUOUS
 62
       7
100
AcDbLine
 10
43.44338113
 20
45.25415043
 30
0.0
 11
43.81338113
 21
45.62415043
 31
0.0
  0
LINE
  5
1EA
100
AcDbEntity
  8
0
  6
CONTINUOUS
 62
       7
100
AcDbLine
 10
43.81338113
 20
45.62415043
 30
0.0
 11
43.44338113
 21
45.99415043
 31
0.0
  0
LINE
  5
1EB
100
AcDbEntity
  8
0
  6
CONTINUOUS
 62
       7
100
AcDbLine
 10
43.44338113
 20
45.25415043
 30
0.0
 11
43.08338113
 21
45.62415043
 31
0.0
  0
LINE
  5
1EC
100
AcDbEntity
  8
0
  6
CONTINUOUS
 62
       7
100
AcDbLine
 10
40.20338113
 20
46.82415043
 30
0.0
 11
40.51338113
 21
46.82415043
 31
0.0
  0
LINE
  5
1ED
100
AcDbEntity
  8
0
  6
CONTINUOUS
 62
       7
100
AcDbLine
 10
40.48338113
 20
46.66415043
 30
0.0
 11
40.18338113
 21
46.66415043
 31
0.0
  0
LINE
  5
1EE
100
AcDbEntity
  8
0
  6
CONTINUOUS
 62
       7
100
AcDbLine
 10
40.48338113
 20
46.06415043
 30
0.0
 11
40.18338113
 21
46.06415043
 31
0.0
  0
LINE
  5
1EF
100
AcDbEntity
  8
0
  6
CONTINUOUS
 62
       7
100
AcDbLine
 10
102.08338113
 20
29.09415043
 30
0.0
 11
103.11338113
 21
30.12415043
 31
0.0
  0
LINE
  5
1F0
100
AcDbEntity
  8
0
  6
CONTINUOUS
 62
       7
100
AcDbLine
 10
102.44338113
 20
28.72415043
 30
0.0
 11
103.47338113
 21
29.75415043
 31
0.0
  0
LINE
  5
1F1
100
AcDbEntity
  8
0
  6
CONTINUOUS
 62
       7
100
AcDbLine
 10
101.34338113
 20
29.09415043
 30
0.0
 11
100.97338113
 21
29.46415043
 31
0.0
  0
LINE
  5
1F2
100
AcDbEntity
  8
0
  6
CONTINUOUS
 62
       7
100
AcDbLine
 10
100.97338113
 20
28.72415043
 30
0.0
 11
100.61338113
 21
29.09415043
 31
0.0
  0
LINE
  5
1F3
100
AcDbEntity
  8
0
  6
CONTINUOUS
 62
       7
100
AcDbLine
 10
99.95338113
 20
26.96415043
 30
0.0
 11
100.97338113
 21
27.99415043
 31
0.0
  0
LINE
  5
1F4
100
AcDbEntity
  8
0
  6
CONTINUOUS
 62
       7
100
AcDbLine
 10
100.31338113
 20
26.59415043
 30
0.0
 11
101.34338113
 21
27.62415043
 31
0.0
  0
LINE
  5
1F5
100
AcDbEntity
  8
0
  6
CONTINUOUS
 62
       7
100
AcDbLine
 10
100.61338113
 20
29.09415043
 30
0.0
 11
100.97338113
 21
29.46415043
 31
0.0
  0
LINE
  5
1F6
100
AcDbEntity
  8
0
  6
CONTINUOUS
 62
       7
100
AcDbLine
 10
102.44338113
 20
27.25415043
 30
0.0
 11
102.81338113
 21
27.62415043
 31
0.0
  0
LINE
  5
1F7
100
AcDbEntity
  8
0
  6
CONTINUOUS
 62
       7
100
AcDbLine
 10
102.81338113
 20
27.62415043
 30
0.0
 11
102.44338113
 21
27.99415043
 31
0.0
  0
LINE
  5
1F8
100
AcDbEntity
  8
0
  6
CONTINUOUS
 62
       7
100
AcDbLine
 10
102.44338113
 20
27.25415043
 30
0.0
 11
102.08338113
 21
27.62415043
 31
0.0
  0
LINE
  5
1F9
100
AcDbEntity
  8
0
  6
CONTINUOUS
 62
       7
100
AcDbLine
 10
99.20338113
 20
28.82415043
 30
0.0
 11
99.51338113
 21
28.82415043
 31
0.0
  0
LINE
  5
1FA
100
AcDbEntity
  8
0
  6
CONTINUOUS
 62
       7
100
AcDbLine
 10
99.48338113
 20
28.66415043
 30
0.0
 11
99.18338113
 21
28.66415043
 31
0.0
  0
LINE
  5
1FB
100
AcDbEntity
  8
0
  6
CONTINUOUS
 62
       7
100
AcDbLine
 10
99.48338113
 20
28.06415043
 30
0.0
 11
99.18338113
 21
28.06415043
 31
0.0
  0
LINE
  5
1FC
100
AcDbEntity
  8
0
  6
CONTINUOUS
 62
       2
100
AcDbLine
 10
-70.11661887
 20
65.16828756
 30
0.0
 11
-70.11661887
 21
12.27415043
 31
0.0
  0
LINE
  5
1FD
100
AcDbEntity
  8
0
  6
CONTINUOUS
 62
       7
100
AcDbLine
 10
71.71338113
 20
20.86415043
 30
0.0
 11
72.71338113
 21
20.86415043
 31
0.0
  0
LINE
  5
1FE
100
AcDbEntity
  8
0
  6
CONTINUOUS
 62
       7
100
AcDbLine
 10
71.71338113
 20
53.86415043
 30
0.0
 11
72.71338113
 21
53.86415043
 31
0.0
  0
LINE
  5
1FF
100
AcDbEntity
  8
0
  6
CONTINUOUS
 62
       7
100
AcDbLine
 10
55.71338113
 20
53.86415043
 30
0.0
 11
56.71338113
 21
53.86415043
 31
0.0
  0
LINE
  5
200
100
AcDbEntity
  8
0
  6
CONTINUOUS
 62
       7
100
AcDbLine
 10
71.71338113
 20
60.36415043
 30
0.0
 11
72.71338113
 21
60.36415043
 31
0.0
  0
LINE
  5
201
100
AcDbEntity
  8
0
  6
CONTINUOUS
 62
       7
100
AcDbLine
 10
87.71338113
 20
60.36415043
 30
0.0
 11
88.71338113
 21
60.36415043
 31
0.0
  0
LINE
  5
202
100
AcDbEntity
  8
0
  6
CONTINUOUS
 62
       2
100
AcDbLine
 10
48.21338113
 20
65.16828756
 30
0.0
 11
48.21338113
 21
12.27415043
 31
0.0
  0
LINE
  5
203
100
AcDbEntity
  8
0
  6
CONTINUOUS
 62
       2
100
AcDbLine
 10
64.21338113
 20
65.16828756
 30
0.0
 11
64.21338113
 21
12.27415043
 31
0.0
  0
LINE
  5
204
100
AcDbEntity
  8
0
  6
CONTINUOUS
 62
       7
100
AcDbLine
 10
32.21338113
 20
14.36415043
 30
0.0
 11
112.21338113
 21
14.36415043
 31
0.0
  0
LINE
  5
205
100
AcDbEntity
  8
0
  6
CONTINUOUS
 62
       7
100
AcDbLine
 10
103.71338113
 20
20.86415043
 30
0.0
 11
112.21338113
 21
20.86415043
 31
0.0
  0
LINE
  5
206
100
AcDbEntity
  8
0
  6
CONTINUOUS
 62
       7
100
AcDbLine
 10
103.71338113
 20
53.86415043
 30
0.0
 11
112.21338113
 21
53.86415043
 31
0.0
  0
LINE
  5
207
100
AcDbEntity
  8
0
  6
CONTINUOUS
 62
       7
100
AcDbLine
 10
103.71338113
 20
60.36415043
 30
0.0
 11
112.21338113
 21
60.36415043
 31
0.0
  0
LINE
  5
208
100
AcDbEntity
  8
0
  6
CONTINUOUS
 62
       2
100
AcDbLine
 10
96.21338113
 20
65.16828756
 30
0.0
 11
96.21338113
 21
12.27415043
 31
0.0
  0
LINE
  5
209
100
AcDbEntity
  8
0
  6
CONTINUOUS
 62
       2
100
AcDbLine
 10
80.21338113
 20
65.16828756
 30
0.0
 11
80.21338113
 21
12.27415043
 31
0.0
  0
LINE
  5
20A
100
AcDbEntity
  8
0
  6
CONTINUOUS
 62
       2
100
AcDbLine
 10
-100.68661887
 20
37.36415043
 30
0.0
 11
-58.11661887
 21
37.36415043
 31
0.0
  0
LINE
  5
20B
100
AcDbEntity
  8
0
  6
CONTINUOUS
 62
       7
100
AcDbLine
 10
-101.11661887
 20
18.86415043
 30
0.0
 11
-101.11661887
 21
14.36415043
 31
0.0
  0
LINE
  5
20C
100
AcDbEntity
  8
0
  6
CONTINUOUS
 62
       7
100
AcDbLine
 10
-100.61661887
 20
19.36415043
 30
0.0
 11
-101.11661887
 21
18.86415043
 31
0.0
  0
LINE
  5
20D
100
AcDbEntity
  8
0
  6
CONTINUOUS
 62
       7
100
AcDbLine
 10
-100.61661887
 20
19.36415043
 30
0.0
 11
-101.11661887
 21
19.86415043
 31
0.0
  0
LINE
  5
20E
100
AcDbEntity
  8
0
  6
CONTINUOUS
 62
       2
100
AcDbLine
 10
-93.11661887
 20
27.86415043
 30
0.0
 11
-93.11661887
 21
14.86415043
 31
0.0
  0
LINE
  5
20F
100
AcDbEntity
  8
0
  6
CONTINUOUS
 62
       2
100
AcDbLine
 10
-90.11661887
 20
43.86415043
 30
0.0
 11
-90.11661887
 21
30.86415043
 31
0.0
  0
LINE
  5
210
100
AcDbEntity
  8
0
  6
CONTINUOUS
 62
       2
100
AcDbLine
 10
-93.11661887
 20
59.86415043
 30
0.0
 11
-93.11661887
 21
46.86415043
 31
0.0
  0
LINE
  5
211
100
AcDbEntity
  8
0
  6
CONTINUOUS
 62
       2
100
AcDbLine
 10
-99.61661887
 20
21.36415043
 30
0.0
 11
-86.61661887
 21
21.36415043
 31
0.0
  0
LINE
  5
212
100
AcDbEntity
  8
0
  6
CONTINUOUS
 62
       2
100
AcDbLine
 10
-99.61661887
 20
53.36415043
 30
0.0
 11
-86.61661887
 21
53.36415043
 31
0.0
  0
LINE
  5
213
100
AcDbEntity
  8
0
  6
CONTINUOUS
 62
       7
100
AcDbLine
 10
-98.11661887
 20
27.36415043
 30
0.0
 11
-101.11661887
 21
24.36415043
 31
0.0
  0
LINE
  5
214
100
AcDbEntity
  8
0
  6
CONTINUOUS
 62
       7
100
AcDbLine
 10
-101.11661887
 20
50.36415043
 30
0.0
 11
-98.11661887
 21
47.36415043
 31
0.0
  0
LINE
  5
215
100
AcDbEntity
  8
0
  6
CONTINUOUS
 62
       7
100
AcDbLine
 10
-83.11661887
 20
20.86415043
 30
0.0
 11
-89.61661887
 21
14.36415043
 31
0.0
  0
LINE
  5
216
100
AcDbEntity
  8
0
  6
CONTINUOUS
 62
       7
100
AcDbLine
 10
-83.11661887
 20
53.86415043
 30
0.0
 11
-89.61661887
 21
60.36415043
 31
0.0
  0
LINE
  5
217
100
AcDbEntity
  8
0
  6
CONTINUOUS
 62
       7
100
AcDbLine
 10
-101.11661887
 20
24.36415043
 30
0.0
 11
-101.11661887
 21
19.86415043
 31
0.0
  0
LINE
  5
218
100
AcDbEntity
  8
0
  6
CONTINUOUS
 62
       7
100
AcDbLine
 10
-101.11661887
 20
60.36415043
 30
0.0
 11
-89.61661887
 21
60.36415043
 31
0.0
  0
LINE
  5
219
100
AcDbEntity
  8
0
  6
CONTINUOUS
 62
       7
100
AcDbLine
 10
-101.11661887
 20
14.36415043
 30
0.0
 11
-89.61661887
 21
14.36415043
 31
0.0
  0
LINE
  5
21A
100
AcDbEntity
  8
0
  6
CONTINUOUS
 62
       7
100
AcDbLine
 10
-98.11661887
 20
47.36415043
 30
0.0
 11
-98.11661887
 21
27.36415043
 31
0.0
  0
LINE
  5
21B
100
AcDbEntity
  8
0
  6
CONTINUOUS
 62
       7
100
AcDbLine
 10
-101.11661887
 20
60.36415043
 30
0.0
 11
-101.11661887
 21
50.36415043
 31
0.0
  0
LINE
  5
21C
100
AcDbEntity
  8
0
  6
CONTINUOUS
 62
       2
100
AcDbLine
 10
105.21338113
 20
29.36415043
 30
0.0
 11
112.21338113
 21
29.36415043
 31
0.0
  0
LINE
  5
21D
100
AcDbEntity
  8
0
  6
CONTINUOUS
 62
       2
100
AcDbLine
 10
105.21338113
 20
45.36415043
 30
0.0
 11
112.21338113
 21
45.36415043
 31
0.0
  0
LINE
  5
21E
100
AcDbEntity
  8
0
  6
CONTINUOUS
 62
       2
100
AcDbLine
 10
32.21338113
 20
29.36415043
 30
0.0
 11
39.21338113
 21
29.36415043
 31
0.0
  0
LINE
  5
21F
100
AcDbEntity
  8
0
  6
CONTINUOUS
 62
       2
100
AcDbLine
 10
32.21338113
 20
45.36415043
 30
0.0
 11
39.21338113
 21
45.36415043
 31
0.0
  0
LINE
  5
220
100
AcDbEntity
  8
0
  6
CONTINUOUS
 62
       2
100
AcDbLine
 10
108.71338113
 20
32.86415043
 30
0.0
 11
108.71338113
 21
25.86415043
 31
0.0
  0
LINE
  5
221
100
AcDbEntity
  8
0
  6
CONTINUOUS
 62
       2
100
AcDbLine
 10
35.71338113
 20
32.86415043
 30
0.0
 11
35.71338113
 21
25.86415043
 31
0.0
  0
LINE
  5
222
100
AcDbEntity
  8
0
  6
CONTINUOUS
 62
       2
100
AcDbLine
 10
108.71338113
 20
48.86415043
 30
0.0
 11
108.71338113
 21
41.86415043
 31
0.0
  0
LINE
  5
223
100
AcDbEntity
  8
0
  6
CONTINUOUS
 62
       2
100
AcDbLine
 10
35.71338113
 20
48.86415043
 30
0.0
 11
35.71338113
 21
41.86415043
 31
0.0
  0
LINE
  5
224
100
AcDbEntity
  8
0
  6
CONTINUOUS
 62
       7
100
AcDbLine
 10
87.71338113
 20
20.86415043
 30
0.0
 11
88.71338113
 21
20.86415043
 31
0.0
  0
LINE
  5
225
100
AcDbEntity
  8
0
  6
CONTINUOUS
 62
       7
100
AcDbLine
 10
87.71338113
 20
53.86415043
 30
0.0
 11
88.71338113
 21
53.86415043
 31
0.0
  0
LINE
  5
226
100
AcDbEntity
  8
0
  6
CONTINUOUS
 62
       7
100
AcDbLine
 10
55.71338113
 20
60.36415043
 30
0.0
 11
56.71338113
 21
60.36415043
 31
0.0
  0
LINE
  5
227
100
AcDbEntity
  8
0
  6
CONTINUOUS
 62
       7
100
AcDbLine
 10
112.21338113
 20
60.36415043
 30
0.0
 11
112.21338113
 21
14.36415043
 31
0.0
  0
LINE
  5
228
100
AcDbEntity
  8
0
  6
CONTINUOUS
 62
       7
100
AcDbLine
 10
32.21338113
 20
60.36415043
 30
0.0
 11
32.21338113
 21
14.36415043
 31
0.0
  0
LINE
  5
229
100
AcDbEntity
  8
0
  6
CONTINUOUS
 62
       7
100
AcDbLine
 10
32.21338113
 20
60.36415043
 30
0.0
 11
40.71338113
 21
60.36415043
 31
0.0
  0
LINE
  5
22A
100
AcDbEntity
  8
0
  6
CONTINUOUS
 62
       7
100
AcDbLine
 10
32.21338113
 20
53.86415043
 30
0.0
 11
40.71338113
 21
53.86415043
 31
0.0
  0
LINE
  5
22B
100
AcDbEntity
  8
0
  6
CONTINUOUS
 62
       7
100
AcDbLine
 10
32.21338113
 20
20.86415043
 30
0.0
 11
40.71338113
 21
20.86415043
 31
0.0
  0
LINE
  5
22C
100
AcDbEntity
  8
0
  6
CONTINUOUS
 62
       7
100
AcDbLine
 10
-83.11661887
 20
23.36415043
 30
0.0
 11
-83.11661887
 21
20.86415043
 31
0.0
  0
LINE
  5
22D
100
AcDbEntity
  8
0
  6
CONTINUOUS
 62
       7
100
AcDbLine
 10
-83.11661887
 20
53.86415043
 30
0.0
 11
-83.11661887
 21
51.36415043
 31
0.0
  0
LINE
  5
22F
100
AcDbEntity
  8
0
  6
DASHED
 62
       7
100
AcDbLine
 10
46.11338113
 20
62.36415043
 30
0.0
 11
46.11338113
 21
57.96415043
 31
0.0
  0
LINE
  5
230
100
AcDbEntity
  8
0
  6
CONTINUOUS
 62
       7
100
AcDbLine
 10
40.71338113
 20
62.36415043
 30
0.0
 11
55.71338113
 21
62.36415043
 31
0.0
  0
LINE
  5
231
100
AcDbEntity
  8
0
  6
DASHED
 62
       2
100
AcDbLine
 10
45.71338113
 20
62.36415043
 30
0.0
 11
45.71338113
 21
57.96415043
 31
0.0
  0
LINE
  5
232
100
AcDbEntity
  8
0
  6
CONTINUOUS
 62
       7
100
AcDbLine
 10
55.71338113
 20
62.36415043
 30
0.0
 11
55.71338113
 21
29.94415043
 31
0.0
  0
LINE
  5
233
100
AcDbEntity
  8
0
  6
DASHED
 62
       7
100
AcDbLine
 10
50.31338113
 20
62.36415043
 30
0.0
 11
50.31338113
 21
57.96415043
 31
0.0
  0
LINE
  5
234
100
AcDbEntity
  8
0
  6
DASHED
 62
       2
100
AcDbLine
 10
50.71338113
 20
62.36415043
 30
0.0
 11
50.71338113
 21
57.96415043
 31
0.0
  0
LINE
  5
235
100
AcDbEntity
  8
0
  6
CONTINUOUS
 62
       7
100
AcDbLine
 10
40.71338113
 20
51.36415043
 30
0.0
 11
55.71338113
 21
51.36415043
 31
0.0
  0
LINE
  5
236
100
AcDbEntity
  8
0
  6
CONTINUOUS
 62
       7
100
AcDbLine
 10
40.71338113
 20
62.36415043
 30
0.0
 11
40.71338113
 21
47.94415043
 31
0.0
  0
LINE
  5
237
100
AcDbEntity
  8
0
  6
CONTINUOUS
 62
       2
100
AcDbLine
 10
43.51338113
 20
42.36415043
 30
0.0
 11
56.51338113
 21
42.36415043
 31
0.0
  0
LINE
  5
238
100
AcDbEntity
  8
0
  6
CONTINUOUS
 62
       2
100
AcDbLine
 10
50.01338113
 20
48.86415043
 30
0.0
 11
50.01338113
 21
35.86415043
 31
0.0
  0
ARC
  5
239
100
AcDbEntity
  8
0
  6
CONTINUOUS
 62
       7
100
AcDbCircle
 10
50.01338113
 20
43.36415043
 30
0.0
 40
3.9
100
AcDbArc
 50
0.0
 51
180.0
  0
ARC
  5
23A
100
AcDbEntity
  8
0
  6
CONTINUOUS
 62
       7
100
AcDbCircle
 10
50.01338113
 20
41.36415043
 30
0.0
 40
3.9
100
AcDbArc
 50
180.0
 51
0.0
  0
CIRCLE
  5
23B
100
AcDbEntity
  8
0
  6
CONTINUOUS
 62
       7
100
AcDbCircle
 10
50.01669717
 20
42.36415043
 30
0.0
 40
5.0
  0
CIRCLE
  5
23C
100
AcDbEntity
  8
0
  6
CONTINUOUS
 62
       7
100
AcDbCircle
 10
50.01669717
 20
42.36415043
 30
0.0
 40
2.0
  0
LINE
  5
23D
100
AcDbEntity
  8
0
  6
CONTINUOUS
 62
       7
100
AcDbLine
 10
53.91338113
 20
43.36415043
 30
0.0
 11
53.91338113
 21
41.36415043
 31
0.0
  0
LINE
  5
23E
100
AcDbEntity
  8
0
  6
CONTINUOUS
 62
       2
100
AcDbLine
 10
46.41338113
 20
38.86415043
 30
0.0
 11
46.41338113
 21
25.86415043
 31
0.0
  0
LINE
  5
23F
100
AcDbEntity
  8
0
  6
CONTINUOUS
 62
       2
100
AcDbLine
 10
39.91338113
 20
32.36415043
 30
0.0
 11
52.91338113
 21
32.36415043
 31
0.0
  0
CIRCLE
  5
240
100
AcDbEntity
  8
0
  6
CONTINUOUS
 62
       7
100
AcDbCircle
 10
46.41669106
 20
32.36415043
 30
0.0
 40
5.0
  0
ARC
  5
241
100
AcDbEntity
  8
0
  6
CONTINUOUS
 62
       7
100
AcDbCircle
 10
46.41338113
 20
33.36415043
 30
0.0
 40
3.9
100
AcDbArc
 50
0.0
 51
180.0
  0
CIRCLE
  5
242
100
AcDbEntity
  8
0
  6
CONTINUOUS
 62
       7
100
AcDbCircle
 10
46.41669106
 20
32.36415043
 30
0.0
 40
2.0
  0
ARC
  5
243
100
AcDbEntity
  8
0
  6
CONTINUOUS
 62
       7
100
AcDbCircle
 10
46.41338113
 20
31.36415043
 30
0.0
 40
3.9
100
AcDbArc
 50
180.0
 51
0.0
  0
LINE
  5
244
100
AcDbEntity
  8
0
  6
CONTINUOUS
 62
       7
100
AcDbLine
 10
42.51338113
 20
33.36415043
 30
0.0
 11
42.51338113
 21
31.36415043
 31
0.0
  0
LINE
  5
245
100
AcDbEntity
  8
0
  6
CONTINUOUS
 62
       7
100
AcDbLine
 10
50.31338113
 20
33.36415043
 30
0.0
 11
50.31338113
 21
31.36415043
 31
0.0
  0
LINE
  5
246
100
AcDbEntity
  8
0
  6
CONTINUOUS
 62
       7
100
AcDbLine
 10
40.71338113
 20
16.36415043
 30
0.0
 11
40.71338113
 21
44.77415043
 31
0.0
  0
ARC
  5
247
100
AcDbEntity
  8
0
  6
CONTINUOUS
 62
       7
100
AcDbCircle
 10
46.41504096
 20
20.36581026
 30
0.0
 40
0.49834293
100
AcDbArc
 50
359.80916429
 51
90.19083571
  0
ARC
  5
248
100
AcDbEntity
  8
0
  6
CONTINUOUS
 62
       7
100
AcDbCircle
 10
55.21503488
 20
16.36249668
 30
0.0
 40
0.49834899
100
AcDbArc
 50
269.80986601
 51
0.19013399
  0
ARC
  5
249
100
AcDbEntity
  8
0
  6
CONTINUOUS
 62
       7
100
AcDbCircle
 10
41.2188773
 20
16.36034143
 30
0.0
 40
0.50551052
100
AcDbArc
 50
179.56827543
 51
239.64062606
  0
ARC
  5
24A
100
AcDbEntity
  8
0
  6
CONTINUOUS
 62
       7
100
AcDbCircle
 10
41.21504036
 20
21.36580966
 30
0.0
 40
0.50166198
100
AcDbArc
 50
180.18950512
 51
269.81049488
  0
ARC
  5
24B
100
AcDbEntity
  8
0
  6
CONTINUOUS
 62
       7
100
AcDbCircle
 10
47.41504649
 20
16.36581579
 30
0.0
 40
0.50166813
100
AcDbArc
 50
180.1902022
 51
269.8097978
  0
LINE
  5
24C
100
AcDbEntity
  8
0
  6
CONTINUOUS
 62
       7
100
AcDbLine
 10
46.46338113
 20
15.86415043
 30
0.0
 11
55.21338113
 21
15.86415043
 31
0.0
  0
LINE
  5
24D
100
AcDbEntity
  8
0
  6
CONTINUOUS
 62
       7
100
AcDbLine
 10
40.96338113
 20
20.86415043
 30
0.0
 11
46.41338113
 21
20.86415043
 31
0.0
  0
LINE
  5
24E
100
AcDbEntity
  8
0
  6
CONTINUOUS
 62
       7
100
AcDbLine
 10
46.91338113
 20
20.36415043
 30
0.0
 11
46.91338113
 21
16.36415043
 31
0.0
  0
LINE
  5
24F
100
AcDbEntity
  8
0
  6
CONTINUOUS
 62
       7
100
AcDbLine
 10
41.39338113
 20
16.66415043
 30
0.0
 11
42.24338113
 21
16.66415043
 31
0.0
  0
LINE
  5
250
100
AcDbEntity
  8
0
  6
CONTINUOUS
 62
       7
100
AcDbLine
 10
41.39338113
 20
16.66415043
 30
0.0
 11
41.39338113
 21
15.66415043
 31
0.0
  0
LINE
  5
251
100
AcDbEntity
  8
0
  6
CONTINUOUS
 62
       7
100
AcDbLine
 10
42.24338113
 20
16.66415043
 30
0.0
 11
42.24338113
 21
15.66415043
 31
0.0
  0
LINE
  5
252
100
AcDbEntity
  8
0
  6
CONTINUOUS
 62
       7
100
AcDbLine
 10
40.96338113
 20
15.66415043
 30
0.0
 11
46.46338113
 21
15.66415043
 31
0.0
  0
LINE
  5
253
100
AcDbEntity
  8
0
  6
CONTINUOUS
 62
       7
100
AcDbLine
 10
40.96338113
 20
20.86415043
 30
0.0
 11
40.96338113
 21
15.66415043
 31
0.0
  0
LINE
  5
254
100
AcDbEntity
  8
0
  6
CONTINUOUS
 62
       7
100
AcDbLine
 10
46.46338113
 20
20.86415043
 30
0.0
 11
46.46338113
 21
15.66415043
 31
0.0
  0
LINE
  5
255
100
AcDbEntity
  8
0
  6
CONTINUOUS
 62
       7
100
AcDbLine
 10
40.71338113
 20
23.36415043
 30
0.0
 11
55.71338113
 21
23.36415043
 31
0.0
  0
LINE
  5
256
100
AcDbEntity
  8
0
  6
CONTINUOUS
 62
       7
100
AcDbLine
 10
46.11338113
 20
43.36415043
 30
0.0
 11
46.11338113
 21
41.36415043
 31
0.0
  0
LINE
  5
257
100
AcDbEntity
  8
0
  6
CONTINUOUS
 62
       7
100
AcDbLine
 10
55.71338113
 20
16.36415043
 30
0.0
 11
55.71338113
 21
26.77415043
 31
0.0
  0
LINE
  5
258
100
AcDbEntity
  8
0
  6
DASHED
 62
       7
100
AcDbLine
 10
62.11338113
 20
62.36415043
 30
0.0
 11
62.11338113
 21
57.96415043
 31
0.0
  0
LINE
  5
259
100
AcDbEntity
  8
0
  6
CONTINUOUS
 62
       7
100
AcDbLine
 10
56.71338113
 20
62.36415043
 30
0.0
 11
71.71338113
 21
62.36415043
 31
0.0
  0
LINE
  5
25A
100
AcDbEntity
  8
0
  6
DASHED
 62
       2
100
AcDbLine
 10
61.71338113
 20
62.36415043
 30
0.0
 11
61.71338113
 21
57.96415043
 31
0.0
  0
LINE
  5
25B
100
AcDbEntity
  8
0
  6
CONTINUOUS
 62
       7
100
AcDbLine
 10
71.71338113
 20
62.36415043
 30
0.0
 11
71.71338113
 21
29.94415043
 31
0.0
  0
LINE
  5
25C
100
AcDbEntity
  8
0
  6
DASHED
 62
       7
100
AcDbLine
 10
66.31338113
 20
62.36415043
 30
0.0
 11
66.31338113
 21
57.96415043
 31
0.0
  0
LINE
  5
25D
100
AcDbEntity
  8
0
  6
DASHED
 62
       2
100
AcDbLine
 10
66.71338113
 20
62.36415043
 30
0.0
 11
66.71338113
 21
57.96415043
 31
0.0
  0
LINE
  5
25E
100
AcDbEntity
  8
0
  6
CONTINUOUS
 62
       7
100
AcDbLine
 10
56.71338113
 20
51.36415043
 30
0.0
 11
71.71338113
 21
51.36415043
 31
0.0
  0
LINE
  5
25F
100
AcDbEntity
  8
0
  6
CONTINUOUS
 62
       7
100
AcDbLine
 10
56.71338113
 20
62.36415043
 30
0.0
 11
56.71338113
 21
47.94415043
 31
0.0
  0
LINE
  5
260
100
AcDbEntity
  8
0
  6
CONTINUOUS
 62
       2
100
AcDbLine
 10
59.51338113
 20
42.36415043
 30
0.0
 11
72.51338113
 21
42.36415043
 31
0.0
  0
LINE
  5
261
100
AcDbEntity
  8
0
  6
CONTINUOUS
 62
       2
100
AcDbLine
 10
66.01338113
 20
48.86415043
 30
0.0
 11
66.01338113
 21
35.86415043
 31
0.0
  0
ARC
  5
262
100
AcDbEntity
  8
0
  6
CONTINUOUS
 62
       7
100
AcDbCircle
 10
66.01338113
 20
43.36415043
 30
0.0
 40
3.9
100
AcDbArc
 50
0.0
 51
180.0
  0
ARC
  5
263
100
AcDbEntity
  8
0
  6
CONTINUOUS
 62
       7
100
AcDbCircle
 10
66.01338113
 20
41.36415043
 30
0.0
 40
3.9
100
AcDbArc
 50
180.0
 51
0.0
  0
CIRCLE
  5
264
100
AcDbEntity
  8
0
  6
CONTINUOUS
 62
       7
100
AcDbCircle
 10
66.01669717
 20
42.36415043
 30
0.0
 40
5.0
  0
CIRCLE
  5
265
100
AcDbEntity
  8
0
  6
CONTINUOUS
 62
       7
100
AcDbCircle
 10
66.01669717
 20
42.36415043
 30
0.0
 40
2.0
  0
LINE
  5
266
100
AcDbEntity
  8
0
  6
CONTINUOUS
 62
       7
100
AcDbLine
 10
69.91338113
 20
43.36415043
 30
0.0
 11
69.91338113
 21
41.36415043
 31
0.0
  0
LINE
  5
267
100
AcDbEntity
  8
0
  6
CONTINUOUS
 62
       2
100
AcDbLine
 10
62.41338113
 20
38.86415043
 30
0.0
 11
62.41338113
 21
25.86415043
 31
0.0
  0
LINE
  5
268
100
AcDbEntity
  8
0
  6
CONTINUOUS
 62
       2
100
AcDbLine
 10
55.91338113
 20
32.36415043
 30
0.0
 11
68.91338113
 21
32.36415043
 31
0.0
  0
CIRCLE
  5
269
100
AcDbEntity
  8
0
  6
CONTINUOUS
 62
       7
100
AcDbCircle
 10
62.41669106
 20
32.36415043
 30
0.0
 40
5.0
  0
ARC
  5
26A
100
AcDbEntity
  8
0
  6
CONTINUOUS
 62
       7
100
AcDbCircle
 10
62.41338113
 20
33.36415043
 30
0.0
 40
3.9
100
AcDbArc
 50
0.0
 51
180.0
  0
CIRCLE
  5
26B
100
AcDbEntity
  8
0
  6
CONTINUOUS
 62
       7
100
AcDbCircle
 10
62.41669106
 20
32.36415043
 30
0.0
 40
2.0
  0
ARC
  5
26C
100
AcDbEntity
  8
0
  6
CONTINUOUS
 62
       7
100
AcDbCircle
 10
62.41338113
 20
31.36415043
 30
0.0
 40
3.9
100
AcDbArc
 50
180.0
 51
0.0
  0
LINE
  5
26D
100
AcDbEntity
  8
0
  6
CONTINUOUS
 62
       7
100
AcDbLine
 10
58.51338113
 20
33.36415043
 30
0.0
 11
58.51338113
 21
31.36415043
 31
0.0
  0
LINE
  5
26E
100
AcDbEntity
  8
0
  6
CONTINUOUS
 62
       7
100
AcDbLine
 10
66.31338113
 20
33.36415043
 30
0.0
 11
66.31338113
 21
31.36415043
 31
0.0
  0
LINE
  5
26F
100
AcDbEntity
  8
0
  6
CONTINUOUS
 62
       7
100
AcDbLine
 10
56.71338113
 20
16.36415043
 30
0.0
 11
56.71338113
 21
44.77415043
 31
0.0
  0
ARC
  5
270
100
AcDbEntity
  8
0
  6
CONTINUOUS
 62
       7
100
AcDbCircle
 10
62.41504096
 20
20.36581026
 30
0.0
 40
0.49834293
100
AcDbArc
 50
359.80916429
 51
90.19083571
  0
ARC
  5
271
100
AcDbEntity
  8
0
  6
CONTINUOUS
 62
       7
100
AcDbCircle
 10
71.21503488
 20
16.36249668
 30
0.0
 40
0.49834899
100
AcDbArc
 50
269.80986601
 51
0.19013399
  0
ARC
  5
272
100
AcDbEntity
  8
0
  6
CONTINUOUS
 62
       7
100
AcDbCircle
 10
57.2188773
 20
16.36034143
 30
0.0
 40
0.50551052
100
AcDbArc
 50
179.56827543
 51
239.64062606
  0
ARC
  5
273
100
AcDbEntity
  8
0
  6
CONTINUOUS
 62
       7
100
AcDbCircle
 10
57.21504036
 20
21.36580966
 30
0.0
 40
0.50166198
100
AcDbArc
 50
180.18950512
 51
269.81049488
  0
ARC
  5
274
100
AcDbEntity
  8
0
  6
CONTINUOUS
 62
       7
100
AcDbCircle
 10
63.41504649
 20
16.36581579
 30
0.0
 40
0.50166813
100
AcDbArc
 50
180.1902022
 51
269.8097978
  0
LINE
  5
275
100
AcDbEntity
  8
0
  6
CONTINUOUS
 62
       7
100
AcDbLine
 10
62.46338113
 20
15.86415043
 30
0.0
 11
71.21338113
 21
15.86415043
 31
0.0
  0
LINE
  5
276
100
AcDbEntity
  8
0
  6
CONTINUOUS
 62
       7
100
AcDbLine
 10
56.96338113
 20
20.86415043
 30
0.0
 11
62.41338113
 21
20.86415043
 31
0.0
  0
LINE
  5
277
100
AcDbEntity
  8
0
  6
CONTINUOUS
 62
       7
100
AcDbLine
 10
62.91338113
 20
20.36415043
 30
0.0
 11
62.91338113
 21
16.36415043
 31
0.0
  0
LINE
  5
278
100
AcDbEntity
  8
0
  6
CONTINUOUS
 62
       7
100
AcDbLine
 10
57.39338113
 20
16.66415043
 30
0.0
 11
58.24338113
 21
16.66415043
 31
0.0
  0
LINE
  5
279
100
AcDbEntity
  8
0
  6
CONTINUOUS
 62
       7
100
AcDbLine
 10
57.39338113
 20
16.66415043
 30
0.0
 11
57.39338113
 21
15.66415043
 31
0.0
  0
LINE
  5
27A
100
AcDbEntity
  8
0
  6
CONTINUOUS
 62
       7
100
AcDbLine
 10
58.24338113
 20
16.66415043
 30
0.0
 11
58.24338113
 21
15.66415043
 31
0.0
  0
LINE
  5
27B
100
AcDbEntity
  8
0
  6
CONTINUOUS
 62
       7
100
AcDbLine
 10
56.96338113
 20
15.66415043
 30
0.0
 11
62.46338113
 21
15.66415043
 31
0.0
  0
LINE
  5
27C
100
AcDbEntity
  8
0
  6
CONTINUOUS
 62
       7
100
AcDbLine
 10
56.96338113
 20
20.86415043
 30
0.0
 11
56.96338113
 21
15.66415043
 31
0.0
  0
LINE
  5
27D
100
AcDbEntity
  8
0
  6
CONTINUOUS
 62
       7
100
AcDbLine
 10
62.46338113
 20
20.86415043
 30
0.0
 11
62.46338113
 21
15.66415043
 31
0.0
  0
LINE
  5
27E
100
AcDbEntity
  8
0
  6
CONTINUOUS
 62
       7
100
AcDbLine
 10
56.71338113
 20
23.36415043
 30
0.0
 11
71.71338113
 21
23.36415043
 31
0.0
  0
LINE
  5
27F
100
AcDbEntity
  8
0
  6
CONTINUOUS
 62
       7
100
AcDbLine
 10
62.11338113
 20
43.36415043
 30
0.0
 11
62.11338113
 21
41.36415043
 31
0.0
  0
LINE
  5
280
100
AcDbEntity
  8
0
  6
CONTINUOUS
 62
       7
100
AcDbLine
 10
71.71338113
 20
16.36415043
 30
0.0
 11
71.71338113
 21
26.77415043
 31
0.0
  0
LINE
  5
281
100
AcDbEntity
  8
0
  6
DASHED
 62
       7
100
AcDbLine
 10
78.11338113
 20
62.36415043
 30
0.0
 11
78.11338113
 21
57.96415043
 31
0.0
  0
LINE
  5
282
100
AcDbEntity
  8
0
  6
CONTINUOUS
 62
       7
100
AcDbLine
 10
72.71338113
 20
62.36415043
 30
0.0
 11
87.71338113
 21
62.36415043
 31
0.0
  0
LINE
  5
283
100
AcDbEntity
  8
0
  6
DASHED
 62
       2
100
AcDbLine
 10
77.71338113
 20
62.36415043
 30
0.0
 11
77.71338113
 21
57.96415043
 31
0.0
  0
LINE
  5
284
100
AcDbEntity
  8
0
  6
CONTINUOUS
 62
       7
100
AcDbLine
 10
87.71338113
 20
62.36415043
 30
0.0
 11
87.71338113
 21
29.94415043
 31
0.0
  0
LINE
  5
285
100
AcDbEntity
  8
0
  6
DASHED
 62
       7
100
AcDbLine
 10
82.31338113
 20
62.36415043
 30
0.0
 11
82.31338113
 21
57.96415043
 31
0.0
  0
LINE
  5
286
100
AcDbEntity
  8
0
  6
DASHED
 62
       2
100
AcDbLine
 10
82.71338113
 20
62.36415043
 30
0.0
 11
82.71338113
 21
57.96415043
 31
0.0
  0
LINE
  5
287
100
AcDbEntity
  8
0
  6
CONTINUOUS
 62
       7
100
AcDbLine
 10
72.71338113
 20
51.36415043
 30
0.0
 11
87.71338113
 21
51.36415043
 31
0.0
  0
LINE
  5
288
100
AcDbEntity
  8
0
  6
CONTINUOUS
 62
       7
100
AcDbLine
 10
72.71338113
 20
62.36415043
 30
0.0
 11
72.71338113
 21
47.94415043
 31
0.0
  0
LINE
  5
289
100
AcDbEntity
  8
0
  6
CONTINUOUS
 62
       2
100
AcDbLine
 10
75.51338113
 20
42.36415043
 30
0.0
 11
88.51338113
 21
42.36415043
 31
0.0
  0
LINE
  5
28A
100
AcDbEntity
  8
0
  6
CONTINUOUS
 62
       2
100
AcDbLine
 10
82.01338113
 20
48.86415043
 30
0.0
 11
82.01338113
 21
35.86415043
 31
0.0
  0
ARC
  5
28B
100
AcDbEntity
  8
0
  6
CONTINUOUS
 62
       7
100
AcDbCircle
 10
82.01338113
 20
43.36415043
 30
0.0
 40
3.9
100
AcDbArc
 50
0.0
 51
180.0
  0
ARC
  5
28C
100
AcDbEntity
  8
0
  6
CONTINUOUS
 62
       7
100
AcDbCircle
 10
82.01338113
 20
41.36415043
 30
0.0
 40
3.9
100
AcDbArc
 50
180.0
 51
0.0
  0
CIRCLE
  5
28D
100
AcDbEntity
  8
0
  6
CONTINUOUS
 62
       7
100
AcDbCircle
 10
82.01669717
 20
42.36415043
 30
0.0
 40
5.0
  0
CIRCLE
  5
28E
100
AcDbEntity
  8
0
  6
CONTINUOUS
 62
       7
100
AcDbCircle
 10
82.01669717
 20
42.36415043
 30
0.0
 40
2.0
  0
LINE
  5
28F
100
AcDbEntity
  8
0
  6
CONTINUOUS
 62
       7
100
AcDbLine
 10
85.91338113
 20
43.36415043
 30
0.0
 11
85.91338113
 21
41.36415043
 31
0.0
  0
LINE
  5
290
100
AcDbEntity
  8
0
  6
CONTINUOUS
 62
       2
100
AcDbLine
 10
78.41338113
 20
38.86415043
 30
0.0
 11
78.41338113
 21
25.86415043
 31
0.0
  0
LINE
  5
291
100
AcDbEntity
  8
0
  6
CONTINUOUS
 62
       2
100
AcDbLine
 10
71.91338113
 20
32.36415043
 30
0.0
 11
84.91338113
 21
32.36415043
 31
0.0
  0
CIRCLE
  5
292
100
AcDbEntity
  8
0
  6
CONTINUOUS
 62
       7
100
AcDbCircle
 10
78.41669106
 20
32.36415043
 30
0.0
 40
5.0
  0
ARC
  5
293
100
AcDbEntity
  8
0
  6
CONTINUOUS
 62
       7
100
AcDbCircle
 10
78.41338113
 20
33.36415043
 30
0.0
 40
3.9
100
AcDbArc
 50
0.0
 51
180.0
  0
CIRCLE
  5
294
100
AcDbEntity
  8
0
  6
CONTINUOUS
 62
       7
100
AcDbCircle
 10
78.41669106
 20
32.36415043
 30
0.0
 40
2.0
  0
ARC
  5
295
100
AcDbEntity
  8
0
  6
CONTINUOUS
 62
       7
100
AcDbCircle
 10
78.41338113
 20
31.36415043
 30
0.0
 40
3.9
100
AcDbArc
 50
180.0
 51
0.0
  0
LINE
  5
296
100
AcDbEntity
  8
0
  6
CONTINUOUS
 62
       7
100
AcDbLine
 10
74.51338113
 20
33.36415043
 30
0.0
 11
74.51338113
 21
31.36415043
 31
0.0
  0
LINE
  5
297
100
AcDbEntity
  8
0
  6
CONTINUOUS
 62
       7
100
AcDbLine
 10
82.31338113
 20
33.36415043
 30
0.0
 11
82.31338113
 21
31.36415043
 31
0.0
  0
LINE
  5
298
100
AcDbEntity
  8
0
  6
CONTINUOUS
 62
       7
100
AcDbLine
 10
72.71338113
 20
16.36415043
 30
0.0
 11
72.71338113
 21
44.77415043
 31
0.0
  0
ARC
  5
299
100
AcDbEntity
  8
0
  6
CONTINUOUS
 62
       7
100
AcDbCircle
 10
78.41504096
 20
20.36581026
 30
0.0
 40
0.49834293
100
AcDbArc
 50
359.80916429
 51
90.19083571
  0
ARC
  5
29A
100
AcDbEntity
  8
0
  6
CONTINUOUS
 62
       7
100
AcDbCircle
 10
87.21503488
 20
16.36249668
 30
0.0
 40
0.49834899
100
AcDbArc
 50
269.80986601
 51
0.19013399
  0
ARC
  5
29B
100
AcDbEntity
  8
0
  6
CONTINUOUS
 62
       7
100
AcDbCircle
 10
73.2188773
 20
16.36034143
 30
0.0
 40
0.50551052
100
AcDbArc
 50
179.56827543
 51
239.64062606
  0
ARC
  5
29C
100
AcDbEntity
  8
0
  6
CONTINUOUS
 62
       7
100
AcDbCircle
 10
73.21504036
 20
21.36580966
 30
0.0
 40
0.50166198
100
AcDbArc
 50
180.18950512
 51
269.81049488
  0
ARC
  5
29D
100
AcDbEntity
  8
0
  6
CONTINUOUS
 62
       7
100
AcDbCircle
 10
79.41504649
 20
16.36581579
 30
0.0
 40
0.50166813
100
AcDbArc
 50
180.1902022
 51
269.8097978
  0
LINE
  5
29E
100
AcDbEntity
  8
0
  6
CONTINUOUS
 62
       7
100
AcDbLine
 10
78.46338113
 20
15.86415043
 30
0.0
 11
87.21338113
 21
15.86415043
 31
0.0
  0
LINE
  5
29F
100
AcDbEntity
  8
0
  6
CONTINUOUS
 62
       7
100
AcDbLine
 10
72.96338113
 20
20.86415043
 30
0.0
 11
78.41338113
 21
20.86415043
 31
0.0
  0
LINE
  5
2A0
100
AcDbEntity
  8
0
  6
CONTINUOUS
 62
       7
100
AcDbLine
 10
78.91338113
 20
20.36415043
 30
0.0
 11
78.91338113
 21
16.36415043
 31
0.0
  0
LINE
  5
2A1
100
AcDbEntity
  8
0
  6
CONTINUOUS
 62
       7
100
AcDbLine
 10
73.39338113
 20
16.66415043
 30
0.0
 11
74.24338113
 21
16.66415043
 31
0.0
  0
LINE
  5
2A2
100
AcDbEntity
  8
0
  6
CONTINUOUS
 62
       7
100
AcDbLine
 10
73.39338113
 20
16.66415043
 30
0.0
 11
73.39338113
 21
15.66415043
 31
0.0
  0
LINE
  5
2A3
100
AcDbEntity
  8
0
  6
CONTINUOUS
 62
       7
100
AcDbLine
 10
74.24338113
 20
16.66415043
 30
0.0
 11
74.24338113
 21
15.66415043
 31
0.0
  0
LINE
  5
2A4
100
AcDbEntity
  8
0
  6
CONTINUOUS
 62
       7
100
AcDbLine
 10
72.96338113
 20
15.66415043
 30
0.0
 11
78.46338113
 21
15.66415043
 31
0.0
  0
LINE
  5
2A5
100
AcDbEntity
  8
0
  6
CONTINUOUS
 62
       7
100
AcDbLine
 10
72.96338113
 20
20.86415043
 30
0.0
 11
72.96338113
 21
15.66415043
 31
0.0
  0
LINE
  5
2A6
100
AcDbEntity
  8
0
  6
CONTINUOUS
 62
       7
100
AcDbLine
 10
78.46338113
 20
20.86415043
 30
0.0
 11
78.46338113
 21
15.66415043
 31
0.0
  0
LINE
  5
2A7
100
AcDbEntity
  8
0
  6
CONTINUOUS
 62
       7
100
AcDbLine
 10
72.71338113
 20
23.36415043
 30
0.0
 11
87.71338113
 21
23.36415043
 31
0.0
  0
LINE
  5
2A8
100
AcDbEntity
  8
0
  6
CONTINUOUS
 62
       7
100
AcDbLine
 10
78.11338113
 20
43.36415043
 30
0.0
 11
78.11338113
 21
41.36415043
 31
0.0
  0
LINE
  5
2A9
100
AcDbEntity
  8
0
  6
CONTINUOUS
 62
       7
100
AcDbLine
 10
87.71338113
 20
16.36415043
 30
0.0
 11
87.71338113
 21
26.77415043
 31
0.0
  0
LINE
  5
2AA
100
AcDbEntity
  8
0
  6
DASHED
 62
       7
100
AcDbLine
 10
94.11338113
 20
62.36415043
 30
0.0
 11
94.11338113
 21
57.96415043
 31
0.0
  0
LINE
  5
2AB
100
AcDbEntity
  8
0
  6
CONTINUOUS
 62
       7
100
AcDbLine
 10
88.71338113
 20
62.36415043
 30
0.0
 11
103.71338113
 21
62.36415043
 31
0.0
  0
LINE
  5
2AC
100
AcDbEntity
  8
0
  6
DASHED
 62
       2
100
AcDbLine
 10
93.71338113
 20
62.36415043
 30
0.0
 11
93.71338113
 21
57.96415043
 31
0.0
  0
LINE
  5
2AD
100
AcDbEntity
  8
0
  6
CONTINUOUS
 62
       7
100
AcDbLine
 10
103.71338113
 20
62.36415043
 30
0.0
 11
103.71338113
 21
29.94415043
 31
0.0
  0
LINE
  5
2AE
100
AcDbEntity
  8
0
  6
DASHED
 62
       7
100
AcDbLine
 10
98.31338113
 20
62.36415043
 30
0.0
 11
98.31338113
 21
57.96415043
 31
0.0
  0
LINE
  5
2AF
100
AcDbEntity
  8
0
  6
DASHED
 62
       2
100
AcDbLine
 10
98.71338113
 20
62.36415043
 30
0.0
 11
98.71338113
 21
57.96415043
 31
0.0
  0
LINE
  5
2B0
100
AcDbEntity
  8
0
  6
CONTINUOUS
 62
       7
100
AcDbLine
 10
88.71338113
 20
51.36415043
 30
0.0
 11
103.71338113
 21
51.36415043
 31
0.0
  0
LINE
  5
2B1
100
AcDbEntity
  8
0
  6
CONTINUOUS
 62
       7
100
AcDbLine
 10
88.71338113
 20
62.36415043
 30
0.0
 11
88.71338113
 21
47.94415043
 31
0.0
  0
LINE
  5
2B2
100
AcDbEntity
  8
0
  6
CONTINUOUS
 62
       2
100
AcDbLine
 10
91.51338113
 20
42.36415043
 30
0.0
 11
104.51338113
 21
42.36415043
 31
0.0
  0
LINE
  5
2B3
100
AcDbEntity
  8
0
  6
CONTINUOUS
 62
       2
100
AcDbLine
 10
98.01338113
 20
48.86415043
 30
0.0
 11
98.01338113
 21
35.86415043
 31
0.0
  0
ARC
  5
2B4
100
AcDbEntity
  8
0
  6
CONTINUOUS
 62
       7
100
AcDbCircle
 10
98.01338113
 20
43.36415043
 30
0.0
 40
3.9
100
AcDbArc
 50
0.0
 51
180.0
  0
ARC
  5
2B5
100
AcDbEntity
  8
0
  6
CONTINUOUS
 62
       7
100
AcDbCircle
 10
98.01338113
 20
41.36415043
 30
0.0
 40
3.9
100
AcDbArc
 50
180.0
 51
0.0
  0
CIRCLE
  5
2B6
100
AcDbEntity
  8
0
  6
CONTINUOUS
 62
       7
100
AcDbCircle
 10
98.01669717
 20
42.36415043
 30
0.0
 40
5.0
  0
CIRCLE
  5
2B7
100
AcDbEntity
  8
0
  6
CONTINUOUS
 62
       7
100
AcDbCircle
 10
98.01669717
 20
42.36415043
 30
0.0
 40
2.0
  0
LINE
  5
2B8
100
AcDbEntity
  8
0
  6
CONTINUOUS
 62
       7
100
AcDbLine
 10
101.91338113
 20
43.36415043
 30
0.0
 11
101.91338113
 21
41.36415043
 31
0.0
  0
LINE
  5
2B9
100
AcDbEntity
  8
0
  6
CONTINUOUS
 62
       2
100
AcDbLine
 10
94.41338113
 20
38.86415043
 30
0.0
 11
94.41338113
 21
25.86415043
 31
0.0
  0
LINE
  5
2BA
100
AcDbEntity
  8
0
  6
CONTINUOUS
 62
       2
100
AcDbLine
 10
87.91338113
 20
32.36415043
 30
0.0
 11
100.91338113
 21
32.36415043
 31
0.0
  0
CIRCLE
  5
2BB
100
AcDbEntity
  8
0
  6
CONTINUOUS
 62
       7
100
AcDbCircle
 10
94.41669106
 20
32.36415043
 30
0.0
 40
5.0
  0
ARC
  5
2BC
100
AcDbEntity
  8
0
  6
CONTINUOUS
 62
       7
100
AcDbCircle
 10
94.41338113
 20
33.36415043
 30
0.0
 40
3.9
100
AcDbArc
 50
0.0
 51
180.0
  0
CIRCLE
  5
2BD
100
AcDbEntity
  8
0
  6
CONTINUOUS
 62
       7
100
AcDbCircle
 10
94.41669106
 20
32.36415043
 30
0.0
 40
2.0
  0
ARC
  5
2BE
100
AcDbEntity
  8
0
  6
CONTINUOUS
 62
       7
100
AcDbCircle
 10
94.41338113
 20
31.36415043
 30
0.0
 40
3.9
100
AcDbArc
 50
180.0
 51
0.0
  0
LINE
  5
2BF
100
AcDbEntity
  8
0
  6
CONTINUOUS
 62
       7
100
AcDbLine
 10
90.51338113
 20
33.36415043
 30
0.0
 11
90.51338113
 21
31.36415043
 31
0.0
  0
LINE
  5
2C0
100
AcDbEntity
  8
0
  6
CONTINUOUS
 62
       7
100
AcDbLine
 10
98.31338113
 20
33.36415043
 30
0.0
 11
98.31338113
 21
31.36415043
 31
0.0
  0
LINE
  5
2C1
100
AcDbEntity
  8
0
  6
CONTINUOUS
 62
       7
100
AcDbLine
 10
88.71338113
 20
16.36415043
 30
0.0
 11
88.71338113
 21
44.77415043
 31
0.0
  0
ARC
  5
2C2
100
AcDbEntity
  8
0
  6
CONTINUOUS
 62
       7
100
AcDbCircle
 10
94.41504096
 20
20.36581026
 30
0.0
 40
0.49834293
100
AcDbArc
 50
359.80916429
 51
90.19083571
  0
ARC
  5
2C3
100
AcDbEntity
  8
0
  6
CONTINUOUS
 62
       7
100
AcDbCircle
 10
103.21503488
 20
16.36249668
 30
0.0
 40
0.49834899
100
AcDbArc
 50
269.80986601
 51
0.19013399
  0
ARC
  5
2C4
100
AcDbEntity
  8
0
  6
CONTINUOUS
 62
       7
100
AcDbCircle
 10
89.2188773
 20
16.36034143
 30
0.0
 40
0.50551052
100
AcDbArc
 50
179.56827543
 51
239.64062606
  0
ARC
  5
2C5
100
AcDbEntity
  8
0
  6
CONTINUOUS
 62
       7
100
AcDbCircle
 10
89.21504036
 20
21.36580966
 30
0.0
 40
0.50166198
100
AcDbArc
 50
180.18950512
 51
269.81049488
  0
ARC
  5
2C6
100
AcDbEntity
  8
0
  6
CONTINUOUS
 62
       7
100
AcDbCircle
 10
95.41504649
 20
16.36581579
 30
0.0
 40
0.50166813
100
AcDbArc
 50
180.1902022
 51
269.8097978
  0
LINE
  5
2C7
100
AcDbEntity
  8
0
  6
CONTINUOUS
 62
       7
100
AcDbLine
 10
94.46338113
 20
15.86415043
 30
0.0
 11
103.21338113
 21
15.86415043
 31
0.0
  0
LINE
  5
2C8
100
AcDbEntity
  8
0
  6
CONTINUOUS
 62
       7
100
AcDbLine
 10
88.96338113
 20
20.86415043
 30
0.0
 11
94.41338113
 21
20.86415043
 31
0.0
  0
LINE
  5
2C9
100
AcDbEntity
  8
0
  6
CONTINUOUS
 62
       7
100
AcDbLine
 10
94.91338113
 20
20.36415043
 30
0.0
 11
94.91338113
 21
16.36415043
 31
0.0
  0
LINE
  5
2CA
100
AcDbEntity
  8
0
  6
CONTINUOUS
 62
       7
100
AcDbLine
 10
89.39338113
 20
16.66415043
 30
0.0
 11
90.24338113
 21
16.66415043
 31
0.0
  0
LINE
  5
2CB
100
AcDbEntity
  8
0
  6
CONTINUOUS
 62
       7
100
AcDbLine
 10
89.39338113
 20
16.66415043
 30
0.0
 11
89.39338113
 21
15.66415043
 31
0.0
  0
LINE
  5
2CC
100
AcDbEntity
  8
0
  6
CONTINUOUS
 62
       7
100
AcDbLine
 10
90.24338113
 20
16.66415043
 30
0.0
 11
90.24338113
 21
15.66415043
 31
0.0
  0
LINE
  5
2CD
100
AcDbEntity
  8
0
  6
CONTINUOUS
 62
       7
100
AcDbLine
 10
88.96338113
 20
15.66415043
 30
0.0
 11
94.46338113
 21
15.66415043
 31
0.0
  0
LINE
  5
2CE
100
AcDbEntity
  8
0
  6
CONTINUOUS
 62
       7
100
AcDbLine
 10
88.96338113
 20
20.86415043
 30
0.0
 11
88.96338113
 21
15.66415043
 31
0.0
  0
LINE
  5
2CF
100
AcDbEntity
  8
0
  6
CONTINUOUS
 62
       7
100
AcDbLine
 10
94.46338113
 20
20.86415043
 30
0.0
 11
94.46338113
 21
15.66415043
 31
0.0
  0
LINE
  5
2D0
100
AcDbEntity
  8
0
  6
CONTINUOUS
 62
       7
100
AcDbLine
 10
88.71338113
 20
23.36415043
 30
0.0
 11
103.71338113
 21
23.36415043
 31
0.0
  0
LINE
  5
2D1
100
AcDbEntity
  8
0
  6
CONTINUOUS
 62
       7
100
AcDbLine
 10
94.11338113
 20
43.36415043
 30
0.0
 11
94.11338113
 21
41.36415043
 31
0.0
  0
LINE
  5
2D2
100
AcDbEntity
  8
0
  6
CONTINUOUS
 62
       7
100
AcDbLine
 10
103.71338113
 20
16.36415043
 30
0.0
 11
103.71338113
 21
26.77415043
 31
0.0
  0
POINT
  5
2D3
100
AcDbEntity
  8
0
  6
CONTINUOUS
 62
       7
100
AcDbPoint
 10
-70.11661887
 20
37.36415043
 30
0.0
  0
ARC
  5
2D4
100
AcDbEntity
  8
0
  6
CONTINUOUS
 62
       7
100
AcDbCircle
 10
-58.61666319
 20
21.36419474
 30
0.0
 40
0.50004431
100
AcDbArc
 50
270.00507743
 51
359.99492257
  0
ARC
  5
2D5
100
AcDbEntity
  8
0
  6
CONTINUOUS
 62
       7
100
AcDbCircle
 10
-64.81666168
 20
16.36419323
 30
0.0
 40
0.50004281
100
AcDbArc
 50
270.00490493
 51
359.99509507
  0
ARC
  5
2D6
100
AcDbEntity
  8
0
  6
CONTINUOUS
 62
       7
100
AcDbCircle
 10
-63.81657302
 20
20.36410457
 30
0.0
 40
0.50004586
100
AcDbArc
 50
90.00525458
 51
179.99474542
  0
ARC
  5
2D7
100
AcDbEntity
  8
0
  6
CONTINUOUS
 62
       7
100
AcDbCircle
 10
-58.6132544
 20
16.36521759
 30
0.0
 40
0.49663668
100
AcDbArc
 50
299.77607671
 51
359.87688323
  0
ARC
  5
2D8
100
AcDbEntity
  8
0
  6
CONTINUOUS
 62
       7
100
AcDbCircle
 10
-81.60995857
 20
16.37081073
 30
0.0
 40
0.50670408
100
AcDbArc
 50
180.75313894
 51
269.24686106
  0
LINE
  5
2D9
100
AcDbEntity
  8
0
  6
CONTINUOUS
 62
       2
100
AcDbLine
 10
-58.63661887
 20
32.34415043
 30
0.0
 11
-48.51661887
 21
32.34415043
 31
0.0
  0
LINE
  5
2DA
100
AcDbEntity
  8
0
  6
CONTINUOUS
 62
       2
100
AcDbLine
 10
-58.83661887
 20
42.40415043
 30
0.0
 11
-47.94661887
 21
42.40415043
 31
0.0
  0
LINE
  5
2DB
100
AcDbEntity
  8
0
  6
CONTINUOUS
 62
       7
100
AcDbLine
 10
-59.63661887
 20
16.66415043
 30
0.0
 11
-58.79661887
 21
16.66415043
 31
0.0
  0
LINE
  5
2DC
100
AcDbEntity
  8
0
  6
CONTINUOUS
 62
       7
100
AcDbLine
 10
-58.79661887
 20
16.66415043
 30
0.0
 11
-58.79661887
 21
15.66415043
 31
0.0
  0
LINE
  5
2DD
100
AcDbEntity
  8
0
  6
CONTINUOUS
 62
       7
100
AcDbLine
 10
-59.63661887
 20
16.66415043
 30
0.0
 11
-59.63661887
 21
15.66415043
 31
0.0
  0
LINE
  5
2DE
100
AcDbEntity
  8
0
  6
CONTINUOUS
 62
       7
100
AcDbLine
 10
-63.86661887
 20
15.66415043
 30
0.0
 11
-58.36661887
 21
15.66415043
 31
0.0
  0
LINE
  5
2DF
100
AcDbEntity
  8
0
  6
CONTINUOUS
 62
       7
100
AcDbLine
 10
-58.36661887
 20
20.86415043
 30
0.0
 11
-58.36661887
 21
15.66415043
 31
0.0
  0
LINE
  5
2E0
100
AcDbEntity
  8
0
  6
CONTINUOUS
 62
       7
100
AcDbLine
 10
-63.86661887
 20
20.86415043
 30
0.0
 11
-63.86661887
 21
15.66415043
 31
0.0
  0
LINE
  5
2E1
100
AcDbEntity
  8
0
  6
CONTINUOUS
 62
       7
100
AcDbLine
 10
-82.11661887
 20
23.36415043
 30
0.0
 11
-58.11661887
 21
23.36415043
 31
0.0
  0
LINE
  5
2E2
100
AcDbEntity
  8
0
  6
CONTINUOUS
 62
       7
100
AcDbLine
 10
-64.31661887
 20
20.36415043
 30
0.0
 11
-64.31661887
 21
16.36415043
 31
0.0
  0
LINE
  5
2E3
100
AcDbEntity
  8
0
  6
CONTINUOUS
 62
       7
100
AcDbLine
 10
-63.81661887
 20
20.86415043
 30
0.0
 11
-58.36661887
 21
20.86415043
 31
0.0
  0
LINE
  5
2E4
100
AcDbEntity
  8
0
  6
CONTINUOUS
 62
       7
100
AcDbLine
 10
-81.61661887
 20
15.86415043
 30
0.0
 11
-63.86661887
 21
15.86415043
 31
0.0
  0
LINE
  5
2E5
100
AcDbEntity
  8
0
  6
CONTINUOUS
 62
       7
100
AcDbLine
 10
-50.99661887
 20
36.11415043
 30
0.0
 11
-50.99661887
 21
28.61415043
 31
0.0
  0
LINE
  5
2E6
100
AcDbEntity
  8
0
  6
CONTINUOUS
 62
       7
100
AcDbLine
 10
-50.99661887
 20
28.61415043
 30
0.0
 11
-51.71661887
 21
27.36415043
 31
0.0
  0
LINE
  5
2E7
100
AcDbEntity
  8
0
  6
CONTINUOUS
 62
       7
100
AcDbLine
 10
-51.71661887
 20
37.36415043
 30
0.0
 11
-50.99661887
 21
36.11415043
 31
0.0
  0
LINE
  5
2E8
100
AcDbEntity
  8
0
  6
CONTINUOUS
 62
       7
100
AcDbLine
 10
-50.99661887
 20
36.11415043
 30
0.0
 11
-50.71661887
 21
36.11415043
 31
0.0
  0
LINE
  5
2E9
100
AcDbEntity
  8
0
  6
CONTINUOUS
 62
       7
100
AcDbLine
 10
-50.99661887
 20
28.61415043
 30
0.0
 11
-50.71661887
 21
28.61415043
 31
0.0
  0
LINE
  5
2EA
100
AcDbEntity
  8
0
  6
CONTINUOUS
 62
       7
100
AcDbLine
 10
-51.71661887
 20
37.36415043
 30
0.0
 11
-51.71661887
 21
27.36415043
 31
0.0
  0
LINE
  5
2EB
100
AcDbEntity
  8
0
  6
CONTINUOUS
 62
       7
100
AcDbLine
 10
-58.11661887
 20
37.36415043
 30
0.0
 11
-51.71661887
 21
37.36415043
 31
0.0
  0
LINE
  5
2EC
100
AcDbEntity
  8
0
  6
CONTINUOUS
 62
       7
100
AcDbLine
 10
-58.11661887
 20
27.36415043
 30
0.0
 11
-51.71661887
 21
27.36415043
 31
0.0
  0
LINE
  5
2ED
100
AcDbEntity
  8
0
  6
CONTINUOUS
 62
       7
100
AcDbLine
 10
-50.71661887
 20
36.11415043
 30
0.0
 11
-50.71661887
 21
28.61415043
 31
0.0
  0
LINE
  5
2EE
100
AcDbEntity
  8
0
  6
CONTINUOUS
 62
       7
100
AcDbLine
 10
-50.71661887
 20
34.86415043
 30
0.0
 11
-50.21661887
 21
34.86415043
 31
0.0
  0
LINE
  5
2EF
100
AcDbEntity
  8
0
  6
CONTINUOUS
 62
       7
100
AcDbLine
 10
-50.71661887
 20
29.86415043
 30
0.0
 11
-50.21661887
 21
29.86415043
 31
0.0
  0
LINE
  5
2F0
100
AcDbEntity
  8
0
  6
CONTINUOUS
 62
       7
100
AcDbLine
 10
-50.21661887
 20
37.26415043
 30
0.0
 11
-50.21661887
 21
27.46415043
 31
0.0
  0
LINE
  5
2F1
100
AcDbEntity
  8
0
  6
CONTINUOUS
 62
       7
100
AcDbLine
 10
-50.21661887
 20
27.46415043
 30
0.0
 11
-49.01661887
 21
27.46415043
 31
0.0
  0
LINE
  5
2F2
100
AcDbEntity
  8
0
  6
CONTINUOUS
 62
       7
100
AcDbLine
 10
-50.21661887
 20
37.26415043
 30
0.0
 11
-49.01661887
 21
37.26415043
 31
0.0
  0
LINE
  5
2F3
100
AcDbEntity
  8
0
  6
CONTINUOUS
 62
       7
100
AcDbLine
 10
-49.01661887
 20
37.26415043
 30
0.0
 11
-49.01661887
 21
27.46415043
 31
0.0
  0
LINE
  5
2F4
100
AcDbEntity
  8
0
  6
CONTINUOUS
 62
       7
100
AcDbLine
 10
-50.99661887
 20
46.11415043
 30
0.0
 11
-50.99661887
 21
38.61415043
 31
0.0
  0
LINE
  5
2F5
100
AcDbEntity
  8
0
  6
CONTINUOUS
 62
       7
100
AcDbLine
 10
-50.99661887
 20
38.61415043
 30
0.0
 11
-51.71661887
 21
37.36415043
 31
0.0
  0
LINE
  5
2F6
100
AcDbEntity
  8
0
  6
CONTINUOUS
 62
       7
100
AcDbLine
 10
-51.71661887
 20
47.36415043
 30
0.0
 11
-50.99661887
 21
46.11415043
 31
0.0
  0
LINE
  5
2F7
100
AcDbEntity
  8
0
  6
CONTINUOUS
 62
       7
100
AcDbLine
 10
-50.99661887
 20
46.11415043
 30
0.0
 11
-50.71661887
 21
46.11415043
 31
0.0
  0
LINE
  5
2F8
100
AcDbEntity
  8
0
  6
CONTINUOUS
 62
       7
100
AcDbLine
 10
-50.99661887
 20
38.61415043
 30
0.0
 11
-50.71661887
 21
38.61415043
 31
0.0
  0
LINE
  5
2F9
100
AcDbEntity
  8
0
  6
CONTINUOUS
 62
       7
100
AcDbLine
 10
-51.71661887
 20
47.36415043
 30
0.0
 11
-51.71661887
 21
37.36415043
 31
0.0
  0
LINE
  5
2FA
100
AcDbEntity
  8
0
  6
CONTINUOUS
 62
       7
100
AcDbLine
 10
-58.11661887
 20
47.36415043
 30
0.0
 11
-51.71661887
 21
47.36415043
 31
0.0
  0
LINE
  5
2FB
100
AcDbEntity
  8
0
  6
CONTINUOUS
 62
       7
100
AcDbLine
 10
-58.11661887
 20
37.36415043
 30
0.0
 11
-51.71661887
 21
37.36415043
 31
0.0
  0
LINE
  5
2FC
100
AcDbEntity
  8
0
  6
CONTINUOUS
 62
       7
100
AcDbLine
 10
-50.71661887
 20
46.11415043
 30
0.0
 11
-50.71661887
 21
38.61415043
 31
0.0
  0
LINE
  5
2FD
100
AcDbEntity
  8
0
  6
CONTINUOUS
 62
       7
100
AcDbLine
 10
-50.71661887
 20
44.86415043
 30
0.0
 11
-50.21661887
 21
44.86415043
 31
0.0
  0
LINE
  5
2FE
100
AcDbEntity
  8
0
  6
CONTINUOUS
 62
       7
100
AcDbLine
 10
-50.71661887
 20
39.86415043
 30
0.0
 11
-50.21661887
 21
39.86415043
 31
0.0
  0
LINE
  5
2FF
100
AcDbEntity
  8
0
  6
CONTINUOUS
 62
       7
100
AcDbLine
 10
-50.21661887
 20
47.26415043
 30
0.0
 11
-50.21661887
 21
37.46415043
 31
0.0
  0
LINE
  5
300
100
AcDbEntity
  8
0
  6
CONTINUOUS
 62
       7
100
AcDbLine
 10
-50.21661887
 20
37.46415043
 30
0.0
 11
-49.01661887
 21
37.46415043
 31
0.0
  0
LINE
  5
301
100
AcDbEntity
  8
0
  6
CONTINUOUS
 62
       7
100
AcDbLine
 10
-50.21661887
 20
47.26415043
 30
0.0
 11
-49.01661887
 21
47.26415043
 31
0.0
  0
LINE
  5
302
100
AcDbEntity
  8
0
  6
CONTINUOUS
 62
       7
100
AcDbLine
 10
-49.01661887
 20
47.26415043
 30
0.0
 11
-49.01661887
 21
37.46415043
 31
0.0
  0
LINE
  5
303
100
AcDbEntity
  8
0
  6
CONTINUOUS
 62
       7
100
AcDbLine
 10
-61.11661887
 20
48.18415043
 30
0.0
 11
-61.11661887
 21
44.55415043
 31
0.0
  0
LINE
  5
304
100
AcDbEntity
  8
0
  6
CONTINUOUS
 62
       7
100
AcDbLine
 10
-61.11661887
 20
44.55415043
 30
0.0
 11
-58.11661887
 21
44.55415043
 31
0.0
  0
LINE
  5
305
100
AcDbEntity
  8
0
  6
CONTINUOUS
 62
       7
100
AcDbLine
 10
-61.11661887
 20
48.18415043
 30
0.0
 11
-58.11661887
 21
48.18415043
 31
0.0
  0
LINE
  5
306
100
AcDbEntity
  8
0
  6
DASHED
 62
       7
100
AcDbLine
 10
-72.21661887
 20
62.36415043
 30
0.0
 11
-72.21661887
 21
57.86415043
 31
0.0
  0
LINE
  5
307
100
AcDbEntity
  8
0
  6
DASHED
 62
       7
100
AcDbLine
 10
-68.01661887
 20
62.36415043
 30
0.0
 11
-68.01661887
 21
57.86415043
 31
0.0
  0
LINE
  5
308
100
AcDbEntity
  8
0
  6
DASHED
 62
       2
100
AcDbLine
 10
-72.61661887
 20
62.36415043
 30
0.0
 11
-72.61661887
 21
57.86415043
 31
0.0
  0
LINE
  5
309
100
AcDbEntity
  8
0
  6
DASHED
 62
       2
100
AcDbLine
 10
-67.61661887
 20
62.36415043
 30
0.0
 11
-67.61661887
 21
57.86415043
 31
0.0
  0
LINE
  5
30A
100
AcDbEntity
  8
0
  6
CONTINUOUS
 62
       7
100
AcDbLine
 10
-82.11661887
 20
51.36415043
 30
0.0
 11
-58.11661887
 21
51.36415043
 31
0.0
  0
LINE
  5
30B
100
AcDbEntity
  8
0
  6
CONTINUOUS
 62
       7
100
AcDbLine
 10
-82.11661887
 20
62.36415043
 30
0.0
 11
-58.11661887
 21
62.36415043
 31
0.0
  0
LINE
  5
30C
100
AcDbEntity
  8
0
  6
CONTINUOUS
 62
       7
100
AcDbLine
 10
-82.11661887
 20
16.36415043
 30
0.0
 11
-82.11661887
 21
62.36415043
 31
0.0
  0
LINE
  5
30D
100
AcDbEntity
  8
0
  6
CONTINUOUS
 62
       7
100
AcDbLine
 10
-58.11661887
 20
16.36415043
 30
0.0
 11
-58.11661887
 21
62.36415043
 31
0.0
  0
LINE
  5
30E
100
AcDbEntity
  8
0
  6
CONTINUOUS
 62
       7
100
AcDbLine
 10
-60.51661887
 20
48.17415043
 30
0.0
 11
-60.51661887
 21
44.54415043
 31
0.0
  0
ARC
  5
30F
100
AcDbEntity
  8
0
  6
CONTINUOUS
 62
       7
100
AcDbCircle
 10
-64.81663308
 20
46.35915043
 30
0.0
 40
6.00821845
100
AcDbArc
 50
343.81230862
 51
16.18769138
  0
MTEXT
  5
310
100
AcDbEntity
  8
0
  6
CONTINUOUS
 62
       7
100
AcDbMText
 10
-185.40153631
 20
107.6000061
 30
0.0
 40
4.0500001
 41
0.0
 71
       4
 72
       1
  1
\T1.098;\W1.259;\A1;MODEL:110M4F\P      Stn.1～4:110-4A-J42
  0
LINE
  5
311
100
AcDbEntity
  8
0
  6
CONTINUOUS
 62
       7
100
AcDbLine
 10
-194.25
 20
132.6000061
 30
0.0
 11
194.80000305
 21
132.6000061
 31
0.0
  0
LINE
  5
312
100
AcDbEntity
  8
0
  6
CONTINUOUS
 62
       7
100
AcDbLine
 10
194.80000305
 20
132.6000061
 30
0.0
 11
194.80000305
 21
-133.5
 31
0.0
  0
LINE
  5
313
100
AcDbEntity
  8
0
  6
CONTINUOUS
 62
       7
100
AcDbLine
 10
-194.25
 20
132.6000061
 30
0.0
 11
-194.25
 21
-133.5
 31
0.0
  0
LINE
  5
314
100
AcDbEntity
  8
0
  6
CONTINUOUS
 62
       7
100
AcDbLine
 10
-194.25
 20
-133.5
 30
0.0
 11
194.80000305
 21
-133.5
 31
0.0
  0
ENDSEC
  0
SECTION
  2
OBJECTS
  0
DICTIONARY
  5
19
100
AcDbDictionary
  3
ACAD_GROUP
350
1A
  3
ACAD_MLINESTYLE
350
1B
  0
DICTIONARY
  5
1A
102
{ACAD_REACTORS
330
19
102
}
100
AcDbDictionary
  0
DICTIONARY
  5
1B
102
{ACAD_REACTORS
330
19
102
}
100
AcDbDictionary
  3
STANDARD
350
1C
  0
MLINESTYLE
  5
1C
102
{ACAD_REACTORS
330
1B
102
}
100
AcDbMlineStyle
  2
Standard
 70
       0
  3

 62
       0
 51
90.0
 52
90.0
 71
       2
 49
0.5
 62
     256
  6
ByLayer
 49
-0.5
 62
     256
  6
ByLayer
  0
ENDSEC
  0
EOF
