  0
SECTION
  2
HEADER
  9
$ACADVER
  1
AC1002
  9
$INSBASE
 10
0.0
 20
0.0
  9
$EXTMIN
 10
-185.4368
 20
-127.2792
  9
$EXTMAX
 10
185.4368
 20
127.2792
  9
$LIMMIN
 10
0.0
 20
0.0
  9
$LIMMAX
 10
12.0
 20
9.0
  9
$VIEWCTR
 10
14.30458208
 20
0.0
  9
$VIEWSIZE
 40
254.5584
  9
$SNAPMODE
 70
     0
  9
$SNAPUNIT
 10
1.0
 20
1.0
  9
$SNAPBASE
 10
0.0
 20
0.0
  9
$SNAPANG
 50
0.0
  9
$SNAPSTYLE
 70
     0
  9
$SNAPISOPAIR
 70
     0
  9
$GRIDMODE
 70
     0
  9
$GRIDUNIT
 10
0.0
 20
0.0
  9
$ORTHOMODE
 70
     0
  9
$REGENMODE
 70
     1
  9
$FILLMODE
 70
     1
  9
$QTEXTMODE
 70
     0
  9
$DRAGMODE
 70
     2
  9
$LTSCALE
 40
1.0
  9
$OSMODE
 70
     0
  9
$ATTMODE
 70
     1
  9
$TEXTSIZE
 40
0.2
  9
$TRACEWID
 40
0.05
  9
$TEXTSTYLE
  7
AAA
  9
$CLAYER
  8
0
  9
$CELTYPE
  6
BYLAYER
  9
$CECOLOR
 62
   256
  9
$DIMSCALE
 40
1.0
  9
$DIMASZ
 40
0.18
  9
$DIMEXO
 40
0.0625
  9
$DIMDLI
 40
0.38
  9
$DIMRND
 40
0.0
  9
$DIMDLE
 40
0.0
  9
$DIMEXE
 40
0.18
  9
$DIMTP
 40
0.0
  9
$DIMTM
 40
0.0
  9
$DIMTXT
 40
0.18
  9
$DIMCEN
 40
0.09
  9
$DIMTSZ
 40
0.0
  9
$DIMTOL
 70
     0
  9
$DIMLIM
 70
     0
  9
$DIMTIH
 70
     1
  9
$DIMTOH
 70
     1
  9
$DIMSE1
 70
     0
  9
$DIMSE2
 70
     0
  9
$DIMTAD
 70
     0
  9
$DIMZIN
 70
     0
  9
$DIMBLK
  1

  9
$LUNITS
 70
     2
  9
$LUPREC
 70
     4
  9
$AXISMODE
 70
     0
  9
$AXISUNIT
 10
0.0
 20
0.0
  9
$SKETCHINC
 40
0.1
  9
$FILLETRAD
 40
0.0
  9
$AUNITS
 70
     0
  9
$AUPREC
 70
     0
  9
$MENU
  1
ACAD
  9
$ELEVATION
 40
0.0
  9
$THICKNESS
 40
0.0
  9
$VIEWDIR
 10
0.0
 20
0.0
 30
1.0
  9
$LIMCHECK
 70
     0
  9
$BLIPMODE
 70
     1
  9
$CHAMFERA
 40
0.0
  9
$CHAMFERB
 40
0.0
  9
$FASTZOOM
 70
     1
  9
$SKPOLY
 70
     0
  9
$TDCREATE
 40
2447863.3767593085
  9
$TDUPDATE
 40
2447863.3767593085
  9
$TDINDWG
 40
0.0077314815
  9
$TDUSRTIMER
 40
0.0077314815
  9
$USRTIMER
 70
     1
  9
$ANGBASE
 50
0.0
  9
$ANGDIR
 70
     0
  9
$PDMODE
 70
     0
  9
$PDSIZE
 40
0.0
  9
$PLINEWID
 40
0.0
  9
$COORDS
 70
     0
  9
$USERI1
 70
     0
  9
$USERI2
 70
     0
  9
$USERI3
 70
     0
  9
$USERI4
 70
     0
  9
$USERI5
 70
     0
  9
$USERR1
 40
0.0
  9
$USERR2
 40
0.0
  9
$USERR3
 40
0.0
  9
$USERR4
 40
0.0
  9
$USERR5
 40
0.0
  0
ENDSEC
  0
SECTION
  2
TABLES
  0
TABLE
  2
LTYPE
 70
     3
  0
LTYPE
  2
CONTINUOUS
 70
    64
  3
SOLID
 72
    65
 73
     0
 40
0.0
  0
LTYPE
  2
CENTER
 70
    64
  3
CENTER
 72
    65
 73
     4
 40
2.0
 49
1.25
 49
-0.25
 49
0.25
 49
-0.25
  0
LTYPE
  2
PHANTOM
 70
    64
  3
PHANTOM
 72
    65
 73
     6
 40
2.5
 49
1.25
 49
-0.25
 49
0.25
 49
-0.25
 49
0.25
 49
-0.25
  0
ENDTAB
  0
TABLE
  2
LAYER
 70
     1
  0
LAYER
  2
0
 70
    64
 62
     7
  6
CONTINUOUS
  0
ENDTAB
  0
TABLE
  2
STYLE
 70
     2
  0
STYLE
  2
AAA
 70
     0
 40
0.0
 41
1.0
 50
0.0
 71
     0
 42
0.2
  3
TXT
  4

  0
STYLE
  2
STANDARD
 70
    64
 40
0.0
 41
1.0
 50
0.0
 71
     0
 42
0.2
  3
TXT
  4
BIGFONT
  0
ENDTAB
  0
TABLE
  2
VIEW
 70
     0
  0
ENDTAB
  0
ENDSEC
  0
SECTION
  2
BLOCKS
  0
ENDSEC
  0
SECTION
  2
ENTITIES
  0
POINT
  8
0
  6
CONTINUOUS
 62
     7
 10
-100.0
 20
-10.0
  0
POINT
  8
0
  6
CONTINUOUS
 62
     7
 10
-101.0
 20
-34.49999
  0
POINT
  8
0
  6
CONTINUOUS
 62
     7
 10
-108.5
 20
-9.0
  0
POINT
  8
0
  6
CONTINUOUS
 62
     7
 10
-105.5
 20
-19.0
  0
POINT
  8
0
  6
CONTINUOUS
 62
     7
 10
-1.0
 20
-10.0
  0
POINT
  8
0
  6
CONTINUOUS
 62
     7
 10
-25.0
 20
-10.0
  0
POINT
  8
0
  6
CONTINUOUS
 62
     7
 10
-3.99999
 20
-34.49999
  0
POINT
  8
0
  6
CONTINUOUS
 62
     7
 10
-25.0
 20
-10.0
  0
POINT
  8
0
  6
CONTINUOUS
 62
     7
 10
-1.0
 20
8.5
  0
POINT
  8
0
  6
CONTINUOUS
 62
     7
 10
85.0
 20
-10.0
  0
POINT
  8
0
  6
CONTINUOUS
 62
     7
 10
98.0
 20
-10.0
  0
POINT
  8
0
  6
CONTINUOUS
 62
     7
 10
86.0
 20
-34.49999
  0
POINT
  8
0
  6
CONTINUOUS
 62
     7
 10
93.5
 20
-14.0
  0
POINT
  8
0
  6
CONTINUOUS
 62
     7
 10
85.0
 20
-10.0
  0
POINT
  8
0
  6
CONTINUOUS
 62
     7
 10
90.5
 20
8.5
  0
POINT
  8
0
  6
CONTINUOUS
 62
     7
 10
-25.0
 20
80.0
  0
POINT
  8
0
  6
CONTINUOUS
 62
     7
 10
-1.0
 20
80.0
  0
POINT
  8
0
  6
CONTINUOUS
 62
     7
 10
-4.00005
 20
81.0
  0
POINT
  8
0
  6
CONTINUOUS
 62
     7
 10
-25.0
 20
-80.0
  0
POINT
  8
0
  6
CONTINUOUS
 62
     7
 10
-1.0
 20
-80.0
  0
POINT
  8
0
  6
CONTINUOUS
 62
     7
 10
-4.0
 20
-81.0
  0
POINT
  8
0
  6
CONTINUOUS
 62
     7
 10
-1.0
 20
-85.5
  0
LINE
  8
0
  6
CONTINUOUS
 62
     7
 10
-185.4368
 20
-127.2792
 11
-185.4368
 21
127.2792
  0
LINE
  8
0
  6
CONTINUOUS
 62
     7
 10
185.4368
 20
127.2792
 11
185.4368
 21
-127.2792
  0
LINE
  8
0
  6
CONTINUOUS
 62
     7
 10
-185.4368
 20
-127.2792
 11
185.4368
 21
-127.2792
  0
LINE
  8
0
  6
CONTINUOUS
 62
     7
 10
-185.4368
 20
127.2792
 11
185.4368
 21
127.2792
  0
LINE
  8
0
  6
CONTINUOUS
 62
     7
 10
-185.4368
 20
112.9782
 11
-109.1646
 21
112.9782
  0
LINE
  8
0
  6
CONTINUOUS
 62
     7
 10
-109.1646
 20
112.9782
 11
-109.1646
 21
127.2792
  0
LINE
  8
0
  6
CONTINUOUS
 62
     7
 10
109.1646
 20
-112.9782
 11
185.4368
 21
-112.9782
  0
LINE
  8
0
  6
CONTINUOUS
 62
     7
 10
129.1908
 20
-116.4169
 11
136.5177
 21
-116.4169
  0
LINE
  8
0
  6
CONTINUOUS
 62
     7
 10
129.1908
 20
-122.9143
 11
135.4118
 21
-122.9143
  0
LINE
  8
0
  6
CONTINUOUS
 62
     7
 10
129.1908
 20
-124.5732
 11
137.6237
 21
-124.5732
  0
LINE
  8
0
  6
CONTINUOUS
 62
     7
 10
129.1908
 20
-118.0758
 11
135.4118
 21
-118.0758
  0
LINE
  8
0
  6
CONTINUOUS
 62
     7
 10
129.1908
 20
-116.4169
 11
129.1908
 21
-118.0758
  0
LINE
  8
0
  6
CONTINUOUS
 62
     7
 10
137.6237
 20
-117.5228
 11
137.6237
 21
-124.5732
  0
LINE
  8
0
  6
CONTINUOUS
 62
     7
 10
135.4118
 20
-118.0758
 11
135.4118
 21
-122.9143
  0
LINE
  8
0
  6
CONTINUOUS
 62
     7
 10
138.8678
 20
-116.4169
 11
138.8678
 21
-118.0758
  0
LINE
  8
0
  6
CONTINUOUS
 62
     7
 10
146.7477
 20
-118.0758
 11
146.7477
 21
-123.4673
  0
LINE
  8
0
  6
CONTINUOUS
 62
     7
 10
144.5358
 20
-118.0758
 11
144.5358
 21
-122.9143
  0
LINE
  8
0
  6
CONTINUOUS
 62
     7
 10
129.1908
 20
-122.9143
 11
129.1908
 21
-124.5732
  0
LINE
  8
0
  6
CONTINUOUS
 62
     7
 10
138.8678
 20
-116.4169
 11
141.0533
 21
-116.4169
  0
LINE
  8
0
  6
CONTINUOUS
 62
     7
 10
138.8678
 20
-124.5732
 11
140.5853
 21
-124.5732
  0
LINE
  8
0
  6
CONTINUOUS
 62
     7
 10
138.8677
 20
-124.5732
 11
140.6088
 21
-118.0757
  0
LINE
  8
0
  6
CONTINUOUS
 62
     7
 10
138.8678
 20
-118.0758
 11
140.6088
 21
-118.0758
  0
LINE
  8
0
  6
CONTINUOUS
 62
     7
 10
140.5854
 20
-124.5734
 11
142.3264
 21
-118.0759
  0
LINE
  8
0
  6
CONTINUOUS
 62
     7
 10
142.8769
 20
-122.9143
 11
144.5358
 21
-122.9143
  0
LINE
  8
0
  6
CONTINUOUS
 62
     7
 10
142.8769
 20
-122.9143
 11
143.3214
 21
-124.5732
  0
LINE
  8
0
  6
CONTINUOUS
 62
     7
 10
143.3214
 20
-124.5732
 11
145.6418
 21
-124.5732
  0
LINE
  8
0
  6
CONTINUOUS
 62
     7
 10
142.3263
 20
-118.0758
 11
144.5358
 21
-118.0758
  0
LINE
  8
0
  6
CONTINUOUS
 62
     7
 10
142.7708
 20
-116.4169
 11
145.0888
 21
-116.4169
  0
LINE
  8
0
  6
CONTINUOUS
 62
     7
 10
141.0534
 20
-116.4169
 11
141.3831
 21
-115.1866
  0
LINE
  8
0
  6
CONTINUOUS
 62
     7
 10
142.7707
 20
-116.4168
 11
143.1003
 21
-115.1864
  0
LINE
  8
0
  6
CONTINUOUS
 62
     7
 10
148.1301
 20
-116.4169
 11
150.7568
 21
-116.4169
  0
LINE
  8
0
  6
CONTINUOUS
 62
     7
 10
148.1301
 20
-118.0758
 11
154.581
 21
-118.0758
  0
LINE
  8
0
  6
CONTINUOUS
 62
     7
 10
150.7568
 20
-124.5732
 11
152.9686
 21
-124.5732
  0
LINE
  8
0
  6
CONTINUOUS
 62
     7
 10
148.1301
 20
-116.4169
 11
148.1301
 21
-118.0758
  0
LINE
  8
0
  6
CONTINUOUS
 62
     7
 10
156.2865
 20
-121.0839
 11
156.2865
 21
-122.9143
  0
LINE
  8
0
  6
CONTINUOUS
 62
     7
 10
148.13
 20
-122.9142
 11
150.7567
 21
-121.6894
  0
LINE
  8
0
  6
CONTINUOUS
 62
     7
 10
148.1303
 20
-121.0841
 11
154.5812
 21
-118.0759
  0
LINE
  8
0
  6
CONTINUOUS
 62
     7
 10
148.1301
 20
-121.0839
 11
148.1301
 21
-122.9143
  0
LINE
  8
0
  6
CONTINUOUS
 62
     7
 10
152.9686
 20
-121.3672
 11
156.2865
 21
-122.9143
  0
LINE
  8
0
  6
CONTINUOUS
 62
     7
 10
154.1712
 20
-120.0975
 11
156.2867
 21
-121.084
  0
LINE
  8
0
  6
CONTINUOUS
 62
     7
 10
156.2865
 20
-117.5228
 11
156.2865
 21
-118.4064
  0
LINE
  8
0
  6
CONTINUOUS
 62
     7
 10
150.7568
 20
-115.1865
 11
150.7568
 21
-116.4169
  0
LINE
  8
0
  6
CONTINUOUS
 62
     7
 10
152.9686
 20
-115.1865
 11
152.9686
 21
-116.4169
  0
LINE
  8
0
  6
CONTINUOUS
 62
     7
 10
152.9686
 20
-116.4169
 11
155.1806
 21
-116.4169
  0
LINE
  8
0
  6
CONTINUOUS
 62
     7
 10
150.7568
 20
-121.6895
 11
150.7568
 21
-124.5732
  0
LINE
  8
0
  6
CONTINUOUS
 62
     7
 10
152.9686
 20
-121.3672
 11
152.9686
 21
-124.5732
  0
LINE
  8
0
  6
CONTINUOUS
 62
     7
 10
154.1712
 20
-120.0976
 11
155.6482
 21
-119.4089
  0
LINE
  8
0
  6
CONTINUOUS
 62
     7
 10
163.7517
 20
-115.6842
 11
165.4106
 21
-115.6842
  0
LINE
  8
0
  6
CONTINUOUS
 62
     7
 10
156.9777
 20
-119.1109
 11
156.9777
 21
-120.8962
  0
LINE
  8
0
  6
CONTINUOUS
 62
     7
 10
165.4106
 20
-115.6842
 11
165.4106
 21
-116.4169
  0
LINE
  8
0
  6
CONTINUOUS
 62
     7
 10
163.7517
 20
-115.6842
 11
163.7517
 21
-116.0417
  0
LINE
  8
0
  6
CONTINUOUS
 62
     7
 10
161.5397
 20
-119.0819
 11
161.5397
 21
-124.5732
  0
LINE
  8
0
  6
CONTINUOUS
 62
     7
 10
156.9778
 20
-119.111
 11
163.4031
 21
-116.5556
  0
LINE
  8
0
  6
CONTINUOUS
 62
     7
 10
156.9778
 20
-120.8963
 11
161.5398
 21
-119.0819
  0
LINE
  8
0
  6
CONTINUOUS
 62
     7
 10
161.5397
 20
-124.5732
 11
163.7517
 21
-124.5732
  0
LINE
  8
0
  6
CONTINUOUS
 62
     7
 10
163.7517
 20
-118.2022
 11
163.7517
 21
-124.5732
  0
LINE
  8
0
  6
CONTINUOUS
 62
     7
 10
163.7518
 20
-118.2023
 11
164.3649
 21
-117.9584
  0
LINE
  8
0
  6
CONTINUOUS
 62
     7
 10
141.2497
 20
-115.1865
 11
143.1004
 21
-115.1865
  0
LINE
  8
0
  6
CONTINUOUS
 62
     7
 10
145.8491
 20
-115.1865
 11
146.5541
 21
-115.1865
  0
LINE
  8
0
  6
CONTINUOUS
 62
     7
 10
150.7568
 20
-115.1865
 11
152.9686
 21
-115.1865
  0
LINE
  8
0
  6
CONTINUOUS
 62
     7
 10
145.8491
 20
-116.2925
 11
146.5541
 21
-116.2925
  0
LINE
  8
0
  6
CONTINUOUS
 62
     7
 10
145.8491
 20
-115.1865
 11
145.8491
 21
-116.2925
  0
LINE
  8
0
  6
CONTINUOUS
 62
     7
 10
146.5541
 20
-115.1865
 11
146.5541
 21
-116.2925
  0
LINE
  8
0
  6
CONTINUOUS
 62
     7
 10
146.9689
 20
-115.1865
 11
146.9689
 21
-116.2925
  0
LINE
  8
0
  6
CONTINUOUS
 62
     7
 10
147.7569
 20
-115.1865
 11
147.7569
 21
-116.2925
  0
LINE
  8
0
  6
CONTINUOUS
 62
     7
 10
146.9689
 20
-115.1865
 11
147.7569
 21
-115.1865
  0
LINE
  8
0
  6
CONTINUOUS
 62
     7
 10
146.9689
 20
-116.2925
 11
147.7569
 21
-116.2925
  0
LINE
  8
0
  6
CONTINUOUS
 62
     7
 10
109.1646
 20
112.9782
 11
185.4368
 21
112.9782
  0
LINE
  8
0
  6
CONTINUOUS
 62
     7
 10
109.1646
 20
127.2792
 11
109.1646
 21
112.9782
  0
LINE
  8
0
  6
CONTINUOUS
 62
     7
 10
109.1646
 20
-112.9782
 11
109.1646
 21
-127.2792
  0
LINE
  8
0
  6
CENTER
 62
     2
 10
11.81416
 20
85.5
 11
-27.0
 21
85.5
  0
LINE
  8
0
  6
CENTER
 62
     2
 10
24.0
 20
84.20001
 11
-3.99999
 21
84.20001
  0
LINE
  8
0
  6
CONTINUOUS
 62
     7
 10
11.0
 20
85.04999
 11
6.65588
 21
85.04999
  0
LINE
  8
0
  6
CONTINUOUS
 62
     7
 10
11.0
 20
83.35001
 11
6.20036
 21
83.35001
  0
LINE
  8
0
  6
CONTINUOUS
 62
     7
 10
21.0
 20
84.51999
 11
11.0
 21
84.51999
  0
LINE
  8
0
  6
CONTINUOUS
 62
     7
 10
21.0
 20
83.88
 11
11.0
 21
83.88
  0
LINE
  8
0
  6
CONTINUOUS
 62
     7
 10
11.0
 20
83.35001
 11
11.0
 21
85.05002
  0
LINE
  8
0
  6
CONTINUOUS
 62
     7
 10
21.0
 20
83.88
 11
21.0
 21
84.52002
  0
LINE
  8
0
  6
CENTER
 62
     2
 10
23.89096
 20
86.79999
 11
-3.99999
 21
86.79999
  0
LINE
  8
0
  6
CONTINUOUS
 62
     7
 10
11.0
 20
87.64999
 11
7.35255
 21
87.64999
  0
LINE
  8
0
  6
CONTINUOUS
 62
     7
 10
11.0
 20
85.95
 11
6.89703
 21
85.95
  0
LINE
  8
0
  6
CONTINUOUS
 62
     7
 10
21.0
 20
87.12
 11
11.0
 21
87.12
  0
LINE
  8
0
  6
CONTINUOUS
 62
     7
 10
21.0
 20
86.48
 11
11.0
 21
86.48
  0
LINE
  8
0
  6
CONTINUOUS
 62
     7
 10
11.0
 20
85.95001
 11
11.0
 21
87.64999
  0
LINE
  8
0
  6
CONTINUOUS
 62
     7
 10
21.0
 20
86.48001
 11
21.0
 21
87.12001
  0
LINE
  8
0
  6
PHANTOM
 62
     2
 10
6.33555
 20
89.64998
 11
4.11157
 21
81.34998
  0
LINE
  8
0
  6
PHANTOM
 62
     2
 10
7.88845
 20
89.64999
 11
5.66447
 21
81.35001
  0
LINE
  8
0
  6
CONTINUOUS
 62
     7
 10
5.79964
 20
87.64999
 11
1.0
 21
87.64999
  0
LINE
  8
0
  6
CONTINUOUS
 62
     7
 10
5.34412
 20
85.95
 11
1.0
 21
85.95
  0
LINE
  8
0
  6
CONTINUOUS
 62
     7
 10
5.10297
 20
85.04999
 11
1.0
 21
85.04999
  0
LINE
  8
0
  6
CONTINUOUS
 62
     7
 10
4.64745
 20
83.35001
 11
1.0
 21
83.35001
  0
LINE
  8
0
  6
CONTINUOUS
 62
     7
 10
-0.98418
 20
88.47595
 11
0.51582
 21
88.47595
  0
LINE
  8
0
  6
CONTINUOUS
 62
     7
 10
1.01582
 20
87.97595
 11
1.01582
 21
82.97595
  0
LINE
  8
0
  6
CONTINUOUS
 62
     7
 10
-0.98418
 20
82.47595
 11
0.51582
 21
82.47595
  0
LINE
  8
0
  6
CENTER
 62
     2
 10
-13.00005
 20
75.55165
 11
-13.00005
 21
95.48779
  0
LINE
  8
0
  6
CONTINUOUS
 62
     7
 10
-4.00005
 20
84.0
 11
-1.00005
 21
84.0
  0
LINE
  8
0
  6
CONTINUOUS
 62
     7
 10
-22.00005
 20
87.0
 11
-25.00005
 21
87.0
  0
LINE
  8
0
  6
CONTINUOUS
 62
     7
 10
-19.00005
 20
90.0
 11
-19.00005
 21
93.0
  0
LINE
  8
0
  6
CONTINUOUS
 62
     7
 10
-7.00005
 20
81.0
 11
-7.00005
 21
78.0
  0
LINE
  8
0
  6
CONTINUOUS
 62
     7
 10
-24.00005
 20
87.0
 11
-24.00005
 21
79.0
  0
LINE
  8
0
  6
CONTINUOUS
 62
     7
 10
-2.00005
 20
92.0
 11
-2.00005
 21
84.0
  0
LINE
  8
0
  6
CONTINUOUS
 62
     7
 10
-19.00005
 20
92.0
 11
-2.00005
 21
92.0
  0
LINE
  8
0
  6
CONTINUOUS
 62
     7
 10
-24.00005
 20
79.0
 11
-7.00005
 21
79.0
  0
LINE
  8
0
  6
CONTINUOUS
 62
     7
 10
-3.70004
 20
78.7701
 11
-3.70004
 21
78.46771
  0
LINE
  8
0
  6
CONTINUOUS
 62
     7
 10
-4.30004
 20
78.7701
 11
-4.30004
 21
78.46771
  0
LINE
  8
0
  6
CONTINUOUS
 62
     7
 10
-4.46081
 20
78.49197
 11
-4.46081
 21
78.79769
  0
LINE
  8
0
  6
CONTINUOUS
 62
     7
 10
-22.30004
 20
92.22991
 11
-22.30004
 21
92.5323
  0
LINE
  8
0
  6
CONTINUOUS
 62
     7
 10
-21.70004
 20
92.2299
 11
-21.70004
 21
92.53229
  0
LINE
  8
0
  6
CONTINUOUS
 62
     7
 10
-21.53928
 20
92.50802
 11
-21.53928
 21
92.20231
  0
LINE
  8
0
  6
CONTINUOUS
 62
     7
 10
-5.10313
 20
80.26462
 11
-4.73543
 21
80.63232
  0
LINE
  8
0
  6
CONTINUOUS
 62
     7
 10
-4.73544
 20
79.89693
 11
-4.36774
 21
80.26463
  0
LINE
  8
0
  6
CONTINUOUS
 62
     7
 10
-5.10312
 20
80.26463
 11
-4.73542
 21
79.89693
  0
LINE
  8
0
  6
CONTINUOUS
 62
     7
 10
-3.26464
 20
82.10311
 11
-2.89694
 21
81.73542
  0
LINE
  8
0
  6
CONTINUOUS
 62
     7
 10
-5.76421
 20
82.39651
 11
-4.73542
 21
81.36772
  0
LINE
  8
0
  6
CONTINUOUS
 62
     7
 10
-5.39652
 20
82.7642
 11
-4.36773
 21
81.73541
  0
LINE
  8
0
  6
CONTINUOUS
 62
     7
 10
-3.63234
 20
81.7354
 11
-3.26465
 21
82.1031
  0
LINE
  8
0
  6
CONTINUOUS
 62
     7
 10
-3.26465
 20
81.36771
 11
-2.89695
 21
81.7354
  0
LINE
  8
0
  6
CONTINUOUS
 62
     7
 10
-3.63234
 20
80.26463
 11
-2.60355
 21
79.23585
  0
LINE
  8
0
  6
CONTINUOUS
 62
     7
 10
-3.26465
 20
80.63232
 11
-2.23586
 21
79.60354
  0
LINE
  8
0
  6
CONTINUOUS
 62
     7
 10
-23.10315
 20
89.26463
 11
-22.73545
 21
89.63232
  0
LINE
  8
0
  6
CONTINUOUS
 62
     7
 10
-22.73545
 20
88.89693
 11
-22.36776
 21
89.26462
  0
LINE
  8
0
  6
CONTINUOUS
 62
     7
 10
-23.10313
 20
89.26462
 11
-22.73543
 21
88.89693
  0
LINE
  8
0
  6
CONTINUOUS
 62
     7
 10
-21.26465
 20
91.1031
 11
-20.89695
 21
90.73541
  0
LINE
  8
0
  6
CONTINUOUS
 62
     7
 10
-23.76422
 20
91.3965
 11
-22.73543
 21
90.36771
  0
LINE
  8
0
  6
CONTINUOUS
 62
     7
 10
-23.39652
 20
91.7642
 11
-22.36773
 21
90.73541
  0
LINE
  8
0
  6
CONTINUOUS
 62
     7
 10
-21.63236
 20
90.73541
 11
-21.26467
 21
91.1031
  0
LINE
  8
0
  6
CONTINUOUS
 62
     7
 10
-21.26468
 20
90.36771
 11
-20.89698
 21
90.7354
  0
LINE
  8
0
  6
CONTINUOUS
 62
     7
 10
-21.63234
 20
89.26463
 11
-20.60356
 21
88.23584
  0
LINE
  8
0
  6
CONTINUOUS
 62
     7
 10
-21.26464
 20
89.63232
 11
-20.23585
 21
88.60353
  0
LINE
  8
0
  6
CENTER
 62
     2
 10
-4.00005
 20
85.0
 11
-4.00005
 21
77.0
  0
LINE
  8
0
  6
CENTER
 62
     2
 10
-22.00005
 20
94.0
 11
-22.00005
 21
86.0
  0
LINE
  8
0
  6
CENTER
 62
     2
 10
-26.00005
 20
90.0
 11
-18.00005
 21
90.0
  0
LINE
  8
0
  6
CENTER
 62
     2
 10
-8.00005
 20
81.0
 11
-0.00005
 21
81.0
  0
LINE
  8
0
  6
CONTINUOUS
 62
     7
 10
-25.00005
 20
92.5
 11
-25.00005
 21
78.5
  0
LINE
  8
0
  6
CONTINUOUS
 62
     7
 10
-24.50005
 20
93.0
 11
-1.00005
 21
93.0
  0
LINE
  8
0
  6
CONTINUOUS
 62
     7
 10
-24.50005
 20
78.0
 11
-1.00005
 21
78.0
  0
LINE
  8
0
  6
CONTINUOUS
 62
     7
 10
-1.00005
 20
93.0
 11
-1.00005
 21
78.0
  0
LINE
  8
0
  6
CONTINUOUS
 62
     7
 10
-25.0
 20
-5.0
 11
-1.0
 21
-5.0
  0
LINE
  8
0
  6
CENTER
 62
     2
 10
-12.99999
 20
43.00001
 11
-12.99999
 21
-38.16395
  0
LINE
  8
0
  6
CONTINUOUS
 62
     7
 10
-24.49999
 20
-34.49999
 11
-6.74999
 21
-34.49999
  0
LINE
  8
0
  6
CONTINUOUS
 62
     7
 10
-6.69999
 20
-29.49999
 11
-1.24999
 21
-29.49999
  0
LINE
  8
0
  6
CENTER
 62
     2
 10
-3.99999
 20
-27.69999
 11
-3.99999
 21
-37.14999
  0
LINE
  8
0
  6
CONTINUOUS
 62
     7
 10
-7.19999
 20
-29.99999
 11
-7.19999
 21
-33.99999
  0
LINE
  8
0
  6
CONTINUOUS
 62
     7
 10
-24.99999
 20
-26.99999
 11
-0.99999
 21
-26.99999
  0
LINE
  8
0
  6
CENTER
 62
     2
 10
-5.41594
 20
-10.0
 11
0.26862
 21
-10.0
  0
LINE
  8
0
  6
CONTINUOUS
 62
     7
 10
-4.0
 20
-8.18616
 11
-1.0
 21
-8.18616
  0
LINE
  8
0
  6
CONTINUOUS
 62
     7
 10
-3.99999
 20
-11.81383
 11
-0.99999
 21
-11.81383
  0
LINE
  8
0
  6
CONTINUOUS
 62
     7
 10
-3.99999
 20
-8.18616
 11
-3.99999
 21
-11.81383
  0
LINE
  8
0
  6
CENTER
 62
     2
 10
-9.5
 20
-8.99999
 11
-4.5
 21
-8.99999
  0
LINE
  8
0
  6
CENTER
 62
     2
 10
-9.49999
 20
-22.99999
 11
-4.49999
 21
-22.99999
  0
LINE
  8
0
  6
CENTER
 62
     2
 10
-6.99999
 20
-20.49999
 11
-6.99999
 21
-25.49999
  0
LINE
  8
0
  6
CENTER
 62
     2
 10
-6.99999
 20
-6.49999
 11
-6.99999
 21
-11.49999
  0
LINE
  8
0
  6
CONTINUOUS
 62
     7
 10
-6.74999
 20
-29.49999
 11
-6.74999
 21
-34.69999
  0
LINE
  8
0
  6
CONTINUOUS
 62
     7
 10
-1.24999
 20
-29.49999
 11
-1.24999
 21
-34.69999
  0
LINE
  8
0
  6
CONTINUOUS
 62
     7
 10
-6.74999
 20
-34.69999
 11
-1.24999
 21
-34.69999
  0
LINE
  8
0
  6
CONTINUOUS
 62
     7
 10
-25.0
 20
38.2
 11
-25.0
 21
-34.0
  0
LINE
  8
0
  6
CONTINUOUS
 62
     7
 10
-1.0
 20
38.2
 11
-1.0
 21
-34.0
  0
LINE
  8
0
  6
CONTINUOUS
 62
     7
 10
-2.52656
 20
-33.69999
 11
-2.52656
 21
-34.69999
  0
LINE
  8
0
  6
CONTINUOUS
 62
     7
 10
-1.67804
 20
-33.69999
 11
-1.67804
 21
-34.69999
  0
LINE
  8
0
  6
CONTINUOUS
 62
     7
 10
-2.52656
 20
-33.69999
 11
-1.67804
 21
-33.69999
  0
LINE
  8
0
  6
CONTINUOUS
 62
     7
 10
-25.0
 20
37.2
 11
-1.0
 21
37.2
  0
LINE
  8
0
  6
CONTINUOUS
 62
     7
 10
-25.0
 20
12.0
 11
-1.0
 21
12.0
  0
LINE
  8
0
  6
CONTINUOUS
 62
     7
 10
-24.0
 20
40.2
 11
-5.82577
 21
40.2
  0
LINE
  8
0
  6
CONTINUOUS
 62
     7
 10
-25.0
 20
38.2
 11
-1.0
 21
38.2
  0
LINE
  8
0
  6
CONTINUOUS
 62
     7
 10
-24.99999
 20
38.2
 11
-23.99999
 21
40.2
  0
LINE
  8
0
  6
CONTINUOUS
 62
     7
 10
-1.00002
 20
38.19999
 11
-2.00002
 21
40.19999
  0
LINE
  8
0
  6
CONTINUOUS
 62
     7
 10
-7.0
 20
40.2
 11
-7.0
 21
38.2
  0
LINE
  8
0
  6
CENTER
 62
     2
 10
-4.0
 20
43.2
 11
-4.0
 21
34.2
  0
LINE
  8
0
  6
CONTINUOUS
 62
     7
 10
-1.45
 20
38.8
 11
-6.55
 21
38.8
  0
LINE
  8
0
  6
CONTINUOUS
 62
     7
 10
-4.30001
 20
38.2
 11
-4.46078
 21
38.79999
  0
LINE
  8
0
  6
CONTINUOUS
 62
     7
 10
-3.69993
 20
38.80001
 11
-3.53916
 21
38.20002
  0
LINE
  8
0
  6
CONTINUOUS
 62
     7
 10
-1.45
 20
38.8
 11
-1.45
 21
38.2
  0
LINE
  8
0
  6
CONTINUOUS
 62
     7
 10
-6.55
 20
38.8
 11
-6.55
 21
38.2
  0
LINE
  8
0
  6
CONTINUOUS
 62
     7
 10
-1.74997
 20
39.49374
 11
-1.74997
 21
38.8
  0
LINE
  8
0
  6
CONTINUOUS
 62
     7
 10
-6.24997
 20
39.49374
 11
-6.24997
 21
38.8
  0
LINE
  8
0
  6
CONTINUOUS
 62
     7
 10
-2.17423
 20
40.2
 11
-2.0
 21
40.2
  0
LINE
  8
0
  6
CENTER
 62
     2
 10
-22.0
 20
43.2
 11
-22.0
 21
34.2
  0
LINE
  8
0
  6
CENTER
 62
     2
 10
24.0
 20
30.0
 11
-3.99999
 21
30.0
  0
LINE
  8
0
  6
CONTINUOUS
 62
     7
 10
11.0
 20
30.85
 11
7.00422
 21
30.85
  0
LINE
  8
0
  6
CONTINUOUS
 62
     7
 10
11.0
 20
29.15
 11
6.5487
 21
29.15
  0
LINE
  8
0
  6
CONTINUOUS
 62
     7
 10
21.0
 20
30.32
 11
11.0
 21
30.32
  0
LINE
  8
0
  6
CONTINUOUS
 62
     7
 10
21.0
 20
29.68
 11
11.0
 21
29.68
  0
LINE
  8
0
  6
CONTINUOUS
 62
     7
 10
11.0
 20
29.15
 11
11.0
 21
30.85
  0
LINE
  8
0
  6
CONTINUOUS
 62
     7
 10
21.0
 20
29.68
 11
21.0
 21
30.32
  0
LINE
  8
0
  6
PHANTOM
 62
     2
 10
7.54012
 20
32.85
 11
6.01281
 21
27.14999
  0
LINE
  8
0
  6
PHANTOM
 62
     2
 10
5.9872
 20
32.85
 11
4.45989
 21
27.15001
  0
LINE
  8
0
  6
CONTINUOUS
 62
     7
 10
5.4513
 20
30.85
 11
1.0
 21
30.85
  0
LINE
  8
0
  6
CONTINUOUS
 62
     7
 10
4.99579
 20
29.15
 11
1.0
 21
29.15
  0
LINE
  8
0
  6
CONTINUOUS
 62
     7
 10
0.5
 20
31.7
 11
-1.0
 21
31.7
  0
LINE
  8
0
  6
CONTINUOUS
 62
     7
 10
1.0
 20
28.8
 11
1.0
 21
31.2
  0
LINE
  8
0
  6
CONTINUOUS
 62
     7
 10
0.5
 20
28.3
 11
-1.0
 21
28.3
  0
LINE
  8
0
  6
CONTINUOUS
 62
     7
 10
-113.0
 20
-5.0
 11
-98.0
 21
-5.0
  0
LINE
  8
0
  6
CENTER
 62
     2
 10
-105.5
 20
42.83404
 11
-105.5
 21
-37.85138
  0
LINE
  8
0
  6
CONTINUOUS
 62
     7
 10
-107.25
 20
-34.49999
 11
-98.49999
 21
-34.49999
  0
LINE
  8
0
  6
CONTINUOUS
 62
     7
 10
-112.75
 20
-29.49999
 11
-107.25
 21
-29.49999
  0
LINE
  8
0
  6
CENTER
 62
     2
 10
-110.0
 20
-28.15
 11
-110.0
 21
-36.49852
  0
LINE
  8
0
  6
CONTINUOUS
 62
     7
 10
-106.8
 20
-29.99999
 11
-106.8
 21
-33.99999
  0
LINE
  8
0
  6
CONTINUOUS
 62
     7
 10
-113.0
 20
-26.99999
 11
-98.0
 21
-26.99999
  0
LINE
  8
0
  6
CONTINUOUS
 62
     7
 10
-112.75
 20
-29.49999
 11
-112.75
 21
-34.69999
  0
LINE
  8
0
  6
CONTINUOUS
 62
     7
 10
-107.25
 20
-29.49999
 11
-107.25
 21
-34.69999
  0
LINE
  8
0
  6
CONTINUOUS
 62
     7
 10
-112.75
 20
-34.69999
 11
-107.25
 21
-34.69999
  0
LINE
  8
0
  6
CENTER
 62
     2
 10
-108.5
 20
-5.5
 11
-108.5
 21
-12.5
  0
LINE
  8
0
  6
CENTER
 62
     2
 10
-111.0
 20
-19.5
 11
-111.0
 21
-24.5
  0
LINE
  8
0
  6
CENTER
 62
     2
 10
-100.0
 20
-7.5
 11
-100.0
 21
-12.5
  0
LINE
  8
0
  6
CENTER
 62
     2
 10
-113.5
 20
-22.0
 11
-108.5
 21
-22.0
  0
LINE
  8
0
  6
CENTER
 62
     2
 10
-102.5
 20
-10.0
 11
-97.5
 21
-10.0
  0
LINE
  8
0
  6
CENTER
 62
     2
 10
-112.0
 20
-9.0
 11
-105.0
 21
-9.0
  0
LINE
  8
0
  6
CENTER
 62
     2
 10
-109.0
 20
-19.0
 11
-102.0
 21
-19.0
  0
LINE
  8
0
  6
CENTER
 62
     2
 10
-109.0
 20
3.7
 11
-102.0
 21
3.7
  0
LINE
  8
0
  6
CONTINUOUS
 62
     7
 10
-106.9142
 20
5.11421
 11
-104.0858
 21
2.28579
  0
LINE
  8
0
  6
CONTINUOUS
 62
     7
 10
-106.0177
 20
5.63184
 11
-103.5682
 21
3.18235
  0
LINE
  8
0
  6
CONTINUOUS
 62
     7
 10
-107.4319
 20
4.21763
 11
-104.9824
 21
1.76814
  0
LINE
  8
0
  6
CONTINUOUS
 62
     7
 10
-106.9142
 20
2.2858
 11
-104.0858
 21
5.11423
  0
LINE
  8
0
  6
CONTINUOUS
 62
     7
 10
-106.0176
 20
1.76815
 11
-103.5682
 21
4.21763
  0
LINE
  8
0
  6
CONTINUOUS
 62
     7
 10
-107.4319
 20
3.18237
 11
-104.9824
 21
5.63186
  0
LINE
  8
0
  6
CONTINUOUS
 62
     7
 10
-112.322
 20
-33.69999
 11
-112.322
 21
-34.69999
  0
LINE
  8
0
  6
CONTINUOUS
 62
     7
 10
-111.4735
 20
-33.69999
 11
-111.4735
 21
-34.69999
  0
LINE
  8
0
  6
CONTINUOUS
 62
     7
 10
-112.322
 20
-33.69999
 11
-111.4735
 21
-33.69999
  0
LINE
  8
0
  6
CONTINUOUS
 62
     7
 10
-113.0
 20
12.0
 11
-98.00001
 21
12.0
  0
LINE
  8
0
  6
CONTINUOUS
 62
     7
 10
-107.0
 20
40.2
 11
-107.0
 21
38.19999
  0
LINE
  8
0
  6
CONTINUOUS
 62
     7
 10
-112.0
 20
34.2
 11
-99.00001
 21
34.2
  0
LINE
  8
0
  6
CONTINUOUS
 62
     7
 10
-112.0
 20
30.2
 11
-99.00001
 21
30.2
  0
LINE
  8
0
  6
CONTINUOUS
 62
     7
 10
-99.0
 20
34.2
 11
-99.0
 21
30.2
  0
LINE
  8
0
  6
CONTINUOUS
 62
     7
 10
-112.0
 20
34.2
 11
-112.0
 21
30.2
  0
LINE
  8
0
  6
CONTINUOUS
 62
     7
 10
-111.2879
 20
33.30678
 11
-108.9463
 21
33.30678
  0
LINE
  8
0
  6
CONTINUOUS
 62
     7
 10
-111.2879
 20
31.23019
 11
-109.2997
 21
31.23019
  0
LINE
  8
0
  6
CONTINUOUS
 62
     7
 10
-111.2879
 20
30.7
 11
-108.5928
 21
30.7
  0
LINE
  8
0
  6
CONTINUOUS
 62
     7
 10
-111.2879
 20
32.77659
 11
-109.2997
 21
32.77659
  0
LINE
  8
0
  6
CONTINUOUS
 62
     7
 10
-111.2879
 20
33.30678
 11
-111.2879
 21
32.77659
  0
LINE
  8
0
  6
CONTINUOUS
 62
     7
 10
-108.5928
 20
32.95332
 11
-108.5928
 21
30.7
  0
LINE
  8
0
  6
CONTINUOUS
 62
     7
 10
-109.2997
 20
32.77659
 11
-109.2997
 21
31.23018
  0
LINE
  8
0
  6
CONTINUOUS
 62
     7
 10
-108.1951
 20
33.30678
 11
-108.1951
 21
32.77659
  0
LINE
  8
0
  6
CONTINUOUS
 62
     7
 10
-105.6767
 20
32.77659
 11
-105.6767
 21
31.05345
  0
LINE
  8
0
  6
CONTINUOUS
 62
     7
 10
-106.3837
 20
32.77659
 11
-106.3837
 21
31.23019
  0
LINE
  8
0
  6
CONTINUOUS
 62
     7
 10
-111.2879
 20
31.23018
 11
-111.2879
 21
30.7
  0
LINE
  8
0
  6
CONTINUOUS
 62
     7
 10
-108.1952
 20
33.30678
 11
-107.4967
 21
33.30678
  0
LINE
  8
0
  6
CONTINUOUS
 62
     7
 10
-108.1952
 20
30.7
 11
-107.6463
 21
30.7
  0
LINE
  8
0
  6
CONTINUOUS
 62
     7
 10
-108.1951
 20
30.69998
 11
-107.6386
 21
32.77657
  0
LINE
  8
0
  6
CONTINUOUS
 62
     7
 10
-108.1952
 20
32.77659
 11
-107.6387
 21
32.77659
  0
LINE
  8
0
  6
CONTINUOUS
 62
     7
 10
-107.6463
 20
30.69999
 11
-107.0899
 21
32.77657
  0
LINE
  8
0
  6
CONTINUOUS
 62
     7
 10
-106.9139
 20
31.23019
 11
-106.3837
 21
31.23019
  0
LINE
  8
0
  6
CONTINUOUS
 62
     7
 10
-106.9139
 20
31.23017
 11
-106.7718
 21
30.69999
  0
LINE
  8
0
  6
CONTINUOUS
 62
     7
 10
-106.7718
 20
30.7
 11
-106.0302
 21
30.7
  0
LINE
  8
0
  6
CONTINUOUS
 62
     7
 10
-107.0898
 20
32.77659
 11
-106.3837
 21
32.77659
  0
LINE
  8
0
  6
CONTINUOUS
 62
     7
 10
-106.9478
 20
33.30678
 11
-106.2069
 21
33.30678
  0
LINE
  8
0
  6
CONTINUOUS
 62
     7
 10
-107.4966
 20
33.30676
 11
-107.3913
 21
33.69997
  0
LINE
  8
0
  6
CONTINUOUS
 62
     7
 10
-106.9477
 20
33.30678
 11
-106.8424
 21
33.70001
  0
LINE
  8
0
  6
CONTINUOUS
 62
     7
 10
-105.2349
 20
33.30678
 11
-104.3954
 21
33.30678
  0
LINE
  8
0
  6
CONTINUOUS
 62
     7
 10
-105.2349
 20
32.77659
 11
-103.1732
 21
32.77659
  0
LINE
  8
0
  6
CONTINUOUS
 62
     7
 10
-104.3954
 20
30.7
 11
-103.6885
 21
30.7
  0
LINE
  8
0
  6
CONTINUOUS
 62
     7
 10
-105.2349
 20
33.30678
 11
-105.2349
 21
32.77659
  0
LINE
  8
0
  6
CONTINUOUS
 62
     7
 10
-102.6281
 20
31.81519
 11
-102.6281
 21
31.23019
  0
LINE
  8
0
  6
CONTINUOUS
 62
     7
 10
-105.2349
 20
31.23013
 11
-104.3954
 21
31.62159
  0
LINE
  8
0
  6
CONTINUOUS
 62
     7
 10
-105.2349
 20
31.81515
 11
-103.1732
 21
32.77655
  0
LINE
  8
0
  6
CONTINUOUS
 62
     7
 10
-105.2349
 20
31.81519
 11
-105.2349
 21
31.23019
  0
LINE
  8
0
  6
CONTINUOUS
 62
     7
 10
-103.6886
 20
31.72468
 11
-102.6282
 21
31.23021
  0
LINE
  8
0
  6
CONTINUOUS
 62
     7
 10
-103.3042
 20
32.13044
 11
-102.6281
 21
31.81517
  0
LINE
  8
0
  6
CONTINUOUS
 62
     7
 10
-102.6281
 20
32.95332
 11
-102.6281
 21
32.67093
  0
LINE
  8
0
  6
CONTINUOUS
 62
     7
 10
-104.3954
 20
33.7
 11
-104.3954
 21
33.30678
  0
LINE
  8
0
  6
CONTINUOUS
 62
     7
 10
-103.6885
 20
33.7
 11
-103.6885
 21
33.30678
  0
LINE
  8
0
  6
CONTINUOUS
 62
     7
 10
-103.6885
 20
33.30678
 11
-102.9816
 21
33.30678
  0
LINE
  8
0
  6
CONTINUOUS
 62
     7
 10
-104.3954
 20
31.62164
 11
-104.3954
 21
30.7
  0
LINE
  8
0
  6
CONTINUOUS
 62
     7
 10
-103.6885
 20
31.72465
 11
-103.6885
 21
30.7
  0
LINE
  8
0
  6
CONTINUOUS
 62
     7
 10
-103.3041
 20
32.13036
 11
-102.8321
 21
32.35046
  0
LINE
  8
0
  6
CONTINUOUS
 62
     7
 10
-100.2423
 20
33.54094
 11
-99.71207
 21
33.54094
  0
LINE
  8
0
  6
CONTINUOUS
 62
     7
 10
-102.4072
 20
32.44575
 11
-102.4072
 21
31.87517
  0
LINE
  8
0
  6
CONTINUOUS
 62
     7
 10
-99.71207
 20
33.54094
 11
-99.71207
 21
33.30678
  0
LINE
  8
0
  6
CONTINUOUS
 62
     7
 10
-100.2423
 20
33.54094
 11
-100.2423
 21
33.42669
  0
LINE
  8
0
  6
CONTINUOUS
 62
     7
 10
-100.9492
 20
32.45504
 11
-100.9492
 21
30.7
  0
LINE
  8
0
  6
CONTINUOUS
 62
     7
 10
-102.4072
 20
32.44573
 11
-100.3536
 21
33.26245
  0
LINE
  8
0
  6
CONTINUOUS
 62
     7
 10
-102.4072
 20
31.87521
 11
-100.9492
 21
32.45509
  0
LINE
  8
0
  6
CONTINUOUS
 62
     7
 10
-100.9492
 20
30.7
 11
-100.2423
 21
30.7
  0
LINE
  8
0
  6
CONTINUOUS
 62
     7
 10
-100.2423
 20
32.73618
 11
-100.2423
 21
30.7
  0
LINE
  8
0
  6
CONTINUOUS
 62
     7
 10
-100.2422
 20
32.7361
 11
-100.0463
 21
32.81403
  0
LINE
  8
0
  6
CONTINUOUS
 62
     7
 10
-107.3913
 20
33.7
 11
-106.8424
 21
33.7
  0
LINE
  8
0
  6
CONTINUOUS
 62
     7
 10
-105.9639
 20
33.7
 11
-105.7379
 21
33.7
  0
LINE
  8
0
  6
CONTINUOUS
 62
     7
 10
-104.3954
 20
33.7
 11
-103.6885
 21
33.7
  0
LINE
  8
0
  6
CONTINUOUS
 62
     7
 10
-105.9639
 20
33.34653
 11
-105.7379
 21
33.34653
  0
LINE
  8
0
  6
CONTINUOUS
 62
     7
 10
-105.9639
 20
33.7
 11
-105.9639
 21
33.34653
  0
LINE
  8
0
  6
CONTINUOUS
 62
     7
 10
-105.7379
 20
33.7
 11
-105.7379
 21
33.34653
  0
LINE
  8
0
  6
CONTINUOUS
 62
     7
 10
-105.5802
 20
33.7
 11
-105.5802
 21
33.34653
  0
LINE
  8
0
  6
CONTINUOUS
 62
     7
 10
-105.3542
 20
33.7
 11
-105.3542
 21
33.34653
  0
LINE
  8
0
  6
CONTINUOUS
 62
     7
 10
-105.5802
 20
33.7
 11
-105.3542
 21
33.7
  0
LINE
  8
0
  6
CONTINUOUS
 62
     7
 10
-105.5802
 20
33.34653
 11
-105.3542
 21
33.34653
  0
LINE
  8
0
  6
CONTINUOUS
 62
     7
 10
-113.0
 20
38.19999
 11
-112.0
 21
40.19999
  0
LINE
  8
0
  6
CONTINUOUS
 62
     7
 10
-112.25
 20
39.49373
 11
-112.25
 21
38.79998
  0
LINE
  8
0
  6
CENTER
 62
     2
 10
-110.0
 20
43.2
 11
-110.0
 21
35.2
  0
LINE
  8
0
  6
CONTINUOUS
 62
     7
 10
-112.0
 20
40.2
 11
-111.8258
 21
40.2
  0
LINE
  8
0
  6
CONTINUOUS
 62
     7
 10
-107.75
 20
39.49374
 11
-107.75
 21
38.79999
  0
LINE
  8
0
  6
CONTINUOUS
 62
     7
 10
-108.1743
 20
40.2
 11
-99.00001
 21
40.2
  0
LINE
  8
0
  6
CENTER
 62
     2
 10
-101.0
 20
43.2
 11
-101.0
 21
35.2
  0
LINE
  8
0
  6
CONTINUOUS
 62
     7
 10
-98.0
 20
38.20002
 11
-99.0
 21
40.20002
  0
LINE
  8
0
  6
CONTINUOUS
 62
     7
 10
-113.0
 20
38.19999
 11
-98.00001
 21
38.19999
  0
LINE
  8
0
  6
CONTINUOUS
 62
     7
 10
-113.0
 20
37.2
 11
-98.00001
 21
37.2
  0
LINE
  8
0
  6
CONTINUOUS
 62
     7
 10
-107.45
 20
38.79999
 11
-112.55
 21
38.79999
  0
LINE
  8
0
  6
CONTINUOUS
 62
     7
 10
-107.45
 20
38.79999
 11
-107.45
 21
38.19999
  0
LINE
  8
0
  6
CONTINUOUS
 62
     7
 10
-112.55
 20
38.79999
 11
-112.55
 21
38.19999
  0
LINE
  8
0
  6
CONTINUOUS
 62
     7
 10
-98.0
 20
38.20002
 11
-98.0
 21
-33.99999
  0
LINE
  8
0
  6
CONTINUOUS
 62
     7
 10
-113.0
 20
38.1999
 11
-113.0
 21
-33.99999
  0
LINE
  8
0
  6
CONTINUOUS
 62
     7
 10
83.0
 20
-5.0
 11
98.0
 21
-5.0
  0
LINE
  8
0
  6
CENTER
 62
     2
 10
90.5
 20
42.89976
 11
90.5
 21
-37.85138
  0
LINE
  8
0
  6
CENTER
 62
     2
 10
88.11505
 20
8.5
 11
92.96165
 21
8.5
  0
LINE
  8
0
  6
CONTINUOUS
 62
     7
 10
88.75
 20
-34.49999
 11
97.5
 21
-34.49999
  0
LINE
  8
0
  6
CONTINUOUS
 62
     7
 10
83.25
 20
-29.49999
 11
88.75
 21
-29.49999
  0
LINE
  8
0
  6
CENTER
 62
     2
 10
86.0
 20
-28.14999
 11
86.0
 21
-36.49852
  0
LINE
  8
0
  6
CONTINUOUS
 62
     7
 10
89.2
 20
-29.99999
 11
89.2
 21
-33.99999
  0
LINE
  8
0
  6
CENTER
 62
     2
 10
82.42921
 20
-10.0
 11
88.53806
 21
-10.0
  0
LINE
  8
0
  6
CENTER
 62
     2
 10
96.0
 20
-18.473
 11
96.0
 21
-25.41017
  0
LINE
  8
0
  6
CENTER
 62
     2
 10
85.0
 20
-6.56062
 11
85.0
 21
-13.34248
  0
LINE
  8
0
  6
CONTINUOUS
 62
     7
 10
83.0
 20
-26.99999
 11
98.0
 21
-26.99999
  0
LINE
  8
0
  6
CENTER
 62
     2
 10
93.5
 20
-10.5
 11
93.5
 21
-17.5
  0
LINE
  8
0
  6
CENTER
 62
     2
 10
90.0
 20
-14.0
 11
97.0
 21
-14.0
  0
LINE
  8
0
  6
CONTINUOUS
 62
     7
 10
83.25
 20
-29.49999
 11
83.25
 21
-34.69999
  0
LINE
  8
0
  6
CONTINUOUS
 62
     7
 10
88.75
 20
-29.49999
 11
88.75
 21
-34.69999
  0
LINE
  8
0
  6
CONTINUOUS
 62
     7
 10
83.25
 20
-34.69999
 11
88.75
 21
-34.69999
  0
LINE
  8
0
  6
CONTINUOUS
 62
     7
 10
83.0
 20
38.19999
 11
83.0
 21
-33.99999
  0
LINE
  8
0
  6
CONTINUOUS
 62
     7
 10
98.0
 20
38.19999
 11
98.0
 21
-33.99999
  0
LINE
  8
0
  6
CONTINUOUS
 62
     7
 10
83.67799
 20
-33.69999
 11
83.67799
 21
-34.69999
  0
LINE
  8
0
  6
CONTINUOUS
 62
     7
 10
84.52649
 20
-33.69999
 11
84.52649
 21
-34.69999
  0
LINE
  8
0
  6
CONTINUOUS
 62
     7
 10
83.67799
 20
-33.69999
 11
84.52649
 21
-33.69999
  0
LINE
  8
0
  6
CONTINUOUS
 62
     7
 10
83.0
 20
37.2
 11
98.0
 21
37.2
  0
LINE
  8
0
  6
CONTINUOUS
 62
     7
 10
83.0
 20
12.0
 11
98.0
 21
12.0
  0
LINE
  8
0
  6
CONTINUOUS
 62
     7
 10
83.0
 20
38.19999
 11
98.0
 21
38.19999
  0
LINE
  8
0
  6
CONTINUOUS
 62
     7
 10
84.0
 20
40.2
 11
84.17426
 21
40.2
  0
LINE
  8
0
  6
CONTINUOUS
 62
     7
 10
97.99995
 20
38.19998
 11
96.99995
 21
40.19998
  0
LINE
  8
0
  6
CONTINUOUS
 62
     7
 10
82.99999
 20
38.20001
 11
83.99999
 21
40.20001
  0
LINE
  8
0
  6
CENTER
 62
     2
 10
86.0
 20
43.2
 11
86.0
 21
34.2
  0
LINE
  8
0
  6
CONTINUOUS
 62
     7
 10
88.55
 20
38.79999
 11
83.45
 21
38.79999
  0
LINE
  8
0
  6
CONTINUOUS
 62
     7
 10
83.45
 20
38.79999
 11
83.45
 21
38.19999
  0
LINE
  8
0
  6
CONTINUOUS
 62
     7
 10
83.75002
 20
39.49373
 11
83.75002
 21
38.79998
  0
LINE
  8
0
  6
CONTINUOUS
 62
     7
 10
87.82574
 20
40.2
 11
97.0
 21
40.2
  0
LINE
  8
0
  6
CENTER
 62
     2
 10
95.0
 20
43.2
 11
95.0
 21
34.2
  0
LINE
  8
0
  6
CONTINUOUS
 62
     7
 10
88.55
 20
38.79999
 11
88.55
 21
38.19999
  0
LINE
  8
0
  6
CONTINUOUS
 62
     7
 10
88.25
 20
39.49374
 11
88.25
 21
38.79999
  0
LINE
  8
0
  6
CONTINUOUS
 62
     7
 10
89.0
 20
40.2
 11
89.0
 21
38.19999
  0
LINE
  8
0
  6
CENTER
 62
     2
 10
89.2
 20
33.0
 11
89.2
 21
27.0
  0
LINE
  8
0
  6
CENTER
 62
     2
 10
91.8
 20
33.0
 11
91.8
 21
27.0
  0
LINE
  8
0
  6
CENTER
 62
     2
 10
86.5
 20
30.0
 11
94.5
 21
30.0
  0
LINE
  8
0
  6
CENTER
 62
     2
 10
89.7681
 20
-21.99999
 11
98.58142
 21
-21.99999
  0
LINE
  8
0
  6
CONTINUOUS
 62
     7
 10
89.2
 20
31.7
 11
91.8
 21
31.7
  0
LINE
  8
0
  6
CONTINUOUS
 62
     7
 10
89.2
 20
28.3
 11
91.8
 21
28.3
  0
LINE
  8
0
  6
CENTER
 62
     2
 10
-22.0
 20
-85.20453
 11
-22.0
 21
-94.74829
  0
LINE
  8
0
  6
CENTER
 62
     2
 10
-17.65585
 20
-90.0
 11
-26.90363
 21
-90.0
  0
LINE
  8
0
  6
CONTINUOUS
 62
     7
 10
-7.2
 20
-78.0
 11
-7.2
 21
-81.0
  0
LINE
  8
0
  6
CONTINUOUS
 62
     7
 10
-18.80003
 20
-90.0
 11
-18.80003
 21
-93.0
  0
LINE
  8
0
  6
CONTINUOUS
 62
     7
 10
-4.0
 20
-84.19998
 11
-1.0
 21
-84.19998
  0
LINE
  8
0
  6
CONTINUOUS
 62
     7
 10
-22.0
 20
-86.80002
 11
-25.0
 21
-86.80002
  0
LINE
  8
0
  6
CENTER
 62
     2
 10
-4.0
 20
-76.50049
 11
-4.0
 21
-85.74828
  0
LINE
  8
0
  6
CENTER
 62
     2
 10
0.34415
 20
-81.0
 11
-8.90364
 21
-81.0
  0
LINE
  8
0
  6
CONTINUOUS
 62
     7
 10
-1.67802
 20
-79.52663
 11
-2.96082
 21
-80.80942
  0
LINE
  8
0
  6
CONTINUOUS
 62
     7
 10
-2.52655
 20
-78.67812
 11
-3.80935
 21
-79.96091
  0
LINE
  8
0
  6
CONTINUOUS
 62
     7
 10
-19.67801
 20
-88.52659
 11
-20.96082
 21
-89.80939
  0
LINE
  8
0
  6
CONTINUOUS
 62
     7
 10
-20.52659
 20
-87.67805
 11
-21.80939
 21
-88.96084
  0
LINE
  8
0
  6
CONTINUOUS
 62
     7
 10
-5.03914
 20
-81.19064
 11
-6.32195
 21
-82.47345
  0
LINE
  8
0
  6
CONTINUOUS
 62
     7
 10
-4.19062
 20
-82.0392
 11
-5.47342
 21
-83.322
  0
LINE
  8
0
  6
CONTINUOUS
 62
     7
 10
-23.03917
 20
-90.19058
 11
-24.32197
 21
-91.4734
  0
LINE
  8
0
  6
CONTINUOUS
 62
     7
 10
-22.1906
 20
-91.03919
 11
-23.4734
 21
-92.32201
  0
LINE
  8
0
  6
CENTER
 62
     2
 10
-13.00002
 20
-76.5
 11
-13.00002
 21
-94.5
  0
LINE
  8
0
  6
CENTER
 62
     2
 10
11.81416
 20
-85.5
 11
-27.0
 21
-85.5
  0
LINE
  8
0
  6
CONTINUOUS
 62
     7
 10
-11.0
 20
-79.0
 11
-11.0
 21
-92.0
  0
LINE
  8
0
  6
CONTINUOUS
 62
     7
 10
-15.0
 20
-79.0
 11
-15.0
 21
-92.0
  0
LINE
  8
0
  6
CONTINUOUS
 62
     7
 10
-11.0
 20
-92.0
 11
-15.0
 21
-92.0
  0
LINE
  8
0
  6
CONTINUOUS
 62
     7
 10
-11.0
 20
-79.0
 11
-15.0
 21
-79.0
  0
LINE
  8
0
  6
CONTINUOUS
 62
     7
 10
-11.89322
 20
-79.71207
 11
-11.89322
 21
-82.05374
  0
LINE
  8
0
  6
CONTINUOUS
 62
     7
 10
-13.96982
 20
-79.71207
 11
-13.96982
 21
-81.70029
  0
LINE
  8
0
  6
CONTINUOUS
 62
     7
 10
-14.5
 20
-79.71207
 11
-14.5
 21
-82.40723
  0
LINE
  8
0
  6
CONTINUOUS
 62
     7
 10
-12.42342
 20
-79.71207
 11
-12.42342
 21
-81.70029
  0
LINE
  8
0
  6
CONTINUOUS
 62
     7
 10
-11.89322
 20
-79.71207
 11
-12.42342
 21
-79.71207
  0
LINE
  8
0
  6
CONTINUOUS
 62
     7
 10
-12.24669
 20
-82.40723
 11
-14.5
 21
-82.40723
  0
LINE
  8
0
  6
CONTINUOUS
 62
     7
 10
-12.42342
 20
-81.70029
 11
-13.96982
 21
-81.70029
  0
LINE
  8
0
  6
CONTINUOUS
 62
     7
 10
-11.89322
 20
-82.80486
 11
-12.42342
 21
-82.80486
  0
LINE
  8
0
  6
CONTINUOUS
 62
     7
 10
-12.42342
 20
-85.32327
 11
-14.14655
 21
-85.32327
  0
LINE
  8
0
  6
CONTINUOUS
 62
     7
 10
-12.42342
 20
-84.61635
 11
-13.96982
 21
-84.61635
  0
LINE
  8
0
  6
CONTINUOUS
 62
     7
 10
-13.96982
 20
-79.71207
 11
-14.5
 21
-79.71207
  0
LINE
  8
0
  6
CONTINUOUS
 62
     7
 10
-11.89322
 20
-82.80486
 11
-11.89322
 21
-83.50334
  0
LINE
  8
0
  6
CONTINUOUS
 62
     7
 10
-14.5
 20
-82.80486
 11
-14.5
 21
-83.35376
  0
LINE
  8
0
  6
CONTINUOUS
 62
     7
 10
-14.50002
 20
-82.80488
 11
-12.42344
 21
-83.36132
  0
LINE
  8
0
  6
CONTINUOUS
 62
     7
 10
-12.42342
 20
-82.80486
 11
-12.42342
 21
-83.36128
  0
LINE
  8
0
  6
CONTINUOUS
 62
     7
 10
-14.50004
 20
-83.35383
 11
-12.42347
 21
-83.91024
  0
LINE
  8
0
  6
CONTINUOUS
 62
     7
 10
-13.96982
 20
-84.08615
 11
-13.96982
 21
-84.61635
  0
LINE
  8
0
  6
CONTINUOUS
 62
     7
 10
-13.96982
 20
-84.08615
 11
-14.50001
 21
-84.22821
  0
LINE
  8
0
  6
CONTINUOUS
 62
     7
 10
-14.5
 20
-84.22823
 11
-14.5
 21
-84.96982
  0
LINE
  8
0
  6
CONTINUOUS
 62
     7
 10
-12.42342
 20
-83.91017
 11
-12.42342
 21
-84.61635
  0
LINE
  8
0
  6
CONTINUOUS
 62
     7
 10
-11.89322
 20
-84.05225
 11
-11.89322
 21
-84.79306
  0
LINE
  8
0
  6
CONTINUOUS
 62
     7
 10
-11.89324
 20
-83.50346
 11
-11.50003
 21
-83.60883
  0
LINE
  8
0
  6
CONTINUOUS
 62
     7
 10
-11.8932
 20
-84.05224
 11
-11.49997
 21
-84.15759
  0
LINE
  8
0
  6
CONTINUOUS
 62
     7
 10
-11.89322
 20
-85.76509
 11
-11.89322
 21
-86.60457
  0
LINE
  8
0
  6
CONTINUOUS
 62
     7
 10
-12.42342
 20
-85.76509
 11
-12.42342
 21
-87.82681
  0
LINE
  8
0
  6
CONTINUOUS
 62
     7
 10
-14.5
 20
-86.60457
 11
-14.5
 21
-87.31149
  0
LINE
  8
0
  6
CONTINUOUS
 62
     7
 10
-11.89322
 20
-85.76509
 11
-12.42342
 21
-85.76509
  0
LINE
  8
0
  6
CONTINUOUS
 62
     7
 10
-13.38481
 20
-88.37187
 11
-13.96982
 21
-88.37187
  0
LINE
  8
0
  6
CONTINUOUS
 62
     7
 10
-13.96983
 20
-85.76511
 11
-13.57838
 21
-86.60458
  0
LINE
  8
0
  6
CONTINUOUS
 62
     7
 10
-13.38485
 20
-85.76514
 11
-12.42346
 21
-87.82685
  0
LINE
  8
0
  6
CONTINUOUS
 62
     7
 10
-13.38481
 20
-85.76509
 11
-13.96982
 21
-85.76509
  0
LINE
  8
0
  6
CONTINUOUS
 62
     7
 10
-13.47533
 20
-87.31146
 11
-13.9698
 21
-88.37189
  0
LINE
  8
0
  6
CONTINUOUS
 62
     7
 10
-13.06964
 20
-87.69579
 11
-13.38492
 21
-88.37191
  0
LINE
  8
0
  6
CONTINUOUS
 62
     7
 10
-12.24669
 20
-88.37187
 11
-12.52908
 21
-88.37187
  0
LINE
  8
0
  6
CONTINUOUS
 62
     7
 10
-11.5
 20
-86.60457
 11
-11.89322
 21
-86.60457
  0
LINE
  8
0
  6
CONTINUOUS
 62
     7
 10
-11.5
 20
-87.31149
 11
-11.89322
 21
-87.31149
  0
LINE
  8
0
  6
CONTINUOUS
 62
     7
 10
-11.89322
 20
-87.31149
 11
-11.89322
 21
-88.01842
  0
LINE
  8
0
  6
CONTINUOUS
 62
     7
 10
-13.57837
 20
-86.60457
 11
-14.5
 21
-86.60457
  0
LINE
  8
0
  6
CONTINUOUS
 62
     7
 10
-13.47536
 20
-87.31149
 11
-14.5
 21
-87.31149
  0
LINE
  8
0
  6
CONTINUOUS
 62
     7
 10
-13.06957
 20
-87.69583
 11
-12.84947
 21
-88.16785
  0
LINE
  8
0
  6
CONTINUOUS
 62
     7
 10
-11.65907
 20
-90.75775
 11
-11.65907
 21
-91.28793
  0
LINE
  8
0
  6
CONTINUOUS
 62
     7
 10
-12.75426
 20
-88.59279
 11
-13.32483
 21
-88.59279
  0
LINE
  8
0
  6
CONTINUOUS
 62
     7
 10
-11.65906
 20
-91.28793
 11
-11.89322
 21
-91.28793
  0
LINE
  8
0
  6
CONTINUOUS
 62
     7
 10
-11.65906
 20
-90.75775
 11
-11.77332
 21
-90.75775
  0
LINE
  8
0
  6
CONTINUOUS
 62
     7
 10
-12.74496
 20
-90.05081
 11
-14.5
 21
-90.05081
  0
LINE
  8
0
  6
CONTINUOUS
 62
     7
 10
-12.75426
 20
-88.59284
 11
-11.93754
 21
-90.64636
  0
LINE
  8
0
  6
CONTINUOUS
 62
     7
 10
-13.32484
 20
-88.5928
 11
-12.74496
 21
-90.05084
  0
LINE
  8
0
  6
CONTINUOUS
 62
     7
 10
-14.5
 20
-90.05081
 11
-14.5
 21
-90.75775
  0
LINE
  8
0
  6
CONTINUOUS
 62
     7
 10
-12.46382
 20
-90.75775
 11
-14.5
 21
-90.75775
  0
LINE
  8
0
  6
CONTINUOUS
 62
     7
 10
-12.46384
 20
-90.75776
 11
-12.3859
 21
-90.95373
  0
LINE
  8
0
  6
CONTINUOUS
 62
     7
 10
-11.5
 20
-83.60872
 11
-11.5
 21
-84.15759
  0
LINE
  8
0
  6
CONTINUOUS
 62
     7
 10
-11.5
 20
-85.03609
 11
-11.5
 21
-85.26208
  0
LINE
  8
0
  6
CONTINUOUS
 62
     7
 10
-11.5
 20
-86.60457
 11
-11.5
 21
-87.31149
  0
LINE
  8
0
  6
CONTINUOUS
 62
     7
 10
-11.85347
 20
-85.03609
 11
-11.85347
 21
-85.26208
  0
LINE
  8
0
  6
CONTINUOUS
 62
     7
 10
-11.5
 20
-85.03609
 11
-11.85347
 21
-85.03609
  0
LINE
  8
0
  6
CONTINUOUS
 62
     7
 10
-11.5
 20
-85.26208
 11
-11.85347
 21
-85.26208
  0
LINE
  8
0
  6
CONTINUOUS
 62
     7
 10
-11.5
 20
-85.41983
 11
-11.85347
 21
-85.41983
  0
LINE
  8
0
  6
CONTINUOUS
 62
     7
 10
-11.5
 20
-85.64581
 11
-11.85347
 21
-85.64581
  0
LINE
  8
0
  6
CONTINUOUS
 62
     7
 10
-11.5
 20
-85.41983
 11
-11.5
 21
-85.64581
  0
LINE
  8
0
  6
CONTINUOUS
 62
     7
 10
-11.85347
 20
-85.41983
 11
-11.85347
 21
-85.64581
  0
LINE
  8
0
  6
CONTINUOUS
 62
     7
 10
-24.5
 20
-93.0
 11
-1.0
 21
-93.0
  0
LINE
  8
0
  6
CONTINUOUS
 62
     7
 10
-24.5
 20
-78.0
 11
-1.0
 21
-78.0
  0
LINE
  8
0
  6
CONTINUOUS
 62
     7
 10
-25.0
 20
-78.5
 11
-25.0
 21
-92.5
  0
LINE
  8
0
  6
CONTINUOUS
 62
     7
 10
-1.0
 20
-78.0
 11
-1.0
 21
-82.5
  0
LINE
  8
0
  6
CENTER
 62
     2
 10
24.0
 20
-86.79999
 11
-3.99999
 21
-86.79999
  0
LINE
  8
0
  6
CONTINUOUS
 62
     7
 10
11.0
 20
-85.95001
 11
6.65588
 21
-85.95001
  0
LINE
  8
0
  6
CONTINUOUS
 62
     7
 10
11.0
 20
-87.64999
 11
6.20036
 21
-87.64999
  0
LINE
  8
0
  6
CONTINUOUS
 62
     7
 10
21.0
 20
-86.48001
 11
11.0
 21
-86.48001
  0
LINE
  8
0
  6
CONTINUOUS
 62
     7
 10
21.0
 20
-87.12
 11
11.0
 21
-87.12
  0
LINE
  8
0
  6
CONTINUOUS
 62
     7
 10
11.0
 20
-87.64999
 11
11.0
 21
-85.94998
  0
LINE
  8
0
  6
CONTINUOUS
 62
     7
 10
21.0
 20
-87.12
 11
21.0
 21
-86.47998
  0
LINE
  8
0
  6
CENTER
 62
     2
 10
24.0
 20
-84.20001
 11
-4.0
 21
-84.20001
  0
LINE
  8
0
  6
CONTINUOUS
 62
     7
 10
11.0
 20
-83.35001
 11
7.35255
 21
-83.35001
  0
LINE
  8
0
  6
CONTINUOUS
 62
     7
 10
11.0
 20
-85.05
 11
6.89703
 21
-85.05
  0
LINE
  8
0
  6
CONTINUOUS
 62
     7
 10
21.0
 20
-83.88
 11
11.0
 21
-83.88
  0
LINE
  8
0
  6
CONTINUOUS
 62
     7
 10
21.0
 20
-84.52
 11
11.0
 21
-84.52
  0
LINE
  8
0
  6
CONTINUOUS
 62
     7
 10
11.0
 20
-85.04999
 11
11.0
 21
-83.35001
  0
LINE
  8
0
  6
CONTINUOUS
 62
     7
 10
21.0
 20
-84.51999
 11
21.0
 21
-83.87999
  0
LINE
  8
0
  6
PHANTOM
 62
     2
 10
6.33555
 20
-81.35
 11
4.11156
 21
-89.64999
  0
LINE
  8
0
  6
PHANTOM
 62
     2
 10
7.88843
 20
-81.35004
 11
5.66445
 21
-89.65002
  0
LINE
  8
0
  6
CONTINUOUS
 62
     7
 10
5.79964
 20
-83.35001
 11
1.0
 21
-83.35001
  0
LINE
  8
0
  6
CONTINUOUS
 62
     7
 10
5.34412
 20
-85.05
 11
1.0
 21
-85.05
  0
LINE
  8
0
  6
CONTINUOUS
 62
     7
 10
5.10297
 20
-85.95001
 11
1.0
 21
-85.95001
  0
LINE
  8
0
  6
CONTINUOUS
 62
     7
 10
4.64745
 20
-87.64999
 11
1.0
 21
-87.64999
  0
LINE
  8
0
  6
CONTINUOUS
 62
     7
 10
-1.0
 20
-88.5
 11
-1.0
 21
-93.0
  0
LINE
  8
0
  6
CONTINUOUS
 62
     7
 10
-1.0
 20
-82.5
 11
-1.0
 21
-88.5
  0
LINE
  8
0
  6
CONTINUOUS
 62
     7
 10
-1.0
 20
-82.5
 11
0.5
 21
-82.5
  0
LINE
  8
0
  6
CONTINUOUS
 62
     7
 10
1.0
 20
-83.0
 11
1.0
 21
-88.0
  0
LINE
  8
0
  6
CONTINUOUS
 62
     7
 10
-1.0
 20
-88.5
 11
0.5
 21
-88.5
  0
ARC
  8
0
  6
CONTINUOUS
 62
     7
 10
136.5177
 20
-117.5228
 40
1.10594
 50
0.0
 51
89.99999
  0
ARC
  8
0
  6
CONTINUOUS
 62
     7
 10
145.6418
 20
-123.4673
 40
1.10595
 50
270.0
 51
0.0
  0
ARC
  8
0
  6
CONTINUOUS
 62
     7
 10
145.0888
 20
-118.0758
 40
1.65892
 50
0.0
 51
89.99999
  0
ARC
  8
0
  6
CONTINUOUS
 62
     7
 10
155.1806
 20
-117.5228
 40
1.10594
 50
0.0
 51
89.99999
  0
ARC
  8
0
  6
CONTINUOUS
 62
     7
 10
155.1806
 20
-118.4064
 40
1.10595
 50
295.0
 51
0.0
  0
ARC
  8
0
  6
CONTINUOUS
 62
     7
 10
163.7517
 20
-116.4169
 40
1.65892
 50
291.6884
 51
0.0
  0
ARC
  8
0
  6
CONTINUOUS
 62
     7
 10
163.1987
 20
-116.0417
 40
0.55297
 50
291.689
 51
0.0
  0
ARC
  8
0
  6
CONTINUOUS
 62
     7
 10
0.51582
 20
87.97595
 40
0.5
 50
0.0
 51
89.99998
  0
ARC
  8
0
  6
CONTINUOUS
 62
     7
 10
0.51582
 20
82.97595
 40
0.5
 50
270.0
 51
0.0
  0
ARC
  8
0
  6
CONTINUOUS
 62
     7
 10
-4.00005
 20
81.0
 40
3.0
 50
89.99998
 51
180.0
  0
ARC
  8
0
  6
CONTINUOUS
 62
     7
 10
-22.00005
 20
90.0
 40
3.0
 50
270.0
 51
0.0
  0
ARC
  8
0
  6
CONTINUOUS
 62
     7
 10
-4.00005
 20
81.0
 40
2.55
 50
276.7563
 51
263.2437
  0
ARC
  8
0
  6
CONTINUOUS
 62
     7
 10
-22.00005
 20
90.0
 40
2.55
 50
96.75634
 51
83.2437
  0
CIRCLE
  8
0
  6
CONTINUOUS
 62
     7
 10
-4.00005
 20
81.0
 40
2.25
  0
ARC
  8
0
  6
CONTINUOUS
 62
     7
 10
-4.00005
 20
82.10309
 40
0.52
 50
225.0002
 51
314.9998
  0
ARC
  8
0
  6
CONTINUOUS
 62
     7
 10
-5.10313
 20
81.0
 40
0.52
 50
314.9998
 51
45.00026
  0
ARC
  8
0
  6
CONTINUOUS
 62
     7
 10
-2.89696
 20
81.0
 40
0.52
 50
134.9997
 51
225.0002
  0
ARC
  8
0
  6
CONTINUOUS
 62
     7
 10
-4.00005
 20
79.89691
 40
0.52
 50
45.00024
 51
134.9997
  0
CIRCLE
  8
0
  6
CONTINUOUS
 62
     7
 10
-22.00005
 20
90.0
 40
2.25
  0
ARC
  8
0
  6
CONTINUOUS
 62
     7
 10
-22.00005
 20
91.10309
 40
0.52
 50
225.0003
 51
314.9997
  0
ARC
  8
0
  6
CONTINUOUS
 62
     7
 10
-23.10313
 20
90.0
 40
0.52
 50
314.9997
 51
45.0003
  0
ARC
  8
0
  6
CONTINUOUS
 62
     7
 10
-20.89696
 20
90.0
 40
0.52
 50
134.9997
 51
225.0001
  0
ARC
  8
0
  6
CONTINUOUS
 62
     7
 10
-22.00005
 20
88.89691
 40
0.52
 50
45.0003
 51
134.9997
  0
ARC
  8
0
  6
CONTINUOUS
 62
     7
 10
-24.50005
 20
92.5
 40
0.5
 50
89.99999
 51
180.0
  0
ARC
  8
0
  6
CONTINUOUS
 62
     7
 10
-24.50005
 20
78.5
 40
0.5
 50
180.0
 51
270.0
  0
ARC
  8
0
  6
CONTINUOUS
 62
     7
 10
-24.49999
 20
-34.0
 40
0.5
 50
180.0
 51
270.0
  0
ARC
  8
0
  6
CONTINUOUS
 62
     7
 10
-1.49999
 20
-33.99999
 40
0.5
 50
299.9999
 51
0.0
  0
ARC
  8
0
  6
CONTINUOUS
 62
     7
 10
-6.69999
 20
-29.99999
 40
0.5
 50
89.99999
 51
180.0
  0
ARC
  8
0
  6
CONTINUOUS
 62
     7
 10
-7.69999
 20
-33.99999
 40
0.5
 50
270.0
 51
0.0
  0
ARC
  8
0
  6
CONTINUOUS
 62
     7
 10
-1.49999
 20
-28.99999
 40
0.5
 50
270.0
 51
0.0
  0
CIRCLE
  8
0
  6
CONTINUOUS
 62
     7
 10
-7.0
 20
-8.99999
 40
1.6
  0
CIRCLE
  8
0
  6
CONTINUOUS
 62
     7
 10
-6.99999
 20
-22.99999
 40
1.6
  0
ARC
  8
0
  6
CONTINUOUS
 62
     7
 10
-4.0
 20
34.5
 40
6.0
 50
73.80868
 51
106.1913
  0
ARC
  8
0
  6
CONTINUOUS
 62
     7
 10
-2.55
 20
39.49374
 40
0.8
 50
0.0
 51
73.80867
  0
ARC
  8
0
  6
CONTINUOUS
 62
     7
 10
-5.45
 20
39.49374
 40
0.8
 50
106.1913
 51
180.0
  0
ARC
  8
0
  6
CONTINUOUS
 62
     7
 10
-22.0
 20
34.49998
 40
6.0
 50
73.80865
 51
106.1913
  0
ARC
  8
0
  6
CONTINUOUS
 62
     7
 10
-23.45
 20
39.49374
 40
0.8
 50
106.1914
 51
118.0138
  0
ARC
  8
0
  6
CONTINUOUS
 62
     7
 10
-20.55
 20
39.49374
 40
0.8
 50
61.98621
 51
73.80872
  0
ARC
  8
0
  6
CONTINUOUS
 62
     7
 10
0.5
 20
31.2
 40
0.5
 50
0.0
 51
89.99992
  0
ARC
  8
0
  6
CONTINUOUS
 62
     7
 10
0.5
 20
28.8
 40
0.5
 50
269.9999
 51
0.0
  0
ARC
  8
0
  6
CONTINUOUS
 62
     7
 10
-112.5
 20
-33.99999
 40
0.5
 50
180.0
 51
240.0001
  0
ARC
  8
0
  6
CONTINUOUS
 62
     7
 10
-98.49999
 20
-33.99999
 40
0.5
 50
270.0
 51
0.0
  0
ARC
  8
0
  6
CONTINUOUS
 62
     7
 10
-107.3
 20
-29.99999
 40
0.5
 50
0.0
 51
89.99999
  0
ARC
  8
0
  6
CONTINUOUS
 62
     7
 10
-112.5
 20
-28.99999
 40
0.5
 50
180.0
 51
270.0
  0
ARC
  8
0
  6
CONTINUOUS
 62
     7
 10
-106.3
 20
-33.99999
 40
0.5
 50
180.0
 51
270.0
  0
CIRCLE
  8
0
  6
CONTINUOUS
 62
     7
 10
-100.0
 20
-10.0
 40
1.4
  0
CIRCLE
  8
0
  6
CONTINUOUS
 62
     7
 10
-111.0
 20
-22.0
 40
1.4
  0
CIRCLE
  8
0
  6
CONTINUOUS
 62
     7
 10
-108.5
 20
-9.0
 40
2.5
  0
CIRCLE
  8
0
  6
CONTINUOUS
 62
     7
 10
-105.5
 20
-19.0
 40
2.5
  0
CIRCLE
  8
0
  6
CONTINUOUS
 62
     7
 10
-105.5
 20
3.7
 40
2.65
  0
CIRCLE
  8
0
  6
CONTINUOUS
 62
     7
 10
-105.5
 20
3.7
 40
2.0
  0
ARC
  8
0
  6
CONTINUOUS
 62
     7
 10
-102.45
 20
39.49374
 40
0.8
 50
106.1913
 51
118.0138
  0
ARC
  8
0
  6
CONTINUOUS
 62
     7
 10
-99.55001
 20
39.49374
 40
0.8
 50
61.98621
 51
73.80872
  0
ARC
  8
0
  6
CONTINUOUS
 62
     7
 10
-108.9463
 20
32.95332
 40
0.35346
 50
0.0
 51
89.99999
  0
ARC
  8
0
  6
CONTINUOUS
 62
     7
 10
-106.0302
 20
31.05345
 40
0.35346
 50
270.0
 51
0.0
  0
ARC
  8
0
  6
CONTINUOUS
 62
     7
 10
-106.2069
 20
32.77659
 40
0.53019
 50
0.0
 51
89.99999
  0
ARC
  8
0
  6
CONTINUOUS
 62
     7
 10
-102.9816
 20
32.95332
 40
0.35346
 50
0.0
 51
89.99999
  0
ARC
  8
0
  6
CONTINUOUS
 62
     7
 10
-102.9816
 20
32.67093
 40
0.35346
 50
294.9994
 51
0.0
  0
ARC
  8
0
  6
CONTINUOUS
 62
     7
 10
-100.2423
 20
33.30678
 40
0.53019
 50
291.6884
 51
0.0
  0
ARC
  8
0
  6
CONTINUOUS
 62
     7
 10
-100.419
 20
33.42669
 40
0.17673
 50
291.6893
 51
0.0
  0
ARC
  8
0
  6
CONTINUOUS
 62
     7
 10
-111.45
 20
39.49373
 40
0.8
 50
106.1913
 51
180.0
  0
ARC
  8
0
  6
CONTINUOUS
 62
     7
 10
-110.0
 20
34.49998
 40
6.0
 50
73.80869
 51
106.1913
  0
ARC
  8
0
  6
CONTINUOUS
 62
     7
 10
-108.55
 20
39.49374
 40
0.8
 50
0.0
 51
73.80872
  0
ARC
  8
0
  6
CONTINUOUS
 62
     7
 10
-101.0
 20
34.49998
 40
6.0
 50
73.80862
 51
106.1913
  0
ARC
  8
0
  6
CONTINUOUS
 62
     7
 10
-102.45
 20
39.49374
 40
0.8
 50
106.1913
 51
118.0138
  0
ARC
  8
0
  6
CONTINUOUS
 62
     7
 10
-99.55001
 20
39.49374
 40
0.8
 50
61.98621
 51
73.80872
  0
CIRCLE
  8
0
  6
CONTINUOUS
 62
     7
 10
-105.5
 20
-19.0
 40
1.75
  0
CIRCLE
  8
0
  6
CONTINUOUS
 62
     7
 10
-108.5
 20
-9.0
 40
1.75
  0
ARC
  8
0
  6
CONTINUOUS
 62
     7
 10
83.5
 20
-33.99999
 40
0.5
 50
180.0
 51
240.0001
  0
ARC
  8
0
  6
CONTINUOUS
 62
     7
 10
97.5
 20
-33.99999
 40
0.5
 50
270.0
 51
0.0
  0
ARC
  8
0
  6
CONTINUOUS
 62
     7
 10
88.7
 20
-29.99999
 40
0.5
 50
0.0
 51
89.99999
  0
ARC
  8
0
  6
CONTINUOUS
 62
     7
 10
83.5
 20
-28.99999
 40
0.5
 50
180.0
 51
270.0
  0
ARC
  8
0
  6
CONTINUOUS
 62
     7
 10
89.7
 20
-33.99999
 40
0.5
 50
180.0
 51
270.0
  0
ARC
  8
0
  6
CONTINUOUS
 62
     7
 10
96.0
 20
-21.99999
 40
2.7
 50
42.20544
 51
317.7946
  0
ARC
  8
0
  6
CONTINUOUS
 62
     7
 10
85.0
 20
-10.0
 40
2.7
 50
0.0
 51
137.7946
  0
ARC
  8
0
  6
CONTINUOUS
 62
     7
 10
85.0
 20
-10.0
 40
2.7
 50
222.2054
 51
0.0
  0
CIRCLE
  8
0
  6
CONTINUOUS
 62
     7
 10
85.0
 20
-10.0
 40
1.4
  0
CIRCLE
  8
0
  6
CONTINUOUS
 62
     7
 10
96.0
 20
-21.99999
 40
1.4
  0
CIRCLE
  8
0
  6
CONTINUOUS
 62
     7
 10
93.5
 20
-14.0
 40
2.5
  0
CIRCLE
  8
0
  6
CONTINUOUS
 62
     7
 10
90.5
 20
8.5
 40
1.5
  0
ARC
  8
0
  6
CONTINUOUS
 62
     7
 10
86.0
 20
34.49998
 40
6.0
 50
73.80869
 51
106.1913
  0
ARC
  8
0
  6
CONTINUOUS
 62
     7
 10
87.45
 20
39.49374
 40
0.8
 50
0.0
 51
73.80872
  0
ARC
  8
0
  6
CONTINUOUS
 62
     7
 10
84.55
 20
39.49374
 40
0.8
 50
106.1913
 51
180.0
  0
ARC
  8
0
  6
CONTINUOUS
 62
     7
 10
95.0
 20
34.49998
 40
6.0
 50
73.80862
 51
106.1913
  0
ARC
  8
0
  6
CONTINUOUS
 62
     7
 10
93.55
 20
39.49374
 40
0.8
 50
106.1913
 51
118.0138
  0
ARC
  8
0
  6
CONTINUOUS
 62
     7
 10
96.45
 20
39.49374
 40
0.8
 50
61.98621
 51
73.80872
  0
CIRCLE
  8
0
  6
CONTINUOUS
 62
     7
 10
93.5
 20
-14.0
 40
1.75
  0
ARC
  8
0
  6
CONTINUOUS
 62
     7
 10
89.2
 20
30.0
 40
1.7
 50
89.99999
 51
270.0
  0
ARC
  8
0
  6
CONTINUOUS
 62
     7
 10
91.8
 20
30.0
 40
1.7
 50
270.0
 51
89.99999
  0
CIRCLE
  8
0
  6
CONTINUOUS
 62
     7
 10
89.2
 20
30.0
 40
0.85
  0
CIRCLE
  8
0
  6
CONTINUOUS
 62
     7
 10
91.8
 20
30.0
 40
0.85
  0
ARC
  8
0
  6
CONTINUOUS
 62
     7
 10
-4.0
 20
-81.0
 40
3.2
 50
180.0
 51
270.0
  0
ARC
  8
0
  6
CONTINUOUS
 62
     7
 10
-22.0
 20
-90.0
 40
3.2
 50
0.0
 51
89.99997
  0
CIRCLE
  8
0
  6
CONTINUOUS
 62
     7
 10
-22.0
 20
-90.0
 40
2.75
  0
CIRCLE
  8
0
  6
CONTINUOUS
 62
     7
 10
-4.0
 20
-81.0
 40
2.75
  0
CIRCLE
  8
0
  6
CONTINUOUS
 62
     7
 10
-4.0
 20
-81.0
 40
1.0565
  0
CIRCLE
  8
0
  6
CONTINUOUS
 62
     7
 10
-22.0
 20
-90.0
 40
1.0565
  0
ARC
  8
0
  6
CONTINUOUS
 62
     7
 10
-12.24669
 20
-82.05374
 40
0.35346
 50
270.0
 51
0.0
  0
ARC
  8
0
  6
CONTINUOUS
 62
     7
 10
-14.14655
 20
-84.96982
 40
0.35346
 50
180.0
 51
270.0
  0
ARC
  8
0
  6
CONTINUOUS
 62
     7
 10
-12.42342
 20
-84.79306
 40
0.53019
 50
270.0
 51
0.0
  0
ARC
  8
0
  6
CONTINUOUS
 62
     7
 10
-12.24669
 20
-88.01842
 40
0.35346
 50
270.0
 51
0.0
  0
ARC
  8
0
  6
CONTINUOUS
 62
     7
 10
-12.52908
 20
-88.01842
 40
0.35346
 50
204.9995
 51
270.0
  0
ARC
  8
0
  6
CONTINUOUS
 62
     7
 10
-11.89322
 20
-90.75775
 40
0.53019
 50
201.6885
 51
270.0
  0
ARC
  8
0
  6
CONTINUOUS
 62
     7
 10
-11.77332
 20
-90.58099
 40
0.17673
 50
201.6892
 51
270.0
  0
ARC
  8
0
  6
CONTINUOUS
 62
     7
 10
-24.5
 20
-78.5
 40
0.5
 50
89.99999
 51
180.0
  0
ARC
  8
0
  6
CONTINUOUS
 62
     7
 10
-24.5
 20
-92.5
 40
0.5
 50
180.0
 51
270.0
  0
CIRCLE
  8
0
  6
CONTINUOUS
 62
     7
 10
-22.0
 20
-90.0
 40
1.3
  0
CIRCLE
  8
0
  6
CONTINUOUS
 62
     7
 10
-4.0
 20
-81.0
 40
1.3
  0
ARC
  8
0
  6
CONTINUOUS
 62
     7
 10
0.5
 20
-83.0
 40
0.5
 50
0.0
 51
89.99998
  0
ARC
  8
0
  6
CONTINUOUS
 62
     7
 10
0.5
 20
-88.0
 40
0.5
 50
270.0
 51
0.0
  0
TEXT
  8
0
  6
CONTINUOUS
 62
     7
 10
114.5353
 20
118.1347
 40
4.24264
  1
DATE : AUG ,1989
 41
0.8
  7
STANDARD
  0
TEXT
  8
0
  6
CONTINUOUS
 62
     7
 10
-158.965
 20
117.7787
 40
5.0
  1
111E1
 41
0.8
  7
STANDARD
  0
TEXT
  8
0
  6
CONTINUOUS
 62
     7
 10
-163.694
 20
90.14462
 40
5.0
  1
MODEL : 111E1
 41
0.8
  7
STANDARD
  0
TEXT
  8
0
  6
CONTINUOUS
 62
     7
 10
-107.6027
 20
-13.9813
 40
2.0
  1
R
 41
0.8
  7
STANDARD
  0
TEXT
  8
0
  6
CONTINUOUS
 62
     7
 10
-104.0875
 20
-23.44541
 40
2.0
  1
P
 41
0.8
  7
STANDARD
  0
TEXT
  8
0
  6
CONTINUOUS
 62
     7
 10
94.67996
 20
-11.45622
 40
2.0
  1
A
 41
0.8
  7
STANDARD
  0
ENDSEC
  0
EOF
