  0
SECTION
  2
HEADER
  9
$ACADVER
  1
AC1002
  9
$INSBASE
 10
0.0
 20
0.0
  9
$EXTMIN
 10
-370.8736
 20
-254.5585
  9
$EXTMAX
 10
370.8736
 20
254.5585
  9
$LIMMIN
 10
0.0
 20
0.0
  9
$LIMMAX
 10
12.0
 20
9.0
  9
$VIEWCTR
 10
28.6093211
 20
0.0
  9
$VIEWSIZE
 40
509.117
  9
$SNAPMODE
 70
     0
  9
$SNAPUNIT
 10
1.0
 20
1.0
  9
$SNAPBASE
 10
0.0
 20
0.0
  9
$SNAPANG
 50
0.0
  9
$SNAPSTYLE
 70
     0
  9
$SNAPISOPAIR
 70
     0
  9
$GRIDMODE
 70
     0
  9
$GRIDUNIT
 10
0.0
 20
0.0
  9
$ORTHOMODE
 70
     0
  9
$REGENMODE
 70
     1
  9
$FILLMODE
 70
     1
  9
$QTEXTMODE
 70
     0
  9
$DRAGMODE
 70
     2
  9
$LTSCALE
 40
1.0
  9
$OSMODE
 70
     0
  9
$ATTMODE
 70
     1
  9
$TEXTSIZE
 40
0.2
  9
$TRACEWID
 40
0.05
  9
$TEXTSTYLE
  7
AAA
  9
$CLAYER
  8
0
  9
$CELTYPE
  6
BYLAYER
  9
$CECOLOR
 62
   256
  9
$DIMSCALE
 40
1.0
  9
$DIMASZ
 40
0.18
  9
$DIMEXO
 40
0.0625
  9
$DIMDLI
 40
0.38
  9
$DIMRND
 40
0.0
  9
$DIMDLE
 40
0.0
  9
$DIMEXE
 40
0.18
  9
$DIMTP
 40
0.0
  9
$DIMTM
 40
0.0
  9
$DIMTXT
 40
0.18
  9
$DIMCEN
 40
0.09
  9
$DIMTSZ
 40
0.0
  9
$DIMTOL
 70
     0
  9
$DIMLIM
 70
     0
  9
$DIMTIH
 70
     1
  9
$DIMTOH
 70
     1
  9
$DIMSE1
 70
     0
  9
$DIMSE2
 70
     0
  9
$DIMTAD
 70
     0
  9
$DIMZIN
 70
     0
  9
$DIMBLK
  1

  9
$LUNITS
 70
     2
  9
$LUPREC
 70
     4
  9
$AXISMODE
 70
     0
  9
$AXISUNIT
 10
0.0
 20
0.0
  9
$SKETCHINC
 40
0.1
  9
$FILLETRAD
 40
0.0
  9
$AUNITS
 70
     0
  9
$AUPREC
 70
     0
  9
$MENU
  1
ACAD
  9
$ELEVATION
 40
0.0
  9
$THICKNESS
 40
0.0
  9
$VIEWDIR
 10
0.0
 20
0.0
 30
1.0
  9
$LIMCHECK
 70
     0
  9
$BLIPMODE
 70
     1
  9
$CHAMFERA
 40
0.0
  9
$CHAMFERB
 40
0.0
  9
$FASTZOOM
 70
     1
  9
$SKPOLY
 70
     0
  9
$TDCREATE
 40
2447865.7445486611
  9
$TDUPDATE
 40
2447865.7445486611
  9
$TDINDWG
 40
0.0035648148
  9
$TDUSRTIMER
 40
0.0035648148
  9
$USRTIMER
 70
     1
  9
$ANGBASE
 50
0.0
  9
$ANGDIR
 70
     0
  9
$PDMODE
 70
     0
  9
$PDSIZE
 40
0.0
  9
$PLINEWID
 40
0.0
  9
$COORDS
 70
     0
  9
$USERI1
 70
     0
  9
$USERI2
 70
     0
  9
$USERI3
 70
     0
  9
$USERI4
 70
     0
  9
$USERI5
 70
     0
  9
$USERR1
 40
0.0
  9
$USERR2
 40
0.0
  9
$USERR3
 40
0.0
  9
$USERR4
 40
0.0
  9
$USERR5
 40
0.0
  0
ENDSEC
  0
SECTION
  2
TABLES
  0
TABLE
  2
LTYPE
 70
     3
  0
LTYPE
  2
CONTINUOUS
 70
    64
  3
SOLID
 72
    65
 73
     0
 40
0.0
  0
LTYPE
  2
CENTER
 70
    64
  3
CENTER
 72
    65
 73
     4
 40
2.0
 49
1.25
 49
-0.25
 49
0.25
 49
-0.25
  0
LTYPE
  2
PHANTOM
 70
    64
  3
PHANTOM
 72
    65
 73
     6
 40
2.5
 49
1.25
 49
-0.25
 49
0.25
 49
-0.25
 49
0.25
 49
-0.25
  0
ENDTAB
  0
TABLE
  2
LAYER
 70
     1
  0
LAYER
  2
0
 70
    64
 62
     7
  6
CONTINUOUS
  0
ENDTAB
  0
TABLE
  2
STYLE
 70
     2
  0
STYLE
  2
AAA
 70
     0
 40
0.0
 41
1.0
 50
0.0
 71
     0
 42
0.2
  3
TXT
  4

  0
STYLE
  2
STANDARD
 70
    64
 40
0.0
 41
1.0
 50
0.0
 71
     0
 42
0.2
  3
TXT
  4
BIGFONT
  0
ENDTAB
  0
TABLE
  2
VIEW
 70
     0
  0
ENDTAB
  0
ENDSEC
  0
SECTION
  2
BLOCKS
  0
ENDSEC
  0
SECTION
  2
ENTITIES
  0
POINT
  8
0
  6
CONTINUOUS
 62
     7
 10
-130.1362
 20
163.9607
  0
POINT
  8
0
  6
CONTINUOUS
 62
     7
 10
-114.1362
 20
163.9607
  0
POINT
  8
0
  6
CONTINUOUS
 62
     7
 10
-137.1362
 20
182.9607
  0
POINT
  8
0
  6
CONTINUOUS
 62
     7
 10
-44.63618
 20
182.9607
  0
POINT
  8
0
  6
CONTINUOUS
 62
     7
 10
-98.13618
 20
163.9607
  0
POINT
  8
0
  6
CONTINUOUS
 62
     7
 10
-82.13618
 20
163.9607
  0
POINT
  8
0
  6
CONTINUOUS
 62
     7
 10
-66.13618
 20
163.9607
  0
POINT
  8
0
  6
CONTINUOUS
 62
     7
 10
-53.13618
 20
163.9607
  0
POINT
  8
0
  6
CONTINUOUS
 62
     7
 10
-137.1362
 20
-27.58407
  0
POINT
  8
0
  6
CONTINUOUS
 62
     7
 10
-44.63618
 20
-27.58407
  0
POINT
  8
0
  6
CONTINUOUS
 62
     7
 10
-98.13618
 20
-26.58407
  0
POINT
  8
0
  6
CONTINUOUS
 62
     7
 10
-82.13618
 20
-26.58407
  0
POINT
  8
0
  6
CONTINUOUS
 62
     7
 10
-66.13618
 20
-26.58407
  0
POINT
  8
0
  6
CONTINUOUS
 62
     7
 10
-53.13618
 20
-26.58407
  0
POINT
  8
0
  6
CONTINUOUS
 62
     7
 10
-130.1362
 20
-173.1288
  0
POINT
  8
0
  6
CONTINUOUS
 62
     7
 10
-114.1362
 20
-173.1288
  0
POINT
  8
0
  6
CONTINUOUS
 62
     7
 10
-137.1362
 20
-192.1288
  0
POINT
  8
0
  6
CONTINUOUS
 62
     7
 10
-44.63618
 20
-192.1288
  0
POINT
  8
0
  6
CONTINUOUS
 62
     7
 10
-98.13618
 20
-173.1288
  0
POINT
  8
0
  6
CONTINUOUS
 62
     7
 10
-82.13618
 20
-173.1288
  0
POINT
  8
0
  6
CONTINUOUS
 62
     7
 10
-66.13618
 20
-173.1288
  0
POINT
  8
0
  6
CONTINUOUS
 62
     7
 10
-53.13618
 20
-173.1288
  0
POINT
  8
0
  6
CONTINUOUS
 62
     7
 10
155.0226
 20
-35.58407
  0
POINT
  8
0
  6
CONTINUOUS
 62
     7
 10
152.0226
 20
-19.58407
  0
POINT
  8
0
  6
CONTINUOUS
 62
     7
 10
163.0226
 20
-27.58407
  0
POINT
  8
0
  6
CONTINUOUS
 62
     7
 10
144.0226
 20
-26.58407
  0
POINT
  8
0
  6
CONTINUOUS
 62
     7
 10
-130.1362
 20
-26.58407
  0
POINT
  8
0
  6
CONTINUOUS
 62
     7
 10
-114.1362
 20
-26.58407
  0
LINE
  8
0
  6
CONTINUOUS
 62
     7
 10
218.3292
 20
-225.9564
 11
370.8736
 21
-225.9564
  0
LINE
  8
0
  6
CONTINUOUS
 62
     7
 10
-218.3292
 20
225.9564
 11
-218.3292
 21
254.5585
  0
LINE
  8
0
  6
CONTINUOUS
 62
     7
 10
-370.8736
 20
225.9564
 11
-218.3292
 21
225.9564
  0
LINE
  8
0
  6
CONTINUOUS
 62
     7
 10
-370.8736
 20
254.5585
 11
370.8736
 21
254.5585
  0
LINE
  8
0
  6
CONTINUOUS
 62
     7
 10
-370.8736
 20
-254.5585
 11
370.8736
 21
-254.5585
  0
LINE
  8
0
  6
CONTINUOUS
 62
     7
 10
370.8736
 20
254.5585
 11
370.8736
 21
-254.5585
  0
LINE
  8
0
  6
CONTINUOUS
 62
     7
 10
-370.8736
 20
-254.5585
 11
-370.8736
 21
254.5585
  0
LINE
  8
0
  6
CONTINUOUS
 62
     7
 10
218.3292
 20
-225.9564
 11
218.3292
 21
-254.5585
  0
LINE
  8
0
  6
CONTINUOUS
 62
     7
 10
218.3292
 20
254.5585
 11
218.3292
 21
225.9564
  0
LINE
  8
0
  6
CONTINUOUS
 62
     7
 10
218.3292
 20
225.9564
 11
370.8736
 21
225.9564
  0
LINE
  8
0
  6
CONTINUOUS
 62
     7
 10
258.3816
 20
-232.8337
 11
258.3816
 21
-236.1516
  0
LINE
  8
0
  6
CONTINUOUS
 62
     7
 10
258.3816
 20
-236.1516
 11
270.8235
 21
-236.1516
  0
LINE
  8
0
  6
CONTINUOUS
 62
     7
 10
258.3816
 20
-249.1465
 11
275.2473
 21
-249.1465
  0
LINE
  8
0
  6
CONTINUOUS
 62
     7
 10
258.3816
 20
-245.8286
 11
270.8235
 21
-245.8286
  0
LINE
  8
0
  6
CONTINUOUS
 62
     7
 10
258.3816
 20
-232.8337
 11
273.0354
 21
-232.8337
  0
LINE
  8
0
  6
CONTINUOUS
 62
     7
 10
270.8235
 20
-236.1516
 11
270.8235
 21
-245.8286
  0
LINE
  8
0
  6
CONTINUOUS
 62
     7
 10
275.2473
 20
-235.0457
 11
275.2473
 21
-249.1465
  0
LINE
  8
0
  6
CONTINUOUS
 62
     7
 10
258.3816
 20
-245.8286
 11
258.3816
 21
-249.1465
  0
LINE
  8
0
  6
CONTINUOUS
 62
     7
 10
293.4954
 20
-236.1516
 11
293.4954
 21
-246.9346
  0
LINE
  8
0
  6
CONTINUOUS
 62
     7
 10
277.7357
 20
-232.8337
 11
277.7357
 21
-236.1516
  0
LINE
  8
0
  6
CONTINUOUS
 62
     7
 10
293.9378
 20
-232.585
 11
295.5138
 21
-232.585
  0
LINE
  8
0
  6
CONTINUOUS
 62
     7
 10
293.9378
 20
-230.373
 11
295.5138
 21
-230.373
  0
LINE
  8
0
  6
CONTINUOUS
 62
     7
 10
295.5138
 20
-230.373
 11
295.5138
 21
-232.585
  0
LINE
  8
0
  6
CONTINUOUS
 62
     7
 10
293.9378
 20
-230.373
 11
293.9378
 21
-232.585
  0
LINE
  8
0
  6
CONTINUOUS
 62
     7
 10
293.1083
 20
-230.373
 11
293.1083
 21
-232.585
  0
LINE
  8
0
  6
CONTINUOUS
 62
     7
 10
282.7661
 20
-230.373
 11
286.2009
 21
-230.373
  0
LINE
  8
0
  6
CONTINUOUS
 62
     7
 10
285.5413
 20
-232.8335
 11
286.2006
 21
-230.3727
  0
LINE
  8
0
  6
CONTINUOUS
 62
     7
 10
282.1067
 20
-232.8337
 11
282.766
 21
-230.373
  0
LINE
  8
0
  6
CONTINUOUS
 62
     7
 10
285.5416
 20
-232.8337
 11
290.1776
 21
-232.8337
  0
LINE
  8
0
  6
CONTINUOUS
 62
     7
 10
284.6526
 20
-236.1516
 11
289.0716
 21
-236.1516
  0
LINE
  8
0
  6
CONTINUOUS
 62
     7
 10
286.6429
 20
-249.1465
 11
291.2836
 21
-249.1465
  0
LINE
  8
0
  6
CONTINUOUS
 62
     7
 10
285.7537
 20
-245.8286
 11
286.6427
 21
-249.1463
  0
LINE
  8
0
  6
CONTINUOUS
 62
     7
 10
285.7538
 20
-245.8286
 11
289.0716
 21
-245.8286
  0
LINE
  8
0
  6
CONTINUOUS
 62
     7
 10
281.1707
 20
-249.1466
 11
284.6527
 21
-236.1517
  0
LINE
  8
0
  6
CONTINUOUS
 62
     7
 10
277.7357
 20
-236.1516
 11
281.2177
 21
-236.1516
  0
LINE
  8
0
  6
CONTINUOUS
 62
     7
 10
277.7354
 20
-249.1462
 11
281.2175
 21
-236.1513
  0
LINE
  8
0
  6
CONTINUOUS
 62
     7
 10
277.7357
 20
-249.1465
 11
281.1706
 21
-249.1465
  0
LINE
  8
0
  6
CONTINUOUS
 62
     7
 10
277.7357
 20
-232.8337
 11
282.1067
 21
-232.8337
  0
LINE
  8
0
  6
CONTINUOUS
 62
     7
 10
289.0716
 20
-236.1516
 11
289.0716
 21
-245.8286
  0
LINE
  8
0
  6
CONTINUOUS
 62
     7
 10
291.5323
 20
-230.373
 11
293.1083
 21
-230.373
  0
LINE
  8
0
  6
CONTINUOUS
 62
     7
 10
291.5323
 20
-232.585
 11
293.1083
 21
-232.585
  0
LINE
  8
0
  6
CONTINUOUS
 62
     7
 10
291.5323
 20
-230.373
 11
291.5323
 21
-232.585
  0
LINE
  8
0
  6
CONTINUOUS
 62
     7
 10
301.5135
 20
-230.373
 11
305.9373
 21
-230.373
  0
LINE
  8
0
  6
CONTINUOUS
 62
     7
 10
308.3423
 20
-240.1951
 11
311.2962
 21
-238.8176
  0
LINE
  8
0
  6
CONTINUOUS
 62
     7
 10
305.9373
 20
-242.7344
 11
305.9373
 21
-249.1465
  0
LINE
  8
0
  6
CONTINUOUS
 62
     7
 10
301.5135
 20
-243.379
 11
301.5135
 21
-249.1465
  0
LINE
  8
0
  6
CONTINUOUS
 62
     7
 10
305.9373
 20
-232.8337
 11
310.3611
 21
-232.8337
  0
LINE
  8
0
  6
CONTINUOUS
 62
     7
 10
305.9373
 20
-230.373
 11
305.9373
 21
-232.8337
  0
LINE
  8
0
  6
CONTINUOUS
 62
     7
 10
301.5135
 20
-230.373
 11
301.5135
 21
-232.8337
  0
LINE
  8
0
  6
CONTINUOUS
 62
     7
 10
312.573
 20
-235.0457
 11
312.573
 21
-236.8128
  0
LINE
  8
0
  6
CONTINUOUS
 62
     7
 10
308.3424
 20
-240.195
 11
312.5734
 21
-242.168
  0
LINE
  8
0
  6
CONTINUOUS
 62
     7
 10
305.9373
 20
-242.7343
 11
312.5731
 21
-245.8286
  0
LINE
  8
0
  6
CONTINUOUS
 62
     7
 10
296.2603
 20
-242.1678
 11
296.2603
 21
-245.8286
  0
LINE
  8
0
  6
CONTINUOUS
 62
     7
 10
296.2607
 20
-242.1682
 11
309.1626
 21
-236.1519
  0
LINE
  8
0
  6
CONTINUOUS
 62
     7
 10
296.2603
 20
-245.8286
 11
301.5136
 21
-243.3789
  0
LINE
  8
0
  6
CONTINUOUS
 62
     7
 10
312.573
 20
-242.1678
 11
312.573
 21
-245.8286
  0
LINE
  8
0
  6
CONTINUOUS
 62
     7
 10
296.2603
 20
-232.8337
 11
296.2603
 21
-236.1516
  0
LINE
  8
0
  6
CONTINUOUS
 62
     7
 10
301.5135
 20
-249.1465
 11
305.9373
 21
-249.1465
  0
LINE
  8
0
  6
CONTINUOUS
 62
     7
 10
296.2603
 20
-236.1516
 11
309.1621
 21
-236.1516
  0
LINE
  8
0
  6
CONTINUOUS
 62
     7
 10
296.2603
 20
-232.8337
 11
301.5135
 21
-232.8337
  0
LINE
  8
0
  6
CONTINUOUS
 62
     7
 10
327.504
 20
-236.4047
 11
328.73
 21
-235.9171
  0
LINE
  8
0
  6
CONTINUOUS
 62
     7
 10
327.5034
 20
-236.4044
 11
327.5034
 21
-249.1465
  0
LINE
  8
0
  6
CONTINUOUS
 62
     7
 10
323.0795
 20
-249.1465
 11
327.5034
 21
-249.1465
  0
LINE
  8
0
  6
CONTINUOUS
 62
     7
 10
313.9553
 20
-241.7925
 11
323.0794
 21
-238.1637
  0
LINE
  8
0
  6
CONTINUOUS
 62
     7
 10
313.9555
 20
-238.222
 11
326.8062
 21
-233.1111
  0
LINE
  8
0
  6
CONTINUOUS
 62
     7
 10
323.0795
 20
-238.1638
 11
323.0795
 21
-249.1465
  0
LINE
  8
0
  6
CONTINUOUS
 62
     7
 10
327.5034
 20
-231.3684
 11
327.5034
 21
-232.0834
  0
LINE
  8
0
  6
CONTINUOUS
 62
     7
 10
330.8211
 20
-231.3684
 11
330.8211
 21
-232.8338
  0
LINE
  8
0
  6
CONTINUOUS
 62
     7
 10
313.9554
 20
-238.2219
 11
313.9554
 21
-241.7925
  0
LINE
  8
0
  6
CONTINUOUS
 62
     7
 10
327.5034
 20
-231.3684
 11
330.8211
 21
-231.3684
  0
LINE
  8
0
  6
CONTINUOUS
 62
     2
 10
-137.1362
 20
-24.07586
 11
-137.1362
 21
61.00784
  0
LINE
  8
0
  6
CONTINUOUS
 62
     2
 10
-48.13618
 20
-24.07586
 11
-48.13618
 21
61.00784
  0
LINE
  8
0
  6
CONTINUOUS
 62
     2
 10
-137.1362
 20
60.00784
 11
-48.13618
 21
60.00784
  0
LINE
  8
0
  6
CONTINUOUS
 62
     2
 10
-140.6362
 20
77.97856
 11
-135.6362
 21
79.31831
  0
LINE
  8
0
  6
CONTINUOUS
 62
     7
 10
-273.40723303
 20
-241.7805
 11
-268.40723303
 21
-240.4408
  0
LINE
  8
0
  6
CONTINUOUS
 62
     7
 10
-273.40723303
 20
-239.1011
 11
-268.40723303
 21
-240.4408
  0
LINE
  8
0
  6
CONTINUOUS
 62
     2
 10
-140.6362
 20
77.97857
 11
-135.6362
 21
76.63882
  0
LINE
  8
0
  6
CONTINUOUS
 62
     2
 10
-140.6362
 20
-12.56751
 11
-140.6362
 21
78.97857
  0
LINE
  8
0
  6
CONTINUOUS
 62
     2
 10
-44.63618
 20
-12.56751
 11
-44.63618
 21
78.97857
  0
LINE
  8
0
  6
CONTINUOUS
 62
     2
 10
-53.13618
 20
61.34758
 11
-48.13618
 21
60.00784
  0
LINE
  8
0
  6
CONTINUOUS
 62
     2
 10
-53.13618
 20
58.66809
 11
-48.13618
 21
60.00784
  0
LINE
  8
0
  6
CONTINUOUS
 62
     2
 10
-137.1362
 20
60.00784
 11
-132.1362
 21
61.34758
  0
LINE
  8
0
  6
CONTINUOUS
 62
     2
 10
-137.1362
 20
60.00784
 11
-132.1362
 21
58.66809
  0
LINE
  8
0
  6
CONTINUOUS
 62
     7
 10
-290.43343303
 20
-240.4408
 11
-268.40723303
 21
-240.4408
  0
LINE
  8
0
  6
CENTER
 62
     2
 10
-124.6362
 20
127.1465
 11
-124.6362
 21
165.9607
  0
LINE
  8
0
  6
CENTER
 62
     2
 10
-125.9362
 20
114.9607
 11
-125.9362
 21
142.9607
  0
LINE
  8
0
  6
PHANTOM
 62
     2
 10
-125.0862
 20
127.9607
 11
-125.0862
 21
132.3048
  0
LINE
  8
0
  6
PHANTOM
 62
     2
 10
-126.7862
 20
127.9607
 11
-126.7862
 21
132.7603
  0
LINE
  8
0
  6
PHANTOM
 62
     2
 10
-125.6162
 20
117.9607
 11
-125.6162
 21
127.9607
  0
LINE
  8
0
  6
PHANTOM
 62
     2
 10
-126.2562
 20
117.9607
 11
-126.2562
 21
127.9607
  0
LINE
  8
0
  6
PHANTOM
 62
     2
 10
-126.7862
 20
127.9607
 11
-125.0862
 21
127.9607
  0
LINE
  8
0
  6
PHANTOM
 62
     2
 10
-126.2562
 20
117.9607
 11
-125.6162
 21
117.9607
  0
LINE
  8
0
  6
CENTER
 62
     2
 10
-123.3362
 20
115.0697
 11
-123.3362
 21
142.9607
  0
LINE
  8
0
  6
PHANTOM
 62
     2
 10
-122.4862
 20
127.9607
 11
-122.4862
 21
131.6081
  0
LINE
  8
0
  6
PHANTOM
 62
     2
 10
-124.1862
 20
127.9607
 11
-124.1862
 21
132.0636
  0
LINE
  8
0
  6
PHANTOM
 62
     2
 10
-123.0162
 20
117.9607
 11
-123.0162
 21
127.9607
  0
LINE
  8
0
  6
PHANTOM
 62
     2
 10
-123.6562
 20
117.9607
 11
-123.6562
 21
127.9607
  0
LINE
  8
0
  6
PHANTOM
 62
     2
 10
-124.1862
 20
127.9607
 11
-122.4862
 21
127.9607
  0
LINE
  8
0
  6
PHANTOM
 62
     2
 10
-123.6562
 20
117.9607
 11
-123.0162
 21
117.9607
  0
LINE
  8
0
  6
PHANTOM
 62
     2
 10
-120.4862
 20
132.6251
 11
-128.7861
 21
134.8491
  0
LINE
  8
0
  6
PHANTOM
 62
     2
 10
-120.4862
 20
131.0722
 11
-128.7862
 21
133.2962
  0
LINE
  8
0
  6
PHANTOM
 62
     2
 10
-122.4862
 20
133.161
 11
-122.4862
 21
137.9607
  0
LINE
  8
0
  6
PHANTOM
 62
     2
 10
-124.1862
 20
133.6165
 11
-124.1862
 21
137.9607
  0
LINE
  8
0
  6
PHANTOM
 62
     2
 10
-125.0862
 20
133.8577
 11
-125.0862
 21
137.9607
  0
LINE
  8
0
  6
PHANTOM
 62
     2
 10
-126.7862
 20
134.3132
 11
-126.7862
 21
137.9607
  0
LINE
  8
0
  6
PHANTOM
 62
     2
 10
-121.6602
 20
139.9449
 11
-121.6602
 21
138.4449
  0
LINE
  8
0
  6
PHANTOM
 62
     2
 10
-122.1602
 20
137.9449
 11
-127.1602
 21
137.9449
  0
LINE
  8
0
  6
PHANTOM
 62
     2
 10
-127.6602
 20
139.9449
 11
-127.6602
 21
138.4449
  0
LINE
  8
0
  6
CENTER
 62
     2
 10
-134.5845
 20
151.9607
 11
-98.77414
 21
151.9607
  0
LINE
  8
0
  6
PHANTOM
 62
     2
 10
-118.1362
 20
162.9607
 11
-131.1362
 21
162.9607
  0
LINE
  8
0
  6
PHANTOM
 62
     2
 10
-118.1362
 20
140.9607
 11
-131.1362
 21
140.9607
  0
LINE
  8
0
  6
PHANTOM
 62
     2
 10
-118.1362
 20
162.9607
 11
-118.1362
 21
140.9607
  0
LINE
  8
0
  6
PHANTOM
 62
     2
 10
-131.1362
 20
162.9607
 11
-131.1362
 21
140.9607
  0
LINE
  8
0
  6
PHANTOM
 62
     2
 10
-117.6362
 20
163.9607
 11
-131.6362
 21
163.9607
  0
LINE
  8
0
  6
PHANTOM
 62
     2
 10
-117.1362
 20
163.4607
 11
-117.1362
 21
139.9607
  0
LINE
  8
0
  6
PHANTOM
 62
     2
 10
-132.1362
 20
163.4607
 11
-132.1362
 21
139.9607
  0
LINE
  8
0
  6
PHANTOM
 62
     2
 10
-117.1362
 20
139.9607
 11
-132.1362
 21
139.9607
  0
LINE
  8
0
  6
CENTER
 62
     2
 10
-108.6362
 20
127.1465
 11
-108.6362
 21
165.9607
  0
LINE
  8
0
  6
CENTER
 62
     2
 10
-109.9362
 20
114.9607
 11
-109.9362
 21
142.9607
  0
LINE
  8
0
  6
PHANTOM
 62
     2
 10
-109.0862
 20
127.9607
 11
-109.0862
 21
132.3048
  0
LINE
  8
0
  6
PHANTOM
 62
     2
 10
-110.7862
 20
127.9607
 11
-110.7862
 21
132.7603
  0
LINE
  8
0
  6
PHANTOM
 62
     2
 10
-109.6162
 20
117.9607
 11
-109.6162
 21
127.9607
  0
LINE
  8
0
  6
PHANTOM
 62
     2
 10
-110.2562
 20
117.9607
 11
-110.2562
 21
127.9607
  0
LINE
  8
0
  6
PHANTOM
 62
     2
 10
-110.7862
 20
127.9607
 11
-109.0862
 21
127.9607
  0
LINE
  8
0
  6
PHANTOM
 62
     2
 10
-110.2562
 20
117.9607
 11
-109.6162
 21
117.9607
  0
LINE
  8
0
  6
CENTER
 62
     2
 10
-107.3362
 20
115.0697
 11
-107.3362
 21
142.9607
  0
LINE
  8
0
  6
PHANTOM
 62
     2
 10
-106.4862
 20
127.9607
 11
-106.4862
 21
131.6081
  0
LINE
  8
0
  6
PHANTOM
 62
     2
 10
-108.1862
 20
127.9607
 11
-108.1862
 21
132.0636
  0
LINE
  8
0
  6
PHANTOM
 62
     2
 10
-107.0162
 20
117.9607
 11
-107.0162
 21
127.9607
  0
LINE
  8
0
  6
PHANTOM
 62
     2
 10
-107.6562
 20
117.9607
 11
-107.6562
 21
127.9607
  0
LINE
  8
0
  6
PHANTOM
 62
     2
 10
-108.1862
 20
127.9607
 11
-106.4862
 21
127.9607
  0
LINE
  8
0
  6
PHANTOM
 62
     2
 10
-107.6562
 20
117.9607
 11
-107.0162
 21
117.9607
  0
LINE
  8
0
  6
PHANTOM
 62
     2
 10
-104.4862
 20
132.6251
 11
-112.7862
 21
134.8491
  0
LINE
  8
0
  6
PHANTOM
 62
     2
 10
-104.4862
 20
131.0722
 11
-112.7862
 21
133.2962
  0
LINE
  8
0
  6
PHANTOM
 62
     2
 10
-106.4862
 20
133.161
 11
-106.4862
 21
137.9607
  0
LINE
  8
0
  6
PHANTOM
 62
     2
 10
-108.1862
 20
133.6165
 11
-108.1862
 21
137.9607
  0
LINE
  8
0
  6
PHANTOM
 62
     2
 10
-109.0862
 20
133.8577
 11
-109.0862
 21
137.9607
  0
LINE
  8
0
  6
PHANTOM
 62
     2
 10
-110.7862
 20
134.3132
 11
-110.7862
 21
137.9607
  0
LINE
  8
0
  6
PHANTOM
 62
     2
 10
-105.6602
 20
139.9449
 11
-105.6602
 21
138.4449
  0
LINE
  8
0
  6
PHANTOM
 62
     2
 10
-106.1602
 20
137.9449
 11
-111.1602
 21
137.9449
  0
LINE
  8
0
  6
PHANTOM
 62
     2
 10
-111.6602
 20
139.9449
 11
-111.6602
 21
138.4449
  0
LINE
  8
0
  6
PHANTOM
 62
     2
 10
-102.1362
 20
162.9607
 11
-115.1362
 21
162.9607
  0
LINE
  8
0
  6
PHANTOM
 62
     2
 10
-102.1362
 20
140.9607
 11
-115.1362
 21
140.9607
  0
LINE
  8
0
  6
PHANTOM
 62
     2
 10
-102.1362
 20
162.9607
 11
-102.1362
 21
140.9607
  0
LINE
  8
0
  6
PHANTOM
 62
     2
 10
-115.1362
 20
162.9607
 11
-115.1362
 21
140.9607
  0
LINE
  8
0
  6
PHANTOM
 62
     2
 10
-101.6362
 20
163.9607
 11
-115.6362
 21
163.9607
  0
LINE
  8
0
  6
PHANTOM
 62
     2
 10
-101.1362
 20
163.4607
 11
-101.1362
 21
139.9607
  0
LINE
  8
0
  6
PHANTOM
 62
     2
 10
-116.1362
 20
163.4607
 11
-116.1362
 21
139.9607
  0
LINE
  8
0
  6
PHANTOM
 62
     2
 10
-101.1362
 20
139.9607
 11
-116.1362
 21
139.9607
  0
LINE
  8
0
  6
CONTINUOUS
 62
     2
 10
-140.6362
 20
77.97857
 11
-44.63618
 21
77.97857
  0
LINE
  8
0
  6
CONTINUOUS
 62
     2
 10
-49.63618
 20
79.31831
 11
-44.63618
 21
77.97857
  0
LINE
  8
0
  6
CONTINUOUS
 62
     2
 10
-49.63618
 20
76.63883
 11
-44.63618
 21
77.97858
  0
LINE
  8
0
  6
CENTER
 62
     2
 10
-133.6362
 20
-161.1288
 11
-115.6362
 21
-161.1288
  0
LINE
  8
0
  6
CENTER
 62
     2
 10
-124.6362
 20
-136.3147
 11
-124.6362
 21
-175.1288
  0
LINE
  8
0
  6
PHANTOM
 62
     2
 10
-117.1362
 20
-172.6288
 11
-117.1362
 21
-149.1288
  0
LINE
  8
0
  6
PHANTOM
 62
     2
 10
-132.1362
 20
-172.6288
 11
-132.1362
 21
-149.1288
  0
LINE
  8
0
  6
PHANTOM
 62
     2
 10
-131.6362
 20
-173.1288
 11
-117.6362
 21
-173.1288
  0
LINE
  8
0
  6
PHANTOM
 62
     2
 10
-132.1362
 20
-149.1288
 11
-127.6362
 21
-149.1288
  0
LINE
  8
0
  6
CENTER
 62
     2
 10
-123.3362
 20
-124.1288
 11
-123.3362
 21
-152.1288
  0
LINE
  8
0
  6
PHANTOM
 62
     2
 10
-124.1862
 20
-137.1288
 11
-124.1862
 21
-141.4729
  0
LINE
  8
0
  6
PHANTOM
 62
     2
 10
-122.4862
 20
-137.1288
 11
-122.4862
 21
-141.9285
  0
LINE
  8
0
  6
PHANTOM
 62
     2
 10
-123.6562
 20
-127.1288
 11
-123.6562
 21
-137.1288
  0
LINE
  8
0
  6
PHANTOM
 62
     2
 10
-123.0162
 20
-127.1288
 11
-123.0162
 21
-137.1288
  0
LINE
  8
0
  6
PHANTOM
 62
     2
 10
-122.4862
 20
-137.1288
 11
-124.1862
 21
-137.1288
  0
LINE
  8
0
  6
PHANTOM
 62
     2
 10
-123.0162
 20
-127.1288
 11
-123.6562
 21
-127.1288
  0
LINE
  8
0
  6
CENTER
 62
     2
 10
-125.9362
 20
-124.1288
 11
-125.9362
 21
-152.1288
  0
LINE
  8
0
  6
PHANTOM
 62
     2
 10
-126.7862
 20
-137.1288
 11
-126.7862
 21
-140.7763
  0
LINE
  8
0
  6
PHANTOM
 62
     2
 10
-125.0862
 20
-137.1288
 11
-125.0862
 21
-141.2318
  0
LINE
  8
0
  6
PHANTOM
 62
     2
 10
-126.2562
 20
-127.1288
 11
-126.2562
 21
-137.1288
  0
LINE
  8
0
  6
PHANTOM
 62
     2
 10
-125.6162
 20
-127.1288
 11
-125.6162
 21
-137.1288
  0
LINE
  8
0
  6
PHANTOM
 62
     2
 10
-125.0862
 20
-137.1288
 11
-126.7862
 21
-137.1288
  0
LINE
  8
0
  6
PHANTOM
 62
     2
 10
-125.6162
 20
-127.1288
 11
-126.2562
 21
-127.1288
  0
LINE
  8
0
  6
PHANTOM
 62
     2
 10
-128.7862
 20
-141.7933
 11
-120.4862
 21
-144.0173
  0
LINE
  8
0
  6
PHANTOM
 62
     2
 10
-128.7861
 20
-140.2404
 11
-120.4862
 21
-142.4644
  0
LINE
  8
0
  6
PHANTOM
 62
     2
 10
-126.7862
 20
-142.3292
 11
-126.7862
 21
-147.1288
  0
LINE
  8
0
  6
PHANTOM
 62
     2
 10
-125.0862
 20
-142.7847
 11
-125.0862
 21
-147.1288
  0
LINE
  8
0
  6
PHANTOM
 62
     2
 10
-124.1862
 20
-143.0258
 11
-124.1862
 21
-147.1288
  0
LINE
  8
0
  6
PHANTOM
 62
     2
 10
-122.4862
 20
-143.4814
 11
-122.4862
 21
-147.1288
  0
LINE
  8
0
  6
PHANTOM
 62
     2
 10
-121.6362
 20
-149.1288
 11
-117.1362
 21
-149.1288
  0
LINE
  8
0
  6
PHANTOM
 62
     2
 10
-127.6362
 20
-149.1288
 11
-121.6362
 21
-149.1288
  0
LINE
  8
0
  6
PHANTOM
 62
     2
 10
-127.6362
 20
-149.1288
 11
-127.6362
 21
-147.6288
  0
LINE
  8
0
  6
PHANTOM
 62
     2
 10
-127.1362
 20
-147.1288
 11
-122.1362
 21
-147.1288
  0
LINE
  8
0
  6
PHANTOM
 62
     2
 10
-121.6362
 20
-149.1288
 11
-121.6362
 21
-147.6288
  0
LINE
  8
0
  6
CENTER
 62
     2
 10
-117.6362
 20
-161.1288
 11
-99.63618
 21
-161.1288
  0
LINE
  8
0
  6
CENTER
 62
     2
 10
-108.6362
 20
-136.3147
 11
-108.6362
 21
-175.1288
  0
LINE
  8
0
  6
PHANTOM
 62
     2
 10
-101.1362
 20
-172.6288
 11
-101.1362
 21
-149.1288
  0
LINE
  8
0
  6
PHANTOM
 62
     2
 10
-116.1362
 20
-172.6288
 11
-116.1362
 21
-149.1288
  0
LINE
  8
0
  6
PHANTOM
 62
     2
 10
-115.6362
 20
-173.1288
 11
-101.6362
 21
-173.1288
  0
LINE
  8
0
  6
PHANTOM
 62
     2
 10
-116.1362
 20
-149.1288
 11
-111.6362
 21
-149.1288
  0
LINE
  8
0
  6
CENTER
 62
     2
 10
-107.3362
 20
-124.1288
 11
-107.3362
 21
-152.1288
  0
LINE
  8
0
  6
PHANTOM
 62
     2
 10
-108.1862
 20
-137.1288
 11
-108.1862
 21
-141.4729
  0
LINE
  8
0
  6
PHANTOM
 62
     2
 10
-106.4862
 20
-137.1288
 11
-106.4862
 21
-141.9285
  0
LINE
  8
0
  6
PHANTOM
 62
     2
 10
-107.6562
 20
-127.1288
 11
-107.6562
 21
-137.1288
  0
LINE
  8
0
  6
PHANTOM
 62
     2
 10
-107.0162
 20
-127.1288
 11
-107.0162
 21
-137.1288
  0
LINE
  8
0
  6
PHANTOM
 62
     2
 10
-106.4862
 20
-137.1288
 11
-108.1862
 21
-137.1288
  0
LINE
  8
0
  6
PHANTOM
 62
     2
 10
-107.0162
 20
-127.1288
 11
-107.6562
 21
-127.1288
  0
LINE
  8
0
  6
CENTER
 62
     2
 10
-109.9362
 20
-124.1288
 11
-109.9362
 21
-152.1288
  0
LINE
  8
0
  6
PHANTOM
 62
     2
 10
-110.7862
 20
-137.1288
 11
-110.7862
 21
-140.7763
  0
LINE
  8
0
  6
PHANTOM
 62
     2
 10
-109.0862
 20
-137.1288
 11
-109.0862
 21
-141.2318
  0
LINE
  8
0
  6
PHANTOM
 62
     2
 10
-110.2562
 20
-127.1288
 11
-110.2562
 21
-137.1288
  0
LINE
  8
0
  6
PHANTOM
 62
     2
 10
-109.6162
 20
-127.1288
 11
-109.6162
 21
-137.1288
  0
LINE
  8
0
  6
PHANTOM
 62
     2
 10
-109.0862
 20
-137.1288
 11
-110.7862
 21
-137.1288
  0
LINE
  8
0
  6
PHANTOM
 62
     2
 10
-109.6162
 20
-127.1288
 11
-110.2562
 21
-127.1288
  0
LINE
  8
0
  6
PHANTOM
 62
     2
 10
-112.7862
 20
-141.7933
 11
-104.4862
 21
-144.0173
  0
LINE
  8
0
  6
PHANTOM
 62
     2
 10
-112.7861
 20
-140.2404
 11
-104.4862
 21
-142.4644
  0
LINE
  8
0
  6
PHANTOM
 62
     2
 10
-110.7862
 20
-142.3292
 11
-110.7862
 21
-147.1288
  0
LINE
  8
0
  6
PHANTOM
 62
     2
 10
-109.0862
 20
-142.7847
 11
-109.0862
 21
-147.1288
  0
LINE
  8
0
  6
PHANTOM
 62
     2
 10
-108.1862
 20
-143.0258
 11
-108.1862
 21
-147.1288
  0
LINE
  8
0
  6
PHANTOM
 62
     2
 10
-106.4862
 20
-143.4814
 11
-106.4862
 21
-147.1288
  0
LINE
  8
0
  6
PHANTOM
 62
     2
 10
-105.6362
 20
-149.1288
 11
-101.1362
 21
-149.1288
  0
LINE
  8
0
  6
PHANTOM
 62
     2
 10
-111.6362
 20
-149.1288
 11
-105.6362
 21
-149.1288
  0
LINE
  8
0
  6
PHANTOM
 62
     2
 10
-111.6362
 20
-149.1288
 11
-111.6362
 21
-147.6288
  0
LINE
  8
0
  6
PHANTOM
 62
     2
 10
-111.1362
 20
-147.1288
 11
-106.1362
 21
-147.1288
  0
LINE
  8
0
  6
PHANTOM
 62
     2
 10
-105.6362
 20
-149.1288
 11
-105.6362
 21
-147.6288
  0
LINE
  8
0
  6
PHANTOM
 62
     2
 10
-132.1362
 20
-21.58407
 11
-117.1362
 21
-21.58407
  0
LINE
  8
0
  6
CENTER
 62
     2
 10
-124.6362
 20
26.31569
 11
-124.6362
 21
-54.43545
  0
LINE
  8
0
  6
PHANTOM
 62
     2
 10
-131.6362
 20
-51.08406
 11
-117.6362
 21
-51.08406
  0
LINE
  8
0
  6
PHANTOM
 62
     2
 10
-132.1362
 20
-43.58406
 11
-117.1362
 21
-43.58406
  0
LINE
  8
0
  6
PHANTOM
 62
     2
 10
-132.1362
 20
21.61592
 11
-132.1362
 21
-50.58406
  0
LINE
  8
0
  6
PHANTOM
 62
     2
 10
-117.1362
 20
21.61592
 11
-117.1362
 21
-50.58406
  0
LINE
  8
0
  6
PHANTOM
 62
     2
 10
-132.1362
 20
20.61593
 11
-117.1362
 21
20.61593
  0
LINE
  8
0
  6
PHANTOM
 62
     2
 10
-132.1362
 20
-4.58407
 11
-117.1362
 21
-4.58407
  0
LINE
  8
0
  6
PHANTOM
 62
     2
 10
-132.1362
 20
21.61592
 11
-117.1362
 21
21.61592
  0
LINE
  8
0
  6
PHANTOM
 62
     2
 10
-117.1362
 20
21.6159
 11
-118.1362
 21
23.61591
  0
LINE
  8
0
  6
PHANTOM
 62
     2
 10
-132.1362
 20
21.61593
 11
-131.1362
 21
23.61593
  0
LINE
  8
0
  6
PHANTOM
 62
     2
 10
-131.1362
 20
23.61593
 11
-118.1362
 21
23.61593
  0
LINE
  8
0
  6
CENTER
 62
     2
 10
-125.9362
 20
16.41593
 11
-125.9362
 21
10.41593
  0
LINE
  8
0
  6
CENTER
 62
     2
 10
-123.3362
 20
16.41593
 11
-123.3362
 21
10.41593
  0
LINE
  8
0
  6
CENTER
 62
     2
 10
-128.6362
 20
13.41593
 11
-120.6362
 21
13.41593
  0
LINE
  8
0
  6
PHANTOM
 62
     2
 10
-125.9362
 20
15.11593
 11
-123.3362
 21
15.11593
  0
LINE
  8
0
  6
PHANTOM
 62
     2
 10
-125.9362
 20
11.71592
 11
-123.3362
 21
11.71592
  0
LINE
  8
0
  6
PHANTOM
 62
     2
 10
-116.1362
 20
-21.58407
 11
-101.1362
 21
-21.58407
  0
LINE
  8
0
  6
CENTER
 62
     2
 10
-108.6362
 20
26.31569
 11
-108.6362
 21
-54.43545
  0
LINE
  8
0
  6
PHANTOM
 62
     2
 10
-115.6362
 20
-51.08406
 11
-101.6362
 21
-51.08406
  0
LINE
  8
0
  6
PHANTOM
 62
     2
 10
-116.1362
 20
-43.58406
 11
-101.1362
 21
-43.58406
  0
LINE
  8
0
  6
PHANTOM
 62
     2
 10
-116.1362
 20
21.61592
 11
-116.1362
 21
-50.58406
  0
LINE
  8
0
  6
PHANTOM
 62
     2
 10
-101.1362
 20
21.61592
 11
-101.1362
 21
-50.58406
  0
LINE
  8
0
  6
PHANTOM
 62
     2
 10
-116.1362
 20
20.61593
 11
-101.1362
 21
20.61593
  0
LINE
  8
0
  6
PHANTOM
 62
     2
 10
-116.1362
 20
-4.58407
 11
-101.1362
 21
-4.58407
  0
LINE
  8
0
  6
PHANTOM
 62
     2
 10
-116.1362
 20
21.61592
 11
-101.1362
 21
21.61592
  0
LINE
  8
0
  6
PHANTOM
 62
     2
 10
-101.1362
 20
21.61591
 11
-102.1362
 21
23.61591
  0
LINE
  8
0
  6
PHANTOM
 62
     2
 10
-116.1362
 20
21.61593
 11
-115.1362
 21
23.61593
  0
LINE
  8
0
  6
CENTER
 62
     2
 10
-113.1362
 20
26.61593
 11
-113.1362
 21
17.61593
  0
LINE
  8
0
  6
PHANTOM
 62
     2
 10
-115.1362
 20
23.61593
 11
-102.1362
 21
23.61593
  0
LINE
  8
0
  6
CENTER
 62
     2
 10
-109.9362
 20
16.41593
 11
-109.9362
 21
10.41593
  0
LINE
  8
0
  6
CENTER
 62
     2
 10
-107.3362
 20
16.41593
 11
-107.3362
 21
10.41593
  0
LINE
  8
0
  6
CENTER
 62
     2
 10
-112.6362
 20
13.41593
 11
-104.6362
 21
13.41593
  0
LINE
  8
0
  6
PHANTOM
 62
     2
 10
-109.9362
 20
15.11593
 11
-107.3362
 21
15.11593
  0
LINE
  8
0
  6
PHANTOM
 62
     2
 10
-109.9362
 20
11.71592
 11
-107.3362
 21
11.71592
  0
LINE
  8
0
  6
PHANTOM
 62
     2
 10
141.0226
 20
-21.58407
 11
120.0226
 21
-21.58407
  0
LINE
  8
0
  6
CENTER
 62
     2
 10
132.0226
 20
26.41593
 11
132.0226
 21
-54.74802
  0
LINE
  8
0
  6
PHANTOM
 62
     2
 10
143.5226
 20
-51.08406
 11
120.5226
 21
-51.08406
  0
LINE
  8
0
  6
PHANTOM
 62
     2
 10
144.0226
 20
-43.58406
 11
120.0226
 21
-43.58406
  0
LINE
  8
0
  6
PHANTOM
 62
     2
 10
144.0226
 20
21.61593
 11
144.0226
 21
-16.5841
  0
LINE
  8
0
  6
PHANTOM
 62
     2
 10
120.0226
 20
21.61593
 11
120.0226
 21
-50.58407
  0
LINE
  8
0
  6
PHANTOM
 62
     2
 10
144.0226
 20
20.61593
 11
120.0226
 21
20.61593
  0
LINE
  8
0
  6
PHANTOM
 62
     2
 10
144.0226
 20
-4.58407
 11
120.0226
 21
-4.58407
  0
LINE
  8
0
  6
PHANTOM
 62
     2
 10
143.0226
 20
23.61593
 11
121.0226
 21
23.61593
  0
LINE
  8
0
  6
PHANTOM
 62
     2
 10
144.0226
 20
21.61593
 11
120.0226
 21
21.61593
  0
LINE
  8
0
  6
PHANTOM
 62
     2
 10
144.0226
 20
21.61594
 11
143.0226
 21
23.61594
  0
LINE
  8
0
  6
PHANTOM
 62
     2
 10
120.0226
 20
21.6159
 11
121.0226
 21
23.61591
  0
LINE
  8
0
  6
CENTER
 62
     2
 10
95.02261
 20
13.41593
 11
123.0226
 21
13.41593
  0
LINE
  8
0
  6
PHANTOM
 62
     2
 10
108.0226
 20
14.26593
 11
112.0184
 21
14.26593
  0
LINE
  8
0
  6
PHANTOM
 62
     2
 10
108.0226
 20
12.56593
 11
112.4739
 21
12.56593
  0
LINE
  8
0
  6
PHANTOM
 62
     2
 10
98.02261
 20
13.73593
 11
108.0226
 21
13.73593
  0
LINE
  8
0
  6
PHANTOM
 62
     2
 10
98.02261
 20
13.09593
 11
108.0226
 21
13.09593
  0
LINE
  8
0
  6
PHANTOM
 62
     2
 10
108.0226
 20
12.56592
 11
108.0226
 21
14.26592
  0
LINE
  8
0
  6
PHANTOM
 62
     2
 10
98.02261
 20
13.09592
 11
98.02261
 21
13.73592
  0
LINE
  8
0
  6
PHANTOM
 62
     2
 10
111.4825
 20
16.26592
 11
113.0098
 21
10.56592
  0
LINE
  8
0
  6
PHANTOM
 62
     2
 10
113.0354
 20
16.26593
 11
114.5627
 21
10.56593
  0
LINE
  8
0
  6
PHANTOM
 62
     2
 10
113.5713
 20
14.26593
 11
118.0226
 21
14.26593
  0
LINE
  8
0
  6
PHANTOM
 62
     2
 10
114.0268
 20
12.56593
 11
118.0226
 21
12.56593
  0
LINE
  8
0
  6
PHANTOM
 62
     2
 10
118.5226
 20
15.11592
 11
120.0226
 21
15.11592
  0
LINE
  8
0
  6
PHANTOM
 62
     2
 10
118.0226
 20
12.21593
 11
118.0226
 21
14.61592
  0
LINE
  8
0
  6
PHANTOM
 62
     2
 10
118.5226
 20
11.71593
 11
120.0226
 21
11.71593
  0
LINE
  8
0
  6
CONTINUOUS
 62
     7
 10
-140.6362
 20
164.9607
 11
-140.6362
 21
182.9607
  0
LINE
  8
0
  6
CONTINUOUS
 62
     7
 10
-44.63618
 20
164.9607
 11
-44.63618
 21
182.9607
  0
LINE
  8
0
  6
CONTINUOUS
 62
     7
 10
-140.6362
 20
164.9607
 11
-79.98283
 21
164.9607
  0
LINE
  8
0
  6
CONTINUOUS
 62
     7
 10
-131.6362
 20
164.9607
 11
-131.6362
 21
163.9607
  0
LINE
  8
0
  6
CONTINUOUS
 62
     7
 10
-117.6362
 20
164.9607
 11
-117.6362
 21
163.9607
  0
LINE
  8
0
  6
CONTINUOUS
 62
     7
 10
-115.6362
 20
164.9607
 11
-115.6362
 21
163.9607
  0
LINE
  8
0
  6
CONTINUOUS
 62
     7
 10
-101.6362
 20
164.9607
 11
-101.6362
 21
163.9607
  0
LINE
  8
0
  6
CENTER
 62
     2
 10
-108.6362
 20
184.4607
 11
-108.6362
 21
161.9902
  0
LINE
  8
0
  6
CONTINUOUS
 62
     7
 10
-67.63618
 20
164.9607
 11
-67.63618
 21
163.9607
  0
LINE
  8
0
  6
CONTINUOUS
 62
     7
 10
-53.63618
 20
164.9607
 11
-53.63618
 21
163.9607
  0
LINE
  8
0
  6
CENTER
 62
     2
 10
-124.6362
 20
162.5172
 11
-124.6362
 21
184.4607
  0
LINE
  8
0
  6
CENTER
 62
     2
 10
-60.63618
 20
161.9902
 11
-60.63618
 21
184.4607
  0
LINE
  8
0
  6
PHANTOM
 62
     2
 10
-83.13729
 20
184.4607
 11
-77.78706
 21
164.4933
  0
LINE
  8
0
  6
PHANTOM
 62
     2
 10
-85.20784
 20
184.4607
 11
-79.86378
 21
164.5164
  0
LINE
  8
0
  6
CONTINUOUS
 62
     7
 10
-77.91228
 20
164.9607
 11
-44.63618
 21
164.9607
  0
LINE
  8
0
  6
CONTINUOUS
 62
     7
 10
-140.6362
 20
168.9607
 11
-81.05463
 21
168.9607
  0
LINE
  8
0
  6
CONTINUOUS
 62
     7
 10
-78.98407
 20
168.9607
 11
-44.63618
 21
168.9607
  0
LINE
  8
0
  6
CONTINUOUS
 62
     7
 10
-140.6362
 20
182.9607
 11
-84.80592
 21
182.9607
  0
LINE
  8
0
  6
CONTINUOUS
 62
     7
 10
-82.73537
 20
182.9607
 11
-44.63618
 21
182.9607
  0
LINE
  8
0
  6
CENTER
 62
     2
 10
-92.63618
 20
184.4607
 11
-92.63618
 21
161.9902
  0
LINE
  8
0
  6
CENTER
 62
     2
 10
-76.63618
 20
184.4607
 11
-76.63618
 21
161.9902
  0
LINE
  8
0
  6
CONTINUOUS
 62
     7
 10
-68.13618
 20
160.9607
 11
-68.13618
 21
163.9607
  0
LINE
  8
0
  6
CONTINUOUS
 62
     7
 10
-53.13618
 20
160.9607
 11
-53.13618
 21
163.9607
  0
LINE
  8
0
  6
CONTINUOUS
 62
     7
 10
-68.38615
 20
160.9607
 11
-52.88618
 21
160.9607
  0
LINE
  8
0
  6
CONTINUOUS
 62
     7
 10
-63.95463
 20
159.6787
 11
-63.88622
 21
160.4607
  0
LINE
  8
0
  6
CONTINUOUS
 62
     7
 10
-68.31776
 20
159.6786
 11
-68.38617
 21
160.4606
  0
LINE
  8
0
  6
CONTINUOUS
 62
     7
 10
-68.38615
 20
160.4607
 11
-63.88622
 21
160.4607
  0
LINE
  8
0
  6
CONTINUOUS
 62
     7
 10
-52.95461
 20
159.6787
 11
-52.88618
 21
160.4607
  0
LINE
  8
0
  6
CONTINUOUS
 62
     7
 10
-57.31779
 20
159.6787
 11
-57.3862
 21
160.4606
  0
LINE
  8
0
  6
CONTINUOUS
 62
     7
 10
-52.88618
 20
160.4607
 11
-57.38618
 21
160.4607
  0
LINE
  8
0
  6
CONTINUOUS
 62
     7
 10
-68.38615
 20
160.4607
 11
-68.38615
 21
160.9607
  0
LINE
  8
0
  6
CONTINUOUS
 62
     7
 10
-57.38618
 20
160.4607
 11
-57.38618
 21
160.9607
  0
LINE
  8
0
  6
CONTINUOUS
 62
     7
 10
-63.88622
 20
160.4607
 11
-63.88622
 21
160.9607
  0
LINE
  8
0
  6
CONTINUOUS
 62
     7
 10
-52.88618
 20
160.4607
 11
-52.88618
 21
160.9607
  0
LINE
  8
0
  6
CONTINUOUS
 62
     7
 10
-68.38615
 20
160.9607
 11
-52.88618
 21
160.9607
  0
LINE
  8
0
  6
CONTINUOUS
 62
     7
 10
-68.13618
 20
163.9607
 11
-53.13618
 21
163.9607
  0
LINE
  8
0
  6
CENTER
 62
     2
 10
-55.13618
 20
158.1495
 11
-55.13618
 21
161.5079
  0
LINE
  8
0
  6
CENTER
 62
     2
 10
-66.13618
 20
158.1155
 11
-66.13618
 21
161.6096
  0
LINE
  8
0
  6
CENTER
 62
     2
 10
-60.63618
 20
165.237
 11
-60.63618
 21
159.4075
  0
LINE
  8
0
  6
CONTINUOUS
 62
     7
 10
-140.6362
 20
-12.58408
 11
-140.6362
 21
-42.58408
  0
LINE
  8
0
  6
CONTINUOUS
 62
     7
 10
-44.63618
 20
-12.58408
 11
-44.63618
 21
-42.58408
  0
LINE
  8
0
  6
CENTER
 62
     2
 10
-48.13618
 20
-23.94942
 11
-48.13618
 21
-30.99274
  0
LINE
  8
0
  6
CENTER
 62
     2
 10
-137.1362
 20
-23.94942
 11
-137.1362
 21
-30.99274
  0
LINE
  8
0
  6
CENTER
 62
     2
 10
-140.6362
 20
-27.58407
 11
-133.5503
 21
-27.58407
  0
LINE
  8
0
  6
CENTER
 62
     2
 10
-51.63618
 20
-27.58407
 11
-44.96952
 21
-27.58407
  0
LINE
  8
0
  6
CONTINUOUS
 62
     7
 10
-140.6362
 20
-12.58408
 11
-132.1362
 21
-12.58408
  0
LINE
  8
0
  6
CONTINUOUS
 62
     7
 10
-117.1362
 20
-12.58408
 11
-116.1362
 21
-12.58408
  0
LINE
  8
0
  6
CONTINUOUS
 62
     7
 10
-101.1362
 20
-12.58408
 11
-86.39217
 21
-12.58408
  0
LINE
  8
0
  6
CONTINUOUS
 62
     7
 10
-140.6362
 20
-42.58408
 11
-132.1362
 21
-42.58408
  0
LINE
  8
0
  6
CONTINUOUS
 62
     7
 10
-117.1362
 20
-42.58408
 11
-116.1362
 21
-42.58408
  0
LINE
  8
0
  6
CONTINUOUS
 62
     7
 10
-101.1362
 20
-42.58408
 11
-78.35369
 21
-42.58408
  0
LINE
  8
0
  6
PHANTOM
 62
     2
 10
-86.63121
 20
-11.69193
 11
-78.10799
 21
-43.501
  0
LINE
  8
0
  6
PHANTOM
 62
     2
 10
-84.53361
 20
-11.79292
 11
-76.06951
 21
-43.38136
  0
LINE
  8
0
  6
CONTINUOUS
 62
     7
 10
-84.32162
 20
-12.58408
 11
-44.63618
 21
-12.58408
  0
LINE
  8
0
  6
CONTINUOUS
 62
     7
 10
-76.28314
 20
-42.58408
 11
-44.63618
 21
-42.58408
  0
LINE
  8
0
  6
CONTINUOUS
 62
     7
 10
-83.24982
 20
-16.58408
 11
-44.63618
 21
-16.58408
  0
LINE
  8
0
  6
CONTINUOUS
 62
     7
 10
-101.1362
 20
-16.58408
 11
-85.32037
 21
-16.58408
  0
LINE
  8
0
  6
CONTINUOUS
 62
     7
 10
-140.6362
 20
-16.58408
 11
-132.1362
 21
-16.58408
  0
LINE
  8
0
  6
CONTINUOUS
 62
     7
 10
-117.1362
 20
-16.58408
 11
-116.1362
 21
-16.58408
  0
LINE
  8
0
  6
CONTINUOUS
 62
     7
 10
-53.13618
 20
-21.58407
 11
-53.13618
 21
-37.5533
  0
LINE
  8
0
  6
CENTER
 62
     2
 10
-60.63618
 20
-18.47198
 11
-60.63618
 21
-46.66667
  0
LINE
  8
0
  6
CONTINUOUS
 62
     7
 10
-68.13618
 20
-21.58407
 11
-68.13618
 21
-25.5533
  0
LINE
  8
0
  6
CENTER
 62
     2
 10
-58.20448
 20
-38.58407
 11
-52.08522
 21
-38.58407
  0
LINE
  8
0
  6
CENTER
 62
     2
 10
-55.13618
 20
-35.67964
 11
-55.13618
 21
-41.47683
  0
LINE
  8
0
  6
CONTINUOUS
 62
     7
 10
-55.43617
 20
-39.88408
 11
-55.43617
 21
-39.68408
  0
LINE
  8
0
  6
CONTINUOUS
 62
     7
 10
-54.8362
 20
-39.88408
 11
-54.8362
 21
-39.68408
  0
LINE
  8
0
  6
CONTINUOUS
 62
     7
 10
-56.43617
 20
-38.28407
 11
-56.23616
 21
-38.28407
  0
LINE
  8
0
  6
CONTINUOUS
 62
     7
 10
-56.43617
 20
-38.88408
 11
-56.23616
 21
-38.88408
  0
LINE
  8
0
  6
CONTINUOUS
 62
     7
 10
-54.8362
 20
-37.48407
 11
-54.8362
 21
-37.28408
  0
LINE
  8
0
  6
CONTINUOUS
 62
     7
 10
-55.43617
 20
-37.48407
 11
-55.43617
 21
-37.28408
  0
LINE
  8
0
  6
CONTINUOUS
 62
     7
 10
-54.03621
 20
-38.28407
 11
-53.8362
 21
-38.28407
  0
LINE
  8
0
  6
CONTINUOUS
 62
     7
 10
-54.03621
 20
-38.88408
 11
-53.8362
 21
-38.88408
  0
LINE
  8
0
  6
CONTINUOUS
 62
     7
 10
-55.43617
 20
-39.88408
 11
-54.8362
 21
-39.88408
  0
LINE
  8
0
  6
CONTINUOUS
 62
     7
 10
-55.43617
 20
-37.28408
 11
-54.8362
 21
-37.28408
  0
LINE
  8
0
  6
CONTINUOUS
 62
     7
 10
-56.43617
 20
-38.28407
 11
-56.43617
 21
-38.88408
  0
LINE
  8
0
  6
CONTINUOUS
 62
     7
 10
-53.8362
 20
-38.28407
 11
-53.8362
 21
-38.88408
  0
LINE
  8
0
  6
CENTER
 62
     2
 10
-69.20448
 20
-26.58407
 11
-63.08522
 21
-26.58407
  0
LINE
  8
0
  6
CENTER
 62
     2
 10
-66.13618
 20
-23.67964
 11
-66.13618
 21
-29.47683
  0
LINE
  8
0
  6
CONTINUOUS
 62
     7
 10
-66.43617
 20
-27.88408
 11
-66.43617
 21
-27.68408
  0
LINE
  8
0
  6
CONTINUOUS
 62
     7
 10
-65.8362
 20
-27.88408
 11
-65.8362
 21
-27.68408
  0
LINE
  8
0
  6
CONTINUOUS
 62
     7
 10
-67.43617
 20
-26.28407
 11
-67.23616
 21
-26.28407
  0
LINE
  8
0
  6
CONTINUOUS
 62
     7
 10
-67.43617
 20
-26.88408
 11
-67.23616
 21
-26.88408
  0
LINE
  8
0
  6
CONTINUOUS
 62
     7
 10
-65.8362
 20
-25.48407
 11
-65.8362
 21
-25.28408
  0
LINE
  8
0
  6
CONTINUOUS
 62
     7
 10
-66.43617
 20
-25.48407
 11
-66.43617
 21
-25.28408
  0
LINE
  8
0
  6
CONTINUOUS
 62
     7
 10
-65.03621
 20
-26.28407
 11
-64.8362
 21
-26.28407
  0
LINE
  8
0
  6
CONTINUOUS
 62
     7
 10
-65.03621
 20
-26.88408
 11
-64.8362
 21
-26.88408
  0
LINE
  8
0
  6
CONTINUOUS
 62
     7
 10
-66.43617
 20
-27.88408
 11
-65.8362
 21
-27.88408
  0
LINE
  8
0
  6
CONTINUOUS
 62
     7
 10
-66.43617
 20
-25.28408
 11
-65.8362
 21
-25.28408
  0
LINE
  8
0
  6
CONTINUOUS
 62
     7
 10
-67.43617
 20
-26.28407
 11
-67.43617
 21
-26.88408
  0
LINE
  8
0
  6
CONTINUOUS
 62
     7
 10
-64.8362
 20
-26.28407
 11
-64.8362
 21
-26.88408
  0
LINE
  8
0
  6
CONTINUOUS
 62
     7
 10
-68.13618
 20
-42.58407
 11
-53.13618
 21
-42.58407
  0
LINE
  8
0
  6
CONTINUOUS
 62
     7
 10
-68.13618
 20
-21.58407
 11
-53.13618
 21
-21.58407
  0
LINE
  8
0
  6
CONTINUOUS
 62
     7
 10
-68.13618
 20
-27.61485
 11
-68.13618
 21
-42.58407
  0
LINE
  8
0
  6
CONTINUOUS
 62
     7
 10
-53.13618
 20
-39.61485
 11
-53.13618
 21
-42.58407
  0
LINE
  8
0
  6
CONTINUOUS
 62
     7
 10
-140.6362
 20
-174.1288
 11
-89.84688
 21
-174.1288
  0
LINE
  8
0
  6
CONTINUOUS
 62
     7
 10
-140.6362
 20
-174.1288
 11
-140.6362
 21
-192.1288
  0
LINE
  8
0
  6
CONTINUOUS
 62
     7
 10
-44.63618
 20
-174.1288
 11
-44.63618
 21
-192.1288
  0
LINE
  8
0
  6
CONTINUOUS
 62
     7
 10
-131.6362
 20
-174.1288
 11
-131.6362
 21
-173.1288
  0
LINE
  8
0
  6
CONTINUOUS
 62
     7
 10
-117.6362
 20
-174.1288
 11
-117.6362
 21
-173.1288
  0
LINE
  8
0
  6
CONTINUOUS
 62
     7
 10
-115.6362
 20
-174.1288
 11
-115.6362
 21
-173.1288
  0
LINE
  8
0
  6
CONTINUOUS
 62
     7
 10
-101.6362
 20
-174.1288
 11
-101.6362
 21
-173.1288
  0
LINE
  8
0
  6
CENTER
 62
     2
 10
-124.6362
 20
-172.1288
 11
-124.6362
 21
-193.6288
  0
LINE
  8
0
  6
CENTER
 62
     2
 10
-108.6362
 20
-193.6288
 11
-108.6362
 21
-172.1288
  0
LINE
  8
0
  6
CONTINUOUS
 62
     7
 10
-53.63618
 20
-173.1288
 11
-53.63618
 21
-174.1288
  0
LINE
  8
0
  6
CONTINUOUS
 62
     7
 10
-67.63618
 20
-173.1288
 11
-67.63618
 21
-174.1288
  0
LINE
  8
0
  6
CENTER
 62
     2
 10
-60.63618
 20
-172.1288
 11
-60.63618
 21
-193.6288
  0
LINE
  8
0
  6
PHANTOM
 62
     2
 10
-90.05486
 20
-173.3526
 11
-84.62186
 21
-193.6288
  0
LINE
  8
0
  6
PHANTOM
 62
     2
 10
-87.98767
 20
-173.34
 11
-82.55131
 21
-193.6288
  0
LINE
  8
0
  6
CONTINUOUS
 62
     7
 10
-87.77633
 20
-174.1288
 11
-44.63618
 21
-174.1288
  0
LINE
  8
0
  6
CONTINUOUS
 62
     7
 10
-82.95325
 20
-192.1288
 11
-44.63618
 21
-192.1288
  0
LINE
  8
0
  6
CONTINUOUS
 62
     7
 10
-140.6362
 20
-192.1288
 11
-85.02379
 21
-192.1288
  0
LINE
  8
0
  6
CENTER
 62
     2
 10
-92.63618
 20
-193.6288
 11
-92.63618
 21
-172.1288
  0
LINE
  8
0
  6
CENTER
 62
     2
 10
-76.63618
 20
-193.6288
 11
-76.63618
 21
-172.1288
  0
LINE
  8
0
  6
CONTINUOUS
 62
     7
 10
-68.13618
 20
-170.1288
 11
-68.13618
 21
-173.1288
  0
LINE
  8
0
  6
CONTINUOUS
 62
     7
 10
-53.13618
 20
-170.1288
 11
-53.13618
 21
-173.1288
  0
LINE
  8
0
  6
CONTINUOUS
 62
     7
 10
-68.38614
 20
-170.1288
 11
-52.88618
 21
-170.1288
  0
LINE
  8
0
  6
CONTINUOUS
 62
     7
 10
-52.95456
 20
-168.8469
 11
-52.88614
 21
-169.6289
  0
LINE
  8
0
  6
CONTINUOUS
 62
     7
 10
-57.31782
 20
-168.8468
 11
-57.38623
 21
-169.6288
  0
LINE
  8
0
  6
CONTINUOUS
 62
     7
 10
-52.88618
 20
-169.6288
 11
-57.38618
 21
-169.6288
  0
LINE
  8
0
  6
CONTINUOUS
 62
     7
 10
-57.38618
 20
-169.6288
 11
-57.38618
 21
-170.1288
  0
LINE
  8
0
  6
CONTINUOUS
 62
     7
 10
-52.88618
 20
-169.6288
 11
-52.88618
 21
-170.1288
  0
LINE
  8
0
  6
CONTINUOUS
 62
     7
 10
-63.95464
 20
-168.8468
 11
-63.88623
 21
-169.6288
  0
LINE
  8
0
  6
CONTINUOUS
 62
     7
 10
-68.31773
 20
-168.8468
 11
-68.38615
 21
-169.6288
  0
LINE
  8
0
  6
CONTINUOUS
 62
     7
 10
-68.38614
 20
-169.6288
 11
-63.88622
 21
-169.6288
  0
LINE
  8
0
  6
CONTINUOUS
 62
     7
 10
-68.38614
 20
-169.6288
 11
-68.38614
 21
-170.1288
  0
LINE
  8
0
  6
CONTINUOUS
 62
     7
 10
-63.88622
 20
-169.6288
 11
-63.88622
 21
-170.1288
  0
LINE
  8
0
  6
CONTINUOUS
 62
     7
 10
-68.13618
 20
-173.1288
 11
-53.13618
 21
-173.1288
  0
LINE
  8
0
  6
CENTER
 62
     2
 10
-60.63618
 20
-168.8151
 11
-60.63618
 21
-174.2965
  0
LINE
  8
0
  6
CENTER
 62
     2
 10
-55.13618
 20
-167.4326
 11
-55.13618
 21
-170.5669
  0
LINE
  8
0
  6
CENTER
 62
     2
 10
-66.13618
 20
-167.4695
 11
-66.13618
 21
-170.6406
  0
LINE
  8
0
  6
CENTER
 62
     2
 10
155.0226
 20
-28.58407
 11
155.0226
 21
-41.58407
  0
LINE
  8
0
  6
CENTER
 62
     2
 10
147.9102
 20
-35.58407
 11
161.5226
 21
-35.58407
  0
LINE
  8
0
  6
CONTINUOUS
 62
     7
 10
163.0226
 20
-12.58407
 11
149.0226
 21
-12.58407
  0
LINE
  8
0
  6
CONTINUOUS
 62
     7
 10
163.0226
 20
-42.58407
 11
145.0226
 21
-42.58407
  0
LINE
  8
0
  6
CONTINUOUS
 62
     7
 10
145.0226
 20
-16.58407
 11
145.0226
 21
-42.58407
  0
LINE
  8
0
  6
CONTINUOUS
 62
     7
 10
163.0226
 20
-12.58407
 11
163.0226
 21
-18.58407
  0
LINE
  8
0
  6
CONTINUOUS
 62
     7
 10
149.0227
 20
-12.58407
 11
145.0226
 21
-16.58407
  0
LINE
  8
0
  6
CONTINUOUS
 62
     7
 10
159.0226
 20
-22.58407
 11
159.0226
 21
-28.58407
  0
LINE
  8
0
  6
CONTINUOUS
 62
     7
 10
163.0226
 20
-18.58406
 11
159.0226
 21
-22.58407
  0
LINE
  8
0
  6
CONTINUOUS
 62
     7
 10
163.0226
 20
-32.58406
 11
159.0226
 21
-28.58406
  0
LINE
  8
0
  6
CONTINUOUS
 62
     7
 10
163.0226
 20
-32.58407
 11
163.0226
 21
-42.58407
  0
LINE
  8
0
  6
CENTER
 62
     2
 10
144.9102
 20
-19.58407
 11
158.5226
 21
-19.58407
  0
LINE
  8
0
  6
CENTER
 62
     2
 10
152.0226
 20
-12.58407
 11
152.0226
 21
-25.58407
  0
LINE
  8
0
  6
CONTINUOUS
 62
     7
 10
144.0226
 20
-16.5841
 11
145.0226
 21
-16.5841
  0
LINE
  8
0
  6
CONTINUOUS
 62
     7
 10
144.0226
 20
-42.58407
 11
145.0226
 21
-42.58407
  0
LINE
  8
0
  6
CONTINUOUS
 62
     7
 10
139.7406
 20
-36.40248
 11
140.5226
 21
-36.33407
  0
LINE
  8
0
  6
CONTINUOUS
 62
     7
 10
139.7406
 20
-40.76566
 11
140.5226
 21
-40.83408
  0
LINE
  8
0
  6
CONTINUOUS
 62
     7
 10
140.5226
 20
-40.83404
 11
140.5226
 21
-36.3341
  0
LINE
  8
0
  6
CONTINUOUS
 62
     7
 10
140.5227
 20
-39.08395
 11
141.0227
 21
-39.21792
  0
LINE
  8
0
  6
CONTINUOUS
 62
     7
 10
140.5226
 20
-38.08404
 11
141.0226
 21
-38.21802
  0
LINE
  8
0
  6
CONTINUOUS
 62
     7
 10
140.5226
 20
-40.83404
 11
141.0226
 21
-40.83404
  0
LINE
  8
0
  6
CONTINUOUS
 62
     7
 10
140.5226
 20
-36.3341
 11
141.0226
 21
-36.3341
  0
LINE
  8
0
  6
CONTINUOUS
 62
     7
 10
141.0226
 20
-21.58407
 11
141.0226
 21
-42.58407
  0
LINE
  8
0
  6
CONTINUOUS
 62
     7
 10
139.7406
 20
-24.40251
 11
140.5226
 21
-24.3341
  0
LINE
  8
0
  6
CONTINUOUS
 62
     7
 10
139.7406
 20
-28.76563
 11
140.5226
 21
-28.83405
  0
LINE
  8
0
  6
CONTINUOUS
 62
     7
 10
140.5226
 20
-28.83404
 11
140.5226
 21
-24.3341
  0
LINE
  8
0
  6
CONTINUOUS
 62
     7
 10
140.5227
 20
-27.08395
 11
141.0227
 21
-27.21792
  0
LINE
  8
0
  6
CONTINUOUS
 62
     7
 10
140.5227
 20
-26.08404
 11
141.0227
 21
-26.21802
  0
LINE
  8
0
  6
CONTINUOUS
 62
     7
 10
140.5226
 20
-28.83404
 11
141.0226
 21
-28.83404
  0
LINE
  8
0
  6
CONTINUOUS
 62
     7
 10
140.5226
 20
-24.3341
 11
141.0226
 21
-24.3341
  0
LINE
  8
0
  6
CENTER
 62
     2
 10
137.59
 20
-26.58407
 11
142.4071
 21
-26.58407
  0
LINE
  8
0
  6
CENTER
 62
     2
 10
137.3805
 20
-38.58407
 11
142.5467
 21
-38.58407
  0
LINE
  8
0
  6
CONTINUOUS
 62
     7
 10
141.0226
 20
-21.58407
 11
144.0226
 21
-21.58407
  0
LINE
  8
0
  6
CONTINUOUS
 62
     7
 10
141.0226
 20
-42.58407
 11
144.0226
 21
-42.58407
  0
LINE
  8
0
  6
CENTER
 62
     2
 10
146.423
 20
-32.08407
 11
138.7763
 21
-32.08407
  0
LINE
  8
0
  6
PHANTOM
 62
     2
 10
144.0226
 20
-42.58407
 11
144.0226
 21
-50.58407
  0
LINE
  8
0
  6
CONTINUOUS
 62
     7
 10
144.0226
 20
-16.5841
 11
144.0226
 21
-42.58407
  0
LINE
  8
0
  6
CENTER
 62
     2
 10
-125.1362
 20
-30.58407
 11
-118.1362
 21
-30.58407
  0
LINE
  8
0
  6
CENTER
 62
     2
 10
-121.6362
 20
-27.08407
 11
-121.6362
 21
-34.08407
  0
LINE
  8
0
  6
CENTER
 62
     2
 10
-109.1362
 20
-30.58407
 11
-102.1362
 21
-30.58407
  0
LINE
  8
0
  6
CENTER
 62
     2
 10
-105.6362
 20
-27.08407
 11
-105.6362
 21
-34.08407
  0
ARC
  8
0
  6
CONTINUOUS
 62
     7
 10
273.0354
 20
-235.0457
 40
2.21188
 50
0.0
 51
89.99999
  0
ARC
  8
0
  6
CONTINUOUS
 62
     7
 10
291.2836
 20
-246.9346
 40
2.2119
 50
270.0
 51
0.0
  0
ARC
  8
0
  6
CONTINUOUS
 62
     7
 10
290.1776
 20
-236.1516
 40
3.31784
 50
0.0
 51
89.99999
  0
ARC
  8
0
  6
CONTINUOUS
 62
     7
 10
310.3611
 20
-236.8128
 40
2.21189
 50
295.0
 51
0.0
  0
ARC
  8
0
  6
CONTINUOUS
 62
     7
 10
310.3611
 20
-235.0457
 40
2.21188
 50
0.0
 51
89.99999
  0
ARC
  8
0
  6
CONTINUOUS
 62
     7
 10
327.5034
 20
-232.8338
 40
3.31784
 50
291.6884
 51
0.0
  0
ARC
  8
0
  6
CONTINUOUS
 62
     7
 10
326.3973
 20
-232.0834
 40
1.10595
 50
291.689
 51
0.0
  0
ARC
  8
0
  6
PHANTOM
 62
     2
 10
-122.1602
 20
138.4449
 40
0.5
 50
270.0
 51
0.0
  0
ARC
  8
0
  6
PHANTOM
 62
     2
 10
-127.1602
 20
138.4449
 40
0.5
 50
180.0
 51
270.0
  0
ARC
  8
0
  6
PHANTOM
 62
     2
 10
-117.6362
 20
163.4607
 40
0.5
 50
0.0
 51
89.99999
  0
ARC
  8
0
  6
PHANTOM
 62
     2
 10
-131.6362
 20
163.4607
 40
0.5
 50
89.99999
 51
180.0
  0
ARC
  8
0
  6
PHANTOM
 62
     2
 10
-106.1602
 20
138.4449
 40
0.5
 50
270.0
 51
0.0
  0
ARC
  8
0
  6
PHANTOM
 62
     2
 10
-111.1602
 20
138.4449
 40
0.5
 50
180.0
 51
270.0
  0
ARC
  8
0
  6
PHANTOM
 62
     2
 10
-101.6362
 20
163.4607
 40
0.5
 50
0.0
 51
89.99999
  0
ARC
  8
0
  6
PHANTOM
 62
     2
 10
-115.6362
 20
163.4607
 40
0.5
 50
89.99999
 51
180.0
  0
ARC
  8
0
  6
PHANTOM
 62
     2
 10
-131.6362
 20
-172.6288
 40
0.5
 50
180.0
 51
270.0
  0
ARC
  8
0
  6
PHANTOM
 62
     2
 10
-117.6362
 20
-172.6288
 40
0.5
 50
270.0
 51
0.0
  0
ARC
  8
0
  6
PHANTOM
 62
     2
 10
-127.1362
 20
-147.6288
 40
0.5
 50
89.99999
 51
180.0
  0
ARC
  8
0
  6
PHANTOM
 62
     2
 10
-122.1362
 20
-147.6288
 40
0.5
 50
0.0
 51
89.99999
  0
ARC
  8
0
  6
PHANTOM
 62
     2
 10
-115.6362
 20
-172.6288
 40
0.5
 50
180.0
 51
270.0
  0
ARC
  8
0
  6
PHANTOM
 62
     2
 10
-101.6362
 20
-172.6288
 40
0.5
 50
270.0
 51
0.0
  0
ARC
  8
0
  6
PHANTOM
 62
     2
 10
-111.1362
 20
-147.6288
 40
0.5
 50
89.99999
 51
180.0
  0
ARC
  8
0
  6
PHANTOM
 62
     2
 10
-106.1362
 20
-147.6288
 40
0.5
 50
0.0
 51
89.99999
  0
ARC
  8
0
  6
PHANTOM
 62
     2
 10
-131.6362
 20
-50.58406
 40
0.5
 50
180.0
 51
270.0
  0
ARC
  8
0
  6
PHANTOM
 62
     2
 10
-117.6362
 20
-50.58406
 40
0.5
 50
270.0
 51
0.0
  0
ARC
  8
0
  6
PHANTOM
 62
     2
 10
-125.9362
 20
13.41593
 40
1.7
 50
89.99999
 51
270.0
  0
ARC
  8
0
  6
PHANTOM
 62
     2
 10
-123.3362
 20
13.41593
 40
1.7
 50
270.0
 51
89.99999
  0
CIRCLE
  8
0
  6
PHANTOM
 62
     2
 10
-125.9362
 20
13.41593
 40
0.85
  0
CIRCLE
  8
0
  6
PHANTOM
 62
     2
 10
-123.3362
 20
13.41593
 40
0.85
  0
ARC
  8
0
  6
PHANTOM
 62
     2
 10
-115.6362
 20
-50.58406
 40
0.5
 50
180.0
 51
270.0
  0
ARC
  8
0
  6
PHANTOM
 62
     2
 10
-101.6362
 20
-50.58406
 40
0.5
 50
270.0
 51
0.0
  0
ARC
  8
0
  6
PHANTOM
 62
     2
 10
-109.9362
 20
13.41593
 40
1.7
 50
89.99999
 51
270.0
  0
ARC
  8
0
  6
PHANTOM
 62
     2
 10
-107.3362
 20
13.41593
 40
1.7
 50
270.0
 51
89.99999
  0
CIRCLE
  8
0
  6
PHANTOM
 62
     2
 10
-109.9362
 20
13.41593
 40
0.85
  0
CIRCLE
  8
0
  6
PHANTOM
 62
     2
 10
-107.3362
 20
13.41593
 40
0.85
  0
ARC
  8
0
  6
PHANTOM
 62
     2
 10
143.5226
 20
-50.58407
 40
0.5
 50
270.0
 51
0.0
  0
ARC
  8
0
  6
PHANTOM
 62
     2
 10
120.5226
 20
-50.58407
 40
0.5
 50
180.0
 51
270.0
  0
ARC
  8
0
  6
PHANTOM
 62
     2
 10
118.5226
 20
14.61592
 40
0.5
 50
89.99999
 51
180.0
  0
ARC
  8
0
  6
PHANTOM
 62
     2
 10
118.5226
 20
12.21593
 40
0.5
 50
180.0
 51
270.0
  0
ARC
  8
0
  6
CONTINUOUS
 62
     7
 10
-53.75156
 20
159.7484
 40
0.8
 50
285.4427
 51
354.9994
  0
ARC
  8
0
  6
CONTINUOUS
 62
     7
 10
-55.13618
 20
164.7607
 40
6.0
 50
269.9999
 51
285.4426
  0
ARC
  8
0
  6
CONTINUOUS
 62
     7
 10
-56.52083
 20
159.7484
 40
0.8
 50
185.0006
 51
254.5572
  0
ARC
  8
0
  6
CONTINUOUS
 62
     7
 10
-55.13618
 20
164.7607
 40
6.0
 50
254.5573
 51
269.9999
  0
ARC
  8
0
  6
CONTINUOUS
 62
     7
 10
-66.13618
 20
164.7607
 40
6.0
 50
270.0
 51
285.4426
  0
ARC
  8
0
  6
CONTINUOUS
 62
     7
 10
-64.75156
 20
159.7484
 40
0.8
 50
285.4427
 51
354.9994
  0
ARC
  8
0
  6
CONTINUOUS
 62
     7
 10
-67.52083
 20
159.7484
 40
0.8
 50
185.0005
 51
254.5572
  0
ARC
  8
0
  6
CONTINUOUS
 62
     7
 10
-66.13618
 20
164.7607
 40
6.0
 50
254.5573
 51
269.9999
  0
CIRCLE
  8
0
  6
CONTINUOUS
 62
     7
 10
-48.13618
 20
-27.58407
 40
2.1
  0
CIRCLE
  8
0
  6
CONTINUOUS
 62
     7
 10
-137.1362
 20
-27.58407
 40
2.1
  0
ARC
  8
0
  6
CONTINUOUS
 62
     7
 10
-65.03621
 20
-25.48407
 40
0.8
 50
180.0
 51
270.0
  0
CIRCLE
  8
0
  6
CONTINUOUS
 62
     7
 10
-55.13618
 20
-38.58407
 40
2.25
  0
ARC
  8
0
  6
CONTINUOUS
 62
     7
 10
-54.03621
 20
-39.68408
 40
0.8
 50
89.99999
 51
180.0
  0
ARC
  8
0
  6
CONTINUOUS
 62
     7
 10
-56.23616
 20
-39.68408
 40
0.8
 50
0.0
 51
89.99999
  0
ARC
  8
0
  6
CONTINUOUS
 62
     7
 10
-56.23616
 20
-37.48407
 40
0.8
 50
270.0
 51
0.0
  0
ARC
  8
0
  6
CONTINUOUS
 62
     7
 10
-54.03621
 20
-37.48407
 40
0.8
 50
180.0
 51
270.0
  0
CIRCLE
  8
0
  6
CONTINUOUS
 62
     7
 10
-66.13618
 20
-26.58407
 40
2.25
  0
ARC
  8
0
  6
CONTINUOUS
 62
     7
 10
-65.03621
 20
-27.68408
 40
0.8
 50
89.99999
 51
180.0
  0
ARC
  8
0
  6
CONTINUOUS
 62
     7
 10
-67.23616
 20
-27.68408
 40
0.8
 50
0.0
 51
89.99999
  0
ARC
  8
0
  6
CONTINUOUS
 62
     7
 10
-67.23616
 20
-25.48407
 40
0.8
 50
270.0
 51
0.0
  0
ARC
  8
0
  6
CONTINUOUS
 62
     7
 10
-67.52083
 20
-168.9165
 40
0.8
 50
105.4427
 51
174.9995
  0
ARC
  8
0
  6
CONTINUOUS
 62
     7
 10
-66.13618
 20
-173.9288
 40
6.0
 50
89.99999
 51
105.4426
  0
ARC
  8
0
  6
CONTINUOUS
 62
     7
 10
-55.13618
 20
-173.9288
 40
6.0
 50
74.55729
 51
89.99996
  0
ARC
  8
0
  6
CONTINUOUS
 62
     7
 10
-53.75156
 20
-168.9165
 40
0.8
 50
5.00058
 51
74.55726
  0
ARC
  8
0
  6
CONTINUOUS
 62
     7
 10
-55.13618
 20
-173.9288
 40
6.0
 50
89.99999
 51
105.4427
  0
ARC
  8
0
  6
CONTINUOUS
 62
     7
 10
-56.52083
 20
-168.9165
 40
0.8
 50
105.4427
 51
174.9994
  0
ARC
  8
0
  6
CONTINUOUS
 62
     7
 10
-66.13618
 20
-173.9288
 40
6.0
 50
74.55729
 51
89.99999
  0
ARC
  8
0
  6
CONTINUOUS
 62
     7
 10
-64.75156
 20
-168.9165
 40
0.8
 50
5.00058
 51
74.55726
  0
CIRCLE
  8
0
  6
CONTINUOUS
 62
     7
 10
155.0226
 20
-35.58407
 40
4.864
  0
CIRCLE
  8
0
  6
CONTINUOUS
 62
     7
 10
155.0226
 20
-35.58407
 40
4.283
  0
CIRCLE
  8
0
  6
CONTINUOUS
 62
     7
 10
152.0226
 20
-19.58407
 40
4.864
  0
CIRCLE
  8
0
  6
CONTINUOUS
 62
     7
 10
152.0226
 20
-19.58407
 40
4.283
  0
ARC
  8
0
  6
CONTINUOUS
 62
     7
 10
139.8103
 20
-27.96872
 40
0.8
 50
195.4426
 51
264.9994
  0
ARC
  8
0
  6
CONTINUOUS
 62
     7
 10
144.8226
 20
-26.58407
 40
6.0
 50
180.0
 51
195.4427
  0
ARC
  8
0
  6
CONTINUOUS
 62
     7
 10
139.8103
 20
-25.19944
 40
0.8
 50
95.00057
 51
164.5573
  0
ARC
  8
0
  6
CONTINUOUS
 62
     7
 10
144.8226
 20
-38.58407
 40
6.0
 50
164.5573
 51
180.0
  0
ARC
  8
0
  6
CONTINUOUS
 62
     7
 10
139.8103
 20
-37.19944
 40
0.8
 50
95.00057
 51
164.5573
  0
ARC
  8
0
  6
CONTINUOUS
 62
     7
 10
139.8103
 20
-39.96872
 40
0.8
 50
195.4427
 51
264.9994
  0
ARC
  8
0
  6
CONTINUOUS
 62
     7
 10
144.8226
 20
-38.58407
 40
6.0
 50
180.0
 51
195.4426
  0
ARC
  8
0
  6
CONTINUOUS
 62
     7
 10
144.8226
 20
-26.58407
 40
6.0
 50
164.5573
 51
180.0
  0
CIRCLE
  8
0
  6
PHANTOM
 62
     2
 10
-121.6362
 20
-30.58407
 40
1.75
  0
CIRCLE
  8
0
  6
PHANTOM
 62
     2
 10
-121.6362
 20
-30.58407
 40
2.5
  0
CIRCLE
  8
0
  6
PHANTOM
 62
     2
 10
-105.6362
 20
-30.58407
 40
1.75
  0
CIRCLE
  8
0
  6
PHANTOM
 62
     2
 10
-105.6362
 20
-30.58407
 40
2.5
  0
TEXT
  8
0
  6
CONTINUOUS
 62
     7
 10
-350.9787
 20
200.5946
 40
8.5
  1
MODEL : 111M*F
 41
0.8
  7
STANDARD
  0
TEXT
  8
0
  6
CONTINUOUS
 62
     7
 10
229.0661
 20
236.2625
 40
8.5
  1
DATE : AUG ,1989
 41
0.8
  7
STANDARD
  0
TEXT
  8
0
  6
CONTINUOUS
 62
     7
 10
-322.9299
 20
235.5575
 40
10.0
  1
111M*F
 41
0.8
  7
STANDARD
  0
TEXT
  8
0
  6
CONTINUOUS
 62
     7
 10
-94.96649
 20
61.96784
 40
7.0
  1
P
 41
0.8
  7
STANDARD
  0
TEXT
  8
0
  6
CONTINUOUS
 62
     7
 10
-94.96649
 20
79.93857
 40
7.0
  1
L
 41
0.8
  7
STANDARD
  0
TEXT
  8
0
  6
CONTINUOUS
 62
     7
 10
-337.2688
 20
-243.5423
 40
7.0
  1
NOTE : L,P
 41
0.8
  7
STANDARD
  0
TEXT
  8
0
  6
CONTINUOUS
 62
     7
 10
150.5199
 20
-40.90977
 40
2.0
  1
P
 50
90.0
 41
0.8
  7
STANDARD
  0
TEXT
  8
0
  6
CONTINUOUS
 62
     7
 10
149.2746
 20
-25.74606
 40
2.0
  1
R
 50
90.0
 41
0.8
  7
STANDARD
  0
TEXT
  8
0
  6
CONTINUOUS
 62
     7
 10
-260.55733303
 20
-243.7308
 40
7.0
  1
CATALOG
 41
0.8
  7
STANDARD
  0
TEXT
  8
0
  6
CONTINUOUS
 62
     7
 10
-120.4562
 20
-28.0403
 40
2.0
  1
A
 41
0.8
  7
STANDARD
  0
TEXT
  8
0
  6
CONTINUOUS
 62
     7
 10
-104.4562
 20
-28.0403
 40
2.0
  1
A
 41
0.8
  7
STANDARD
  0
ENDSEC
  0
EOF
