  0
SECTION
  2
HEADER
  9
$ACADVER
  1
AC1009
  9
$DWGCODEPAGE
  3
dos932
  9
$INSBASE
 10
0.0
 20
0.0
 30
0.0
  9
$EXTMIN
 10
-194.25
 20
-133.5
 30
0.0
  9
$EXTMAX
 10
194.80000305
 20
132.6000061
 30
0.0
  9
$LIMMIN
 10
-210.0
 20
-148.5
  9
$LIMMAX
 10
210.0
 20
148.5
  9
$ORTHOMODE
 70
       0
  9
$REGENMODE
 70
       1
  9
$FILLMODE
 70
       1
  9
$QTEXTMODE
 70
       0
  9
$MIRRTEXT
 70
       1
  9
$DRAGMODE
 70
       2
  9
$LTSCALE
 40
1.0
  9
$OSMODE
 70
       0
  9
$ATTMODE
 70
       1
  9
$TEXTSIZE
 40
3.20000005
  9
$TRACEWID
 40
0.05
  9
$TEXTSTYLE
  7
MX_NOTE_STANDARD
  9
$CLAYER
  8
0
  9
$CELTYPE
  6
CONTINUOUS
  9
$CECOLOR
 62
     256
  9
$DIMSCALE
 40
1.0
  9
$DIMASZ
 40
2.5
  9
$DIMEXO
 40
1.5
  9
$DIMDLI
 40
3.75
  9
$DIMRND
 40
0.0
  9
$DIMDLE
 40
0.0
  9
$DIMEXE
 40
1.5
  9
$DIMTP
 40
0.0
  9
$DIMTM
 40
0.0
  9
$DIMTXT
 40
3.20000005
  9
$DIMCEN
 40
2.5
  9
$DIMTSZ
 40
0.0
  9
$DIMTOL
 70
       0
  9
$DIMLIM
 70
       0
  9
$DIMTIH
 70
       0
  9
$DIMTOH
 70
       0
  9
$DIMSE1
 70
       0
  9
$DIMSE2
 70
       0
  9
$DIMTAD
 70
       1
  9
$DIMZIN
 70
       8
  9
$DIMBLK
  1

  9
$DIMASO
 70
       1
  9
$DIMSHO
 70
       1
  9
$DIMPOST
  1

  9
$DIMAPOST
  1

  9
$DIMALT
 70
       0
  9
$DIMALTD
 70
       4
  9
$DIMALTF
 40
0.03937008
  9
$DIMLFAC
 40
1.0
  9
$DIMTOFL
 70
       1
  9
$DIMTVP
 40
0.0
  9
$DIMTIX
 70
       0
  9
$DIMSOXD
 70
       0
  9
$DIMSAH
 70
       1
  9
$DIMBLK1
  1
_OPEN30
  9
$DIMBLK2
  1
_OPEN30
  9
$DIMSTYLE
  2
MXDIMSTYLE
  9
$DIMCLRD
 70
       0
  9
$DIMCLRE
 70
       0
  9
$DIMCLRT
 70
       0
  9
$DIMTFAC
 40
1.0
  9
$DIMGAP
 40
1.0
  9
$LUNITS
 70
       2
  9
$LUPREC
 70
       4
  9
$AXISMODE
 70
       0
  9
$AXISUNIT
 10
0.0
 20
0.0
  9
$SKETCHINC
 40
0.1
  9
$FILLETRAD
 40
0.0
  9
$AUNITS
 70
       0
  9
$AUPREC
 70
       0
  9
$MENU
  1
acad
  9
$ELEVATION
 40
0.0
  9
$PELEVATION
 40
0.0
  9
$THICKNESS
 40
0.0
  9
$LIMCHECK
 70
       0
  9
$BLIPMODE
 70
       1
  9
$CHAMFERA
 40
0.0
  9
$CHAMFERB
 40
0.0
  9
$SKPOLY
 70
       0
  9
$TDCREATE
 40
2454090.698321759
  9
$TDUPDATE
 40
2454090.698321759
  9
$TDINDWG
 40
0.0000000000
  9
$TDUSRTIMER
 40
0.0000000000
  9
$USRTIMER
 70
       1
  9
$ANGBASE
 50
0.0
  9
$ANGDIR
 70
       0
  9
$PDMODE
 70
       0
  9
$PDSIZE
 40
0.0
  9
$PLINEWID
 40
0.0
  9
$COORDS
 70
       1
  9
$SPLFRAME
 70
       0
  9
$SPLINETYPE
 70
       6
  9
$SPLINESEGS
 70
       8
  9
$ATTDIA
 70
       0
  9
$ATTREQ
 70
       1
  9
$HANDLING
 70
       1
  9
$HANDSEED
  5
322
  9
$SURFTAB1
 70
       6
  9
$SURFTAB2
 70
       6
  9
$SURFTYPE
 70
       6
  9
$SURFU
 70
       6
  9
$SURFV
 70
       6
  9
$UCSNAME
  2

  9
$UCSORG
 10
0.0
 20
0.0
 30
0.0
  9
$UCSXDIR
 10
1.0
 20
0.0
 30
0.0
  9
$UCSYDIR
 10
0.0
 20
1.0
 30
0.0
  9
$PUCSNAME
  2

  9
$PUCSORG
 10
0.0
 20
0.0
 30
0.0
  9
$PUCSXDIR
 10
1.0
 20
0.0
 30
0.0
  9
$PUCSYDIR
 10
0.0
 20
1.0
 30
0.0
  9
$USERI1
 70
       0
  9
$USERI2
 70
       0
  9
$USERI3
 70
       0
  9
$USERI4
 70
       0
  9
$USERI5
 70
       0
  9
$USERR1
 40
0.0
  9
$USERR2
 40
0.0
  9
$USERR3
 40
0.0
  9
$USERR4
 40
0.0
  9
$USERR5
 40
0.0
  9
$WORLDVIEW
 70
       1
  9
$SHADEDGE
 70
       3
  9
$SHADEDIF
 70
      70
  9
$TILEMODE
 70
       1
  9
$MAXACTVP
 70
      16
  9
$PINSBASE
 10
0.0
 20
0.0
 30
0.0
  9
$PLIMCHECK
 70
       0
  9
$PEXTMIN
 10
1.00000000E+20
 20
1.00000000E+20
 30
1.00000000E+20
  9
$PEXTMAX
 10
-1.00000000E+20
 20
-1.00000000E+20
 30
-1.00000000E+20
  9
$PLIMMIN
 10
0.0
 20
0.0
  9
$PLIMMAX
 10
12.0
 20
9.0
  9
$UNITMODE
 70
       0
  9
$VISRETAIN
 70
       0
  9
$PLINEGEN
 70
       1
  9
$PSLTSCALE
 70
       0
  9
$TREEDEPTH
 70
    3020
  0
ENDSEC
  0
SECTION
  2
TABLES
  0
TABLE
  2
VPORT
 70
       1
  0
VPORT
  2
*ACTIVE
 70
       0
 10
0.0
 20
0.0
 11
1.0
 21
1.0
 12
0.0
 22
0.0
 13
0.0
 23
0.0
 14
1.0
 24
1.0
 15
0.0
 25
0.0
 16
0.0
 26
0.0
 36
1.0
 17
0.0
 27
0.0
 37
0.0
 40
299.97
 41
1.73205081
 42
50.0
 43
0.0
 44
0.0
 50
0.0
 51
0.0
 71
       0
 72
     100
 73
       1
 74
       1
 75
       0
 76
       0
 77
       0
 78
       0
  0
ENDTAB
  0
TABLE
  2
LTYPE
 70
       1
  0
LTYPE
  2
CONTINUOUS
 70
      64
  3
Solid line
 72
      65
 73
       0
 40
0.0
  0
ENDTAB
  0
TABLE
  2
LAYER
 70
       2
  0
LAYER
  2
0
 70
       0
 62
       7
  6
CONTINUOUS
  0
LAYER
  2
DEFPOINTS
 70
       0
 62
       7
  6
CONTINUOUS
  0
ENDTAB
  0
TABLE
  2
STYLE
 70
       1
  0
STYLE
  2
MX_NOTE_STANDARD
 70
       0
 40
0.0
 41
1.0
 50
0.0
 71
       0
 42
3.20000005
  3
txt.shx
  4
extfont.shx
  0
ENDTAB
  0
TABLE
  2
VIEW
 70
       0
  0
ENDTAB
  0
TABLE
  2
UCS
 70
       0
  0
ENDTAB
  0
TABLE
  2
APPID
 70
       1
  0
APPID
  2
ACAD
 70
       0
  0
ENDTAB
  0
TABLE
  2
DIMSTYLE
 70
       1
  0
DIMSTYLE
  2
MXDIMSTYLE
 70
       0
  3

  4

  5

  6
_OPEN30
  7
_OPEN30
 40
1.0
 41
2.5
 42
1.5
 43
3.75
 44
1.5
 45
0.0
 46
0.0
 47
0.0
 48
0.0
 71
       0
 72
       0
 73
       0
 74
       0
 75
       0
 76
       0
 77
       1
 78
       8
140
3.20000005
141
2.5
142
0.0
143
0.03937008
144
1.0
145
0.0
146
1.0
147
1.0
170
       0
171
       4
172
       1
173
       1
174
       0
175
       0
176
       0
177
       0
178
       0
  0
ENDTAB
  0
ENDSEC
  0
SECTION
  2
BLOCKS
  0
BLOCK
  8
0
  6
BYBLOCK
 62
       0
  5
1F
  2
_OPEN30
 70
       2
 10
0.0
 20
0.0
 30
0.0
  3
_OPEN30
  0
LINE
  8
0
  6
BYBLOCK
 62
       0
  5
20
 10
-1.0
 20
0.267949
 30
0.0
 11
0.0
 21
0.0
 31
0.0
  0
LINE
  8
0
  6
BYBLOCK
 62
       0
  5
21
 10
0.0
 20
0.0
 30
0.0
 11
-1.0
 21
-0.267949
 31
0.0
  0
LINE
  8
0
  6
BYBLOCK
 62
       0
  5
22
 10
0.0
 20
0.0
 30
0.0
 11
-1.0
 21
0.0
 31
0.0
  0
ENDBLK
  8
0
  6
BYBLOCK
 62
       0
  5
23
  0
ENDSEC
  0
SECTION
  2
ENTITIES
  0
ARC
  8
0
  6
CONTINUOUS
 62
       7
  5
24
 10
104.5
 20
11.0
 30
0.0
 40
2.54286908
 50
6.77536236
 51
353.22463764
  0
LINE
  8
0
  6
CONTINUOUS
 62
       7
  5
25
 10
106.72511052
 20
11.3
 30
0.0
 11
107.02511052
 21
11.3
 31
0.0
  0
LINE
  8
0
  6
CONTINUOUS
 62
       7
  5
26
 10
106.72511052
 20
10.7
 30
0.0
 11
107.02511052
 21
10.7
 31
0.0
  0
LINE
  8
0
  6
CONTINUOUS
 62
       7
  5
27
 10
107.00511052
 20
10.54
 30
0.0
 11
106.69511052
 21
10.54
 31
0.0
  0
ARC
  8
0
  6
CONTINUOUS
 62
       7
  5
28
 10
93.5
 20
29.0
 30
0.0
 40
2.54286908
 50
6.77536236
 51
353.22463764
  0
LINE
  8
0
  6
CONTINUOUS
 62
       7
  5
29
 10
95.72511052
 20
29.3
 30
0.0
 11
96.02511052
 21
29.3
 31
0.0
  0
LINE
  8
0
  6
CONTINUOUS
 62
       7
  5
2A
 10
95.72511052
 20
28.7
 30
0.0
 11
96.02511052
 21
28.7
 31
0.0
  0
LINE
  8
0
  6
CONTINUOUS
 62
       7
  5
2B
 10
96.00511052
 20
28.54
 30
0.0
 11
95.69511052
 21
28.54
 31
0.0
  0
LINE
  8
0
  6
CONTINUOUS
 62
       7
  5
2C
 10
92.0
 20
-1.5
 30
0.0
 11
106.0
 21
-1.5
 31
0.0
  0
LINE
  8
0
  6
CONTINUOUS
 62
       7
  5
2D
 10
91.70000076
 20
3.5
 30
0.0
 11
97.25
 21
3.5
 31
0.0
  0
LINE
  8
0
  6
CONTINUOUS
 62
       7
  5
2E
 10
97.7
 20
3.0
 30
0.0
 11
97.7
 21
-1.0
 31
0.0
  0
LINE
  8
0
  6
CONTINUOUS
 62
       7
  5
2F
 10
91.5
 20
6.0
 30
0.0
 11
106.5
 21
6.0
 31
0.0
  0
LINE
  8
0
  6
CONTINUOUS
 62
       7
  5
30
 10
106.5
 20
9.42959141
 30
0.0
 11
106.5
 21
-1.0
 31
0.0
  0
ARC
  8
0
  6
CONTINUOUS
 62
       7
  5
31
 10
105.99921181
 20
-0.99921181
 30
0.0
 40
0.50078881
 50
270.09017788
 51
359.90982212
  0
ARC
  8
0
  6
CONTINUOUS
 62
       7
  5
32
 10
97.20564395
 20
3.00564395
 30
0.0
 40
0.49438827
 50
359.34589612
 51
90.65410388
  0
ARC
  8
0
  6
CONTINUOUS
 62
       7
  5
33
 10
92.00565426
 20
4.00565426
 30
0.0
 40
0.50568587
 50
180.64065837
 51
269.35934163
  0
ARC
  8
0
  6
CONTINUOUS
 62
       7
  5
34
 10
98.20564512
 20
-0.99435488
 30
0.0
 40
0.50567663
 50
180.63963425
 51
269.36036575
  0
ARC
  8
0
  6
CONTINUOUS
 62
       7
  5
35
 10
104.5
 20
11.0
 30
0.0
 40
2.7
 50
42.2054464
 51
317.7945536
  0
LINE
  8
0
  6
CONTINUOUS
 62
       7
  5
36
 10
91.70000076
 20
2.32817459
 30
0.0
 11
91.70000076
 21
3.5
 31
0.0
  0
LINE
  8
0
  6
CONTINUOUS
 62
       7
  5
37
 10
97.29999924
 20
2.32817459
 30
0.0
 11
97.29999924
 21
3.5
 31
0.0
  0
ARC
  8
0
  6
CONTINUOUS
 62
       7
  5
38
 10
96.63333321
 20
2.32817459
 30
0.0
 40
0.66666669
 50
299.49235568
 51
0.00001799
  0
ARC
  8
0
  6
CONTINUOUS
 62
       7
  5
39
 10
92.36666679
 20
2.32817459
 30
0.0
 40
0.66666669
 50
179.99998201
 51
240.50764432
  0
ARC
  8
0
  6
CONTINUOUS
 62
       7
  5
3A
 10
94.5
 20
6.10000038
 30
0.0
 40
5.0
 50
240.50764432
 51
299.49233837
  0
ARC
  8
0
  6
CONTINUOUS
 62
       7
  5
3B
 10
92.0
 20
-1.0
 30
0.0
 40
0.5
 50
180.0
 51
270.0
  0
LINE
  8
0
  6
CONTINUOUS
 62
       7
  5
3C
 10
103.58076086
 20
10.08076119
 30
0.0
 11
105.41923889
 21
11.91923906
 31
0.0
  0
LINE
  8
0
  6
CONTINUOUS
 62
       7
  5
3D
 10
103.58076149
 20
11.91923808
 30
0.0
 11
105.41923868
 21
10.08076073
 31
0.0
  0
CIRCLE
  8
0
  6
CONTINUOUS
 62
       7
  5
3E
 10
104.5
 20
11.0
 30
0.0
 40
2.25
  0
LINE
  8
0
  6
CONTINUOUS
 62
       7
  5
3F
 10
96.18
 20
107.0
 30
0.0
 11
96.82
 21
107.0
 31
0.0
  0
LINE
  8
0
  6
CONTINUOUS
 62
       7
  5
40
 10
101.18
 20
107.0
 30
0.0
 11
101.82
 21
107.0
 31
0.0
  0
LINE
  8
0
  6
CONTINUOUS
 62
       7
  5
41
 10
91.5
 20
34.0
 30
0.0
 11
106.5
 21
34.0
 31
0.0
  0
LINE
  8
0
  6
CONTINUOUS
 62
       2
  5
42
 10
96.62
 20
47.5
 30
0.0
 11
101.46
 21
47.5
 31
0.0
  0
LINE
  8
0
  6
CONTINUOUS
 62
       2
  5
43
 10
98.5
 20
25.0
 30
0.0
 11
105.5
 21
25.0
 31
0.0
  0
LINE
  8
0
  6
CONTINUOUS
 62
       7
  5
44
 10
91.5
 20
77.2
 30
0.0
 11
91.5
 21
51.0
 31
0.0
  0
LINE
  8
0
  6
CONTINUOUS
 62
       7
  5
45
 10
106.5
 20
77.2
 30
0.0
 11
106.5
 21
51.0
 31
0.0
  0
LINE
  8
0
  6
CONTINUOUS
 62
       7
  5
46
 10
91.5
 20
76.2
 30
0.0
 11
92.0
 21
76.2
 31
0.0
  0
LINE
  8
0
  6
CONTINUOUS
 62
       7
  5
47
 10
91.5
 20
51.0
 30
0.0
 11
106.5
 21
51.0
 31
0.0
  0
LINE
  8
0
  6
CONTINUOUS
 62
       7
  5
48
 10
106.0
 20
77.0
 30
0.0
 11
106.0
 21
72.0
 31
0.0
  0
LINE
  8
0
  6
CONTINUOUS
 62
       7
  5
49
 10
92.0
 20
77.0
 30
0.0
 11
92.0
 21
72.0
 31
0.0
  0
LINE
  8
0
  6
CONTINUOUS
 62
       7
  5
4A
 10
106.0
 20
76.2
 30
0.0
 11
106.5
 21
76.2
 31
0.0
  0
LINE
  8
0
  6
CONTINUOUS
 62
       7
  5
4B
 10
92.0
 20
71.2
 30
0.0
 11
92.0
 21
51.8
 31
0.0
  0
LINE
  8
0
  6
CONTINUOUS
 62
       7
  5
4C
 10
106.0
 20
71.2
 30
0.0
 11
106.0
 21
51.8
 31
0.0
  0
LINE
  8
0
  6
CONTINUOUS
 62
       7
  5
4D
 10
93.5
 20
52.5
 30
0.0
 11
104.5
 21
52.5
 31
0.0
  0
LINE
  8
0
  6
CONTINUOUS
 62
       7
  5
4E
 10
93.5
 20
61.0
 30
0.0
 11
104.5
 21
61.0
 31
0.0
  0
LINE
  8
0
  6
CONTINUOUS
 62
       7
  5
4F
 10
93.5
 20
61.0
 30
0.0
 11
93.5
 21
52.5
 31
0.0
  0
LINE
  8
0
  6
CONTINUOUS
 62
       7
  5
50
 10
104.5
 20
61.0
 30
0.0
 11
104.5
 21
52.5
 31
0.0
  0
LINE
  8
0
  6
CONTINUOUS
 62
       2
  5
51
 10
95.0
 20
63.5
 30
0.0
 11
103.0
 21
63.5
 31
0.0
  0
LINE
  8
0
  6
CONTINUOUS
 62
       7
  5
52
 10
97.0
 20
64.5
 30
0.0
 11
101.0
 21
64.5
 31
0.0
  0
LINE
  8
0
  6
CONTINUOUS
 62
       7
  5
53
 10
97.0
 20
62.5
 30
0.0
 11
101.0
 21
62.5
 31
0.0
  0
LINE
  8
0
  6
CONTINUOUS
 62
       7
  5
54
 10
97.0
 20
64.5
 30
0.0
 11
97.0
 21
62.5
 31
0.0
  0
LINE
  8
0
  6
CONTINUOUS
 62
       7
  5
55
 10
101.0
 20
64.5
 30
0.0
 11
101.0
 21
62.5
 31
0.0
  0
LINE
  8
0
  6
CONTINUOUS
 62
       7
  5
56
 10
96.5
 20
65.0
 30
0.0
 11
101.5
 21
65.0
 31
0.0
  0
LINE
  8
0
  6
CONTINUOUS
 62
       7
  5
57
 10
96.5
 20
65.0
 30
0.0
 11
96.5
 21
62.0
 31
0.0
  0
LINE
  8
0
  6
CONTINUOUS
 62
       7
  5
58
 10
96.5
 20
62.0
 30
0.0
 11
101.5
 21
62.0
 31
0.0
  0
LINE
  8
0
  6
CONTINUOUS
 62
       7
  5
59
 10
101.5
 20
65.0
 30
0.0
 11
101.5
 21
62.0
 31
0.0
  0
LINE
  8
0
  6
CONTINUOUS
 62
       7
  5
5A
 10
97.0
 20
64.5
 30
0.0
 11
96.5
 21
65.0
 31
0.0
  0
LINE
  8
0
  6
CONTINUOUS
 62
       7
  5
5B
 10
101.0
 20
64.5
 30
0.0
 11
101.5
 21
65.0
 31
0.0
  0
LINE
  8
0
  6
CONTINUOUS
 62
       7
  5
5C
 10
101.0
 20
62.5
 30
0.0
 11
101.5
 21
62.0
 31
0.0
  0
LINE
  8
0
  6
CONTINUOUS
 62
       7
  5
5D
 10
97.0
 20
62.5
 30
0.0
 11
96.5
 21
62.0
 31
0.0
  0
LINE
  8
0
  6
CONTINUOUS
 62
       7
  5
5E
 10
92.5
 20
79.2
 30
0.0
 11
92.68
 21
79.2
 31
0.0
  0
LINE
  8
0
  6
CONTINUOUS
 62
       7
  5
5F
 10
92.0
 20
77.0
 30
0.0
 11
94.8
 21
77.0
 31
0.0
  0
LINE
  8
0
  6
CONTINUOUS
 62
       7
  5
60
 10
91.5
 20
77.2
 30
0.0
 11
92.5
 21
79.2
 31
0.0
  0
LINE
  8
0
  6
CONTINUOUS
 62
       7
  5
61
 10
106.5
 20
77.2
 30
0.0
 11
105.5
 21
79.2
 31
0.0
  0
LINE
  8
0
  6
CONTINUOUS
 62
       7
  5
62
 10
93.5
 20
77.8
 30
0.0
 11
91.95
 21
77.8
 31
0.0
  0
LINE
  8
0
  6
CONTINUOUS
 62
       7
  5
63
 10
91.95
 20
77.8
 30
0.0
 11
91.95
 21
77.2
 31
0.0
  0
LINE
  8
0
  6
CONTINUOUS
 62
       7
  5
64
 10
92.25
 20
78.5
 30
0.0
 11
92.25
 21
77.8
 31
0.0
  0
LINE
  8
0
  6
CONTINUOUS
 62
       7
  5
65
 10
95.0
 20
85.0
 30
0.0
 11
103.0
 21
85.0
 31
0.0
  0
LINE
  8
0
  6
CONTINUOUS
 62
       7
  5
66
 10
95.0
 20
79.33
 30
0.0
 11
103.0
 21
79.33
 31
0.0
  0
LINE
  8
0
  6
CONTINUOUS
 62
       7
  5
67
 10
104.5
 20
79.2
 30
0.0
 11
105.5
 21
79.2
 31
0.0
  0
LINE
  8
0
  6
CONTINUOUS
 62
       7
  5
68
 10
92.0
 20
72.0
 30
0.0
 11
106.0
 21
72.0
 31
0.0
  0
LINE
  8
0
  6
CONTINUOUS
 62
       7
  5
69
 10
103.2
 20
77.0
 30
0.0
 11
103.2
 21
72.0
 31
0.0
  0
LINE
  8
0
  6
CONTINUOUS
 62
       7
  5
6A
 10
94.8
 20
77.0
 30
0.0
 11
94.8
 21
72.0
 31
0.0
  0
LINE
  8
0
  6
CONTINUOUS
 62
       7
  5
6B
 10
103.2
 20
77.0
 30
0.0
 11
106.0
 21
77.0
 31
0.0
  0
LINE
  8
0
  6
CONTINUOUS
 62
       7
  5
6C
 10
93.5
 20
87.0
 30
0.0
 11
104.5
 21
87.0
 31
0.0
  0
LINE
  8
0
  6
CONTINUOUS
 62
       7
  5
6D
 10
103.0
 20
72.0
 30
0.0
 11
103.0
 21
87.0
 31
0.0
  0
LINE
  8
0
  6
CONTINUOUS
 62
       7
  5
6E
 10
95.0
 20
72.0
 30
0.0
 11
95.0
 21
87.0
 31
0.0
  0
LINE
  8
0
  6
CONTINUOUS
 62
       7
  5
6F
 10
93.5
 20
77.0
 30
0.0
 11
93.5
 21
87.0
 31
0.0
  0
LINE
  8
0
  6
CONTINUOUS
 62
       7
  5
70
 10
104.5
 20
77.0
 30
0.0
 11
104.5
 21
87.0
 31
0.0
  0
LINE
  8
0
  6
CONTINUOUS
 62
       7
  5
71
 10
95.65
 20
97.0
 30
0.0
 11
97.35
 21
97.0
 31
0.0
  0
LINE
  8
0
  6
CONTINUOUS
 62
       7
  5
72
 10
97.35
 20
87.0
 30
0.0
 11
97.35
 21
91.67
 31
0.0
  0
LINE
  8
0
  6
CONTINUOUS
 62
       7
  5
73
 10
95.65
 20
87.0
 30
0.0
 11
95.65
 21
92.12
 31
0.0
  0
LINE
  8
0
  6
CONTINUOUS
 62
       7
  5
74
 10
100.65
 20
87.0
 30
0.0
 11
100.65
 21
90.78
 31
0.0
  0
LINE
  8
0
  6
CONTINUOUS
 62
       7
  5
75
 10
102.35
 20
87.0
 30
0.0
 11
102.35
 21
90.33
 31
0.0
  0
LINE
  8
0
  6
CONTINUOUS
 62
       7
  5
76
 10
100.65
 20
97.0
 30
0.0
 11
102.35
 21
97.0
 31
0.0
  0
LINE
  8
0
  6
CONTINUOUS
 62
       7
  5
77
 10
106.5
 20
77.2
 30
0.0
 11
104.5
 21
77.2
 31
0.0
  0
LINE
  8
0
  6
CONTINUOUS
 62
       7
  5
78
 10
91.5
 20
77.2
 30
0.0
 11
93.5
 21
77.2
 31
0.0
  0
LINE
  8
0
  6
CONTINUOUS
 62
       2
  5
79
 10
104.35
 20
91.35
 30
0.0
 11
93.65
 21
94.21
 31
0.0
  0
LINE
  8
0
  6
CONTINUOUS
 62
       2
  5
7A
 10
104.35
 20
89.79
 30
0.0
 11
93.65
 21
92.66
 31
0.0
  0
LINE
  8
0
  6
CONTINUOUS
 62
       7
  5
7B
 10
95.65
 20
93.68
 30
0.0
 11
95.65
 21
97.0
 31
0.0
  0
LINE
  8
0
  6
CONTINUOUS
 62
       7
  5
7C
 10
97.35
 20
93.22
 30
0.0
 11
97.35
 21
97.0
 31
0.0
  0
LINE
  8
0
  6
CONTINUOUS
 62
       7
  5
7D
 10
100.65
 20
92.34
 30
0.0
 11
100.65
 21
97.0
 31
0.0
  0
LINE
  8
0
  6
CONTINUOUS
 62
       7
  5
7E
 10
102.35
 20
91.88
 30
0.0
 11
102.35
 21
97.0
 31
0.0
  0
LINE
  8
0
  6
CONTINUOUS
 62
       7
  5
7F
 10
91.5
 20
51.0
 30
0.0
 11
91.5
 21
30.57040859
 31
0.0
  0
CIRCLE
  8
0
  6
CONTINUOUS
 62
       2
  5
80
 10
102.00489746
 20
25.00639465
 30
0.0
 40
2.5
  0
ARC
  8
0
  6
CONTINUOUS
 62
       7
  5
81
 10
92.79928206
 20
71.20071794
 30
0.0
 40
0.79928239
 50
89.94853538
 51
180.05146462
  0
ARC
  8
0
  6
CONTINUOUS
 62
       7
  5
82
 10
105.20563502
 20
71.20563502
 30
0.0
 40
0.79438497
 50
359.59356546
 51
90.40643454
  0
ARC
  8
0
  6
CONTINUOUS
 62
       7
  5
83
 10
92.80564944
 20
51.80564944
 30
0.0
 40
0.80566925
 50
180.40176785
 51
269.59823215
  0
ARC
  8
0
  6
CONTINUOUS
 62
       7
  5
84
 10
105.19922854
 20
51.80077146
 30
0.0
 40
0.80077184
 50
270.05519883
 51
359.94480117
  0
ARC
  8
0
  6
CONTINUOUS
 62
       7
  5
85
 10
94.55527777
 20
73.51821184
 30
0.0
 40
5.99539112
 50
100.13772055
 51
106.72433719
  0
ARC
  8
0
  6
CONTINUOUS
 62
       7
  5
86
 10
93.04863366
 20
78.49183221
 30
0.0
 40
0.79867543
 50
105.88725748
 51
179.41404443
  0
ARC
  8
0
  6
CONTINUOUS
 62
       7
  5
87
 10
103.44522292
 20
73.52030848
 30
0.0
 40
5.99323909
 50
73.27447895
 51
79.86346331
  0
ARC
  8
0
  6
CONTINUOUS
 62
       7
  5
88
 10
104.97356713
 20
78.49284567
 30
0.0
 40
0.79190381
 50
63.25014549
 51
75.63776407
  0
CIRCLE
  8
0
  6
CONTINUOUS
 62
       7
  5
89
 10
99.00489746
 20
47.50639465
 30
0.0
 40
1.5
  0
CIRCLE
  8
0
  6
CONTINUOUS
 62
       7
  5
8A
 10
102.00489746
 20
25.00639465
 30
0.0
 40
2.067
  0
LINE
  8
0
  6
CONTINUOUS
 62
       7
  5
8B
 10
96.18
 20
97.0
 30
0.0
 11
96.18
 21
107.0
 31
0.0
  0
LINE
  8
0
  6
CONTINUOUS
 62
       7
  5
8C
 10
96.82
 20
97.0
 30
0.0
 11
96.82
 21
107.0
 31
0.0
  0
LINE
  8
0
  6
CONTINUOUS
 62
       7
  5
8D
 10
101.18
 20
97.0
 30
0.0
 11
101.18
 21
107.0
 31
0.0
  0
LINE
  8
0
  6
CONTINUOUS
 62
       7
  5
8E
 10
101.82
 20
97.0
 30
0.0
 11
101.82
 21
107.0
 31
0.0
  0
LINE
  8
0
  6
CONTINUOUS
 62
       2
  5
8F
 10
101.5
 20
84.0
 30
0.0
 11
101.5
 21
110.0
 31
0.0
  0
LINE
  8
0
  6
CONTINUOUS
 62
       2
  5
90
 10
96.5
 20
84.0
 30
0.0
 11
96.5
 21
110.0
 31
0.0
  0
ARC
  8
0
  6
CONTINUOUS
 62
       7
  5
91
 10
93.5
 20
29.0
 30
0.0
 40
2.7
 50
222.2054464
 51
137.7945536
  0
LINE
  8
0
  6
CONTINUOUS
 62
       7
  5
92
 10
92.58076086
 20
28.08076119
 30
0.0
 11
94.41923889
 21
29.91923906
 31
0.0
  0
LINE
  8
0
  6
CONTINUOUS
 62
       7
  5
93
 10
92.58076149
 20
29.91923808
 30
0.0
 11
94.41923868
 21
28.08076073
 31
0.0
  0
CIRCLE
  8
0
  6
CONTINUOUS
 62
       7
  5
94
 10
93.5
 20
29.0
 30
0.0
 40
2.25
  0
LINE
  8
0
  6
CONTINUOUS
 62
       7
  5
95
 10
106.5
 20
51.0
 30
0.0
 11
106.5
 21
12.57040859
 31
0.0
  0
LINE
  8
0
  6
CONTINUOUS
 62
       7
  5
96
 10
91.5
 20
27.42959141
 30
0.0
 11
91.5
 21
-1.0
 31
0.0
  0
LINE
  8
0
  6
CONTINUOUS
 62
       2
  5
97
 10
102.0
 20
28.5
 30
0.0
 11
102.0
 21
21.5
 31
0.0
  0
LINE
  8
0
  6
CONTINUOUS
 62
       2
  5
98
 10
99.0
 20
89.81
 30
0.0
 11
99.0
 21
-13.21
 31
0.0
  0
ARC
  8
0
  6
CONTINUOUS
 62
       7
  5
99
 10
88.5
 20
11.0
 30
0.0
 40
2.54286908
 50
6.77536236
 51
353.22463764
  0
LINE
  8
0
  6
CONTINUOUS
 62
       7
  5
9A
 10
90.72511052
 20
11.3
 30
0.0
 11
91.02511052
 21
11.3
 31
0.0
  0
LINE
  8
0
  6
CONTINUOUS
 62
       7
  5
9B
 10
90.72511052
 20
10.7
 30
0.0
 11
91.02511052
 21
10.7
 31
0.0
  0
LINE
  8
0
  6
CONTINUOUS
 62
       7
  5
9C
 10
91.00511052
 20
10.54
 30
0.0
 11
90.69511052
 21
10.54
 31
0.0
  0
ARC
  8
0
  6
CONTINUOUS
 62
       7
  5
9D
 10
77.5
 20
29.0
 30
0.0
 40
2.54286908
 50
6.77536236
 51
353.22463764
  0
LINE
  8
0
  6
CONTINUOUS
 62
       7
  5
9E
 10
79.72511052
 20
29.3
 30
0.0
 11
80.02511052
 21
29.3
 31
0.0
  0
LINE
  8
0
  6
CONTINUOUS
 62
       7
  5
9F
 10
79.72511052
 20
28.7
 30
0.0
 11
80.02511052
 21
28.7
 31
0.0
  0
LINE
  8
0
  6
CONTINUOUS
 62
       7
  5
A0
 10
80.00511052
 20
28.54
 30
0.0
 11
79.69511052
 21
28.54
 31
0.0
  0
LINE
  8
0
  6
CONTINUOUS
 62
       7
  5
A1
 10
76.0
 20
-1.5
 30
0.0
 11
90.0
 21
-1.5
 31
0.0
  0
LINE
  8
0
  6
CONTINUOUS
 62
       7
  5
A2
 10
75.70000076
 20
3.5
 30
0.0
 11
81.25
 21
3.5
 31
0.0
  0
LINE
  8
0
  6
CONTINUOUS
 62
       7
  5
A3
 10
81.7
 20
3.0
 30
0.0
 11
81.7
 21
-1.0
 31
0.0
  0
LINE
  8
0
  6
CONTINUOUS
 62
       7
  5
A4
 10
75.5
 20
6.0
 30
0.0
 11
90.5
 21
6.0
 31
0.0
  0
LINE
  8
0
  6
CONTINUOUS
 62
       7
  5
A5
 10
90.5
 20
9.42959141
 30
0.0
 11
90.5
 21
-1.0
 31
0.0
  0
ARC
  8
0
  6
CONTINUOUS
 62
       7
  5
A6
 10
89.99921181
 20
-0.99921181
 30
0.0
 40
0.50078881
 50
270.09017788
 51
359.90982212
  0
ARC
  8
0
  6
CONTINUOUS
 62
       7
  5
A7
 10
81.20564395
 20
3.00564395
 30
0.0
 40
0.49438827
 50
359.34589612
 51
90.65410388
  0
ARC
  8
0
  6
CONTINUOUS
 62
       7
  5
A8
 10
76.00565426
 20
4.00565426
 30
0.0
 40
0.50568587
 50
180.64065837
 51
269.35934163
  0
ARC
  8
0
  6
CONTINUOUS
 62
       7
  5
A9
 10
82.20564512
 20
-0.99435488
 30
0.0
 40
0.50567663
 50
180.63963425
 51
269.36036575
  0
ARC
  8
0
  6
CONTINUOUS
 62
       7
  5
AA
 10
88.5
 20
11.0
 30
0.0
 40
2.7
 50
42.2054464
 51
317.7945536
  0
LINE
  8
0
  6
CONTINUOUS
 62
       7
  5
AB
 10
75.70000076
 20
2.32817459
 30
0.0
 11
75.70000076
 21
3.5
 31
0.0
  0
LINE
  8
0
  6
CONTINUOUS
 62
       7
  5
AC
 10
81.29999924
 20
2.32817459
 30
0.0
 11
81.29999924
 21
3.5
 31
0.0
  0
ARC
  8
0
  6
CONTINUOUS
 62
       7
  5
AD
 10
80.63333321
 20
2.32817459
 30
0.0
 40
0.66666669
 50
299.49235568
 51
0.00001799
  0
ARC
  8
0
  6
CONTINUOUS
 62
       7
  5
AE
 10
76.36666679
 20
2.32817459
 30
0.0
 40
0.66666669
 50
179.99998201
 51
240.50764432
  0
ARC
  8
0
  6
CONTINUOUS
 62
       7
  5
AF
 10
78.5
 20
6.10000038
 30
0.0
 40
5.0
 50
240.50764432
 51
299.49233837
  0
ARC
  8
0
  6
CONTINUOUS
 62
       7
  5
B0
 10
76.0
 20
-1.0
 30
0.0
 40
0.5
 50
180.0
 51
270.0
  0
LINE
  8
0
  6
CONTINUOUS
 62
       7
  5
B1
 10
87.58076086
 20
10.08076119
 30
0.0
 11
89.41923889
 21
11.91923906
 31
0.0
  0
LINE
  8
0
  6
CONTINUOUS
 62
       7
  5
B2
 10
87.58076149
 20
11.91923808
 30
0.0
 11
89.41923868
 21
10.08076073
 31
0.0
  0
CIRCLE
  8
0
  6
CONTINUOUS
 62
       7
  5
B3
 10
88.5
 20
11.0
 30
0.0
 40
2.25
  0
LINE
  8
0
  6
CONTINUOUS
 62
       7
  5
B4
 10
80.18
 20
107.0
 30
0.0
 11
80.82
 21
107.0
 31
0.0
  0
LINE
  8
0
  6
CONTINUOUS
 62
       7
  5
B5
 10
85.18
 20
107.0
 30
0.0
 11
85.82
 21
107.0
 31
0.0
  0
LINE
  8
0
  6
CONTINUOUS
 62
       7
  5
B6
 10
75.5
 20
34.0
 30
0.0
 11
90.5
 21
34.0
 31
0.0
  0
LINE
  8
0
  6
CONTINUOUS
 62
       2
  5
B7
 10
80.62
 20
47.5
 30
0.0
 11
85.46
 21
47.5
 31
0.0
  0
LINE
  8
0
  6
CONTINUOUS
 62
       2
  5
B8
 10
82.5
 20
25.0
 30
0.0
 11
89.5
 21
25.0
 31
0.0
  0
LINE
  8
0
  6
CONTINUOUS
 62
       7
  5
B9
 10
75.5
 20
77.2
 30
0.0
 11
75.5
 21
51.0
 31
0.0
  0
LINE
  8
0
  6
CONTINUOUS
 62
       7
  5
BA
 10
90.5
 20
77.2
 30
0.0
 11
90.5
 21
51.0
 31
0.0
  0
LINE
  8
0
  6
CONTINUOUS
 62
       7
  5
BB
 10
75.5
 20
76.2
 30
0.0
 11
76.0
 21
76.2
 31
0.0
  0
LINE
  8
0
  6
CONTINUOUS
 62
       7
  5
BC
 10
75.5
 20
51.0
 30
0.0
 11
90.5
 21
51.0
 31
0.0
  0
LINE
  8
0
  6
CONTINUOUS
 62
       7
  5
BD
 10
90.0
 20
77.0
 30
0.0
 11
90.0
 21
72.0
 31
0.0
  0
LINE
  8
0
  6
CONTINUOUS
 62
       7
  5
BE
 10
76.0
 20
77.0
 30
0.0
 11
76.0
 21
72.0
 31
0.0
  0
LINE
  8
0
  6
CONTINUOUS
 62
       7
  5
BF
 10
90.0
 20
76.2
 30
0.0
 11
90.5
 21
76.2
 31
0.0
  0
LINE
  8
0
  6
CONTINUOUS
 62
       7
  5
C0
 10
76.0
 20
71.2
 30
0.0
 11
76.0
 21
51.8
 31
0.0
  0
LINE
  8
0
  6
CONTINUOUS
 62
       7
  5
C1
 10
90.0
 20
71.2
 30
0.0
 11
90.0
 21
51.8
 31
0.0
  0
LINE
  8
0
  6
CONTINUOUS
 62
       7
  5
C2
 10
77.5
 20
52.5
 30
0.0
 11
88.5
 21
52.5
 31
0.0
  0
LINE
  8
0
  6
CONTINUOUS
 62
       7
  5
C3
 10
77.5
 20
61.0
 30
0.0
 11
88.5
 21
61.0
 31
0.0
  0
LINE
  8
0
  6
CONTINUOUS
 62
       7
  5
C4
 10
77.5
 20
61.0
 30
0.0
 11
77.5
 21
52.5
 31
0.0
  0
LINE
  8
0
  6
CONTINUOUS
 62
       7
  5
C5
 10
88.5
 20
61.0
 30
0.0
 11
88.5
 21
52.5
 31
0.0
  0
LINE
  8
0
  6
CONTINUOUS
 62
       2
  5
C6
 10
79.0
 20
63.5
 30
0.0
 11
87.0
 21
63.5
 31
0.0
  0
LINE
  8
0
  6
CONTINUOUS
 62
       7
  5
C7
 10
81.0
 20
64.5
 30
0.0
 11
85.0
 21
64.5
 31
0.0
  0
LINE
  8
0
  6
CONTINUOUS
 62
       7
  5
C8
 10
81.0
 20
62.5
 30
0.0
 11
85.0
 21
62.5
 31
0.0
  0
LINE
  8
0
  6
CONTINUOUS
 62
       7
  5
C9
 10
81.0
 20
64.5
 30
0.0
 11
81.0
 21
62.5
 31
0.0
  0
LINE
  8
0
  6
CONTINUOUS
 62
       7
  5
CA
 10
85.0
 20
64.5
 30
0.0
 11
85.0
 21
62.5
 31
0.0
  0
LINE
  8
0
  6
CONTINUOUS
 62
       7
  5
CB
 10
80.5
 20
65.0
 30
0.0
 11
85.5
 21
65.0
 31
0.0
  0
LINE
  8
0
  6
CONTINUOUS
 62
       7
  5
CC
 10
80.5
 20
65.0
 30
0.0
 11
80.5
 21
62.0
 31
0.0
  0
LINE
  8
0
  6
CONTINUOUS
 62
       7
  5
CD
 10
80.5
 20
62.0
 30
0.0
 11
85.5
 21
62.0
 31
0.0
  0
LINE
  8
0
  6
CONTINUOUS
 62
       7
  5
CE
 10
85.5
 20
65.0
 30
0.0
 11
85.5
 21
62.0
 31
0.0
  0
LINE
  8
0
  6
CONTINUOUS
 62
       7
  5
CF
 10
81.0
 20
64.5
 30
0.0
 11
80.5
 21
65.0
 31
0.0
  0
LINE
  8
0
  6
CONTINUOUS
 62
       7
  5
D0
 10
85.0
 20
64.5
 30
0.0
 11
85.5
 21
65.0
 31
0.0
  0
LINE
  8
0
  6
CONTINUOUS
 62
       7
  5
D1
 10
85.0
 20
62.5
 30
0.0
 11
85.5
 21
62.0
 31
0.0
  0
LINE
  8
0
  6
CONTINUOUS
 62
       7
  5
D2
 10
81.0
 20
62.5
 30
0.0
 11
80.5
 21
62.0
 31
0.0
  0
LINE
  8
0
  6
CONTINUOUS
 62
       7
  5
D3
 10
76.5
 20
79.2
 30
0.0
 11
76.68
 21
79.2
 31
0.0
  0
LINE
  8
0
  6
CONTINUOUS
 62
       7
  5
D4
 10
76.0
 20
77.0
 30
0.0
 11
78.8
 21
77.0
 31
0.0
  0
LINE
  8
0
  6
CONTINUOUS
 62
       7
  5
D5
 10
75.5
 20
77.2
 30
0.0
 11
76.5
 21
79.2
 31
0.0
  0
LINE
  8
0
  6
CONTINUOUS
 62
       7
  5
D6
 10
90.5
 20
77.2
 30
0.0
 11
89.5
 21
79.2
 31
0.0
  0
LINE
  8
0
  6
CONTINUOUS
 62
       7
  5
D7
 10
77.5
 20
77.8
 30
0.0
 11
75.95
 21
77.8
 31
0.0
  0
LINE
  8
0
  6
CONTINUOUS
 62
       7
  5
D8
 10
75.95
 20
77.8
 30
0.0
 11
75.95
 21
77.2
 31
0.0
  0
LINE
  8
0
  6
CONTINUOUS
 62
       7
  5
D9
 10
76.25
 20
78.5
 30
0.0
 11
76.25
 21
77.8
 31
0.0
  0
LINE
  8
0
  6
CONTINUOUS
 62
       7
  5
DA
 10
79.0
 20
85.0
 30
0.0
 11
87.0
 21
85.0
 31
0.0
  0
LINE
  8
0
  6
CONTINUOUS
 62
       7
  5
DB
 10
79.0
 20
79.33
 30
0.0
 11
87.0
 21
79.33
 31
0.0
  0
LINE
  8
0
  6
CONTINUOUS
 62
       7
  5
DC
 10
88.5
 20
79.2
 30
0.0
 11
89.5
 21
79.2
 31
0.0
  0
LINE
  8
0
  6
CONTINUOUS
 62
       7
  5
DD
 10
76.0
 20
72.0
 30
0.0
 11
90.0
 21
72.0
 31
0.0
  0
LINE
  8
0
  6
CONTINUOUS
 62
       7
  5
DE
 10
87.2
 20
77.0
 30
0.0
 11
87.2
 21
72.0
 31
0.0
  0
LINE
  8
0
  6
CONTINUOUS
 62
       7
  5
DF
 10
78.8
 20
77.0
 30
0.0
 11
78.8
 21
72.0
 31
0.0
  0
LINE
  8
0
  6
CONTINUOUS
 62
       7
  5
E0
 10
87.2
 20
77.0
 30
0.0
 11
90.0
 21
77.0
 31
0.0
  0
LINE
  8
0
  6
CONTINUOUS
 62
       7
  5
E1
 10
77.5
 20
87.0
 30
0.0
 11
88.5
 21
87.0
 31
0.0
  0
LINE
  8
0
  6
CONTINUOUS
 62
       7
  5
E2
 10
87.0
 20
72.0
 30
0.0
 11
87.0
 21
87.0
 31
0.0
  0
LINE
  8
0
  6
CONTINUOUS
 62
       7
  5
E3
 10
79.0
 20
72.0
 30
0.0
 11
79.0
 21
87.0
 31
0.0
  0
LINE
  8
0
  6
CONTINUOUS
 62
       7
  5
E4
 10
77.5
 20
77.0
 30
0.0
 11
77.5
 21
87.0
 31
0.0
  0
LINE
  8
0
  6
CONTINUOUS
 62
       7
  5
E5
 10
88.5
 20
77.0
 30
0.0
 11
88.5
 21
87.0
 31
0.0
  0
LINE
  8
0
  6
CONTINUOUS
 62
       7
  5
E6
 10
79.65
 20
97.0
 30
0.0
 11
81.35
 21
97.0
 31
0.0
  0
LINE
  8
0
  6
CONTINUOUS
 62
       7
  5
E7
 10
81.35
 20
87.0
 30
0.0
 11
81.35
 21
91.67
 31
0.0
  0
LINE
  8
0
  6
CONTINUOUS
 62
       7
  5
E8
 10
79.65
 20
87.0
 30
0.0
 11
79.65
 21
92.12
 31
0.0
  0
LINE
  8
0
  6
CONTINUOUS
 62
       7
  5
E9
 10
84.65
 20
87.0
 30
0.0
 11
84.65
 21
90.78
 31
0.0
  0
LINE
  8
0
  6
CONTINUOUS
 62
       7
  5
EA
 10
86.35
 20
87.0
 30
0.0
 11
86.35
 21
90.33
 31
0.0
  0
LINE
  8
0
  6
CONTINUOUS
 62
       7
  5
EB
 10
84.65
 20
97.0
 30
0.0
 11
86.35
 21
97.0
 31
0.0
  0
LINE
  8
0
  6
CONTINUOUS
 62
       7
  5
EC
 10
90.5
 20
77.2
 30
0.0
 11
88.5
 21
77.2
 31
0.0
  0
LINE
  8
0
  6
CONTINUOUS
 62
       7
  5
ED
 10
75.5
 20
77.2
 30
0.0
 11
77.5
 21
77.2
 31
0.0
  0
LINE
  8
0
  6
CONTINUOUS
 62
       2
  5
EE
 10
88.35
 20
91.35
 30
0.0
 11
77.65
 21
94.21
 31
0.0
  0
LINE
  8
0
  6
CONTINUOUS
 62
       2
  5
EF
 10
88.35
 20
89.79
 30
0.0
 11
77.65
 21
92.66
 31
0.0
  0
LINE
  8
0
  6
CONTINUOUS
 62
       7
  5
F0
 10
79.65
 20
93.68
 30
0.0
 11
79.65
 21
97.0
 31
0.0
  0
LINE
  8
0
  6
CONTINUOUS
 62
       7
  5
F1
 10
81.35
 20
93.22
 30
0.0
 11
81.35
 21
97.0
 31
0.0
  0
LINE
  8
0
  6
CONTINUOUS
 62
       7
  5
F2
 10
84.65
 20
92.34
 30
0.0
 11
84.65
 21
97.0
 31
0.0
  0
LINE
  8
0
  6
CONTINUOUS
 62
       7
  5
F3
 10
86.35
 20
91.88
 30
0.0
 11
86.35
 21
97.0
 31
0.0
  0
LINE
  8
0
  6
CONTINUOUS
 62
       7
  5
F4
 10
75.5
 20
51.0
 30
0.0
 11
75.5
 21
30.57040859
 31
0.0
  0
LINE
  8
0
  6
CONTINUOUS
 62
       7
  5
F5
 10
74.5
 20
50.0
 30
0.0
 11
75.5
 21
50.0
 31
0.0
  0
CIRCLE
  8
0
  6
CONTINUOUS
 62
       2
  5
F6
 10
86.00489746
 20
25.00639465
 30
0.0
 40
2.5
  0
ARC
  8
0
  6
CONTINUOUS
 62
       7
  5
F7
 10
76.79928206
 20
71.20071794
 30
0.0
 40
0.79928239
 50
89.94853538
 51
180.05146462
  0
ARC
  8
0
  6
CONTINUOUS
 62
       7
  5
F8
 10
89.20563502
 20
71.20563502
 30
0.0
 40
0.79438497
 50
359.59356546
 51
90.40643454
  0
ARC
  8
0
  6
CONTINUOUS
 62
       7
  5
F9
 10
76.80564944
 20
51.80564944
 30
0.0
 40
0.80566925
 50
180.40176785
 51
269.59823215
  0
ARC
  8
0
  6
CONTINUOUS
 62
       7
  5
FA
 10
89.19922854
 20
51.80077146
 30
0.0
 40
0.80077184
 50
270.05519883
 51
359.94480117
  0
ARC
  8
0
  6
CONTINUOUS
 62
       7
  5
FB
 10
78.55527777
 20
73.51821184
 30
0.0
 40
5.99539112
 50
100.13772055
 51
106.72433719
  0
ARC
  8
0
  6
CONTINUOUS
 62
       7
  5
FC
 10
77.04863366
 20
78.49183221
 30
0.0
 40
0.79867543
 50
105.88725748
 51
179.41404443
  0
ARC
  8
0
  6
CONTINUOUS
 62
       7
  5
FD
 10
87.44522292
 20
73.52030848
 30
0.0
 40
5.99323909
 50
73.27447895
 51
79.86346331
  0
ARC
  8
0
  6
CONTINUOUS
 62
       7
  5
FE
 10
88.97356713
 20
78.49284567
 30
0.0
 40
0.79190381
 50
63.25014549
 51
75.63776407
  0
CIRCLE
  8
0
  6
CONTINUOUS
 62
       7
  5
FF
 10
83.00489746
 20
47.50639465
 30
0.0
 40
1.5
  0
CIRCLE
  8
0
  6
CONTINUOUS
 62
       7
  5
100
 10
86.00489746
 20
25.00639465
 30
0.0
 40
2.067
  0
LINE
  8
0
  6
CONTINUOUS
 62
       7
  5
101
 10
80.18
 20
97.0
 30
0.0
 11
80.18
 21
107.0
 31
0.0
  0
LINE
  8
0
  6
CONTINUOUS
 62
       7
  5
102
 10
80.82
 20
97.0
 30
0.0
 11
80.82
 21
107.0
 31
0.0
  0
LINE
  8
0
  6
CONTINUOUS
 62
       7
  5
103
 10
85.18
 20
97.0
 30
0.0
 11
85.18
 21
107.0
 31
0.0
  0
LINE
  8
0
  6
CONTINUOUS
 62
       7
  5
104
 10
85.82
 20
97.0
 30
0.0
 11
85.82
 21
107.0
 31
0.0
  0
LINE
  8
0
  6
CONTINUOUS
 62
       2
  5
105
 10
85.5
 20
84.0
 30
0.0
 11
85.5
 21
110.0
 31
0.0
  0
LINE
  8
0
  6
CONTINUOUS
 62
       2
  5
106
 10
80.5
 20
84.0
 30
0.0
 11
80.5
 21
110.0
 31
0.0
  0
ARC
  8
0
  6
CONTINUOUS
 62
       7
  5
107
 10
77.5
 20
29.0
 30
0.0
 40
2.7
 50
222.2054464
 51
137.7945536
  0
LINE
  8
0
  6
CONTINUOUS
 62
       7
  5
108
 10
76.58076086
 20
28.08076119
 30
0.0
 11
78.41923889
 21
29.91923906
 31
0.0
  0
LINE
  8
0
  6
CONTINUOUS
 62
       7
  5
109
 10
76.58076149
 20
29.91923808
 30
0.0
 11
78.41923868
 21
28.08076073
 31
0.0
  0
CIRCLE
  8
0
  6
CONTINUOUS
 62
       7
  5
10A
 10
77.5
 20
29.0
 30
0.0
 40
2.25
  0
LINE
  8
0
  6
CONTINUOUS
 62
       7
  5
10B
 10
90.5
 20
51.0
 30
0.0
 11
90.5
 21
12.57040859
 31
0.0
  0
LINE
  8
0
  6
CONTINUOUS
 62
       7
  5
10C
 10
75.5
 20
27.42959141
 30
0.0
 11
75.5
 21
-1.0
 31
0.0
  0
LINE
  8
0
  6
CONTINUOUS
 62
       2
  5
10D
 10
86.0
 20
28.5
 30
0.0
 11
86.0
 21
21.5
 31
0.0
  0
LINE
  8
0
  6
CONTINUOUS
 62
       2
  5
10E
 10
83.0
 20
89.81
 30
0.0
 11
83.0
 21
-13.21
 31
0.0
  0
ARC
  8
0
  6
CONTINUOUS
 62
       7
  5
10F
 10
72.5
 20
11.0
 30
0.0
 40
2.54286908
 50
6.77536236
 51
353.22463764
  0
LINE
  8
0
  6
CONTINUOUS
 62
       7
  5
110
 10
74.72511052
 20
11.3
 30
0.0
 11
75.02511052
 21
11.3
 31
0.0
  0
LINE
  8
0
  6
CONTINUOUS
 62
       7
  5
111
 10
74.72511052
 20
10.7
 30
0.0
 11
75.02511052
 21
10.7
 31
0.0
  0
LINE
  8
0
  6
CONTINUOUS
 62
       7
  5
112
 10
75.00511052
 20
10.54
 30
0.0
 11
74.69511052
 21
10.54
 31
0.0
  0
ARC
  8
0
  6
CONTINUOUS
 62
       7
  5
113
 10
61.5
 20
29.0
 30
0.0
 40
2.54286908
 50
6.77536236
 51
353.22463764
  0
LINE
  8
0
  6
CONTINUOUS
 62
       7
  5
114
 10
63.72511052
 20
29.3
 30
0.0
 11
64.02511052
 21
29.3
 31
0.0
  0
LINE
  8
0
  6
CONTINUOUS
 62
       7
  5
115
 10
63.72511052
 20
28.7
 30
0.0
 11
64.02511052
 21
28.7
 31
0.0
  0
LINE
  8
0
  6
CONTINUOUS
 62
       7
  5
116
 10
64.00511052
 20
28.54
 30
0.0
 11
63.69511052
 21
28.54
 31
0.0
  0
LINE
  8
0
  6
CONTINUOUS
 62
       7
  5
117
 10
60.0
 20
-1.5
 30
0.0
 11
74.0
 21
-1.5
 31
0.0
  0
LINE
  8
0
  6
CONTINUOUS
 62
       7
  5
118
 10
59.70000076
 20
3.5
 30
0.0
 11
65.25
 21
3.5
 31
0.0
  0
LINE
  8
0
  6
CONTINUOUS
 62
       7
  5
119
 10
65.7
 20
3.0
 30
0.0
 11
65.7
 21
-1.0
 31
0.0
  0
LINE
  8
0
  6
CONTINUOUS
 62
       7
  5
11A
 10
59.5
 20
6.0
 30
0.0
 11
74.5
 21
6.0
 31
0.0
  0
LINE
  8
0
  6
CONTINUOUS
 62
       7
  5
11B
 10
74.5
 20
9.42959141
 30
0.0
 11
74.5
 21
-1.0
 31
0.0
  0
ARC
  8
0
  6
CONTINUOUS
 62
       7
  5
11C
 10
73.99921181
 20
-0.99921181
 30
0.0
 40
0.50078881
 50
270.09017788
 51
359.90982212
  0
ARC
  8
0
  6
CONTINUOUS
 62
       7
  5
11D
 10
65.20564395
 20
3.00564395
 30
0.0
 40
0.49438827
 50
359.34589612
 51
90.65410388
  0
ARC
  8
0
  6
CONTINUOUS
 62
       7
  5
11E
 10
60.00565426
 20
4.00565426
 30
0.0
 40
0.50568587
 50
180.64065837
 51
269.35934163
  0
ARC
  8
0
  6
CONTINUOUS
 62
       7
  5
11F
 10
66.20564512
 20
-0.99435488
 30
0.0
 40
0.50567663
 50
180.63963425
 51
269.36036575
  0
ARC
  8
0
  6
CONTINUOUS
 62
       7
  5
120
 10
72.5
 20
11.0
 30
0.0
 40
2.7
 50
42.2054464
 51
317.7945536
  0
LINE
  8
0
  6
CONTINUOUS
 62
       7
  5
121
 10
59.70000076
 20
2.32817459
 30
0.0
 11
59.70000076
 21
3.5
 31
0.0
  0
LINE
  8
0
  6
CONTINUOUS
 62
       7
  5
122
 10
65.29999924
 20
2.32817459
 30
0.0
 11
65.29999924
 21
3.5
 31
0.0
  0
ARC
  8
0
  6
CONTINUOUS
 62
       7
  5
123
 10
64.63333321
 20
2.32817459
 30
0.0
 40
0.66666669
 50
299.49235568
 51
0.00001799
  0
ARC
  8
0
  6
CONTINUOUS
 62
       7
  5
124
 10
60.36666679
 20
2.32817459
 30
0.0
 40
0.66666669
 50
179.99998201
 51
240.50764432
  0
ARC
  8
0
  6
CONTINUOUS
 62
       7
  5
125
 10
62.5
 20
6.10000038
 30
0.0
 40
5.0
 50
240.50764432
 51
299.49233837
  0
ARC
  8
0
  6
CONTINUOUS
 62
       7
  5
126
 10
60.0
 20
-1.0
 30
0.0
 40
0.5
 50
180.0
 51
270.0
  0
LINE
  8
0
  6
CONTINUOUS
 62
       7
  5
127
 10
71.58076086
 20
10.08076119
 30
0.0
 11
73.41923889
 21
11.91923906
 31
0.0
  0
LINE
  8
0
  6
CONTINUOUS
 62
       7
  5
128
 10
71.58076149
 20
11.91923808
 30
0.0
 11
73.41923868
 21
10.08076073
 31
0.0
  0
CIRCLE
  8
0
  6
CONTINUOUS
 62
       7
  5
129
 10
72.5
 20
11.0
 30
0.0
 40
2.25
  0
LINE
  8
0
  6
CONTINUOUS
 62
       7
  5
12A
 10
64.18
 20
107.0
 30
0.0
 11
64.82
 21
107.0
 31
0.0
  0
LINE
  8
0
  6
CONTINUOUS
 62
       7
  5
12B
 10
69.18
 20
107.0
 30
0.0
 11
69.82
 21
107.0
 31
0.0
  0
LINE
  8
0
  6
CONTINUOUS
 62
       7
  5
12C
 10
59.5
 20
34.0
 30
0.0
 11
74.5
 21
34.0
 31
0.0
  0
LINE
  8
0
  6
CONTINUOUS
 62
       2
  5
12D
 10
64.62
 20
47.5
 30
0.0
 11
69.46
 21
47.5
 31
0.0
  0
LINE
  8
0
  6
CONTINUOUS
 62
       2
  5
12E
 10
66.5
 20
25.0
 30
0.0
 11
73.5
 21
25.0
 31
0.0
  0
LINE
  8
0
  6
CONTINUOUS
 62
       7
  5
12F
 10
59.5
 20
77.2
 30
0.0
 11
59.5
 21
51.0
 31
0.0
  0
LINE
  8
0
  6
CONTINUOUS
 62
       7
  5
130
 10
74.5
 20
77.2
 30
0.0
 11
74.5
 21
51.0
 31
0.0
  0
LINE
  8
0
  6
CONTINUOUS
 62
       7
  5
131
 10
59.5
 20
76.2
 30
0.0
 11
60.0
 21
76.2
 31
0.0
  0
LINE
  8
0
  6
CONTINUOUS
 62
       7
  5
132
 10
59.5
 20
51.0
 30
0.0
 11
74.5
 21
51.0
 31
0.0
  0
LINE
  8
0
  6
CONTINUOUS
 62
       7
  5
133
 10
74.0
 20
77.0
 30
0.0
 11
74.0
 21
72.0
 31
0.0
  0
LINE
  8
0
  6
CONTINUOUS
 62
       7
  5
134
 10
60.0
 20
77.0
 30
0.0
 11
60.0
 21
72.0
 31
0.0
  0
LINE
  8
0
  6
CONTINUOUS
 62
       7
  5
135
 10
74.0
 20
76.2
 30
0.0
 11
74.5
 21
76.2
 31
0.0
  0
LINE
  8
0
  6
CONTINUOUS
 62
       7
  5
136
 10
60.0
 20
71.2
 30
0.0
 11
60.0
 21
51.8
 31
0.0
  0
LINE
  8
0
  6
CONTINUOUS
 62
       7
  5
137
 10
74.0
 20
71.2
 30
0.0
 11
74.0
 21
51.8
 31
0.0
  0
LINE
  8
0
  6
CONTINUOUS
 62
       7
  5
138
 10
61.5
 20
52.5
 30
0.0
 11
72.5
 21
52.5
 31
0.0
  0
LINE
  8
0
  6
CONTINUOUS
 62
       7
  5
139
 10
61.5
 20
61.0
 30
0.0
 11
72.5
 21
61.0
 31
0.0
  0
LINE
  8
0
  6
CONTINUOUS
 62
       7
  5
13A
 10
61.5
 20
61.0
 30
0.0
 11
61.5
 21
52.5
 31
0.0
  0
LINE
  8
0
  6
CONTINUOUS
 62
       7
  5
13B
 10
72.5
 20
61.0
 30
0.0
 11
72.5
 21
52.5
 31
0.0
  0
LINE
  8
0
  6
CONTINUOUS
 62
       2
  5
13C
 10
63.0
 20
63.5
 30
0.0
 11
71.0
 21
63.5
 31
0.0
  0
LINE
  8
0
  6
CONTINUOUS
 62
       7
  5
13D
 10
65.0
 20
64.5
 30
0.0
 11
69.0
 21
64.5
 31
0.0
  0
LINE
  8
0
  6
CONTINUOUS
 62
       7
  5
13E
 10
65.0
 20
62.5
 30
0.0
 11
69.0
 21
62.5
 31
0.0
  0
LINE
  8
0
  6
CONTINUOUS
 62
       7
  5
13F
 10
65.0
 20
64.5
 30
0.0
 11
65.0
 21
62.5
 31
0.0
  0
LINE
  8
0
  6
CONTINUOUS
 62
       7
  5
140
 10
69.0
 20
64.5
 30
0.0
 11
69.0
 21
62.5
 31
0.0
  0
LINE
  8
0
  6
CONTINUOUS
 62
       7
  5
141
 10
64.5
 20
65.0
 30
0.0
 11
69.5
 21
65.0
 31
0.0
  0
LINE
  8
0
  6
CONTINUOUS
 62
       7
  5
142
 10
64.5
 20
65.0
 30
0.0
 11
64.5
 21
62.0
 31
0.0
  0
LINE
  8
0
  6
CONTINUOUS
 62
       7
  5
143
 10
64.5
 20
62.0
 30
0.0
 11
69.5
 21
62.0
 31
0.0
  0
LINE
  8
0
  6
CONTINUOUS
 62
       7
  5
144
 10
69.5
 20
65.0
 30
0.0
 11
69.5
 21
62.0
 31
0.0
  0
LINE
  8
0
  6
CONTINUOUS
 62
       7
  5
145
 10
65.0
 20
64.5
 30
0.0
 11
64.5
 21
65.0
 31
0.0
  0
LINE
  8
0
  6
CONTINUOUS
 62
       7
  5
146
 10
69.0
 20
64.5
 30
0.0
 11
69.5
 21
65.0
 31
0.0
  0
LINE
  8
0
  6
CONTINUOUS
 62
       7
  5
147
 10
69.0
 20
62.5
 30
0.0
 11
69.5
 21
62.0
 31
0.0
  0
LINE
  8
0
  6
CONTINUOUS
 62
       7
  5
148
 10
65.0
 20
62.5
 30
0.0
 11
64.5
 21
62.0
 31
0.0
  0
LINE
  8
0
  6
CONTINUOUS
 62
       7
  5
149
 10
60.5
 20
79.2
 30
0.0
 11
60.68
 21
79.2
 31
0.0
  0
LINE
  8
0
  6
CONTINUOUS
 62
       7
  5
14A
 10
60.0
 20
77.0
 30
0.0
 11
62.8
 21
77.0
 31
0.0
  0
LINE
  8
0
  6
CONTINUOUS
 62
       7
  5
14B
 10
59.5
 20
77.2
 30
0.0
 11
60.5
 21
79.2
 31
0.0
  0
LINE
  8
0
  6
CONTINUOUS
 62
       7
  5
14C
 10
74.5
 20
77.2
 30
0.0
 11
73.5
 21
79.2
 31
0.0
  0
LINE
  8
0
  6
CONTINUOUS
 62
       7
  5
14D
 10
61.5
 20
77.8
 30
0.0
 11
59.95
 21
77.8
 31
0.0
  0
LINE
  8
0
  6
CONTINUOUS
 62
       7
  5
14E
 10
59.95
 20
77.8
 30
0.0
 11
59.95
 21
77.2
 31
0.0
  0
LINE
  8
0
  6
CONTINUOUS
 62
       7
  5
14F
 10
60.25
 20
78.5
 30
0.0
 11
60.25
 21
77.8
 31
0.0
  0
LINE
  8
0
  6
CONTINUOUS
 62
       7
  5
150
 10
63.0
 20
85.0
 30
0.0
 11
71.0
 21
85.0
 31
0.0
  0
LINE
  8
0
  6
CONTINUOUS
 62
       7
  5
151
 10
63.0
 20
79.33
 30
0.0
 11
71.0
 21
79.33
 31
0.0
  0
LINE
  8
0
  6
CONTINUOUS
 62
       7
  5
152
 10
72.5
 20
79.2
 30
0.0
 11
73.5
 21
79.2
 31
0.0
  0
LINE
  8
0
  6
CONTINUOUS
 62
       7
  5
153
 10
60.0
 20
72.0
 30
0.0
 11
74.0
 21
72.0
 31
0.0
  0
LINE
  8
0
  6
CONTINUOUS
 62
       7
  5
154
 10
71.2
 20
77.0
 30
0.0
 11
71.2
 21
72.0
 31
0.0
  0
LINE
  8
0
  6
CONTINUOUS
 62
       7
  5
155
 10
62.8
 20
77.0
 30
0.0
 11
62.8
 21
72.0
 31
0.0
  0
LINE
  8
0
  6
CONTINUOUS
 62
       7
  5
156
 10
71.2
 20
77.0
 30
0.0
 11
74.0
 21
77.0
 31
0.0
  0
LINE
  8
0
  6
CONTINUOUS
 62
       7
  5
157
 10
61.5
 20
87.0
 30
0.0
 11
72.5
 21
87.0
 31
0.0
  0
LINE
  8
0
  6
CONTINUOUS
 62
       7
  5
158
 10
71.0
 20
72.0
 30
0.0
 11
71.0
 21
87.0
 31
0.0
  0
LINE
  8
0
  6
CONTINUOUS
 62
       7
  5
159
 10
63.0
 20
72.0
 30
0.0
 11
63.0
 21
87.0
 31
0.0
  0
LINE
  8
0
  6
CONTINUOUS
 62
       7
  5
15A
 10
61.5
 20
77.0
 30
0.0
 11
61.5
 21
87.0
 31
0.0
  0
LINE
  8
0
  6
CONTINUOUS
 62
       7
  5
15B
 10
72.5
 20
77.0
 30
0.0
 11
72.5
 21
87.0
 31
0.0
  0
LINE
  8
0
  6
CONTINUOUS
 62
       7
  5
15C
 10
63.65
 20
97.0
 30
0.0
 11
65.35
 21
97.0
 31
0.0
  0
LINE
  8
0
  6
CONTINUOUS
 62
       7
  5
15D
 10
65.35
 20
87.0
 30
0.0
 11
65.35
 21
91.67
 31
0.0
  0
LINE
  8
0
  6
CONTINUOUS
 62
       7
  5
15E
 10
63.65
 20
87.0
 30
0.0
 11
63.65
 21
92.12
 31
0.0
  0
LINE
  8
0
  6
CONTINUOUS
 62
       7
  5
15F
 10
68.65
 20
87.0
 30
0.0
 11
68.65
 21
90.78
 31
0.0
  0
LINE
  8
0
  6
CONTINUOUS
 62
       7
  5
160
 10
70.35
 20
87.0
 30
0.0
 11
70.35
 21
90.33
 31
0.0
  0
LINE
  8
0
  6
CONTINUOUS
 62
       7
  5
161
 10
68.65
 20
97.0
 30
0.0
 11
70.35
 21
97.0
 31
0.0
  0
LINE
  8
0
  6
CONTINUOUS
 62
       7
  5
162
 10
74.5
 20
77.2
 30
0.0
 11
72.5
 21
77.2
 31
0.0
  0
LINE
  8
0
  6
CONTINUOUS
 62
       7
  5
163
 10
59.5
 20
77.2
 30
0.0
 11
61.5
 21
77.2
 31
0.0
  0
LINE
  8
0
  6
CONTINUOUS
 62
       2
  5
164
 10
72.35
 20
91.35
 30
0.0
 11
61.65
 21
94.21
 31
0.0
  0
LINE
  8
0
  6
CONTINUOUS
 62
       2
  5
165
 10
72.35
 20
89.79
 30
0.0
 11
61.65
 21
92.66
 31
0.0
  0
LINE
  8
0
  6
CONTINUOUS
 62
       7
  5
166
 10
63.65
 20
93.68
 30
0.0
 11
63.65
 21
97.0
 31
0.0
  0
LINE
  8
0
  6
CONTINUOUS
 62
       7
  5
167
 10
65.35
 20
93.22
 30
0.0
 11
65.35
 21
97.0
 31
0.0
  0
LINE
  8
0
  6
CONTINUOUS
 62
       7
  5
168
 10
68.65
 20
92.34
 30
0.0
 11
68.65
 21
97.0
 31
0.0
  0
LINE
  8
0
  6
CONTINUOUS
 62
       7
  5
169
 10
70.35
 20
91.88
 30
0.0
 11
70.35
 21
97.0
 31
0.0
  0
LINE
  8
0
  6
CONTINUOUS
 62
       7
  5
16A
 10
59.5
 20
51.0
 30
0.0
 11
59.5
 21
30.57040859
 31
0.0
  0
LINE
  8
0
  6
CONTINUOUS
 62
       7
  5
16B
 10
58.5
 20
50.0
 30
0.0
 11
59.5
 21
50.0
 31
0.0
  0
CIRCLE
  8
0
  6
CONTINUOUS
 62
       2
  5
16C
 10
70.00489746
 20
25.00639465
 30
0.0
 40
2.5
  0
ARC
  8
0
  6
CONTINUOUS
 62
       7
  5
16D
 10
60.79928206
 20
71.20071794
 30
0.0
 40
0.79928239
 50
89.94853538
 51
180.05146462
  0
ARC
  8
0
  6
CONTINUOUS
 62
       7
  5
16E
 10
73.20563502
 20
71.20563502
 30
0.0
 40
0.79438497
 50
359.59356546
 51
90.40643454
  0
ARC
  8
0
  6
CONTINUOUS
 62
       7
  5
16F
 10
60.80564944
 20
51.80564944
 30
0.0
 40
0.80566925
 50
180.40176785
 51
269.59823215
  0
ARC
  8
0
  6
CONTINUOUS
 62
       7
  5
170
 10
73.19922854
 20
51.80077146
 30
0.0
 40
0.80077184
 50
270.05519883
 51
359.94480117
  0
ARC
  8
0
  6
CONTINUOUS
 62
       7
  5
171
 10
62.55527777
 20
73.51821184
 30
0.0
 40
5.99539112
 50
100.13772055
 51
106.72433719
  0
ARC
  8
0
  6
CONTINUOUS
 62
       7
  5
172
 10
61.04863366
 20
78.49183221
 30
0.0
 40
0.79867543
 50
105.88725748
 51
179.41404443
  0
ARC
  8
0
  6
CONTINUOUS
 62
       7
  5
173
 10
71.44522292
 20
73.52030848
 30
0.0
 40
5.99323909
 50
73.27447895
 51
79.86346331
  0
ARC
  8
0
  6
CONTINUOUS
 62
       7
  5
174
 10
72.97356713
 20
78.49284567
 30
0.0
 40
0.79190381
 50
63.25014549
 51
75.63776407
  0
CIRCLE
  8
0
  6
CONTINUOUS
 62
       7
  5
175
 10
67.00489746
 20
47.50639465
 30
0.0
 40
1.5
  0
CIRCLE
  8
0
  6
CONTINUOUS
 62
       7
  5
176
 10
70.00489746
 20
25.00639465
 30
0.0
 40
2.067
  0
LINE
  8
0
  6
CONTINUOUS
 62
       7
  5
177
 10
64.18
 20
97.0
 30
0.0
 11
64.18
 21
107.0
 31
0.0
  0
LINE
  8
0
  6
CONTINUOUS
 62
       7
  5
178
 10
64.82
 20
97.0
 30
0.0
 11
64.82
 21
107.0
 31
0.0
  0
LINE
  8
0
  6
CONTINUOUS
 62
       7
  5
179
 10
69.18
 20
97.0
 30
0.0
 11
69.18
 21
107.0
 31
0.0
  0
LINE
  8
0
  6
CONTINUOUS
 62
       7
  5
17A
 10
69.82
 20
97.0
 30
0.0
 11
69.82
 21
107.0
 31
0.0
  0
LINE
  8
0
  6
CONTINUOUS
 62
       2
  5
17B
 10
69.5
 20
84.0
 30
0.0
 11
69.5
 21
110.0
 31
0.0
  0
LINE
  8
0
  6
CONTINUOUS
 62
       2
  5
17C
 10
64.5
 20
84.0
 30
0.0
 11
64.5
 21
110.0
 31
0.0
  0
ARC
  8
0
  6
CONTINUOUS
 62
       7
  5
17D
 10
61.5
 20
29.0
 30
0.0
 40
2.7
 50
222.2054464
 51
137.7945536
  0
LINE
  8
0
  6
CONTINUOUS
 62
       7
  5
17E
 10
60.58076086
 20
28.08076119
 30
0.0
 11
62.41923889
 21
29.91923906
 31
0.0
  0
LINE
  8
0
  6
CONTINUOUS
 62
       7
  5
17F
 10
60.58076149
 20
29.91923808
 30
0.0
 11
62.41923868
 21
28.08076073
 31
0.0
  0
CIRCLE
  8
0
  6
CONTINUOUS
 62
       7
  5
180
 10
61.5
 20
29.0
 30
0.0
 40
2.25
  0
LINE
  8
0
  6
CONTINUOUS
 62
       7
  5
181
 10
74.5
 20
51.0
 30
0.0
 11
74.5
 21
12.57040859
 31
0.0
  0
LINE
  8
0
  6
CONTINUOUS
 62
       7
  5
182
 10
59.5
 20
27.42959141
 30
0.0
 11
59.5
 21
-1.0
 31
0.0
  0
LINE
  8
0
  6
CONTINUOUS
 62
       2
  5
183
 10
70.0
 20
28.5
 30
0.0
 11
70.0
 21
21.5
 31
0.0
  0
LINE
  8
0
  6
CONTINUOUS
 62
       2
  5
184
 10
67.0
 20
89.81
 30
0.0
 11
67.0
 21
-13.21
 31
0.0
  0
ARC
  8
0
  6
CONTINUOUS
 62
       7
  5
185
 10
56.5
 20
11.0
 30
0.0
 40
2.54286908
 50
6.77536236
 51
353.22463764
  0
LINE
  8
0
  6
CONTINUOUS
 62
       7
  5
186
 10
58.72511052
 20
11.3
 30
0.0
 11
59.02511052
 21
11.3
 31
0.0
  0
LINE
  8
0
  6
CONTINUOUS
 62
       7
  5
187
 10
58.72511052
 20
10.7
 30
0.0
 11
59.02511052
 21
10.7
 31
0.0
  0
LINE
  8
0
  6
CONTINUOUS
 62
       7
  5
188
 10
59.00511052
 20
10.54
 30
0.0
 11
58.69511052
 21
10.54
 31
0.0
  0
ARC
  8
0
  6
CONTINUOUS
 62
       7
  5
189
 10
45.5
 20
29.0
 30
0.0
 40
2.54286908
 50
6.77536236
 51
353.22463764
  0
LINE
  8
0
  6
CONTINUOUS
 62
       7
  5
18A
 10
47.72511052
 20
29.3
 30
0.0
 11
48.02511052
 21
29.3
 31
0.0
  0
LINE
  8
0
  6
CONTINUOUS
 62
       7
  5
18B
 10
47.72511052
 20
28.7
 30
0.0
 11
48.02511052
 21
28.7
 31
0.0
  0
LINE
  8
0
  6
CONTINUOUS
 62
       7
  5
18C
 10
48.00511052
 20
28.54
 30
0.0
 11
47.69511052
 21
28.54
 31
0.0
  0
LINE
  8
0
  6
CONTINUOUS
 62
       7
  5
18D
 10
44.0
 20
-1.5
 30
0.0
 11
58.0
 21
-1.5
 31
0.0
  0
LINE
  8
0
  6
CONTINUOUS
 62
       7
  5
18E
 10
43.70000076
 20
3.5
 30
0.0
 11
49.25
 21
3.5
 31
0.0
  0
LINE
  8
0
  6
CONTINUOUS
 62
       7
  5
18F
 10
49.7
 20
3.0
 30
0.0
 11
49.7
 21
-1.0
 31
0.0
  0
LINE
  8
0
  6
CONTINUOUS
 62
       7
  5
190
 10
43.5
 20
6.0
 30
0.0
 11
58.5
 21
6.0
 31
0.0
  0
LINE
  8
0
  6
CONTINUOUS
 62
       7
  5
191
 10
58.5
 20
9.42959141
 30
0.0
 11
58.5
 21
-1.0
 31
0.0
  0
ARC
  8
0
  6
CONTINUOUS
 62
       7
  5
192
 10
57.99921181
 20
-0.99921181
 30
0.0
 40
0.50078881
 50
270.09017788
 51
359.90982212
  0
ARC
  8
0
  6
CONTINUOUS
 62
       7
  5
193
 10
49.20564395
 20
3.00564395
 30
0.0
 40
0.49438827
 50
359.34589612
 51
90.65410388
  0
ARC
  8
0
  6
CONTINUOUS
 62
       7
  5
194
 10
44.00565426
 20
4.00565426
 30
0.0
 40
0.50568587
 50
180.64065837
 51
269.35934163
  0
ARC
  8
0
  6
CONTINUOUS
 62
       7
  5
195
 10
50.20564512
 20
-0.99435488
 30
0.0
 40
0.50567663
 50
180.63963425
 51
269.36036575
  0
ARC
  8
0
  6
CONTINUOUS
 62
       7
  5
196
 10
56.5
 20
11.0
 30
0.0
 40
2.7
 50
42.2054464
 51
317.7945536
  0
LINE
  8
0
  6
CONTINUOUS
 62
       7
  5
197
 10
43.70000076
 20
2.32817459
 30
0.0
 11
43.70000076
 21
3.5
 31
0.0
  0
LINE
  8
0
  6
CONTINUOUS
 62
       7
  5
198
 10
49.29999924
 20
2.32817459
 30
0.0
 11
49.29999924
 21
3.5
 31
0.0
  0
ARC
  8
0
  6
CONTINUOUS
 62
       7
  5
199
 10
48.63333321
 20
2.32817459
 30
0.0
 40
0.66666669
 50
299.49235568
 51
0.00001799
  0
ARC
  8
0
  6
CONTINUOUS
 62
       7
  5
19A
 10
44.36666679
 20
2.32817459
 30
0.0
 40
0.66666669
 50
179.99998201
 51
240.50764432
  0
ARC
  8
0
  6
CONTINUOUS
 62
       7
  5
19B
 10
46.5
 20
6.10000038
 30
0.0
 40
5.0
 50
240.50764432
 51
299.49233837
  0
ARC
  8
0
  6
CONTINUOUS
 62
       7
  5
19C
 10
44.0
 20
-1.0
 30
0.0
 40
0.5
 50
180.0
 51
270.0
  0
LINE
  8
0
  6
CONTINUOUS
 62
       7
  5
19D
 10
55.58076086
 20
10.08076119
 30
0.0
 11
57.41923889
 21
11.91923906
 31
0.0
  0
LINE
  8
0
  6
CONTINUOUS
 62
       7
  5
19E
 10
55.58076149
 20
11.91923808
 30
0.0
 11
57.41923868
 21
10.08076073
 31
0.0
  0
CIRCLE
  8
0
  6
CONTINUOUS
 62
       7
  5
19F
 10
56.5
 20
11.0
 30
0.0
 40
2.25
  0
LINE
  8
0
  6
CONTINUOUS
 62
       7
  5
1A0
 10
48.18
 20
107.0
 30
0.0
 11
48.82
 21
107.0
 31
0.0
  0
LINE
  8
0
  6
CONTINUOUS
 62
       7
  5
1A1
 10
53.18
 20
107.0
 30
0.0
 11
53.82
 21
107.0
 31
0.0
  0
LINE
  8
0
  6
CONTINUOUS
 62
       7
  5
1A2
 10
43.5
 20
34.0
 30
0.0
 11
58.5
 21
34.0
 31
0.0
  0
LINE
  8
0
  6
CONTINUOUS
 62
       2
  5
1A3
 10
48.62
 20
47.5
 30
0.0
 11
53.46
 21
47.5
 31
0.0
  0
LINE
  8
0
  6
CONTINUOUS
 62
       2
  5
1A4
 10
50.5
 20
25.0
 30
0.0
 11
57.5
 21
25.0
 31
0.0
  0
LINE
  8
0
  6
CONTINUOUS
 62
       7
  5
1A5
 10
43.5
 20
77.2
 30
0.0
 11
43.5
 21
51.0
 31
0.0
  0
LINE
  8
0
  6
CONTINUOUS
 62
       7
  5
1A6
 10
58.5
 20
77.2
 30
0.0
 11
58.5
 21
51.0
 31
0.0
  0
LINE
  8
0
  6
CONTINUOUS
 62
       7
  5
1A7
 10
43.5
 20
76.2
 30
0.0
 11
44.0
 21
76.2
 31
0.0
  0
LINE
  8
0
  6
CONTINUOUS
 62
       7
  5
1A8
 10
43.5
 20
51.0
 30
0.0
 11
58.5
 21
51.0
 31
0.0
  0
LINE
  8
0
  6
CONTINUOUS
 62
       7
  5
1A9
 10
58.0
 20
77.0
 30
0.0
 11
58.0
 21
72.0
 31
0.0
  0
LINE
  8
0
  6
CONTINUOUS
 62
       7
  5
1AA
 10
44.0
 20
77.0
 30
0.0
 11
44.0
 21
72.0
 31
0.0
  0
LINE
  8
0
  6
CONTINUOUS
 62
       7
  5
1AB
 10
58.0
 20
76.2
 30
0.0
 11
58.5
 21
76.2
 31
0.0
  0
LINE
  8
0
  6
CONTINUOUS
 62
       7
  5
1AC
 10
44.0
 20
71.2
 30
0.0
 11
44.0
 21
51.8
 31
0.0
  0
LINE
  8
0
  6
CONTINUOUS
 62
       7
  5
1AD
 10
58.0
 20
71.2
 30
0.0
 11
58.0
 21
51.8
 31
0.0
  0
LINE
  8
0
  6
CONTINUOUS
 62
       7
  5
1AE
 10
45.5
 20
52.5
 30
0.0
 11
56.5
 21
52.5
 31
0.0
  0
LINE
  8
0
  6
CONTINUOUS
 62
       7
  5
1AF
 10
45.5
 20
61.0
 30
0.0
 11
56.5
 21
61.0
 31
0.0
  0
LINE
  8
0
  6
CONTINUOUS
 62
       7
  5
1B0
 10
45.5
 20
61.0
 30
0.0
 11
45.5
 21
52.5
 31
0.0
  0
LINE
  8
0
  6
CONTINUOUS
 62
       7
  5
1B1
 10
56.5
 20
61.0
 30
0.0
 11
56.5
 21
52.5
 31
0.0
  0
LINE
  8
0
  6
CONTINUOUS
 62
       2
  5
1B2
 10
47.0
 20
63.5
 30
0.0
 11
55.0
 21
63.5
 31
0.0
  0
LINE
  8
0
  6
CONTINUOUS
 62
       7
  5
1B3
 10
49.0
 20
64.5
 30
0.0
 11
53.0
 21
64.5
 31
0.0
  0
LINE
  8
0
  6
CONTINUOUS
 62
       7
  5
1B4
 10
49.0
 20
62.5
 30
0.0
 11
53.0
 21
62.5
 31
0.0
  0
LINE
  8
0
  6
CONTINUOUS
 62
       7
  5
1B5
 10
49.0
 20
64.5
 30
0.0
 11
49.0
 21
62.5
 31
0.0
  0
LINE
  8
0
  6
CONTINUOUS
 62
       7
  5
1B6
 10
53.0
 20
64.5
 30
0.0
 11
53.0
 21
62.5
 31
0.0
  0
LINE
  8
0
  6
CONTINUOUS
 62
       7
  5
1B7
 10
48.5
 20
65.0
 30
0.0
 11
53.5
 21
65.0
 31
0.0
  0
LINE
  8
0
  6
CONTINUOUS
 62
       7
  5
1B8
 10
48.5
 20
65.0
 30
0.0
 11
48.5
 21
62.0
 31
0.0
  0
LINE
  8
0
  6
CONTINUOUS
 62
       7
  5
1B9
 10
48.5
 20
62.0
 30
0.0
 11
53.5
 21
62.0
 31
0.0
  0
LINE
  8
0
  6
CONTINUOUS
 62
       7
  5
1BA
 10
53.5
 20
65.0
 30
0.0
 11
53.5
 21
62.0
 31
0.0
  0
LINE
  8
0
  6
CONTINUOUS
 62
       7
  5
1BB
 10
49.0
 20
64.5
 30
0.0
 11
48.5
 21
65.0
 31
0.0
  0
LINE
  8
0
  6
CONTINUOUS
 62
       7
  5
1BC
 10
53.0
 20
64.5
 30
0.0
 11
53.5
 21
65.0
 31
0.0
  0
LINE
  8
0
  6
CONTINUOUS
 62
       7
  5
1BD
 10
53.0
 20
62.5
 30
0.0
 11
53.5
 21
62.0
 31
0.0
  0
LINE
  8
0
  6
CONTINUOUS
 62
       7
  5
1BE
 10
49.0
 20
62.5
 30
0.0
 11
48.5
 21
62.0
 31
0.0
  0
LINE
  8
0
  6
CONTINUOUS
 62
       7
  5
1BF
 10
44.5
 20
79.2
 30
0.0
 11
44.68
 21
79.2
 31
0.0
  0
LINE
  8
0
  6
CONTINUOUS
 62
       7
  5
1C0
 10
44.0
 20
77.0
 30
0.0
 11
46.8
 21
77.0
 31
0.0
  0
LINE
  8
0
  6
CONTINUOUS
 62
       7
  5
1C1
 10
43.5
 20
77.2
 30
0.0
 11
44.5
 21
79.2
 31
0.0
  0
LINE
  8
0
  6
CONTINUOUS
 62
       7
  5
1C2
 10
58.5
 20
77.2
 30
0.0
 11
57.5
 21
79.2
 31
0.0
  0
LINE
  8
0
  6
CONTINUOUS
 62
       7
  5
1C3
 10
45.5
 20
77.8
 30
0.0
 11
43.95
 21
77.8
 31
0.0
  0
LINE
  8
0
  6
CONTINUOUS
 62
       7
  5
1C4
 10
43.95
 20
77.8
 30
0.0
 11
43.95
 21
77.2
 31
0.0
  0
LINE
  8
0
  6
CONTINUOUS
 62
       7
  5
1C5
 10
44.25
 20
78.5
 30
0.0
 11
44.25
 21
77.8
 31
0.0
  0
LINE
  8
0
  6
CONTINUOUS
 62
       7
  5
1C6
 10
47.0
 20
85.0
 30
0.0
 11
55.0
 21
85.0
 31
0.0
  0
LINE
  8
0
  6
CONTINUOUS
 62
       7
  5
1C7
 10
47.0
 20
79.33
 30
0.0
 11
55.0
 21
79.33
 31
0.0
  0
LINE
  8
0
  6
CONTINUOUS
 62
       7
  5
1C8
 10
56.5
 20
79.2
 30
0.0
 11
57.5
 21
79.2
 31
0.0
  0
LINE
  8
0
  6
CONTINUOUS
 62
       7
  5
1C9
 10
44.0
 20
72.0
 30
0.0
 11
58.0
 21
72.0
 31
0.0
  0
LINE
  8
0
  6
CONTINUOUS
 62
       7
  5
1CA
 10
55.2
 20
77.0
 30
0.0
 11
55.2
 21
72.0
 31
0.0
  0
LINE
  8
0
  6
CONTINUOUS
 62
       7
  5
1CB
 10
46.8
 20
77.0
 30
0.0
 11
46.8
 21
72.0
 31
0.0
  0
LINE
  8
0
  6
CONTINUOUS
 62
       7
  5
1CC
 10
55.2
 20
77.0
 30
0.0
 11
58.0
 21
77.0
 31
0.0
  0
LINE
  8
0
  6
CONTINUOUS
 62
       7
  5
1CD
 10
45.5
 20
87.0
 30
0.0
 11
56.5
 21
87.0
 31
0.0
  0
LINE
  8
0
  6
CONTINUOUS
 62
       7
  5
1CE
 10
55.0
 20
72.0
 30
0.0
 11
55.0
 21
87.0
 31
0.0
  0
LINE
  8
0
  6
CONTINUOUS
 62
       7
  5
1CF
 10
47.0
 20
72.0
 30
0.0
 11
47.0
 21
87.0
 31
0.0
  0
LINE
  8
0
  6
CONTINUOUS
 62
       7
  5
1D0
 10
45.5
 20
77.0
 30
0.0
 11
45.5
 21
87.0
 31
0.0
  0
LINE
  8
0
  6
CONTINUOUS
 62
       7
  5
1D1
 10
56.5
 20
77.0
 30
0.0
 11
56.5
 21
87.0
 31
0.0
  0
LINE
  8
0
  6
CONTINUOUS
 62
       7
  5
1D2
 10
47.65
 20
97.0
 30
0.0
 11
49.35
 21
97.0
 31
0.0
  0
LINE
  8
0
  6
CONTINUOUS
 62
       7
  5
1D3
 10
49.35
 20
87.0
 30
0.0
 11
49.35
 21
91.67
 31
0.0
  0
LINE
  8
0
  6
CONTINUOUS
 62
       7
  5
1D4
 10
47.65
 20
87.0
 30
0.0
 11
47.65
 21
92.12
 31
0.0
  0
LINE
  8
0
  6
CONTINUOUS
 62
       7
  5
1D5
 10
52.65
 20
87.0
 30
0.0
 11
52.65
 21
90.78
 31
0.0
  0
LINE
  8
0
  6
CONTINUOUS
 62
       7
  5
1D6
 10
54.35
 20
87.0
 30
0.0
 11
54.35
 21
90.33
 31
0.0
  0
LINE
  8
0
  6
CONTINUOUS
 62
       7
  5
1D7
 10
52.65
 20
97.0
 30
0.0
 11
54.35
 21
97.0
 31
0.0
  0
LINE
  8
0
  6
CONTINUOUS
 62
       7
  5
1D8
 10
58.5
 20
77.2
 30
0.0
 11
56.5
 21
77.2
 31
0.0
  0
LINE
  8
0
  6
CONTINUOUS
 62
       7
  5
1D9
 10
43.5
 20
77.2
 30
0.0
 11
45.5
 21
77.2
 31
0.0
  0
LINE
  8
0
  6
CONTINUOUS
 62
       2
  5
1DA
 10
56.35
 20
91.35
 30
0.0
 11
45.65
 21
94.21
 31
0.0
  0
LINE
  8
0
  6
CONTINUOUS
 62
       2
  5
1DB
 10
56.35
 20
89.79
 30
0.0
 11
45.65
 21
92.66
 31
0.0
  0
LINE
  8
0
  6
CONTINUOUS
 62
       7
  5
1DC
 10
47.65
 20
93.68
 30
0.0
 11
47.65
 21
97.0
 31
0.0
  0
LINE
  8
0
  6
CONTINUOUS
 62
       7
  5
1DD
 10
49.35
 20
93.22
 30
0.0
 11
49.35
 21
97.0
 31
0.0
  0
LINE
  8
0
  6
CONTINUOUS
 62
       7
  5
1DE
 10
52.65
 20
92.34
 30
0.0
 11
52.65
 21
97.0
 31
0.0
  0
LINE
  8
0
  6
CONTINUOUS
 62
       7
  5
1DF
 10
54.35
 20
91.88
 30
0.0
 11
54.35
 21
97.0
 31
0.0
  0
LINE
  8
0
  6
CONTINUOUS
 62
       7
  5
1E0
 10
43.5
 20
51.0
 30
0.0
 11
43.5
 21
30.57040859
 31
0.0
  0
CIRCLE
  8
0
  6
CONTINUOUS
 62
       2
  5
1E1
 10
54.00489746
 20
25.00639465
 30
0.0
 40
2.5
  0
ARC
  8
0
  6
CONTINUOUS
 62
       7
  5
1E2
 10
44.79928206
 20
71.20071794
 30
0.0
 40
0.79928239
 50
89.94853538
 51
180.05146462
  0
ARC
  8
0
  6
CONTINUOUS
 62
       7
  5
1E3
 10
57.20563502
 20
71.20563502
 30
0.0
 40
0.79438497
 50
359.59356546
 51
90.40643454
  0
ARC
  8
0
  6
CONTINUOUS
 62
       7
  5
1E4
 10
44.80564944
 20
51.80564944
 30
0.0
 40
0.80566925
 50
180.40176785
 51
269.59823215
  0
ARC
  8
0
  6
CONTINUOUS
 62
       7
  5
1E5
 10
57.19922854
 20
51.80077146
 30
0.0
 40
0.80077184
 50
270.05519883
 51
359.94480117
  0
ARC
  8
0
  6
CONTINUOUS
 62
       7
  5
1E6
 10
46.55527777
 20
73.51821184
 30
0.0
 40
5.99539112
 50
100.13772055
 51
106.72433719
  0
ARC
  8
0
  6
CONTINUOUS
 62
       7
  5
1E7
 10
45.04863366
 20
78.49183221
 30
0.0
 40
0.79867543
 50
105.88725748
 51
179.41404443
  0
ARC
  8
0
  6
CONTINUOUS
 62
       7
  5
1E8
 10
55.44522292
 20
73.52030848
 30
0.0
 40
5.99323909
 50
73.27447895
 51
79.86346331
  0
ARC
  8
0
  6
CONTINUOUS
 62
       7
  5
1E9
 10
56.97356713
 20
78.49284567
 30
0.0
 40
0.79190381
 50
63.25014549
 51
75.63776407
  0
CIRCLE
  8
0
  6
CONTINUOUS
 62
       7
  5
1EA
 10
51.00489746
 20
47.50639465
 30
0.0
 40
1.5
  0
CIRCLE
  8
0
  6
CONTINUOUS
 62
       7
  5
1EB
 10
54.00489746
 20
25.00639465
 30
0.0
 40
2.067
  0
LINE
  8
0
  6
CONTINUOUS
 62
       7
  5
1EC
 10
48.18
 20
97.0
 30
0.0
 11
48.18
 21
107.0
 31
0.0
  0
LINE
  8
0
  6
CONTINUOUS
 62
       7
  5
1ED
 10
48.82
 20
97.0
 30
0.0
 11
48.82
 21
107.0
 31
0.0
  0
LINE
  8
0
  6
CONTINUOUS
 62
       7
  5
1EE
 10
53.18
 20
97.0
 30
0.0
 11
53.18
 21
107.0
 31
0.0
  0
LINE
  8
0
  6
CONTINUOUS
 62
       7
  5
1EF
 10
53.82
 20
97.0
 30
0.0
 11
53.82
 21
107.0
 31
0.0
  0
LINE
  8
0
  6
CONTINUOUS
 62
       2
  5
1F0
 10
53.5
 20
84.0
 30
0.0
 11
53.5
 21
110.0
 31
0.0
  0
LINE
  8
0
  6
CONTINUOUS
 62
       2
  5
1F1
 10
48.5
 20
84.0
 30
0.0
 11
48.5
 21
110.0
 31
0.0
  0
ARC
  8
0
  6
CONTINUOUS
 62
       7
  5
1F2
 10
45.5
 20
29.0
 30
0.0
 40
2.7
 50
222.2054464
 51
137.7945536
  0
LINE
  8
0
  6
CONTINUOUS
 62
       7
  5
1F3
 10
44.58076086
 20
28.08076119
 30
0.0
 11
46.41923889
 21
29.91923906
 31
0.0
  0
LINE
  8
0
  6
CONTINUOUS
 62
       7
  5
1F4
 10
44.58076149
 20
29.91923808
 30
0.0
 11
46.41923868
 21
28.08076073
 31
0.0
  0
CIRCLE
  8
0
  6
CONTINUOUS
 62
       7
  5
1F5
 10
45.5
 20
29.0
 30
0.0
 40
2.25
  0
LINE
  8
0
  6
CONTINUOUS
 62
       7
  5
1F6
 10
58.5
 20
51.0
 30
0.0
 11
58.5
 21
12.57040859
 31
0.0
  0
LINE
  8
0
  6
CONTINUOUS
 62
       7
  5
1F7
 10
43.5
 20
27.42959141
 30
0.0
 11
43.5
 21
-1.0
 31
0.0
  0
LINE
  8
0
  6
CONTINUOUS
 62
       2
  5
1F8
 10
54.0
 20
28.5
 30
0.0
 11
54.0
 21
21.5
 31
0.0
  0
LINE
  8
0
  6
CONTINUOUS
 62
       2
  5
1F9
 10
51.0
 20
89.81
 30
0.0
 11
51.0
 21
-13.21
 31
0.0
  0
ARC
  8
0
  6
CONTINUOUS
 62
       7
  5
1FA
 10
91.99918945
 20
-83.50081055
 30
0.0
 40
0.49919011
 50
179.90696763
 51
270.09303237
  0
ARC
  8
0
  6
CONTINUOUS
 62
       7
  5
1FB
 10
106.00574026
 20
-83.50574026
 30
0.0
 40
0.49429308
 50
269.33460568
 51
0.66539432
  0
LINE
  8
0
  6
CONTINUOUS
 62
       7
  5
1FC
 10
91.5
 20
-66.2
 30
0.0
 11
94.5
 21
-66.2
 31
0.0
  0
LINE
  8
0
  6
CONTINUOUS
 62
       7
  5
1FD
 10
103.5
 20
-77.8
 30
0.0
 11
106.5
 21
-77.8
 31
0.0
  0
LINE
  8
0
  6
CONTINUOUS
 62
       7
  5
1FE
 10
97.7
 20
-63.0
 30
0.0
 11
97.7
 21
-60.0
 31
0.0
  0
LINE
  8
0
  6
CONTINUOUS
 62
       7
  5
1FF
 10
92.0
 20
-60.0
 30
0.0
 11
106.0
 21
-60.0
 31
0.0
  0
LINE
  8
0
  6
CONTINUOUS
 62
       7
  5
200
 10
92.8
 20
-50.0
 30
0.0
 11
105.2
 21
-50.0
 31
0.0
  0
LINE
  8
0
  6
CONTINUOUS
 62
       7
  5
201
 10
106.0
 20
-60.0
 30
0.0
 11
106.0
 21
-50.8
 31
0.0
  0
LINE
  8
0
  6
CONTINUOUS
 62
       7
  5
202
 10
92.0
 20
-60.0
 30
0.0
 11
92.0
 21
-50.8
 31
0.0
  0
ARC
  8
0
  6
CONTINUOUS
 62
       7
  5
203
 10
94.50575612
 20
-63.00575612
 30
0.0
 40
3.19424907
 50
269.89675149
 51
0.10324851
  0
ARC
  8
0
  6
CONTINUOUS
 62
       7
  5
204
 10
103.50574108
 20
-81.00574108
 30
0.0
 40
3.20574622
 50
90.10260941
 51
179.89739059
  0
ARC
  8
0
  6
CONTINUOUS
 62
       7
  5
205
 10
92.80575208
 20
-50.80575208
 30
0.0
 40
0.80577262
 50
90.40901485
 51
179.59098515
  0
ARC
  8
0
  6
CONTINUOUS
 62
       7
  5
206
 10
105.19914042
 20
-50.80085958
 30
0.0
 40
0.80086004
 50
0.06149697
 51
89.93850303
  0
ARC
  8
0
  6
CONTINUOUS
 62
       7
  5
207
 10
92.00574168
 20
-60.50574168
 30
0.0
 40
0.50577427
 50
90.65045023
 51
179.34954977
  0
ARC
  8
0
  6
CONTINUOUS
 62
       7
  5
208
 10
105.99912353
 20
-60.50087647
 30
0.0
 40
0.50087723
 50
0.10025981
 51
89.89974019
  0
LINE
  8
0
  6
CONTINUOUS
 62
       7
  5
209
 10
102.44508071
 20
-82.0664011
 30
0.0
 11
104.56640119
 21
-79.9450808
 31
0.0
  0
LINE
  8
0
  6
CONTINUOUS
 62
       7
  5
20A
 10
102.44508063
 20
-79.94508113
 30
0.0
 11
104.56640094
 21
-82.06640162
 31
0.0
  0
LINE
  8
0
  6
CONTINUOUS
 62
       7
  5
20B
 10
93.44509575
 20
-64.06641615
 30
0.0
 11
95.56641623
 21
-61.94509584
 31
0.0
  0
LINE
  8
0
  6
CONTINUOUS
 62
       7
  5
20C
 10
93.44509567
 20
-61.94509617
 30
0.0
 11
95.56641598
 21
-64.06641666
 31
0.0
  0
CIRCLE
  8
0
  6
CONTINUOUS
 62
       7
  5
20D
 10
94.50575612
 20
-63.00575612
 30
0.0
 40
2.79999924
  0
CIRCLE
  8
0
  6
CONTINUOUS
 62
       7
  5
20E
 10
103.50574108
 20
-81.00574108
 30
0.0
 40
2.79999924
  0
LINE
  8
0
  6
CONTINUOUS
 62
       7
  5
20F
 10
91.5
 20
-83.5
 30
0.0
 11
91.5
 21
-60.5
 31
0.0
  0
LINE
  8
0
  6
CONTINUOUS
 62
       7
  5
210
 10
106.5
 20
-83.5
 30
0.0
 11
106.5
 21
-60.5
 31
0.0
  0
LINE
  8
0
  6
CONTINUOUS
 62
       2
  5
211
 10
99.0
 20
-47.19
 30
0.0
 11
99.0
 21
-86.0
 31
0.0
  0
LINE
  8
0
  6
CONTINUOUS
 62
       7
  5
212
 10
100.3
 20
-81.0
 30
0.0
 11
100.3
 21
-84.0
 31
0.0
  0
ARC
  8
0
  6
CONTINUOUS
 62
       7
  5
213
 10
75.99918945
 20
-83.50081055
 30
0.0
 40
0.49919011
 50
179.90696763
 51
270.09303237
  0
ARC
  8
0
  6
CONTINUOUS
 62
       7
  5
214
 10
90.00574026
 20
-83.50574026
 30
0.0
 40
0.49429308
 50
269.33460568
 51
0.66539432
  0
LINE
  8
0
  6
CONTINUOUS
 62
       7
  5
215
 10
75.5
 20
-66.2
 30
0.0
 11
78.5
 21
-66.2
 31
0.0
  0
LINE
  8
0
  6
CONTINUOUS
 62
       7
  5
216
 10
87.5
 20
-77.8
 30
0.0
 11
90.5
 21
-77.8
 31
0.0
  0
LINE
  8
0
  6
CONTINUOUS
 62
       7
  5
217
 10
81.7
 20
-63.0
 30
0.0
 11
81.7
 21
-60.0
 31
0.0
  0
LINE
  8
0
  6
CONTINUOUS
 62
       7
  5
218
 10
76.0
 20
-60.0
 30
0.0
 11
90.0
 21
-60.0
 31
0.0
  0
LINE
  8
0
  6
CONTINUOUS
 62
       7
  5
219
 10
76.8
 20
-50.0
 30
0.0
 11
89.2
 21
-50.0
 31
0.0
  0
LINE
  8
0
  6
CONTINUOUS
 62
       7
  5
21A
 10
90.0
 20
-60.0
 30
0.0
 11
90.0
 21
-50.8
 31
0.0
  0
LINE
  8
0
  6
CONTINUOUS
 62
       7
  5
21B
 10
76.0
 20
-60.0
 30
0.0
 11
76.0
 21
-50.8
 31
0.0
  0
ARC
  8
0
  6
CONTINUOUS
 62
       7
  5
21C
 10
78.50575612
 20
-63.00575612
 30
0.0
 40
3.19424907
 50
269.89675149
 51
0.10324851
  0
ARC
  8
0
  6
CONTINUOUS
 62
       7
  5
21D
 10
87.50574108
 20
-81.00574108
 30
0.0
 40
3.20574622
 50
90.10260941
 51
179.89739059
  0
ARC
  8
0
  6
CONTINUOUS
 62
       7
  5
21E
 10
76.80575208
 20
-50.80575208
 30
0.0
 40
0.80577262
 50
90.40901485
 51
179.59098515
  0
ARC
  8
0
  6
CONTINUOUS
 62
       7
  5
21F
 10
89.19914042
 20
-50.80085958
 30
0.0
 40
0.80086004
 50
0.06149697
 51
89.93850303
  0
ARC
  8
0
  6
CONTINUOUS
 62
       7
  5
220
 10
76.00574168
 20
-60.50574168
 30
0.0
 40
0.50577427
 50
90.65045023
 51
179.34954977
  0
ARC
  8
0
  6
CONTINUOUS
 62
       7
  5
221
 10
89.99912353
 20
-60.50087647
 30
0.0
 40
0.50087723
 50
0.10025981
 51
89.89974019
  0
LINE
  8
0
  6
CONTINUOUS
 62
       7
  5
222
 10
86.44508071
 20
-82.0664011
 30
0.0
 11
88.56640119
 21
-79.9450808
 31
0.0
  0
LINE
  8
0
  6
CONTINUOUS
 62
       7
  5
223
 10
86.44508063
 20
-79.94508113
 30
0.0
 11
88.56640094
 21
-82.06640162
 31
0.0
  0
LINE
  8
0
  6
CONTINUOUS
 62
       7
  5
224
 10
77.44509575
 20
-64.06641615
 30
0.0
 11
79.56641623
 21
-61.94509584
 31
0.0
  0
LINE
  8
0
  6
CONTINUOUS
 62
       7
  5
225
 10
77.44509567
 20
-61.94509617
 30
0.0
 11
79.56641598
 21
-64.06641666
 31
0.0
  0
CIRCLE
  8
0
  6
CONTINUOUS
 62
       7
  5
226
 10
78.50575612
 20
-63.00575612
 30
0.0
 40
2.79999924
  0
CIRCLE
  8
0
  6
CONTINUOUS
 62
       7
  5
227
 10
87.50574108
 20
-81.00574108
 30
0.0
 40
2.79999924
  0
LINE
  8
0
  6
CONTINUOUS
 62
       7
  5
228
 10
75.5
 20
-83.5
 30
0.0
 11
75.5
 21
-60.5
 31
0.0
  0
LINE
  8
0
  6
CONTINUOUS
 62
       7
  5
229
 10
90.5
 20
-83.5
 30
0.0
 11
90.5
 21
-60.5
 31
0.0
  0
LINE
  8
0
  6
CONTINUOUS
 62
       2
  5
22A
 10
83.0
 20
-47.19
 30
0.0
 11
83.0
 21
-86.0
 31
0.0
  0
LINE
  8
0
  6
CONTINUOUS
 62
       7
  5
22B
 10
84.3
 20
-81.0
 30
0.0
 11
84.3
 21
-84.0
 31
0.0
  0
ARC
  8
0
  6
CONTINUOUS
 62
       7
  5
22C
 10
59.99918945
 20
-83.50081055
 30
0.0
 40
0.49919011
 50
179.90696763
 51
270.09303237
  0
ARC
  8
0
  6
CONTINUOUS
 62
       7
  5
22D
 10
74.00574026
 20
-83.50574026
 30
0.0
 40
0.49429308
 50
269.33460568
 51
0.66539432
  0
LINE
  8
0
  6
CONTINUOUS
 62
       7
  5
22E
 10
59.5
 20
-66.2
 30
0.0
 11
62.5
 21
-66.2
 31
0.0
  0
LINE
  8
0
  6
CONTINUOUS
 62
       7
  5
22F
 10
71.5
 20
-77.8
 30
0.0
 11
74.5
 21
-77.8
 31
0.0
  0
LINE
  8
0
  6
CONTINUOUS
 62
       7
  5
230
 10
65.7
 20
-63.0
 30
0.0
 11
65.7
 21
-60.0
 31
0.0
  0
LINE
  8
0
  6
CONTINUOUS
 62
       7
  5
231
 10
60.0
 20
-60.0
 30
0.0
 11
74.0
 21
-60.0
 31
0.0
  0
LINE
  8
0
  6
CONTINUOUS
 62
       7
  5
232
 10
60.8
 20
-50.0
 30
0.0
 11
73.2
 21
-50.0
 31
0.0
  0
LINE
  8
0
  6
CONTINUOUS
 62
       7
  5
233
 10
74.0
 20
-60.0
 30
0.0
 11
74.0
 21
-50.8
 31
0.0
  0
LINE
  8
0
  6
CONTINUOUS
 62
       7
  5
234
 10
60.0
 20
-60.0
 30
0.0
 11
60.0
 21
-50.8
 31
0.0
  0
ARC
  8
0
  6
CONTINUOUS
 62
       7
  5
235
 10
62.50575612
 20
-63.00575612
 30
0.0
 40
3.19424907
 50
269.89675149
 51
0.10324851
  0
ARC
  8
0
  6
CONTINUOUS
 62
       7
  5
236
 10
71.50574108
 20
-81.00574108
 30
0.0
 40
3.20574622
 50
90.10260941
 51
179.89739059
  0
ARC
  8
0
  6
CONTINUOUS
 62
       7
  5
237
 10
60.80575208
 20
-50.80575208
 30
0.0
 40
0.80577262
 50
90.40901485
 51
179.59098515
  0
ARC
  8
0
  6
CONTINUOUS
 62
       7
  5
238
 10
73.19914042
 20
-50.80085958
 30
0.0
 40
0.80086004
 50
0.06149697
 51
89.93850303
  0
ARC
  8
0
  6
CONTINUOUS
 62
       7
  5
239
 10
60.00574168
 20
-60.50574168
 30
0.0
 40
0.50577427
 50
90.65045023
 51
179.34954977
  0
ARC
  8
0
  6
CONTINUOUS
 62
       7
  5
23A
 10
73.99912353
 20
-60.50087647
 30
0.0
 40
0.50087723
 50
0.10025981
 51
89.89974019
  0
LINE
  8
0
  6
CONTINUOUS
 62
       7
  5
23B
 10
70.44508071
 20
-82.0664011
 30
0.0
 11
72.56640119
 21
-79.9450808
 31
0.0
  0
LINE
  8
0
  6
CONTINUOUS
 62
       7
  5
23C
 10
70.44508063
 20
-79.94508113
 30
0.0
 11
72.56640094
 21
-82.06640162
 31
0.0
  0
LINE
  8
0
  6
CONTINUOUS
 62
       7
  5
23D
 10
61.44509575
 20
-64.06641615
 30
0.0
 11
63.56641623
 21
-61.94509584
 31
0.0
  0
LINE
  8
0
  6
CONTINUOUS
 62
       7
  5
23E
 10
61.44509567
 20
-61.94509617
 30
0.0
 11
63.56641598
 21
-64.06641666
 31
0.0
  0
CIRCLE
  8
0
  6
CONTINUOUS
 62
       7
  5
23F
 10
62.50575612
 20
-63.00575612
 30
0.0
 40
2.79999924
  0
CIRCLE
  8
0
  6
CONTINUOUS
 62
       7
  5
240
 10
71.50574108
 20
-81.00574108
 30
0.0
 40
2.79999924
  0
LINE
  8
0
  6
CONTINUOUS
 62
       7
  5
241
 10
59.5
 20
-83.5
 30
0.0
 11
59.5
 21
-60.5
 31
0.0
  0
LINE
  8
0
  6
CONTINUOUS
 62
       7
  5
242
 10
74.5
 20
-83.5
 30
0.0
 11
74.5
 21
-60.5
 31
0.0
  0
LINE
  8
0
  6
CONTINUOUS
 62
       2
  5
243
 10
67.0
 20
-47.19
 30
0.0
 11
67.0
 21
-86.0
 31
0.0
  0
LINE
  8
0
  6
CONTINUOUS
 62
       7
  5
244
 10
68.3
 20
-81.0
 30
0.0
 11
68.3
 21
-84.0
 31
0.0
  0
ARC
  8
0
  6
CONTINUOUS
 62
       7
  5
245
 10
43.99918945
 20
-83.50081055
 30
0.0
 40
0.49919011
 50
179.90696763
 51
270.09303237
  0
ARC
  8
0
  6
CONTINUOUS
 62
       7
  5
246
 10
58.00574026
 20
-83.50574026
 30
0.0
 40
0.49429308
 50
269.33460568
 51
0.66539432
  0
LINE
  8
0
  6
CONTINUOUS
 62
       7
  5
247
 10
43.5
 20
-66.2
 30
0.0
 11
46.5
 21
-66.2
 31
0.0
  0
LINE
  8
0
  6
CONTINUOUS
 62
       7
  5
248
 10
55.5
 20
-77.8
 30
0.0
 11
58.5
 21
-77.8
 31
0.0
  0
LINE
  8
0
  6
CONTINUOUS
 62
       7
  5
249
 10
49.7
 20
-63.0
 30
0.0
 11
49.7
 21
-60.0
 31
0.0
  0
LINE
  8
0
  6
CONTINUOUS
 62
       7
  5
24A
 10
44.0
 20
-60.0
 30
0.0
 11
58.0
 21
-60.0
 31
0.0
  0
LINE
  8
0
  6
CONTINUOUS
 62
       7
  5
24B
 10
44.8
 20
-50.0
 30
0.0
 11
57.2
 21
-50.0
 31
0.0
  0
LINE
  8
0
  6
CONTINUOUS
 62
       7
  5
24C
 10
58.0
 20
-60.0
 30
0.0
 11
58.0
 21
-50.8
 31
0.0
  0
LINE
  8
0
  6
CONTINUOUS
 62
       7
  5
24D
 10
44.0
 20
-60.0
 30
0.0
 11
44.0
 21
-50.8
 31
0.0
  0
ARC
  8
0
  6
CONTINUOUS
 62
       7
  5
24E
 10
46.50575612
 20
-63.00575612
 30
0.0
 40
3.19424907
 50
269.89675149
 51
0.10324851
  0
ARC
  8
0
  6
CONTINUOUS
 62
       7
  5
24F
 10
55.50574108
 20
-81.00574108
 30
0.0
 40
3.20574622
 50
90.10260941
 51
179.89739059
  0
ARC
  8
0
  6
CONTINUOUS
 62
       7
  5
250
 10
44.80575208
 20
-50.80575208
 30
0.0
 40
0.80577262
 50
90.40901485
 51
179.59098515
  0
ARC
  8
0
  6
CONTINUOUS
 62
       7
  5
251
 10
57.19914042
 20
-50.80085958
 30
0.0
 40
0.80086004
 50
0.06149697
 51
89.93850303
  0
ARC
  8
0
  6
CONTINUOUS
 62
       7
  5
252
 10
44.00574168
 20
-60.50574168
 30
0.0
 40
0.50577427
 50
90.65045023
 51
179.34954977
  0
ARC
  8
0
  6
CONTINUOUS
 62
       7
  5
253
 10
57.99912353
 20
-60.50087647
 30
0.0
 40
0.50087723
 50
0.10025981
 51
89.89974019
  0
LINE
  8
0
  6
CONTINUOUS
 62
       7
  5
254
 10
54.44508071
 20
-82.0664011
 30
0.0
 11
56.56640119
 21
-79.9450808
 31
0.0
  0
LINE
  8
0
  6
CONTINUOUS
 62
       7
  5
255
 10
54.44508063
 20
-79.94508113
 30
0.0
 11
56.56640094
 21
-82.06640162
 31
0.0
  0
LINE
  8
0
  6
CONTINUOUS
 62
       7
  5
256
 10
45.44509575
 20
-64.06641615
 30
0.0
 11
47.56641623
 21
-61.94509584
 31
0.0
  0
LINE
  8
0
  6
CONTINUOUS
 62
       7
  5
257
 10
45.44509567
 20
-61.94509617
 30
0.0
 11
47.56641598
 21
-64.06641666
 31
0.0
  0
CIRCLE
  8
0
  6
CONTINUOUS
 62
       7
  5
258
 10
46.50575612
 20
-63.00575612
 30
0.0
 40
2.79999924
  0
CIRCLE
  8
0
  6
CONTINUOUS
 62
       7
  5
259
 10
55.50574108
 20
-81.00574108
 30
0.0
 40
2.79999924
  0
LINE
  8
0
  6
CONTINUOUS
 62
       7
  5
25A
 10
43.5
 20
-83.5
 30
0.0
 11
43.5
 21
-60.5
 31
0.0
  0
LINE
  8
0
  6
CONTINUOUS
 62
       7
  5
25B
 10
58.5
 20
-83.5
 30
0.0
 11
58.5
 21
-60.5
 31
0.0
  0
LINE
  8
0
  6
CONTINUOUS
 62
       2
  5
25C
 10
51.0
 20
-47.19
 30
0.0
 11
51.0
 21
-86.0
 31
0.0
  0
LINE
  8
0
  6
CONTINUOUS
 62
       7
  5
25D
 10
52.3
 20
-81.0
 30
0.0
 11
52.3
 21
-84.0
 31
0.0
  0
LINE
  8
0
  6
CONTINUOUS
 62
       7
  5
25E
 10
44.00489746
 20
-84.00658447
 30
0.0
 11
44.00489746
 21
-85.00658447
 31
0.0
  0
LINE
  8
0
  6
CONTINUOUS
 62
       7
  5
25F
 10
44.00489746
 20
-84.00658447
 30
0.0
 11
58.00489746
 21
-84.00658447
 31
0.0
  0
LINE
  8
0
  6
CONTINUOUS
 62
       7
  5
260
 10
58.00489746
 20
-85.00658447
 30
0.0
 11
44.00489746
 21
-85.00658447
 31
0.0
  0
LINE
  8
0
  6
CONTINUOUS
 62
       7
  5
261
 10
58.00489746
 20
-84.00658447
 30
0.0
 11
58.00489746
 21
-85.00658447
 31
0.0
  0
LINE
  8
0
  6
CONTINUOUS
 62
       7
  5
262
 10
60.00489746
 20
-84.00658447
 30
0.0
 11
60.00489746
 21
-85.00658447
 31
0.0
  0
LINE
  8
0
  6
CONTINUOUS
 62
       7
  5
263
 10
60.00489746
 20
-84.00658447
 30
0.0
 11
74.00489746
 21
-84.00658447
 31
0.0
  0
LINE
  8
0
  6
CONTINUOUS
 62
       7
  5
264
 10
74.00489746
 20
-85.00658447
 30
0.0
 11
60.00489746
 21
-85.00658447
 31
0.0
  0
LINE
  8
0
  6
CONTINUOUS
 62
       7
  5
265
 10
74.00489746
 20
-84.00658447
 30
0.0
 11
74.00489746
 21
-85.00658447
 31
0.0
  0
LINE
  8
0
  6
CONTINUOUS
 62
       7
  5
266
 10
76.00489746
 20
-84.00658447
 30
0.0
 11
76.00489746
 21
-85.00658447
 31
0.0
  0
LINE
  8
0
  6
CONTINUOUS
 62
       7
  5
267
 10
76.00489746
 20
-84.00658447
 30
0.0
 11
90.00489746
 21
-84.00658447
 31
0.0
  0
LINE
  8
0
  6
CONTINUOUS
 62
       7
  5
268
 10
90.00489746
 20
-85.00658447
 30
0.0
 11
76.00489746
 21
-85.00658447
 31
0.0
  0
LINE
  8
0
  6
CONTINUOUS
 62
       7
  5
269
 10
90.00489746
 20
-84.00658447
 30
0.0
 11
90.00489746
 21
-85.00658447
 31
0.0
  0
LINE
  8
0
  6
CONTINUOUS
 62
       7
  5
26A
 10
92.00489746
 20
-84.00658447
 30
0.0
 11
92.00489746
 21
-85.00658447
 31
0.0
  0
LINE
  8
0
  6
CONTINUOUS
 62
       7
  5
26B
 10
92.00489746
 20
-84.00658447
 30
0.0
 11
106.00489746
 21
-84.00658447
 31
0.0
  0
LINE
  8
0
  6
CONTINUOUS
 62
       7
  5
26C
 10
106.00489746
 20
-85.00658447
 30
0.0
 11
92.00489746
 21
-85.00658447
 31
0.0
  0
LINE
  8
0
  6
CONTINUOUS
 62
       7
  5
26D
 10
106.00489746
 20
-84.00658447
 30
0.0
 11
106.00489746
 21
-85.00658447
 31
0.0
  0
TEXT
  8
0
  6
CONTINUOUS
 62
       7
  5
26E
 10
-159.26605505
 20
108.0
 30
0.0
 40
4.0
  1
Stn.1～4:V112E1-PSL DC24V
 41
1.10091742
  7
MX_NOTE_STANDARD
 11
-159.26605505
 21
110.0
 31
0.0
 73
       2
  0
LINE
  8
0
  6
CONTINUOUS
 62
       7
  5
26F
 10
35.0
 20
-95.5
 30
0.0
 11
115.0
 21
-95.5
 31
0.0
  0
LINE
  8
0
  6
CONTINUOUS
 62
       7
  5
270
 10
35.0
 20
-101.5
 30
0.0
 11
115.0
 21
-101.5
 31
0.0
  0
LINE
  8
0
  6
CONTINUOUS
 62
       7
  5
271
 10
35.0
 20
-110.0
 30
0.0
 11
115.0
 21
-110.0
 31
0.0
  0
LINE
  8
0
  6
CONTINUOUS
 62
       7
  5
272
 10
106.0
 20
-85.0
 30
0.0
 11
115.0
 21
-85.0
 31
0.0
  0
LINE
  8
0
  6
CONTINUOUS
 62
       7
  5
273
 10
90.0
 20
-85.0
 30
0.0
 11
92.0
 21
-85.0
 31
0.0
  0
LINE
  8
0
  6
CONTINUOUS
 62
       7
  5
274
 10
74.0
 20
-85.0
 30
0.0
 11
76.0
 21
-85.0
 31
0.0
  0
LINE
  8
0
  6
CONTINUOUS
 62
       7
  5
275
 10
58.0
 20
-85.0
 30
0.0
 11
60.0
 21
-85.0
 31
0.0
  0
LINE
  8
0
  6
CONTINUOUS
 62
       7
  5
276
 10
115.0
 20
-85.0
 30
0.0
 11
115.0
 21
-110.0
 31
0.0
  0
LINE
  8
0
  6
CONTINUOUS
 62
       7
  5
277
 10
35.0
 20
-85.0
 30
0.0
 11
35.0
 21
-110.0
 31
0.0
  0
LINE
  8
0
  6
CONTINUOUS
 62
       7
  5
278
 10
35.0
 20
-85.0
 30
0.0
 11
44.0
 21
-85.0
 31
0.0
  0
LINE
  8
0
  6
CONTINUOUS
 62
       7
  5
279
 10
35.0
 20
50.0
 30
0.0
 11
35.0
 21
-10.0
 31
0.0
  0
LINE
  8
0
  6
CONTINUOUS
 62
       7
  5
27A
 10
115.0
 20
50.0
 30
0.0
 11
115.0
 21
-10.0
 31
0.0
  0
CIRCLE
  8
0
  6
CONTINUOUS
 62
       7
  5
27B
 10
111.5
 20
28.0
 30
0.0
 40
2.09999943
  0
CIRCLE
  8
0
  6
CONTINUOUS
 62
       7
  5
27C
 10
38.5
 20
28.0
 30
0.0
 40
2.09999943
  0
LINE
  8
0
  6
CONTINUOUS
 62
       7
  5
27D
 10
90.5
 20
50.0
 30
0.0
 11
115.0
 21
50.0
 31
0.0
  0
LINE
  8
0
  6
CONTINUOUS
 62
       7
  5
27E
 10
35.0
 20
50.0
 30
0.0
 11
43.5
 21
50.0
 31
0.0
  0
LINE
  8
0
  6
CONTINUOUS
 62
       2
  5
27F
 10
31.28
 20
20.0
 30
0.0
 11
117.81
 21
20.0
 31
0.0
  0
LINE
  8
0
  6
CONTINUOUS
 62
       2
  5
280
 10
111.5
 20
31.5
 30
0.0
 11
111.5
 21
24.5
 31
0.0
  0
LINE
  8
0
  6
CONTINUOUS
 62
       2
  5
281
 10
38.5
 20
31.5
 30
0.0
 11
38.5
 21
24.5
 31
0.0
  0
LINE
  8
0
  6
CONTINUOUS
 62
       2
  5
282
 10
108.0
 20
28.0
 30
0.0
 11
115.0
 21
28.0
 31
0.0
  0
LINE
  8
0
  6
CONTINUOUS
 62
       2
  5
283
 10
35.0
 20
28.0
 30
0.0
 11
42.0
 21
28.0
 31
0.0
  0
CIRCLE
  8
0
  6
CONTINUOUS
 62
       7
  5
284
 10
111.5
 20
12.0
 30
0.0
 40
2.09999943
  0
CIRCLE
  8
0
  6
CONTINUOUS
 62
       7
  5
285
 10
38.5
 20
12.0
 30
0.0
 40
2.09999943
  0
LINE
  8
0
  6
CONTINUOUS
 62
       7
  5
286
 10
35.0
 20
-10.0
 30
0.0
 11
115.0
 21
-10.0
 31
0.0
  0
LINE
  8
0
  6
CONTINUOUS
 62
       2
  5
287
 10
111.5
 20
15.5
 30
0.0
 11
111.5
 21
8.5
 31
0.0
  0
LINE
  8
0
  6
CONTINUOUS
 62
       2
  5
288
 10
38.5
 20
15.5
 30
0.0
 11
38.5
 21
8.5
 31
0.0
  0
LINE
  8
0
  6
CONTINUOUS
 62
       2
  5
289
 10
108.0
 20
12.0
 30
0.0
 11
115.0
 21
12.0
 31
0.0
  0
LINE
  8
0
  6
CONTINUOUS
 62
       2
  5
28A
 10
35.0
 20
12.0
 30
0.0
 11
42.0
 21
12.0
 31
0.0
  0
LINE
  8
0
  6
CONTINUOUS
 62
       2
  5
28B
 10
-62.0
 20
82.0
 30
0.0
 11
-62.0
 21
-4.46
 31
0.0
  0
LINE
  8
0
  6
CONTINUOUS
 62
       2
  5
28C
 10
-45.5
 20
84.0
 30
0.0
 11
-45.5
 21
110.0
 31
0.0
  0
LINE
  8
0
  6
CONTINUOUS
 62
       7
  5
28D
 10
-45.18
 20
97.0
 30
0.0
 11
-45.18
 21
107.0
 31
0.0
  0
LINE
  8
0
  6
CONTINUOUS
 62
       7
  5
28E
 10
-45.82
 20
97.0
 30
0.0
 11
-45.82
 21
107.0
 31
0.0
  0
LINE
  8
0
  6
CONTINUOUS
 62
       2
  5
28F
 10
-69.0
 20
17.5
 30
0.0
 11
-69.0
 21
12.5
 31
0.0
  0
LINE
  8
0
  6
CONTINUOUS
 62
       7
  5
290
 10
-50.0
 20
51.0
 30
0.0
 11
-50.0
 21
-1.0
 31
0.0
  0
LINE
  8
0
  6
CONTINUOUS
 62
       7
  5
291
 10
-96.0
 20
30.0
 30
0.0
 11
-96.0
 21
10.0
 31
0.0
  0
LINE
  8
0
  6
CONTINUOUS
 62
       2
  5
292
 10
-88.0
 20
26.5
 30
0.0
 11
-88.0
 21
13.5
 31
0.0
  0
CIRCLE
  8
0
  6
CONTINUOUS
 62
       2
  5
293
 10
-88.0
 20
20.0
 30
0.0
 40
4.864
  0
CIRCLE
  8
0
  6
CONTINUOUS
 62
       7
  5
294
 10
-88.0
 20
20.0
 30
0.0
 40
4.283
  0
CIRCLE
  8
0
  6
CONTINUOUS
 62
       7
  5
295
 10
-80.5
 20
42.5
 30
0.0
 40
2.067
  0
CIRCLE
  8
0
  6
CONTINUOUS
 62
       7
  5
296
 10
-91.5
 20
36.0
 30
0.0
 40
4.283
  0
CIRCLE
  8
0
  6
CONTINUOUS
 62
       2
  5
297
 10
-91.5
 20
36.0
 30
0.0
 40
4.864
  0
CIRCLE
  8
0
  6
CONTINUOUS
 62
       2
  5
298
 10
-80.5
 20
42.5
 30
0.0
 40
2.5
  0
ARC
  8
0
  6
CONTINUOUS
 62
       7
  5
299
 10
-85.29558256
 20
49.50645641
 30
0.0
 40
0.49357516
 50
89.35194427
 51
134.2508747
  0
ARC
  8
0
  6
CONTINUOUS
 62
       7
  5
29A
 10
-99.50369224
 20
34.21556047
 30
0.0
 40
0.49633891
 50
180.64189616
 51
225.75528487
  0
ARC
  8
0
  6
CONTINUOUS
 62
       7
  5
29B
 10
-99.00461417
 20
43.00461417
 30
0.0
 40
0.99539652
 50
89.73440367
 51
180.26559633
  0
ARC
  8
0
  6
CONTINUOUS
 62
       7
  5
29C
 10
-75.99821652
 20
49.00178348
 30
0.0
 40
0.99821812
 50
359.89763191
 51
90.10236809
  0
CIRCLE
  8
0
  6
CONTINUOUS
 62
       7
  5
29D
 10
-69.00282166
 20
25.00640991
 30
0.0
 40
1.59999943
  0
ARC
  8
0
  6
CONTINUOUS
 62
       7
  5
29E
 10
-55.70281878
 20
29.005
 30
0.0
 40
5.0036091
 50
338.68440811
 51
21.1927258
  0
ARC
  8
0
  6
CONTINUOUS
 62
       7
  5
29F
 10
-43.5
 20
77.50641001
 30
0.0
 40
0.50004109
 50
359.26550672
 51
180.73449328
  0
ARC
  8
0
  6
CONTINUOUS
 62
       7
  5
2A0
 10
-43.5
 20
79.50641001
 30
0.0
 40
0.50004109
 50
180.73449328
 51
359.26550672
  0
ARC
  8
0
  6
CONTINUOUS
 62
       7
  5
2A1
 10
-40.80459794
 20
51.80459794
 30
0.0
 40
0.80461108
 50
270.32741793
 51
359.67258207
  0
ARC
  8
0
  6
CONTINUOUS
 62
       7
  5
2A2
 10
-40.79822215
 20
71.20177785
 30
0.0
 40
0.79822413
 50
359.87238759
 51
90.12761241
  0
ARC
  8
0
  6
CONTINUOUS
 62
       7
  5
2A3
 10
-69.52745734
 20
78.49011376
 30
0.0
 40
0.79480452
 50
63.27283831
 51
75.61507125
  0
ARC
  8
0
  6
CONTINUOUS
 62
       7
  5
2A4
 10
-72.45301748
 20
78.50004371
 30
0.0
 40
0.79032587
 50
105.93508955
 51
117.66772942
  0
ARC
  8
0
  6
CONTINUOUS
 62
       7
  5
2A5
 10
-71.0
 20
73.50637876
 30
0.0
 40
5.99108149
 50
73.8145241
 51
106.1854759
  0
ARC
  8
0
  6
CONTINUOUS
 62
       7
  5
2A6
 10
-54.45628426
 20
78.49558535
 30
0.0
 40
0.79372802
 50
105.61997776
 51
179.68132415
  0
ARC
  8
0
  6
CONTINUOUS
 62
       7
  5
2A7
 10
-51.54729263
 20
78.49285563
 30
0.0
 40
0.79732464
 50
0.51340184
 51
74.18529625
  0
ARC
  8
0
  6
CONTINUOUS
 62
       7
  5
2A8
 10
-53.0
 20
73.50640927
 30
0.0
 40
5.99105218
 50
73.81444275
 51
106.18555725
  0
LINE
  8
0
  6
CONTINUOUS
 62
       2
  5
2A9
 10
-76.32
 20
42.7
 30
0.0
 11
-72.5
 21
42.7
 31
0.0
  0
LINE
  8
0
  6
CONTINUOUS
 62
       2
  5
2AA
 10
-80.5
 20
46.0
 30
0.0
 11
-80.5
 21
39.0
 31
0.0
  0
LINE
  8
0
  6
CONTINUOUS
 62
       7
  5
2AB
 10
-75.0
 20
39.2
 30
0.0
 11
-75.0
 21
34.0
 31
0.0
  0
LINE
  8
0
  6
CONTINUOUS
 62
       2
  5
2AC
 10
-99.6
 20
20.0
 30
0.0
 11
-46.71
 21
20.0
 31
0.0
  0
LINE
  8
0
  6
CONTINUOUS
 62
       2
  5
2AD
 10
-98.0
 20
36.0
 30
0.0
 11
-85.0
 21
36.0
 31
0.0
  0
LINE
  8
0
  6
CONTINUOUS
 62
       2
  5
2AE
 10
-84.0
 20
42.5
 30
0.0
 11
-77.00282987
 21
42.5
 31
0.0
  0
LINE
  8
0
  6
CONTINUOUS
 62
       2
  5
2AF
 10
-91.5
 20
42.5
 30
0.0
 11
-91.5
 21
29.5
 31
0.0
  0
LINE
  8
0
  6
CONTINUOUS
 62
       7
  5
2B0
 10
-91.5
 20
44.0
 30
0.0
 11
-85.64
 21
49.86
 31
0.0
  0
LINE
  8
0
  6
CONTINUOUS
 62
       7
  5
2B1
 10
-96.0
 20
30.0
 30
0.0
 11
-99.85
 21
33.86
 31
0.0
  0
LINE
  8
0
  6
CONTINUOUS
 62
       7
  5
2B2
 10
-99.0
 20
44.0
 30
0.0
 11
-91.5
 21
44.0
 31
0.0
  0
LINE
  8
0
  6
CONTINUOUS
 62
       7
  5
2B3
 10
-100.0
 20
43.0
 30
0.0
 11
-100.0
 21
34.21
 31
0.0
  0
LINE
  8
0
  6
CONTINUOUS
 62
       7
  5
2B4
 10
-85.29
 20
50.0
 30
0.0
 11
-76.0
 21
50.0
 31
0.0
  0
LINE
  8
0
  6
CONTINUOUS
 62
       7
  5
2B5
 10
-75.0
 20
49.0
 30
0.0
 11
-75.0
 21
46.2
 31
0.0
  0
LINE
  8
0
  6
CONTINUOUS
 62
       2
  5
2B6
 10
-69.0
 20
27.5
 30
0.0
 11
-69.0
 21
22.5
 31
0.0
  0
LINE
  8
0
  6
CONTINUOUS
 62
       2
  5
2B7
 10
-71.5
 20
25.0
 30
0.0
 11
-66.5
 21
25.0
 31
0.0
  0
LINE
  8
0
  6
CONTINUOUS
 62
       7
  5
2B8
 10
-53.0
 20
30.81383571
 30
0.0
 11
-53.0
 21
27.18616429
 31
0.0
  0
LINE
  8
0
  6
CONTINUOUS
 62
       2
  5
2B9
 10
-54.41
 20
29.0
 30
0.0
 11
-48.73
 21
29.0
 31
0.0
  0
LINE
  8
0
  6
CONTINUOUS
 62
       7
  5
2BA
 10
-74.0
 20
34.0
 30
0.0
 11
-50.0
 21
34.0
 31
0.0
  0
LINE
  8
0
  6
CONTINUOUS
 62
       7
  5
2BB
 10
-52.4
 20
30.81383571
 30
0.0
 11
-52.4
 21
27.18616429
 31
0.0
  0
LINE
  8
0
  6
CONTINUOUS
 62
       7
  5
2BC
 10
-50.0
 20
72.0
 30
0.0
 11
-40.7964443
 21
72.0
 31
0.0
  0
LINE
  8
0
  6
CONTINUOUS
 62
       7
  5
2BD
 10
-50.0
 20
78.0
 30
0.0
 11
-49.0
 21
78.0
 31
0.0
  0
LINE
  8
0
  6
CONTINUOUS
 62
       7
  5
2BE
 10
-46.35
 20
93.01
 30
0.0
 11
-46.35
 21
97.0
 31
0.0
  0
LINE
  8
0
  6
CONTINUOUS
 62
       7
  5
2BF
 10
-44.65
 20
92.55
 30
0.0
 11
-44.65
 21
97.0
 31
0.0
  0
LINE
  8
0
  6
CONTINUOUS
 62
       2
  5
2C0
 10
-42.65
 20
92.02
 30
0.0
 11
-48.35
 21
93.54
 31
0.0
  0
LINE
  8
0
  6
CONTINUOUS
 62
       2
  5
2C1
 10
-42.65
 20
90.46
 30
0.0
 11
-48.35
 21
91.99
 31
0.0
  0
LINE
  8
0
  6
CONTINUOUS
 62
       7
  5
2C2
 10
-49.0
 20
79.0
 30
0.0
 11
-49.0
 21
77.0
 31
0.0
  0
LINE
  8
0
  6
CONTINUOUS
 62
       7
  5
2C3
 10
-43.0
 20
77.5
 30
0.0
 11
-43.0
 21
72.0
 31
0.0
  0
LINE
  8
0
  6
CONTINUOUS
 62
       7
  5
2C4
 10
-44.65
 20
97.0
 30
0.0
 11
-46.35
 21
97.0
 31
0.0
  0
LINE
  8
0
  6
CONTINUOUS
 62
       7
  5
2C5
 10
-44.65
 20
87.0
 30
0.0
 11
-44.65
 21
91.0
 31
0.0
  0
LINE
  8
0
  6
CONTINUOUS
 62
       7
  5
2C6
 10
-46.35
 20
87.0
 30
0.0
 11
-46.35
 21
91.45
 31
0.0
  0
LINE
  8
0
  6
CONTINUOUS
 62
       7
  5
2C7
 10
-44.0
 20
87.0
 30
0.0
 11
-49.0
 21
87.0
 31
0.0
  0
LINE
  8
0
  6
CONTINUOUS
 62
       7
  5
2C8
 10
-44.0
 20
79.5
 30
0.0
 11
-44.0
 21
87.0
 31
0.0
  0
LINE
  8
0
  6
CONTINUOUS
 62
       7
  5
2C9
 10
-43.0
 20
79.5
 30
0.0
 11
-43.0
 21
79.83
 31
0.0
  0
LINE
  8
0
  6
CONTINUOUS
 62
       7
  5
2CA
 10
-43.7
 20
80.8
 30
0.0
 11
-43.7
 21
86.7
 31
0.0
  0
LINE
  8
0
  6
CONTINUOUS
 62
       7
  5
2CB
 10
-44.0
 20
80.5
 30
0.0
 11
-43.7
 21
80.8
 31
0.0
  0
LINE
  8
0
  6
CONTINUOUS
 62
       7
  5
2CC
 10
-43.7
 20
86.7
 30
0.0
 11
-44.0
 21
87.0
 31
0.0
  0
LINE
  8
0
  6
CONTINUOUS
 62
       7
  5
2CD
 10
-48.0
 20
79.0
 30
0.0
 11
-49.0
 21
79.0
 31
0.0
  0
LINE
  8
0
  6
CONTINUOUS
 62
       7
  5
2CE
 10
-44.0
 20
77.0
 30
0.0
 11
-44.0
 21
77.5
 31
0.0
  0
LINE
  8
0
  6
CONTINUOUS
 62
       7
  5
2CF
 10
-42.0
 20
85.5
 30
0.0
 11
-43.0
 21
79.83
 31
0.0
  0
LINE
  8
0
  6
CONTINUOUS
 62
       7
  5
2D0
 10
-41.0
 20
85.0
 30
0.0
 11
-42.0
 21
79.33
 31
0.0
  0
LINE
  8
0
  6
CONTINUOUS
 62
       7
  5
2D1
 10
-42.0
 20
87.0
 30
0.0
 11
-42.0
 21
85.5
 31
0.0
  0
LINE
  8
0
  6
CONTINUOUS
 62
       7
  5
2D2
 10
-41.0
 20
87.0
 30
0.0
 11
-41.0
 21
85.0
 31
0.0
  0
LINE
  8
0
  6
CONTINUOUS
 62
       7
  5
2D3
 10
-42.0
 20
72.0
 30
0.0
 11
-42.0
 21
79.33
 31
0.0
  0
LINE
  8
0
  6
CONTINUOUS
 62
       7
  5
2D4
 10
-44.8
 20
87.0
 30
0.0
 11
-44.8
 21
77.0
 31
0.0
  0
LINE
  8
0
  6
CONTINUOUS
 62
       7
  5
2D5
 10
-46.6
 20
87.0
 30
0.0
 11
-46.6
 21
77.0
 31
0.0
  0
LINE
  8
0
  6
CONTINUOUS
 62
       7
  5
2D6
 10
-48.0
 20
85.5
 30
0.0
 11
-48.0
 21
79.0
 31
0.0
  0
LINE
  8
0
  6
CONTINUOUS
 62
       7
  5
2D7
 10
-49.0
 20
87.0
 30
0.0
 11
-49.0
 21
85.5
 31
0.0
  0
LINE
  8
0
  6
CONTINUOUS
 62
       7
  5
2D8
 10
-48.0
 20
85.5
 30
0.0
 11
-49.0
 21
85.5
 31
0.0
  0
LINE
  8
0
  6
CONTINUOUS
 62
       7
  5
2D9
 10
-41.0
 20
87.0
 30
0.0
 11
-42.0
 21
87.0
 31
0.0
  0
LINE
  8
0
  6
CONTINUOUS
 62
       7
  5
2DA
 10
-50.0
 20
77.0
 30
0.0
 11
-43.0
 21
77.0
 31
0.0
  0
LINE
  8
0
  6
CONTINUOUS
 62
       7
  5
2DB
 10
-40.0
 20
51.8
 30
0.0
 11
-40.0
 21
71.2
 31
0.0
  0
LINE
  8
0
  6
CONTINUOUS
 62
       7
  5
2DC
 10
-50.0
 20
51.0
 30
0.0
 11
-40.8
 21
51.0
 31
0.0
  0
LINE
  8
0
  6
CONTINUOUS
 62
       2
  5
2DD
 10
-71.0
 20
82.2
 30
0.0
 11
-71.0
 21
73.2
 31
0.0
  0
LINE
  8
0
  6
CONTINUOUS
 62
       7
  5
2DE
 10
-51.17
 20
79.2
 30
0.0
 11
-51.0
 21
79.2
 31
0.0
  0
LINE
  8
0
  6
CONTINUOUS
 62
       7
  5
2DF
 10
-55.25
 20
78.5
 30
0.0
 11
-55.25
 21
77.8
 31
0.0
  0
LINE
  8
0
  6
CONTINUOUS
 62
       7
  5
2E0
 10
-50.75
 20
78.5
 30
0.0
 11
-50.75
 21
77.8
 31
0.0
  0
LINE
  8
0
  6
CONTINUOUS
 62
       7
  5
2E1
 10
-55.55
 20
77.8
 30
0.0
 11
-55.55
 21
77.2
 31
0.0
  0
LINE
  8
0
  6
CONTINUOUS
 62
       7
  5
2E2
 10
-50.45
 20
77.8
 30
0.0
 11
-50.45
 21
77.2
 31
0.0
  0
LINE
  8
0
  6
CONTINUOUS
 62
       7
  5
2E3
 10
-52.7
 20
77.8
 30
0.0
 11
-52.54
 21
77.2
 31
0.0
  0
LINE
  8
0
  6
CONTINUOUS
 62
       7
  5
2E4
 10
-53.3
 20
77.2
 30
0.0
 11
-53.46
 21
77.8
 31
0.0
  0
LINE
  8
0
  6
CONTINUOUS
 62
       7
  5
2E5
 10
-50.45
 20
77.8
 30
0.0
 11
-55.55
 21
77.8
 31
0.0
  0
LINE
  8
0
  6
CONTINUOUS
 62
       2
  5
2E6
 10
-53.0
 20
82.2
 30
0.0
 11
-53.0
 21
73.2
 31
0.0
  0
LINE
  8
0
  6
CONTINUOUS
 62
       7
  5
2E7
 10
-56.0
 20
79.2
 30
0.0
 11
-56.0
 21
77.2
 31
0.0
  0
LINE
  8
0
  6
CONTINUOUS
 62
       7
  5
2E8
 10
-50.0
 20
77.2
 30
0.0
 11
-51.0
 21
79.2
 31
0.0
  0
LINE
  8
0
  6
CONTINUOUS
 62
       7
  5
2E9
 10
-74.0
 20
77.2
 30
0.0
 11
-73.0
 21
79.2
 31
0.0
  0
LINE
  8
0
  6
CONTINUOUS
 62
       7
  5
2EA
 10
-74.0
 20
77.2
 30
0.0
 11
-50.0
 21
77.2
 31
0.0
  0
LINE
  8
0
  6
CONTINUOUS
 62
       7
  5
2EB
 10
-73.0
 20
79.2
 30
0.0
 11
-54.82
 21
79.2
 31
0.0
  0
LINE
  8
0
  6
CONTINUOUS
 62
       7
  5
2EC
 10
-50.0
 20
51.0
 30
0.0
 11
-50.0
 21
78.0
 31
0.0
  0
LINE
  8
0
  6
CONTINUOUS
 62
       7
  5
2ED
 10
-74.0
 20
77.2
 30
0.0
 11
-74.0
 21
-1.0
 31
0.0
  0
LINE
  8
0
  6
CONTINUOUS
 62
       7
  5
2EE
 10
-74.0
 20
51.0
 30
0.0
 11
-50.0
 21
51.0
 31
0.0
  0
LINE
  8
0
  6
CONTINUOUS
 62
       7
  5
2EF
 10
-74.0
 20
76.2
 30
0.0
 11
-50.0
 21
76.2
 31
0.0
  0
CIRCLE
  8
0
  6
CONTINUOUS
 62
       7
  5
2F0
 10
-91.5
 20
4.0
 30
0.0
 40
4.283
  0
CIRCLE
  8
0
  6
CONTINUOUS
 62
       2
  5
2F1
 10
-91.5
 20
4.0
 30
0.0
 40
4.864
  0
ARC
  8
0
  6
CONTINUOUS
 62
       7
  5
2F2
 10
-85.28245654
 20
-9.49906526
 30
0.0
 40
0.50099153
 50
224.4655575
 51
269.13726147
  0
ARC
  8
0
  6
CONTINUOUS
 62
       7
  5
2F3
 10
-99.50465155
 20
5.79485481
 30
0.0
 40
0.49537224
 50
134.19874325
 51
180.56152685
  0
ARC
  8
0
  6
CONTINUOUS
 62
       7
  5
2F4
 10
-98.99819522
 20
-2.99819522
 30
0.0
 40
1.00180641
 50
180.10321994
 51
269.89678006
  0
ARC
  8
0
  6
CONTINUOUS
 62
       7
  5
2F5
 10
-76.00461739
 20
-8.99538261
 30
0.0
 40
1.004628
 50
270.26333933
 51
359.73666067
  0
CIRCLE
  8
0
  6
CONTINUOUS
 62
       7
  5
2F6
 10
-69.00282166
 20
15.00640991
 30
0.0
 40
1.59999943
  0
ARC
  8
0
  6
CONTINUOUS
 62
       7
  5
2F7
 10
-50.504619
 20
4.004619
 30
0.0
 40
0.50464014
 50
270.5244391
 51
359.4755609
  0
ARC
  8
0
  6
CONTINUOUS
 62
       7
  5
2F8
 10
-56.70461748
 20
-0.99538252
 30
0.0
 40
0.50463861
 50
270.52426806
 51
359.47573194
  0
ARC
  8
0
  6
CONTINUOUS
 62
       7
  5
2F9
 10
-55.70461103
 20
3.00461103
 30
0.0
 40
0.49541043
 50
89.46671167
 51
180.53328833
  0
ARC
  8
0
  6
CONTINUOUS
 62
       7
  5
2FA
 10
-73.49819227
 20
-0.99819227
 30
0.0
 40
0.50181099
 50
180.20640397
 51
269.79359603
  0
LINE
  8
0
  6
CONTINUOUS
 62
       2
  5
2FB
 10
-98.0
 20
4.0
 30
0.0
 11
-85.0
 21
4.0
 31
0.0
  0
LINE
  8
0
  6
CONTINUOUS
 62
       2
  5
2FC
 10
-91.5
 20
10.5
 30
0.0
 11
-91.5
 21
-2.5
 31
0.0
  0
LINE
  8
0
  6
CONTINUOUS
 62
       7
  5
2FD
 10
-100.0
 20
0.5
 30
0.0
 11
-100.0
 21
-3.0
 31
0.0
  0
LINE
  8
0
  6
CONTINUOUS
 62
       7
  5
2FE
 10
-99.5
 20
1.0
 30
0.0
 11
-100.0
 21
0.5
 31
0.0
  0
LINE
  8
0
  6
CONTINUOUS
 62
       7
  5
2FF
 10
-99.5
 20
1.0
 30
0.0
 11
-100.0
 21
1.5
 31
0.0
  0
LINE
  8
0
  6
CONTINUOUS
 62
       7
  5
300
 10
-91.5
 20
-4.0
 30
0.0
 11
-85.64
 21
-9.85
 31
0.0
  0
LINE
  8
0
  6
CONTINUOUS
 62
       7
  5
301
 10
-100.0
 20
5.79
 30
0.0
 11
-100.0
 21
1.5
 31
0.0
  0
LINE
  8
0
  6
CONTINUOUS
 62
       7
  5
302
 10
-96.0
 20
10.0
 30
0.0
 11
-99.85
 21
6.15
 31
0.0
  0
LINE
  8
0
  6
CONTINUOUS
 62
       7
  5
303
 10
-99.0
 20
-4.0
 30
0.0
 11
-91.5
 21
-4.0
 31
0.0
  0
LINE
  8
0
  6
CONTINUOUS
 62
       7
  5
304
 10
-85.29
 20
-10.0
 30
0.0
 11
-76.0
 21
-10.0
 31
0.0
  0
LINE
  8
0
  6
CONTINUOUS
 62
       7
  5
305
 10
-75.0
 20
6.0
 30
0.0
 11
-75.0
 21
-9.0
 31
0.0
  0
LINE
  8
0
  6
CONTINUOUS
 62
       2
  5
306
 10
-71.5
 20
15.0
 30
0.0
 11
-66.5
 21
15.0
 31
0.0
  0
LINE
  8
0
  6
CONTINUOUS
 62
       7
  5
307
 10
-56.2
 20
3.0
 30
0.0
 11
-56.2
 21
-1.0
 31
0.0
  0
LINE
  8
0
  6
CONTINUOUS
 62
       2
  5
308
 10
-53.0
 20
5.3
 30
0.0
 11
-53.0
 21
-4.15
 31
0.0
  0
LINE
  8
0
  6
CONTINUOUS
 62
       7
  5
309
 10
-55.7
 20
3.5
 30
0.0
 11
-50.20000076
 21
3.5
 31
0.0
  0
LINE
  8
0
  6
CONTINUOUS
 62
       7
  5
30A
 10
-73.5
 20
-1.5
 30
0.0
 11
-50.5
 21
-1.5
 31
0.0
  0
LINE
  8
0
  6
CONTINUOUS
 62
       7
  5
30B
 10
-45.18
 20
107.0
 30
0.0
 11
-45.82
 21
107.0
 31
0.0
  0
LINE
  8
0
  6
CONTINUOUS
 62
       7
  5
30C
 10
-74.0
 20
6.0
 30
0.0
 11
-50.0
 21
6.0
 31
0.0
  0
LINE
  8
0
  6
CONTINUOUS
 62
       7
  5
30D
 10
-75.00282166
 20
34.00640991
 30
0.0
 11
-75.00282166
 21
6.00640991
 31
0.0
  0
LINE
  8
0
  6
CONTINUOUS
 62
       7
  5
30E
 10
-75.00282166
 20
6.00640991
 30
0.0
 11
-74.00282166
 21
6.00640991
 31
0.0
  0
LINE
  8
0
  6
CONTINUOUS
 62
       7
  5
30F
 10
-75.00282166
 20
34.00640991
 30
0.0
 11
-74.00282166
 21
34.00640991
 31
0.0
  0
LINE
  8
0
  6
CONTINUOUS
 62
       7
  5
310
 10
-75.00282166
 20
39.20640991
 30
0.0
 11
-74.00282166
 21
39.20640991
 31
0.0
  0
LINE
  8
0
  6
CONTINUOUS
 62
       7
  5
311
 10
-75.00282166
 20
46.20640991
 30
0.0
 11
-75.00282166
 21
39.20640991
 31
0.0
  0
LINE
  8
0
  6
CONTINUOUS
 62
       7
  5
312
 10
-75.00282166
 20
46.20640991
 30
0.0
 11
-74.00282166
 21
46.20640991
 31
0.0
  0
ARC
  8
0
  6
CONTINUOUS
 62
       7
  5
313
 10
-50.5
 20
-1.0
 30
0.0
 40
0.5
 50
270.0
 51
0.0
  0
LINE
  8
0
  6
CONTINUOUS
 62
       7
  5
314
 10
-55.79999924
 20
2.32817459
 30
0.0
 11
-55.79999924
 21
3.49075153
 31
0.0
  0
LINE
  8
0
  6
CONTINUOUS
 62
       7
  5
315
 10
-50.20000076
 20
2.32817459
 30
0.0
 11
-50.20000076
 21
3.5
 31
0.0
  0
ARC
  8
0
  6
CONTINUOUS
 62
       7
  5
316
 10
-53.0
 20
6.10000038
 30
0.0
 40
5.0
 50
240.50764432
 51
299.49233837
  0
ARC
  8
0
  6
CONTINUOUS
 62
       7
  5
317
 10
-55.13333321
 20
2.32817459
 30
0.0
 40
0.66666669
 50
179.99998201
 51
240.50764432
  0
ARC
  8
0
  6
CONTINUOUS
 62
       7
  5
318
 10
-50.86666679
 20
2.32817459
 30
0.0
 40
0.66666669
 50
299.49235568
 51
0.00001799
  0
LINE
  8
0
  6
CONTINUOUS
 62
       7
  5
319
 10
-50.0
 20
27.18616429
 30
0.0
 11
-53.0
 21
27.18616429
 31
0.0
  0
LINE
  8
0
  6
CONTINUOUS
 62
       7
  5
31A
 10
-50.0
 20
30.81383571
 30
0.0
 11
-53.0
 21
30.81383571
 31
0.0
  0
TEXT
  8
0
  6
CONTINUOUS
 62
       7
  5
31B
 10
-185.66428572
 20
115.66802498
 30
0.0
 40
4.5
  1
MODEL:112M4FE
 41
1.11428571
  7
MX_NOTE_STANDARD
 11
-185.66428572
 21
117.91802498
 31
0.0
 73
       2
  0
LINE
  8
0
  6
CONTINUOUS
 62
       7
  5
31C
 10
-194.25
 20
132.6000061
 30
0.0
 11
194.80000305
 21
132.6000061
 31
0.0
  0
LINE
  8
0
  6
CONTINUOUS
 62
       7
  5
31D
 10
194.80000305
 20
132.6000061
 30
0.0
 11
194.80000305
 21
-133.5
 31
0.0
  0
LINE
  8
0
  6
CONTINUOUS
 62
       7
  5
31E
 10
-194.25
 20
132.6000061
 30
0.0
 11
-194.25
 21
-133.5
 31
0.0
  0
LINE
  8
0
  6
CONTINUOUS
 62
       7
  5
31F
 10
-194.25
 20
-133.5
 30
0.0
 11
194.80000305
 21
-133.5
 31
0.0
  0
ENDSEC
  0
EOF
