  0
SECTION
  2
HEADER
  9
$ACADVER
  1
AC1009
  9
$DWGCODEPAGE
  3
dos932
  9
$INSBASE
 10
0.0
 20
0.0
 30
0.0
  9
$EXTMIN
 10
-138.3999939
 20
-94.80000305
 30
0.0
  9
$EXTMAX
 10
138.3500061
 20
94.5
 30
0.0
  9
$LIMMIN
 10
-148.5
 20
-105.0
  9
$LIMMAX
 10
148.5
 20
105.0
  9
$ORTHOMODE
 70
       0
  9
$REGENMODE
 70
       1
  9
$FILLMODE
 70
       1
  9
$QTEXTMODE
 70
       0
  9
$MIRRTEXT
 70
       1
  9
$DRAGMODE
 70
       2
  9
$LTSCALE
 40
1.0
  9
$OSMODE
 70
       0
  9
$ATTMODE
 70
       1
  9
$TEXTSIZE
 40
3.20000005
  9
$TRACEWID
 40
0.05
  9
$TEXTSTYLE
  7
MX_NOTE_STANDARD
  9
$CLAYER
  8
0
  9
$CELTYPE
  6
CONTINUOUS
  9
$CECOLOR
 62
     256
  9
$DIMSCALE
 40
1.0
  9
$DIMASZ
 40
2.5
  9
$DIMEXO
 40
1.5
  9
$DIMDLI
 40
3.75
  9
$DIMRND
 40
0.0
  9
$DIMDLE
 40
0.0
  9
$DIMEXE
 40
1.5
  9
$DIMTP
 40
0.0
  9
$DIMTM
 40
0.0
  9
$DIMTXT
 40
3.20000005
  9
$DIMCEN
 40
2.5
  9
$DIMTSZ
 40
0.0
  9
$DIMTOL
 70
       0
  9
$DIMLIM
 70
       0
  9
$DIMTIH
 70
       0
  9
$DIMTOH
 70
       0
  9
$DIMSE1
 70
       0
  9
$DIMSE2
 70
       0
  9
$DIMTAD
 70
       1
  9
$DIMZIN
 70
       8
  9
$DIMBLK
  1

  9
$DIMASO
 70
       1
  9
$DIMSHO
 70
       1
  9
$DIMPOST
  1

  9
$DIMAPOST
  1

  9
$DIMALT
 70
       0
  9
$DIMALTD
 70
       4
  9
$DIMALTF
 40
0.03937008
  9
$DIMLFAC
 40
1.0
  9
$DIMTOFL
 70
       1
  9
$DIMTVP
 40
0.0
  9
$DIMTIX
 70
       0
  9
$DIMSOXD
 70
       0
  9
$DIMSAH
 70
       1
  9
$DIMBLK1
  1
_OPEN30
  9
$DIMBLK2
  1
_OPEN30
  9
$DIMSTYLE
  2
MXDIMSTYLE
  9
$DIMCLRD
 70
       0
  9
$DIMCLRE
 70
       0
  9
$DIMCLRT
 70
       0
  9
$DIMTFAC
 40
1.0
  9
$DIMGAP
 40
1.0
  9
$LUNITS
 70
       2
  9
$LUPREC
 70
       4
  9
$AXISMODE
 70
       0
  9
$AXISUNIT
 10
0.0
 20
0.0
  9
$SKETCHINC
 40
0.1
  9
$FILLETRAD
 40
0.0
  9
$AUNITS
 70
       0
  9
$AUPREC
 70
       0
  9
$MENU
  1
acad
  9
$ELEVATION
 40
0.0
  9
$PELEVATION
 40
0.0
  9
$THICKNESS
 40
0.0
  9
$LIMCHECK
 70
       0
  9
$BLIPMODE
 70
       1
  9
$CHAMFERA
 40
0.0
  9
$CHAMFERB
 40
0.0
  9
$SKPOLY
 70
       0
  9
$TDCREATE
 40
2453949.457245370
  9
$TDUPDATE
 40
2453949.457245370
  9
$TDINDWG
 40
0.0000000000
  9
$TDUSRTIMER
 40
0.0000000000
  9
$USRTIMER
 70
       1
  9
$ANGBASE
 50
0.0
  9
$ANGDIR
 70
       0
  9
$PDMODE
 70
       0
  9
$PDSIZE
 40
0.0
  9
$PLINEWID
 40
0.0
  9
$COORDS
 70
       1
  9
$SPLFRAME
 70
       0
  9
$SPLINETYPE
 70
       6
  9
$SPLINESEGS
 70
       8
  9
$ATTDIA
 70
       0
  9
$ATTREQ
 70
       1
  9
$HANDLING
 70
       1
  9
$HANDSEED
  5
F6
  9
$SURFTAB1
 70
       6
  9
$SURFTAB2
 70
       6
  9
$SURFTYPE
 70
       6
  9
$SURFU
 70
       6
  9
$SURFV
 70
       6
  9
$UCSNAME
  2

  9
$UCSORG
 10
0.0
 20
0.0
 30
0.0
  9
$UCSXDIR
 10
1.0
 20
0.0
 30
0.0
  9
$UCSYDIR
 10
0.0
 20
1.0
 30
0.0
  9
$PUCSNAME
  2

  9
$PUCSORG
 10
0.0
 20
0.0
 30
0.0
  9
$PUCSXDIR
 10
1.0
 20
0.0
 30
0.0
  9
$PUCSYDIR
 10
0.0
 20
1.0
 30
0.0
  9
$USERI1
 70
       0
  9
$USERI2
 70
       0
  9
$USERI3
 70
       0
  9
$USERI4
 70
       0
  9
$USERI5
 70
       0
  9
$USERR1
 40
0.0
  9
$USERR2
 40
0.0
  9
$USERR3
 40
0.0
  9
$USERR4
 40
0.0
  9
$USERR5
 40
0.0
  9
$WORLDVIEW
 70
       1
  9
$SHADEDGE
 70
       3
  9
$SHADEDIF
 70
      70
  9
$TILEMODE
 70
       1
  9
$MAXACTVP
 70
      16
  9
$PINSBASE
 10
0.0
 20
0.0
 30
0.0
  9
$PLIMCHECK
 70
       0
  9
$PEXTMIN
 10
1.00000000E+20
 20
1.00000000E+20
 30
1.00000000E+20
  9
$PEXTMAX
 10
-1.00000000E+20
 20
-1.00000000E+20
 30
-1.00000000E+20
  9
$PLIMMIN
 10
0.0
 20
0.0
  9
$PLIMMAX
 10
12.0
 20
9.0
  9
$UNITMODE
 70
       0
  9
$VISRETAIN
 70
       0
  9
$PLINEGEN
 70
       1
  9
$PSLTSCALE
 70
       0
  9
$TREEDEPTH
 70
    3020
  0
ENDSEC
  0
SECTION
  2
TABLES
  0
TABLE
  2
VPORT
 70
       1
  0
VPORT
  2
*ACTIVE
 70
       0
 10
0.0
 20
0.0
 11
1.0
 21
1.0
 12
0.0
 22
0.0
 13
0.0
 23
0.0
 14
1.0
 24
1.0
 15
0.0
 25
0.0
 16
0.0
 26
0.0
 36
1.0
 17
0.0
 27
0.0
 37
0.0
 40
212.1
 41
1.73205081
 42
50.0
 43
0.0
 44
0.0
 50
0.0
 51
0.0
 71
       0
 72
     100
 73
       1
 74
       1
 75
       0
 76
       0
 77
       0
 78
       0
  0
ENDTAB
  0
TABLE
  2
LTYPE
 70
       1
  0
LTYPE
  2
CONTINUOUS
 70
      64
  3
Solid line
 72
      65
 73
       0
 40
0.0
  0
ENDTAB
  0
TABLE
  2
LAYER
 70
       2
  0
LAYER
  2
0
 70
       0
 62
       7
  6
CONTINUOUS
  0
LAYER
  2
DEFPOINTS
 70
       0
 62
       7
  6
CONTINUOUS
  0
ENDTAB
  0
TABLE
  2
STYLE
 70
       1
  0
STYLE
  2
MX_NOTE_STANDARD
 70
       0
 40
0.0
 41
1.0
 50
0.0
 71
       0
 42
3.20000005
  3
txt.shx
  4
extfont.shx
  0
ENDTAB
  0
TABLE
  2
VIEW
 70
       0
  0
ENDTAB
  0
TABLE
  2
UCS
 70
       0
  0
ENDTAB
  0
TABLE
  2
APPID
 70
       1
  0
APPID
  2
ACAD
 70
       0
  0
ENDTAB
  0
TABLE
  2
DIMSTYLE
 70
       1
  0
DIMSTYLE
  2
MXDIMSTYLE
 70
       0
  3

  4

  5

  6
_OPEN30
  7
_OPEN30
 40
1.0
 41
2.5
 42
1.5
 43
3.75
 44
1.5
 45
0.0
 46
0.0
 47
0.0
 48
0.0
 71
       0
 72
       0
 73
       0
 74
       0
 75
       0
 76
       0
 77
       1
 78
       8
140
3.20000005
141
2.5
142
0.0
143
0.03937008
144
1.0
145
0.0
146
1.0
147
1.0
170
       0
171
       4
172
       1
173
       1
174
       0
175
       0
176
       0
177
       0
178
       0
  0
ENDTAB
  0
ENDSEC
  0
SECTION
  2
BLOCKS
  0
BLOCK
  8
0
  6
BYBLOCK
 62
       0
  5
1F
  2
_OPEN30
 70
       2
 10
0.0
 20
0.0
 30
0.0
  3
_OPEN30
  0
LINE
  8
0
  6
BYBLOCK
 62
       0
  5
20
 10
-1.0
 20
0.267949
 30
0.0
 11
0.0
 21
0.0
 31
0.0
  0
LINE
  8
0
  6
BYBLOCK
 62
       0
  5
21
 10
0.0
 20
0.0
 30
0.0
 11
-1.0
 21
-0.267949
 31
0.0
  0
LINE
  8
0
  6
BYBLOCK
 62
       0
  5
22
 10
0.0
 20
0.0
 30
0.0
 11
-1.0
 21
0.0
 31
0.0
  0
ENDBLK
  8
0
  6
BYBLOCK
 62
       0
  5
23
  0
ENDSEC
  0
SECTION
  2
ENTITIES
  0
CIRCLE
  8
0
  6
CONTINUOUS
 62
       7
  5
24
 10
-16.32955614
 20
-52.61720044
 30
0.0
 40
2.75
  0
LINE
  8
0
  6
CONTINUOUS
 62
       2
  5
25
 10
-20.32935823
 20
-52.61045605
 30
0.0
 11
-12.32935823
 21
-52.61045605
 31
0.0
  0
LINE
  8
0
  6
CONTINUOUS
 62
       2
  5
26
 10
-16.32935823
 20
-56.61045605
 30
0.0
 11
-16.32935823
 21
-48.61045605
 31
0.0
  0
LINE
  8
0
  6
CONTINUOUS
 62
       2
  5
27
 10
-52.32935823
 20
-52.61045605
 30
0.0
 11
-44.32935823
 21
-52.61045605
 31
0.0
  0
CIRCLE
  8
0
  6
CONTINUOUS
 62
       7
  5
28
 10
-48.32955232
 20
-52.61720044
 30
0.0
 40
2.75
  0
LINE
  8
0
  6
CONTINUOUS
 62
       2
  5
29
 10
-48.32935823
 20
-56.61045605
 30
0.0
 11
-48.32935823
 21
-48.61045605
 31
0.0
  0
LINE
  8
0
  6
CONTINUOUS
 62
       7
  5
2A
 10
-54.82935823
 20
-59.11045605
 30
0.0
 11
-9.82935823
 21
-59.11045605
 31
0.0
  0
LINE
  8
0
  6
CONTINUOUS
 62
       2
  5
2B
 10
-20.32935823
 20
-20.62045605
 30
0.0
 11
-12.32935823
 21
-20.62045605
 31
0.0
  0
CIRCLE
  8
0
  6
CONTINUOUS
 62
       7
  5
2C
 10
-16.32955614
 20
-20.61720425
 30
0.0
 40
2.75
  0
LINE
  8
0
  6
CONTINUOUS
 62
       2
  5
2D
 10
-16.32935823
 20
-16.62045605
 30
0.0
 11
-16.32935823
 21
-24.62045605
 31
0.0
  0
LINE
  8
0
  6
CONTINUOUS
 62
       7
  5
2E
 10
-9.82935823
 20
-14.12045605
 30
0.0
 11
-9.82935823
 21
-59.11045605
 31
0.0
  0
LINE
  8
0
  6
CONTINUOUS
 62
       2
  5
2F
 10
-48.32935823
 20
-16.62045605
 30
0.0
 11
-48.32935823
 21
-24.62045605
 31
0.0
  0
CIRCLE
  8
0
  6
CONTINUOUS
 62
       7
  5
30
 10
-48.32955232
 20
-20.61720425
 30
0.0
 40
2.75
  0
LINE
  8
0
  6
CONTINUOUS
 62
       2
  5
31
 10
-51.93935823
 20
-20.62045605
 30
0.0
 11
-44.14935823
 21
-20.62045605
 31
0.0
  0
LINE
  8
0
  6
CONTINUOUS
 62
       7
  5
32
 10
-54.82935823
 20
-14.12045605
 30
0.0
 11
-9.82935823
 21
-14.12045605
 31
0.0
  0
LINE
  8
0
  6
CONTINUOUS
 62
       7
  5
33
 10
-54.82935823
 20
-14.12045605
 30
0.0
 11
-54.82935823
 21
-59.11045605
 31
0.0
  0
ARC
  8
0
  6
CONTINUOUS
 62
       7
  5
34
 10
-32.32608367
 20
-36.61373061
 30
0.0
 40
10.29672596
 50
0.01822118
 51
269.98177882
  0
ARC
  8
0
  6
CONTINUOUS
 62
       7
  5
35
 10
-32.32782898
 20
-37.46893033
 30
0.0
 40
9.8484744
 50
0.0493011
 51
90.00889674
  0
ARC
  8
0
  6
CONTINUOUS
 62
       7
  5
36
 10
-32.32608367
 20
-36.61373061
 30
0.0
 40
10.29672596
 50
269.98177882
 51
0.01822118
  0
ARC
  8
0
  6
CONTINUOUS
 62
       7
  5
37
 10
-32.32872043
 20
-37.46009457
 30
0.0
 40
9.84936221
 50
333.23688126
 51
359.99789718
  0
ARC
  8
0
  6
CONTINUOUS
 62
       7
  5
38
 10
-32.33108521
 20
-37.46873239
 30
0.0
 40
9.84827649
 50
89.98995267
 51
179.95184949
  0
ARC
  8
0
  6
CONTINUOUS
 62
       7
  5
39
 10
-32.33038645
 20
-37.4601406
 30
0.0
 40
9.84897179
 50
332.68117116
 51
206.82396623
  0
CIRCLE
  8
0
  6
CONTINUOUS
 62
       7
  5
3A
 10
-32.32955614
 20
-36.61720425
 30
0.0
 40
6.29999924
  0
CIRCLE
  8
0
  6
CONTINUOUS
 62
       7
  5
3B
 10
-27.32935823
 20
-44.45349135
 30
0.0
 40
1.0
  0
ARC
  8
0
  6
CONTINUOUS
 62
       7
  5
3C
 10
-27.32935823
 20
-44.45349135
 30
0.0
 40
2.0
 50
59.84864626
 51
237.30374962
  0
ARC
  8
0
  6
CONTINUOUS
 62
       7
  5
3D
 10
-25.32021438
 20
-40.99468506
 30
0.0
 40
2.0
 50
239.84864626
 51
333.23688126
  0
ARC
  8
0
  6
CONTINUOUS
 62
       7
  5
3E
 10
-37.32935823
 20
-44.45349135
 30
0.0
 40
2.0
 50
302.69625038
 51
120.15135374
  0
CIRCLE
  8
0
  6
CONTINUOUS
 62
       7
  5
3F
 10
-37.32935823
 20
-44.45349135
 30
0.0
 40
1.0
  0
ARC
  8
0
  6
CONTINUOUS
 62
       7
  5
40
 10
-39.33850208
 20
-40.99468506
 30
0.0
 40
2.0
 50
206.76311874
 51
300.15135374
  0
CIRCLE
  8
0
  6
CONTINUOUS
 62
       7
  5
41
 10
-32.32955614
 20
-36.61720425
 30
0.0
 40
13.0
  0
CIRCLE
  8
0
  6
CONTINUOUS
 62
       7
  5
42
 10
-32.32955614
 20
-36.61720425
 30
0.0
 40
12.25
  0
LINE
  8
0
  6
CONTINUOUS
 62
       2
  5
43
 10
-58.02680625
 20
-36.61045605
 30
0.0
 11
-7.31727127
 21
-36.61045605
 31
0.0
  0
LINE
  8
0
  6
CONTINUOUS
 62
       2
  5
44
 10
-32.32935823
 20
-10.74045605
 30
0.0
 11
-32.32935823
 21
-62.01201371
 31
0.0
  0
LINE
  8
0
  6
CONTINUOUS
 62
       7
  5
45
 10
53.67064177
 20
43.28954395
 30
0.0
 11
53.67064177
 21
36.28954395
 31
0.0
  0
LINE
  8
0
  6
CONTINUOUS
 62
       7
  5
46
 10
54.67064177
 20
44.28954395
 30
0.0
 11
78.67064177
 21
44.28954395
 31
0.0
  0
LINE
  8
0
  6
CONTINUOUS
 62
       7
  5
47
 10
53.67064177
 20
23.28954395
 30
0.0
 11
79.67064177
 21
23.28954395
 31
0.0
  0
LINE
  8
0
  6
CONTINUOUS
 62
       2
  5
48
 10
30.51064177
 20
29.78954395
 30
0.0
 11
44.17064177
 21
29.78954395
 31
0.0
  0
LINE
  8
0
  6
CONTINUOUS
 62
       7
  5
49
 10
53.67064177
 20
36.28954395
 30
0.0
 11
79.67064177
 21
36.28954395
 31
0.0
  0
LINE
  8
0
  6
CONTINUOUS
 62
       7
  5
4A
 10
79.67064177
 20
43.28954395
 30
0.0
 11
79.67064177
 21
36.28954395
 31
0.0
  0
LINE
  8
0
  6
CONTINUOUS
 62
       2
  5
4B
 10
66.67064177
 20
55.89706254
 30
0.0
 11
66.67064177
 21
9.95476134
 31
0.0
  0
LINE
  8
0
  6
CONTINUOUS
 62
       7
  5
4C
 10
81.67064177
 20
23.82954395
 30
0.0
 11
81.67064177
 21
35.74954395
 31
0.0
  0
LINE
  8
0
  6
CONTINUOUS
 62
       7
  5
4D
 10
53.67064177
 20
43.28954395
 30
0.0
 11
54.67064177
 21
44.28954395
 31
0.0
  0
LINE
  8
0
  6
CONTINUOUS
 62
       7
  5
4E
 10
78.67064177
 20
44.28954395
 30
0.0
 11
79.67064177
 21
43.28954395
 31
0.0
  0
LINE
  8
0
  6
CONTINUOUS
 62
       7
  5
4F
 10
79.67064177
 20
36.28954395
 30
0.0
 11
81.67064177
 21
35.74954395
 31
0.0
  0
LINE
  8
0
  6
CONTINUOUS
 62
       7
  5
50
 10
51.67064177
 20
35.74954395
 30
0.0
 11
81.67064177
 21
35.74954395
 31
0.0
  0
LINE
  8
0
  6
CONTINUOUS
 62
       7
  5
51
 10
53.67064177
 20
36.28954395
 30
0.0
 11
51.67064177
 21
35.74954395
 31
0.0
  0
LINE
  8
0
  6
CONTINUOUS
 62
       7
  5
52
 10
53.67064177
 20
23.28954395
 30
0.0
 11
53.67064177
 21
21.78954395
 31
0.0
  0
LINE
  8
0
  6
CONTINUOUS
 62
       7
  5
53
 10
79.67064177
 20
23.28954395
 30
0.0
 11
79.67064177
 21
21.78954395
 31
0.0
  0
LINE
  8
0
  6
CONTINUOUS
 62
       7
  5
54
 10
53.67064177
 20
43.28954395
 30
0.0
 11
79.67064177
 21
43.28954395
 31
0.0
  0
LINE
  8
0
  6
CONTINUOUS
 62
       2
  5
55
 10
78.92064177
 20
44.03954395
 30
0.0
 11
78.92064177
 21
37.28954395
 31
0.0
  0
LINE
  8
0
  6
CONTINUOUS
 62
       2
  5
56
 10
54.42064177
 20
44.03954395
 30
0.0
 11
54.42064177
 21
37.28954395
 31
0.0
  0
LINE
  8
0
  6
CONTINUOUS
 62
       7
  5
57
 10
53.67064177
 20
37.28954395
 30
0.0
 11
79.67064177
 21
37.28954395
 31
0.0
  0
LINE
  8
0
  6
CONTINUOUS
 62
       7
  5
58
 10
53.67064177
 20
23.28954395
 30
0.0
 11
51.67064177
 21
23.82954395
 31
0.0
  0
LINE
  8
0
  6
CONTINUOUS
 62
       7
  5
59
 10
79.67064177
 20
23.28954395
 30
0.0
 11
81.67064177
 21
23.82954395
 31
0.0
  0
LINE
  8
0
  6
CONTINUOUS
 62
       7
  5
5A
 10
51.82064177
 20
21.78954395
 30
0.0
 11
81.52064177
 21
21.78954395
 31
0.0
  0
LINE
  8
0
  6
CONTINUOUS
 62
       7
  5
5B
 10
44.17064177
 20
13.78954395
 30
0.0
 11
89.17064177
 21
13.78954395
 31
0.0
  0
LINE
  8
0
  6
CONTINUOUS
 62
       7
  5
5C
 10
44.17064177
 20
16.38954395
 30
0.0
 11
89.17064177
 21
16.38954395
 31
0.0
  0
LINE
  8
0
  6
CONTINUOUS
 62
       7
  5
5D
 10
89.17064177
 20
16.38954395
 30
0.0
 11
89.17064177
 21
13.78954395
 31
0.0
  0
LINE
  8
0
  6
CONTINUOUS
 62
       7
  5
5E
 10
44.17064177
 20
16.38954395
 30
0.0
 11
44.17064177
 21
13.78954395
 31
0.0
  0
LINE
  8
0
  6
CONTINUOUS
 62
       7
  5
5F
 10
51.82064177
 20
21.78954395
 30
0.0
 11
51.82064177
 21
18.38954395
 31
0.0
  0
LINE
  8
0
  6
CONTINUOUS
 62
       7
  5
60
 10
81.52064177
 20
21.78954395
 30
0.0
 11
81.52064177
 21
18.38954395
 31
0.0
  0
LINE
  8
0
  6
CONTINUOUS
 62
       2
  5
61
 10
46.06064177
 20
19.18954395
 30
0.0
 11
52.95064177
 21
19.18954395
 31
0.0
  0
LINE
  8
0
  6
CONTINUOUS
 62
       7
  5
62
 10
60.67064177
 20
53.18954395
 30
0.0
 11
72.67064177
 21
53.18954395
 31
0.0
  0
LINE
  8
0
  6
CONTINUOUS
 62
       7
  5
63
 10
72.97064177
 20
45.18954395
 30
0.0
 11
72.97064177
 21
44.28954395
 31
0.0
  0
LINE
  8
0
  6
CONTINUOUS
 62
       7
  5
64
 10
53.67064177
 20
22.28954395
 30
0.0
 11
79.67064177
 21
22.28954395
 31
0.0
  0
LINE
  8
0
  6
CONTINUOUS
 62
       2
  5
65
 10
78.92064177
 20
21.78954395
 30
0.0
 11
78.92064177
 21
22.28954395
 31
0.0
  0
LINE
  8
0
  6
CONTINUOUS
 62
       2
  5
66
 10
54.42064177
 20
21.78954395
 30
0.0
 11
54.42064177
 21
22.28954395
 31
0.0
  0
LINE
  8
0
  6
CONTINUOUS
 62
       7
  5
67
 10
-45.32935823
 20
43.28954395
 30
0.0
 11
-45.32935823
 21
36.28954395
 31
0.0
  0
LINE
  8
0
  6
CONTINUOUS
 62
       7
  5
68
 10
-44.32935823
 20
44.28954395
 30
0.0
 11
-20.32935823
 21
44.28954395
 31
0.0
  0
LINE
  8
0
  6
CONTINUOUS
 62
       7
  5
69
 10
-45.32935823
 20
23.28954395
 30
0.0
 11
-19.32935823
 21
23.28954395
 31
0.0
  0
LINE
  8
0
  6
CONTINUOUS
 62
       7
  5
6A
 10
-45.32935823
 20
36.28954395
 30
0.0
 11
-19.32935823
 21
36.28954395
 31
0.0
  0
LINE
  8
0
  6
CONTINUOUS
 62
       7
  5
6B
 10
-19.32935823
 20
43.28954395
 30
0.0
 11
-19.32935823
 21
36.28954395
 31
0.0
  0
LINE
  8
0
  6
CONTINUOUS
 62
       2
  5
6C
 10
-32.32935823
 20
55.89706254
 30
0.0
 11
-32.32935823
 21
9.95476134
 31
0.0
  0
LINE
  8
0
  6
CONTINUOUS
 62
       7
  5
6D
 10
-47.32935823
 20
35.74954395
 30
0.0
 11
-47.32935823
 21
34.78954395
 31
0.0
  0
LINE
  8
0
  6
CONTINUOUS
 62
       7
  5
6E
 10
-17.32935823
 20
35.74954395
 30
0.0
 11
-17.32935823
 21
34.78954395
 31
0.0
  0
LINE
  8
0
  6
CONTINUOUS
 62
       7
  5
6F
 10
-45.32935823
 20
43.28954395
 30
0.0
 11
-44.32935823
 21
44.28954395
 31
0.0
  0
LINE
  8
0
  6
CONTINUOUS
 62
       7
  5
70
 10
-20.32935823
 20
44.28954395
 30
0.0
 11
-19.32935823
 21
43.28954395
 31
0.0
  0
LINE
  8
0
  6
CONTINUOUS
 62
       7
  5
71
 10
-19.32935823
 20
36.28954395
 30
0.0
 11
-17.32935823
 21
35.74954395
 31
0.0
  0
LINE
  8
0
  6
CONTINUOUS
 62
       7
  5
72
 10
-47.32935823
 20
35.74954395
 30
0.0
 11
-17.32935823
 21
35.74954395
 31
0.0
  0
LINE
  8
0
  6
CONTINUOUS
 62
       7
  5
73
 10
-45.32935823
 20
36.28954395
 30
0.0
 11
-47.32935823
 21
35.74954395
 31
0.0
  0
LINE
  8
0
  6
CONTINUOUS
 62
       7
  5
74
 10
-19.32935823
 20
23.28954395
 30
0.0
 11
-19.32935823
 21
21.78954395
 31
0.0
  0
LINE
  8
0
  6
CONTINUOUS
 62
       7
  5
75
 10
-45.32935823
 20
43.28954395
 30
0.0
 11
-19.32935823
 21
43.28954395
 31
0.0
  0
LINE
  8
0
  6
CONTINUOUS
 62
       2
  5
76
 10
-20.07935823
 20
44.03954395
 30
0.0
 11
-20.07935823
 21
37.28954395
 31
0.0
  0
LINE
  8
0
  6
CONTINUOUS
 62
       2
  5
77
 10
-44.57935823
 20
44.03954395
 30
0.0
 11
-44.57935823
 21
37.28954395
 31
0.0
  0
LINE
  8
0
  6
CONTINUOUS
 62
       7
  5
78
 10
-45.32935823
 20
23.28954395
 30
0.0
 11
-47.32935823
 21
23.82954395
 31
0.0
  0
LINE
  8
0
  6
CONTINUOUS
 62
       7
  5
79
 10
-47.32935823
 20
23.82954395
 30
0.0
 11
-17.32935823
 21
23.82954395
 31
0.0
  0
LINE
  8
0
  6
CONTINUOUS
 62
       7
  5
7A
 10
-19.32935823
 20
23.28954395
 30
0.0
 11
-17.32935823
 21
23.82954395
 31
0.0
  0
LINE
  8
0
  6
CONTINUOUS
 62
       7
  5
7B
 10
-47.17935823
 20
21.78954395
 30
0.0
 11
-17.47935823
 21
21.78954395
 31
0.0
  0
LINE
  8
0
  6
CONTINUOUS
 62
       7
  5
7C
 10
-54.82935823
 20
13.78954395
 30
0.0
 11
-9.82935823
 21
13.78954395
 31
0.0
  0
LINE
  8
0
  6
CONTINUOUS
 62
       7
  5
7D
 10
-54.82935823
 20
16.38954395
 30
0.0
 11
-9.82935823
 21
16.38954395
 31
0.0
  0
LINE
  8
0
  6
CONTINUOUS
 62
       7
  5
7E
 10
-9.82935823
 20
16.38954395
 30
0.0
 11
-9.82935823
 21
13.78954395
 31
0.0
  0
LINE
  8
0
  6
CONTINUOUS
 62
       7
  5
7F
 10
-47.17935823
 20
21.78954395
 30
0.0
 11
-47.17935823
 21
18.38954395
 31
0.0
  0
LINE
  8
0
  6
CONTINUOUS
 62
       7
  5
80
 10
-17.47935823
 20
21.78954395
 30
0.0
 11
-17.47935823
 21
18.38954395
 31
0.0
  0
LINE
  8
0
  6
CONTINUOUS
 62
       2
  5
81
 10
-34.85935823
 20
19.18954395
 30
0.0
 11
-29.79935823
 21
19.18954395
 31
0.0
  0
LINE
  8
0
  6
CONTINUOUS
 62
       7
  5
82
 10
-47.32935823
 20
24.78954395
 30
0.0
 11
-47.32935823
 21
23.82954395
 31
0.0
  0
LINE
  8
0
  6
CONTINUOUS
 62
       7
  5
83
 10
-17.32935823
 20
24.78954395
 30
0.0
 11
-17.32935823
 21
23.82954395
 31
0.0
  0
LINE
  8
0
  6
CONTINUOUS
 62
       7
  5
84
 10
-33.17935823
 20
18.32954395
 30
0.0
 11
-31.41935823
 21
20.08954395
 31
0.0
  0
LINE
  8
0
  6
CONTINUOUS
 62
       7
  5
85
 10
-33.12133698
 20
19.9815227
 30
0.0
 11
-31.46935823
 21
18.32954395
 31
0.0
  0
LINE
  8
0
  6
CONTINUOUS
 62
       7
  5
86
 10
-54.82935823
 20
16.38954395
 30
0.0
 11
-54.82935823
 21
13.78954395
 31
0.0
  0
LINE
  8
0
  6
CONTINUOUS
 62
       7
  5
87
 10
51.67064177
 20
23.82954395
 30
0.0
 11
81.67064177
 21
23.82954395
 31
0.0
  0
LINE
  8
0
  6
CONTINUOUS
 62
       7
  5
88
 10
72.67064177
 20
53.18954395
 30
0.0
 11
72.67064177
 21
45.18954395
 31
0.0
  0
LINE
  8
0
  6
CONTINUOUS
 62
       7
  5
89
 10
60.37064177
 20
45.18954395
 30
0.0
 11
60.37064177
 21
44.28954395
 31
0.0
  0
LINE
  8
0
  6
CONTINUOUS
 62
       7
  5
8A
 10
60.67064177
 20
53.18954395
 30
0.0
 11
60.67064177
 21
45.18954395
 31
0.0
  0
LINE
  8
0
  6
CONTINUOUS
 62
       7
  5
8B
 10
31.67064177
 20
34.30954395
 30
0.0
 11
31.67064177
 21
25.26954395
 31
0.0
  0
LINE
  8
0
  6
CONTINUOUS
 62
       7
  5
8C
 10
39.67064177
 20
33.38954395
 30
0.0
 11
39.67064177
 21
26.18954395
 31
0.0
  0
LINE
  8
0
  6
CONTINUOUS
 62
       2
  5
8D
 10
31.67064177
 20
33.80954395
 30
0.0
 11
39.67064177
 21
33.38954395
 31
0.0
  0
LINE
  8
0
  6
CONTINUOUS
 62
       7
  5
8E
 10
31.95064177
 20
34.79954395
 30
0.0
 11
38.61064177
 21
34.44954395
 31
0.0
  0
LINE
  8
0
  6
CONTINUOUS
 62
       7
  5
8F
 10
39.67064177
 20
33.38954395
 30
0.0
 11
38.61064177
 21
34.44954395
 31
0.0
  0
LINE
  8
0
  6
CONTINUOUS
 62
       7
  5
90
 10
31.67064177
 20
34.30954395
 30
0.0
 11
31.95064177
 21
34.79954395
 31
0.0
  0
LINE
  8
0
  6
CONTINUOUS
 62
       7
  5
91
 10
32.17064177
 20
34.78954395
 30
0.0
 11
32.17064177
 21
24.78954395
 31
0.0
  0
LINE
  8
0
  6
CONTINUOUS
 62
       7
  5
92
 10
38.67064177
 20
34.44954395
 30
0.0
 11
38.67064177
 21
25.12954395
 31
0.0
  0
LINE
  8
0
  6
CONTINUOUS
 62
       7
  5
93
 10
39.67064177
 20
26.18954395
 30
0.0
 11
38.61064177
 21
25.12954395
 31
0.0
  0
LINE
  8
0
  6
CONTINUOUS
 62
       7
  5
94
 10
31.67064177
 20
25.26954395
 30
0.0
 11
31.95064177
 21
24.77954395
 31
0.0
  0
LINE
  8
0
  6
CONTINUOUS
 62
       2
  5
95
 10
31.67064177
 20
25.76954395
 30
0.0
 11
39.67064177
 21
26.18954395
 31
0.0
  0
LINE
  8
0
  6
CONTINUOUS
 62
       7
  5
96
 10
31.95064177
 20
24.77954395
 30
0.0
 11
38.61064177
 21
25.12954395
 31
0.0
  0
LINE
  8
0
  6
CONTINUOUS
 62
       7
  5
97
 10
48.67064177
 20
20.68954395
 30
0.0
 11
51.82064177
 21
20.68954395
 31
0.0
  0
LINE
  8
0
  6
CONTINUOUS
 62
       7
  5
98
 10
48.67064177
 20
17.68954395
 30
0.0
 11
51.69064177
 21
17.68954395
 31
0.0
  0
LINE
  8
0
  6
CONTINUOUS
 62
       7
  5
99
 10
46.67064177
 20
19.48954395
 30
0.0
 11
46.67064177
 21
18.88954395
 31
0.0
  0
LINE
  8
0
  6
CONTINUOUS
 62
       2
  5
9A
 10
48.67064177
 20
20.28954395
 30
0.0
 11
51.82064177
 21
20.28954395
 31
0.0
  0
LINE
  8
0
  6
CONTINUOUS
 62
       2
  5
9B
 10
48.67064177
 20
18.08954395
 30
0.0
 11
51.79064177
 21
18.08954395
 31
0.0
  0
LINE
  8
0
  6
CONTINUOUS
 62
       7
  5
9C
 10
48.67064177
 20
21.48954395
 30
0.0
 11
48.67064177
 21
16.88954395
 31
0.0
  0
CIRCLE
  8
0
  6
CONTINUOUS
 62
       7
  5
9D
 10
66.67083586
 20
29.79374927
 30
0.0
 40
4.0
  0
CIRCLE
  8
0
  6
CONTINUOUS
 62
       2
  5
9E
 10
66.67083586
 20
29.79374927
 30
0.0
 40
5.0
  0
ARC
  8
0
  6
CONTINUOUS
 62
       7
  5
9F
 10
49.81844259
 20
18.39174313
 30
0.0
 40
2.00220039
 50
270.06293262
 51
359.93706738
  0
ARC
  8
0
  6
CONTINUOUS
 62
       7
  5
A0
 10
83.52263944
 20
18.39154162
 30
0.0
 40
2.00199867
 50
180.0571719
 51
269.9428281
  0
CIRCLE
  8
0
  6
CONTINUOUS
 62
       2
  5
A1
 10
-32.32955614
 20
29.79374927
 30
0.0
 40
5.0
  0
CIRCLE
  8
0
  6
CONTINUOUS
 62
       7
  5
A2
 10
-32.32955614
 20
29.79374927
 30
0.0
 40
4.0
  0
ARC
  8
0
  6
CONTINUOUS
 62
       7
  5
A3
 10
-49.18154979
 20
18.39173551
 30
0.0
 40
2.00219276
 50
270.06271475
 51
359.93728525
  0
CIRCLE
  8
0
  6
CONTINUOUS
 62
       7
  5
A4
 10
-32.32955614
 20
19.19374317
 30
0.0
 40
2.0
  0
ARC
  8
0
  6
CONTINUOUS
 62
       7
  5
A5
 10
-15.4773577
 20
18.39154448
 30
0.0
 40
2.00200153
 50
180.0572536
 51
269.9427464
  0
ARC
  8
0
  6
CONTINUOUS
 62
       7
  5
A6
 10
48.66844459
 20
19.49174113
 30
0.0
 40
1.99780403
 50
89.93698631
 51
180.06301369
  0
ARC
  8
0
  6
CONTINUOUS
 62
       7
  5
A7
 10
48.67264401
 20
18.89154619
 30
0.0
 40
2.00200324
 50
180.05730263
 51
269.94269737
  0
POLYLINE
  8
0
  6
CONTINUOUS
 62
       7
  5
A8
 66
       1
 10
0.0
 20
0.0
 30
0.0
  0
VERTEX
  8
0
  6
CONTINUOUS
 62
       7
  5
CB
 10
-17.32935823
 20
34.78954395
 30
0.0
  0
VERTEX
  8
0
  6
CONTINUOUS
 62
       7
  5
CC
 10
-17.57970287
 20
33.9810316
 30
0.0
  0
VERTEX
  8
0
  6
CONTINUOUS
 62
       7
  5
CD
 10
-17.78957715
 20
33.15898043
 30
0.0
  0
VERTEX
  8
0
  6
CONTINUOUS
 62
       7
  5
CE
 10
-17.95673044
 20
32.32609828
 30
0.0
  0
VERTEX
  8
0
  6
CONTINUOUS
 62
       7
  5
CF
 10
-18.07891213
 20
31.48509293
 30
0.0
  0
VERTEX
  8
0
  6
CONTINUOUS
 62
       7
  5
D0
 10
-18.1538716
 20
30.63867222
 30
0.0
  0
VERTEX
  8
0
  6
CONTINUOUS
 62
       7
  5
D1
 10
-18.17935823
 20
29.78954395
 30
0.0
  0
VERTEX
  8
0
  6
CONTINUOUS
 62
       7
  5
D2
 10
-18.1538716
 20
28.94041568
 30
0.0
  0
VERTEX
  8
0
  6
CONTINUOUS
 62
       7
  5
D3
 10
-18.07891213
 20
28.09399496
 30
0.0
  0
VERTEX
  8
0
  6
CONTINUOUS
 62
       7
  5
D4
 10
-17.95673044
 20
27.25298962
 30
0.0
  0
VERTEX
  8
0
  6
CONTINUOUS
 62
       7
  5
D5
 10
-17.78957715
 20
26.42010746
 30
0.0
  0
VERTEX
  8
0
  6
CONTINUOUS
 62
       7
  5
D6
 10
-17.57970287
 20
25.5980563
 30
0.0
  0
VERTEX
  8
0
  6
CONTINUOUS
 62
       7
  5
D7
 10
-17.32935823
 20
24.78954395
 30
0.0
  0
SEQEND
  8
0
  6
CONTINUOUS
 62
       7
  5
D8
  0
POLYLINE
  8
0
  6
CONTINUOUS
 62
       7
  5
A9
 66
       1
 10
0.0
 20
0.0
 30
0.0
  0
VERTEX
  8
0
  6
CONTINUOUS
 62
       7
  5
D9
 10
-47.32935823
 20
34.78954395
 30
0.0
  0
VERTEX
  8
0
  6
CONTINUOUS
 62
       7
  5
DA
 10
-47.07901365
 20
33.98103217
 30
0.0
  0
VERTEX
  8
0
  6
CONTINUOUS
 62
       7
  5
DB
 10
-46.86913945
 20
33.15898134
 30
0.0
  0
VERTEX
  8
0
  6
CONTINUOUS
 62
       7
  5
DC
 10
-46.70198622
 20
32.32609928
 30
0.0
  0
VERTEX
  8
0
  6
CONTINUOUS
 62
       7
  5
DD
 10
-46.57980454
 20
31.48509381
 30
0.0
  0
VERTEX
  8
0
  6
CONTINUOUS
 62
       7
  5
DE
 10
-46.50484501
 20
30.63867276
 30
0.0
  0
VERTEX
  8
0
  6
CONTINUOUS
 62
       7
  5
DF
 10
-46.47935823
 20
29.78954395
 30
0.0
  0
VERTEX
  8
0
  6
CONTINUOUS
 62
       7
  5
E0
 10
-46.50484466
 20
28.9404153
 30
0.0
  0
VERTEX
  8
0
  6
CONTINUOUS
 62
       7
  5
E1
 10
-46.57980398
 20
28.09399462
 30
0.0
  0
VERTEX
  8
0
  6
CONTINUOUS
 62
       7
  5
E2
 10
-46.70198559
 20
27.25298952
 30
0.0
  0
VERTEX
  8
0
  6
CONTINUOUS
 62
       7
  5
E3
 10
-46.8691389
 20
26.42010763
 30
0.0
  0
VERTEX
  8
0
  6
CONTINUOUS
 62
       7
  5
E4
 10
-47.07901331
 20
25.59805656
 30
0.0
  0
VERTEX
  8
0
  6
CONTINUOUS
 62
       7
  5
E5
 10
-47.32935823
 20
24.78954395
 30
0.0
  0
SEQEND
  8
0
  6
CONTINUOUS
 62
       7
  5
E6
  0
POLYLINE
  8
0
  6
CONTINUOUS
 62
       7
  5
AA
 66
       1
 10
0.0
 20
0.0
 30
0.0
  0
VERTEX
  8
0
  6
CONTINUOUS
 62
       7
  5
E7
 10
51.67064177
 20
34.78954395
 30
0.0
  0
VERTEX
  8
0
  6
CONTINUOUS
 62
       7
  5
E8
 10
51.92024564
 20
33.98103203
 30
0.0
  0
VERTEX
  8
0
  6
CONTINUOUS
 62
       7
  5
E9
 10
52.128268
 20
33.15898094
 30
0.0
  0
VERTEX
  8
0
  6
CONTINUOUS
 62
       7
  5
EA
 10
52.29301382
 20
32.32609864
 30
0.0
  0
VERTEX
  8
0
  6
CONTINUOUS
 62
       7
  5
EB
 10
52.41278808
 20
31.48509308
 30
0.0
  0
VERTEX
  8
0
  6
CONTINUOUS
 62
       7
  5
EC
 10
52.48589574
 20
30.6386722
 30
0.0
  0
VERTEX
  8
0
  6
CONTINUOUS
 62
       7
  5
ED
 10
52.51064177
 20
29.78954395
 30
0.0
  0
VERTEX
  8
0
  6
CONTINUOUS
 62
       7
  5
EE
 10
52.48589609
 20
28.94041587
 30
0.0
  0
VERTEX
  8
0
  6
CONTINUOUS
 62
       7
  5
EF
 10
52.41278863
 20
28.09399536
 30
0.0
  0
VERTEX
  8
0
  6
CONTINUOUS
 62
       7
  5
F0
 10
52.29301444
 20
27.25299016
 30
0.0
  0
VERTEX
  8
0
  6
CONTINUOUS
 62
       7
  5
F1
 10
52.12826855
 20
26.42010803
 30
0.0
  0
VERTEX
  8
0
  6
CONTINUOUS
 62
       7
  5
F2
 10
51.92024598
 20
25.59805671
 30
0.0
  0
VERTEX
  8
0
  6
CONTINUOUS
 62
       7
  5
F3
 10
51.67064177
 20
24.78954395
 30
0.0
  0
SEQEND
  8
0
  6
CONTINUOUS
 62
       7
  5
F4
  0
LINE
  8
0
  6
CONTINUOUS
 62
       7
  5
AB
 10
51.67064177
 20
35.74954395
 30
0.0
 11
51.67064177
 21
34.78954395
 31
0.0
  0
LINE
  8
0
  6
CONTINUOUS
 62
       7
  5
AC
 10
51.67064177
 20
24.78954395
 30
0.0
 11
51.67064177
 21
23.82954395
 31
0.0
  0
LINE
  8
0
  6
CONTINUOUS
 62
       7
  5
AD
 10
-37.62935823
 20
53.18954395
 30
0.0
 11
-27.02935823
 21
53.18954395
 31
0.0
  0
LINE
  8
0
  6
CONTINUOUS
 62
       7
  5
AE
 10
60.3706418
 20
45.18954395
 30
0.0
 11
60.67064177
 21
45.18954395
 31
0.0
  0
LINE
  8
0
  6
CONTINUOUS
 62
       7
  5
AF
 10
72.67064177
 20
45.18954395
 30
0.0
 11
72.97064176
 21
45.18954395
 31
0.0
  0
LINE
  8
0
  6
CONTINUOUS
 62
       7
  5
B0
 10
-34.2502955
 20
46.18954395
 30
0.0
 11
-30.40842096
 21
46.18954395
 31
0.0
  0
LINE
  8
0
  6
CONTINUOUS
 62
       7
  5
B1
 10
-34.2502955
 20
46.18954396
 30
0.0
 11
-34.2502955
 21
52.18954395
 31
0.0
  0
LINE
  8
0
  6
CONTINUOUS
 62
       7
  5
B2
 10
-30.40842096
 20
46.18954396
 30
0.0
 11
-30.40842096
 21
52.18954395
 31
0.0
  0
LINE
  8
0
  6
CONTINUOUS
 62
       7
  5
B3
 10
-37.62935823
 20
53.18954395
 30
0.0
 11
-38.62935823
 21
52.18954395
 31
0.0
  0
LINE
  8
0
  6
CONTINUOUS
 62
       7
  5
B4
 10
-27.02935823
 20
53.18954395
 30
0.0
 11
-26.02935823
 21
52.18954395
 31
0.0
  0
LINE
  8
0
  6
CONTINUOUS
 62
       7
  5
B5
 10
-38.62935823
 20
52.18954395
 30
0.0
 11
-34.2502955
 21
52.18954395
 31
0.0
  0
LINE
  8
0
  6
CONTINUOUS
 62
       7
  5
B6
 10
-30.40842096
 20
52.18954395
 30
0.0
 11
-26.13327127
 21
52.18954395
 31
0.0
  0
LINE
  8
0
  6
CONTINUOUS
 62
       7
  5
B7
 10
-34.2502955
 20
52.18954395
 30
0.0
 11
-33.2502955
 21
53.18954395
 31
0.0
  0
LINE
  8
0
  6
CONTINUOUS
 62
       7
  5
B8
 10
-30.40842096
 20
52.18954395
 30
0.0
 11
-31.40842096
 21
53.18954395
 31
0.0
  0
LINE
  8
0
  6
CONTINUOUS
 62
       7
  5
B9
 10
-33.89594031
 20
52.54389914
 30
0.0
 11
-30.40842096
 21
46.18954396
 31
0.0
  0
LINE
  8
0
  6
CONTINUOUS
 62
       7
  5
BA
 10
-30.76277615
 20
52.54389914
 30
0.0
 11
-34.2502955
 21
46.18954396
 31
0.0
  0
LINE
  8
0
  6
CONTINUOUS
 62
       7
  5
BB
 10
-26.13327127
 20
52.18954395
 30
0.0
 11
-26.02935823
 21
52.18954395
 31
0.0
  0
LINE
  8
0
  6
CONTINUOUS
 62
       7
  5
BC
 10
-26.02935823
 20
52.16330576
 30
0.0
 11
-26.02935823
 21
44.28954395
 31
0.0
  0
LINE
  8
0
  6
CONTINUOUS
 62
       7
  5
BD
 10
-38.62935823
 20
52.20540434
 30
0.0
 11
-38.62935823
 21
44.28954395
 31
0.0
  0
LINE
  8
0
  6
CONTINUOUS
 62
       7
  5
BE
 10
-45.32935823
 20
37.28954395
 30
0.0
 11
-19.32935823
 21
37.28954395
 31
0.0
  0
LINE
  8
0
  6
CONTINUOUS
 62
       7
  5
BF
 10
-45.32935823
 20
22.28954395
 30
0.0
 11
-19.32935823
 21
22.28954395
 31
0.0
  0
LINE
  8
0
  6
CONTINUOUS
 62
       2
  5
C0
 10
-20.07935823
 20
21.74385823
 30
0.0
 11
-20.07935823
 21
22.28954395
 31
0.0
  0
LINE
  8
0
  6
CONTINUOUS
 62
       2
  5
C1
 10
-44.57935823
 20
21.77661074
 30
0.0
 11
-44.57935823
 21
22.28954395
 31
0.0
  0
LINE
  8
0
  6
CONTINUOUS
 62
       7
  5
C2
 10
-45.32935823
 20
21.74385823
 30
0.0
 11
-45.32935823
 21
23.28954395
 31
0.0
  0
LINE
  8
0
  6
CONTINUOUS
 62
       2
  5
C3
 10
-49.32935823
 20
29.78954395
 30
0.0
 11
-15.32935823
 21
29.78954395
 31
0.0
  0
LINE
  8
0
  6
CONTINUOUS
 62
       2
  5
C4
 10
49.67064177
 20
29.78954395
 30
0.0
 11
83.94595613
 21
29.78954395
 31
0.0
  0
LINE
  8
0
  6
CONTINUOUS
 62
       7
  5
C5
 10
-138.3999939
 20
94.5
 30
0.0
 11
138.3500061
 21
94.5
 31
0.0
  0
LINE
  8
0
  6
CONTINUOUS
 62
       7
  5
C6
 10
138.3500061
 20
94.5
 30
0.0
 11
138.3500061
 21
-94.80000305
 31
0.0
  0
LINE
  8
0
  6
CONTINUOUS
 62
       7
  5
C7
 10
-138.3999939
 20
-94.80000305
 30
0.0
 11
138.3500061
 21
-94.80000305
 31
0.0
  0
LINE
  8
0
  6
CONTINUOUS
 62
       7
  5
C8
 10
-138.3999939
 20
94.5
 30
0.0
 11
-138.3999939
 21
-94.80000305
 31
0.0
  0
TEXT
  8
0
  6
CONTINUOUS
 62
       7
  5
C9
 10
-129.41817573
 20
82.89999998
 30
0.0
 40
3.20000005
  1
MODEL:125A-2
 41
1.09090909
  7
MX_NOTE_STANDARD
 11
-129.41817573
 21
84.5
 31
0.0
 73
       2
  0
ENDSEC
  0
EOF
