  0
SECTION
  2
HEADER
  9
$ACADVER
  1
AC1002
  9
$INSBASE
 10
0.0
 20
0.0
  9
$EXTMIN
 10
-370.8736
 20
-254.5585
  9
$EXTMAX
 10
370.8736
 20
254.5585
  9
$LIMMIN
 10
0.0
 20
0.0
  9
$LIMMAX
 10
12.0
 20
9.0
  9
$VIEWCTR
 10
28.6093211
 20
0.0
  9
$VIEWSIZE
 40
509.117
  9
$SNAPMODE
 70
     0
  9
$SNAPUNIT
 10
1.0
 20
1.0
  9
$SNAPBASE
 10
0.0
 20
0.0
  9
$SNAPANG
 50
0.0
  9
$SNAPSTYLE
 70
     0
  9
$SNAPISOPAIR
 70
     0
  9
$GRIDMODE
 70
     0
  9
$GRIDUNIT
 10
0.0
 20
0.0
  9
$ORTHOMODE
 70
     0
  9
$REGENMODE
 70
     1
  9
$FILLMODE
 70
     1
  9
$QTEXTMODE
 70
     0
  9
$DRAGMODE
 70
     2
  9
$LTSCALE
 40
1.0
  9
$OSMODE
 70
     0
  9
$ATTMODE
 70
     1
  9
$TEXTSIZE
 40
0.2
  9
$TRACEWID
 40
0.05
  9
$TEXTSTYLE
  7
AAA
  9
$CLAYER
  8
0
  9
$CELTYPE
  6
BYLAYER
  9
$CECOLOR
 62
   256
  9
$DIMSCALE
 40
1.0
  9
$DIMASZ
 40
0.18
  9
$DIMEXO
 40
0.0625
  9
$DIMDLI
 40
0.38
  9
$DIMRND
 40
0.0
  9
$DIMDLE
 40
0.0
  9
$DIMEXE
 40
0.18
  9
$DIMTP
 40
0.0
  9
$DIMTM
 40
0.0
  9
$DIMTXT
 40
0.18
  9
$DIMCEN
 40
0.09
  9
$DIMTSZ
 40
0.0
  9
$DIMTOL
 70
     0
  9
$DIMLIM
 70
     0
  9
$DIMTIH
 70
     1
  9
$DIMTOH
 70
     1
  9
$DIMSE1
 70
     0
  9
$DIMSE2
 70
     0
  9
$DIMTAD
 70
     0
  9
$DIMZIN
 70
     0
  9
$DIMBLK
  1

  9
$LUNITS
 70
     2
  9
$LUPREC
 70
     4
  9
$AXISMODE
 70
     0
  9
$AXISUNIT
 10
0.0
 20
0.0
  9
$SKETCHINC
 40
0.1
  9
$FILLETRAD
 40
0.0
  9
$AUNITS
 70
     0
  9
$AUPREC
 70
     0
  9
$MENU
  1
ACAD
  9
$ELEVATION
 40
0.0
  9
$THICKNESS
 40
0.0
  9
$VIEWDIR
 10
0.0
 20
0.0
 30
1.0
  9
$LIMCHECK
 70
     0
  9
$BLIPMODE
 70
     1
  9
$CHAMFERA
 40
0.0
  9
$CHAMFERB
 40
0.0
  9
$FASTZOOM
 70
     1
  9
$SKPOLY
 70
     0
  9
$TDCREATE
 40
2447880.4945486611
  9
$TDUPDATE
 40
2447880.4945486611
  9
$TDINDWG
 40
0.0038773148
  9
$TDUSRTIMER
 40
0.0038773148
  9
$USRTIMER
 70
     1
  9
$ANGBASE
 50
0.0
  9
$ANGDIR
 70
     0
  9
$PDMODE
 70
     0
  9
$PDSIZE
 40
0.0
  9
$PLINEWID
 40
0.0
  9
$COORDS
 70
     0
  9
$USERI1
 70
     0
  9
$USERI2
 70
     0
  9
$USERI3
 70
     0
  9
$USERI4
 70
     0
  9
$USERI5
 70
     0
  9
$USERR1
 40
0.0
  9
$USERR2
 40
0.0
  9
$USERR3
 40
0.0
  9
$USERR4
 40
0.0
  9
$USERR5
 40
0.0
  0
ENDSEC
  0
SECTION
  2
TABLES
  0
TABLE
  2
LTYPE
 70
     2
  0
LTYPE
  2
CONTINUOUS
 70
    64
  3
SOLID
 72
    65
 73
     0
 40
0.0
  0
LTYPE
  2
CENTER
 70
    64
  3
CENTER
 72
    65
 73
     4
 40
2.0
 49
1.25
 49
-0.25
 49
0.25
 49
-0.25
  0
ENDTAB
  0
TABLE
  2
LAYER
 70
     1
  0
LAYER
  2
0
 70
    64
 62
     7
  6
CONTINUOUS
  0
ENDTAB
  0
TABLE
  2
STYLE
 70
     2
  0
STYLE
  2
AAA
 70
     0
 40
0.0
 41
1.0
 50
0.0
 71
     0
 42
0.2
  3
TXT
  4

  0
STYLE
  2
STANDARD
 70
    64
 40
0.0
 41
1.0
 50
0.0
 71
     0
 42
0.2
  3
TXT
  4
BIGFONT
  0
ENDTAB
  0
TABLE
  2
VIEW
 70
     0
  0
ENDTAB
  0
ENDSEC
  0
SECTION
  2
BLOCKS
  0
ENDSEC
  0
SECTION
  2
ENTITIES
  0
POINT
  8
0
  6
CONTINUOUS
 62
     7
 10
-168.4368
 20
150.2775
  0
POINT
  8
0
  6
CONTINUOUS
 62
     7
 10
-195.4368
 20
150.2775
  0
POINT
  8
0
  6
CONTINUOUS
 62
     7
 10
-172.4368
 20
148.7775
  0
POINT
  8
0
  6
CONTINUOUS
 62
     7
 10
-195.4368
 20
1.60001
  0
POINT
  8
0
  6
CONTINUOUS
 62
     7
 10
-168.4368
 20
1.60001
  0
POINT
  8
0
  6
CONTINUOUS
 62
     7
 10
-172.4368
 20
-32.8
  0
POINT
  8
0
  6
CONTINUOUS
 62
     7
 10
-168.4368
 20
22.3
  0
POINT
  8
0
  6
CONTINUOUS
 62
     7
 10
-36.31229
 20
1.60007
  0
POINT
  8
0
  6
CONTINUOUS
 62
     7
 10
-42.81229
 20
-6.39993
  0
POINT
  8
0
  6
CONTINUOUS
 62
     7
 10
-42.81229
 20
22.30006
  0
POINT
  8
0
  6
CONTINUOUS
 62
     7
 10
-37.81229
 20
-32.79994
  0
POINT
  8
0
  6
CONTINUOUS
 62
     7
 10
-313.5614
 20
1.60017
  0
POINT
  8
0
  6
CONTINUOUS
 62
     7
 10
-298.0614
 20
1.60017
  0
POINT
  8
0
  6
CONTINUOUS
 62
     7
 10
-307.0614
 20
-13.39983
  0
POINT
  8
0
  6
CONTINUOUS
 62
     7
 10
-306.5614
 20
-0.19983
  0
POINT
  8
0
  6
CONTINUOUS
 62
     7
 10
-312.0614
 20
-32.79984
  0
POINT
  8
0
  6
CONTINUOUS
 62
     7
 10
-168.4368
 20
-185.679
  0
POINT
  8
0
  6
CONTINUOUS
 62
     7
 10
-195.4368
 20
-185.679
  0
POINT
  8
0
  6
CONTINUOUS
 62
     7
 10
-168.4368
 20
-179.179
  0
POINT
  8
0
  6
CONTINUOUS
 62
     7
 10
-172.4368
 20
-184.179
  0
POINT
  8
0
  6
CONTINUOUS
 62
     7
 10
175.4372
 20
150.2773
  0
POINT
  8
0
  6
CONTINUOUS
 62
     7
 10
299.0612
 20
1.60019
  0
POINT
  8
0
  6
CONTINUOUS
 62
     7
 10
272.0612
 20
22.30019
  0
POINT
  8
0
  6
CONTINUOUS
 62
     7
 10
175.4368
 20
1.60002
  0
POINT
  8
0
  6
CONTINUOUS
 62
     7
 10
168.9368
 20
22.30002
  0
POINT
  8
0
  6
CONTINUOUS
 62
     7
 10
68.81206
 20
1.60025
  0
POINT
  8
0
  6
CONTINUOUS
 62
     7
 10
41.81206
 20
1.60025
  0
POINT
  8
0
  6
CONTINUOUS
 62
     7
 10
68.81206
 20
22.30025
  0
POINT
  8
0
  6
CONTINUOUS
 62
     7
 10
175.4369
 20
-185.6791
  0
POINT
  8
0
  6
CONTINUOUS
 62
     7
 10
168.9369
 20
-158.6791
  0
LINE
  8
0
  6
CONTINUOUS
 62
     7
 10
218.3292
 20
-225.9564
 11
370.8736
 21
-225.9564
  0
LINE
  8
0
  6
CONTINUOUS
 62
     7
 10
-218.3292
 20
225.9564
 11
-218.3292
 21
254.5585
  0
LINE
  8
0
  6
CONTINUOUS
 62
     7
 10
-370.8736
 20
225.9564
 11
-218.3292
 21
225.9564
  0
LINE
  8
0
  6
CONTINUOUS
 62
     7
 10
-370.8736
 20
254.5585
 11
370.8736
 21
254.5585
  0
LINE
  8
0
  6
CONTINUOUS
 62
     7
 10
-370.8736
 20
-254.5585
 11
370.8736
 21
-254.5585
  0
LINE
  8
0
  6
CONTINUOUS
 62
     7
 10
370.8736
 20
254.5585
 11
370.8736
 21
-254.5585
  0
LINE
  8
0
  6
CONTINUOUS
 62
     7
 10
-370.8736
 20
-254.5585
 11
-370.8736
 21
254.5585
  0
LINE
  8
0
  6
CONTINUOUS
 62
     7
 10
218.3292
 20
-225.9564
 11
218.3292
 21
-254.5585
  0
LINE
  8
0
  6
CONTINUOUS
 62
     7
 10
218.3292
 20
254.5585
 11
218.3292
 21
225.9564
  0
LINE
  8
0
  6
CONTINUOUS
 62
     7
 10
218.3292
 20
225.9564
 11
370.8736
 21
225.9564
  0
LINE
  8
0
  6
CONTINUOUS
 62
     7
 10
258.3816
 20
-232.8337
 11
258.3816
 21
-236.1516
  0
LINE
  8
0
  6
CONTINUOUS
 62
     7
 10
258.3816
 20
-236.1516
 11
270.8235
 21
-236.1516
  0
LINE
  8
0
  6
CONTINUOUS
 62
     7
 10
258.3816
 20
-249.1465
 11
275.2473
 21
-249.1465
  0
LINE
  8
0
  6
CONTINUOUS
 62
     7
 10
258.3816
 20
-245.8286
 11
270.8235
 21
-245.8286
  0
LINE
  8
0
  6
CONTINUOUS
 62
     7
 10
258.3816
 20
-232.8337
 11
273.0354
 21
-232.8337
  0
LINE
  8
0
  6
CONTINUOUS
 62
     7
 10
270.8235
 20
-236.1516
 11
270.8235
 21
-245.8286
  0
LINE
  8
0
  6
CONTINUOUS
 62
     7
 10
275.2473
 20
-235.0457
 11
275.2473
 21
-249.1465
  0
LINE
  8
0
  6
CONTINUOUS
 62
     7
 10
258.3816
 20
-245.8286
 11
258.3816
 21
-249.1465
  0
LINE
  8
0
  6
CONTINUOUS
 62
     7
 10
293.4954
 20
-236.1516
 11
293.4954
 21
-246.9346
  0
LINE
  8
0
  6
CONTINUOUS
 62
     7
 10
277.7357
 20
-232.8337
 11
277.7357
 21
-236.1516
  0
LINE
  8
0
  6
CONTINUOUS
 62
     7
 10
293.9378
 20
-232.585
 11
295.5138
 21
-232.585
  0
LINE
  8
0
  6
CONTINUOUS
 62
     7
 10
293.9378
 20
-230.373
 11
295.5138
 21
-230.373
  0
LINE
  8
0
  6
CONTINUOUS
 62
     7
 10
295.5138
 20
-230.373
 11
295.5138
 21
-232.585
  0
LINE
  8
0
  6
CONTINUOUS
 62
     7
 10
293.9378
 20
-230.373
 11
293.9378
 21
-232.585
  0
LINE
  8
0
  6
CONTINUOUS
 62
     7
 10
293.1083
 20
-230.373
 11
293.1083
 21
-232.585
  0
LINE
  8
0
  6
CONTINUOUS
 62
     7
 10
282.7661
 20
-230.373
 11
286.2009
 21
-230.373
  0
LINE
  8
0
  6
CONTINUOUS
 62
     7
 10
285.5413
 20
-232.8335
 11
286.2006
 21
-230.3727
  0
LINE
  8
0
  6
CONTINUOUS
 62
     7
 10
282.1067
 20
-232.8337
 11
282.766
 21
-230.373
  0
LINE
  8
0
  6
CONTINUOUS
 62
     7
 10
285.5416
 20
-232.8337
 11
290.1776
 21
-232.8337
  0
LINE
  8
0
  6
CONTINUOUS
 62
     7
 10
284.6526
 20
-236.1516
 11
289.0716
 21
-236.1516
  0
LINE
  8
0
  6
CONTINUOUS
 62
     7
 10
286.6429
 20
-249.1465
 11
291.2836
 21
-249.1465
  0
LINE
  8
0
  6
CONTINUOUS
 62
     7
 10
285.7537
 20
-245.8286
 11
286.6427
 21
-249.1463
  0
LINE
  8
0
  6
CONTINUOUS
 62
     7
 10
285.7538
 20
-245.8286
 11
289.0716
 21
-245.8286
  0
LINE
  8
0
  6
CONTINUOUS
 62
     7
 10
281.1707
 20
-249.1466
 11
284.6527
 21
-236.1517
  0
LINE
  8
0
  6
CONTINUOUS
 62
     7
 10
277.7357
 20
-236.1516
 11
281.2177
 21
-236.1516
  0
LINE
  8
0
  6
CONTINUOUS
 62
     7
 10
277.7354
 20
-249.1462
 11
281.2175
 21
-236.1513
  0
LINE
  8
0
  6
CONTINUOUS
 62
     7
 10
277.7357
 20
-249.1465
 11
281.1706
 21
-249.1465
  0
LINE
  8
0
  6
CONTINUOUS
 62
     7
 10
277.7357
 20
-232.8337
 11
282.1067
 21
-232.8337
  0
LINE
  8
0
  6
CONTINUOUS
 62
     7
 10
289.0716
 20
-236.1516
 11
289.0716
 21
-245.8286
  0
LINE
  8
0
  6
CONTINUOUS
 62
     7
 10
291.5323
 20
-230.373
 11
293.1083
 21
-230.373
  0
LINE
  8
0
  6
CONTINUOUS
 62
     7
 10
291.5323
 20
-232.585
 11
293.1083
 21
-232.585
  0
LINE
  8
0
  6
CONTINUOUS
 62
     7
 10
291.5323
 20
-230.373
 11
291.5323
 21
-232.585
  0
LINE
  8
0
  6
CONTINUOUS
 62
     7
 10
301.5135
 20
-230.373
 11
305.9373
 21
-230.373
  0
LINE
  8
0
  6
CONTINUOUS
 62
     7
 10
308.3423
 20
-240.1951
 11
311.2962
 21
-238.8176
  0
LINE
  8
0
  6
CONTINUOUS
 62
     7
 10
305.9373
 20
-242.7344
 11
305.9373
 21
-249.1465
  0
LINE
  8
0
  6
CONTINUOUS
 62
     7
 10
301.5135
 20
-243.379
 11
301.5135
 21
-249.1465
  0
LINE
  8
0
  6
CONTINUOUS
 62
     7
 10
305.9373
 20
-232.8337
 11
310.3611
 21
-232.8337
  0
LINE
  8
0
  6
CONTINUOUS
 62
     7
 10
305.9373
 20
-230.373
 11
305.9373
 21
-232.8337
  0
LINE
  8
0
  6
CONTINUOUS
 62
     7
 10
301.5135
 20
-230.373
 11
301.5135
 21
-232.8337
  0
LINE
  8
0
  6
CONTINUOUS
 62
     7
 10
312.573
 20
-235.0457
 11
312.573
 21
-236.8128
  0
LINE
  8
0
  6
CONTINUOUS
 62
     7
 10
308.3424
 20
-240.195
 11
312.5734
 21
-242.168
  0
LINE
  8
0
  6
CONTINUOUS
 62
     7
 10
305.9373
 20
-242.7343
 11
312.5731
 21
-245.8286
  0
LINE
  8
0
  6
CONTINUOUS
 62
     7
 10
296.2603
 20
-242.1678
 11
296.2603
 21
-245.8286
  0
LINE
  8
0
  6
CONTINUOUS
 62
     7
 10
296.2607
 20
-242.1682
 11
309.1626
 21
-236.1519
  0
LINE
  8
0
  6
CONTINUOUS
 62
     7
 10
296.2603
 20
-245.8286
 11
301.5136
 21
-243.3789
  0
LINE
  8
0
  6
CONTINUOUS
 62
     7
 10
312.573
 20
-242.1678
 11
312.573
 21
-245.8286
  0
LINE
  8
0
  6
CONTINUOUS
 62
     7
 10
296.2603
 20
-232.8337
 11
296.2603
 21
-236.1516
  0
LINE
  8
0
  6
CONTINUOUS
 62
     7
 10
301.5135
 20
-249.1465
 11
305.9373
 21
-249.1465
  0
LINE
  8
0
  6
CONTINUOUS
 62
     7
 10
296.2603
 20
-236.1516
 11
309.1621
 21
-236.1516
  0
LINE
  8
0
  6
CONTINUOUS
 62
     7
 10
296.2603
 20
-232.8337
 11
301.5135
 21
-232.8337
  0
LINE
  8
0
  6
CONTINUOUS
 62
     7
 10
327.504
 20
-236.4047
 11
328.73
 21
-235.9171
  0
LINE
  8
0
  6
CONTINUOUS
 62
     7
 10
327.5034
 20
-236.4044
 11
327.5034
 21
-249.1465
  0
LINE
  8
0
  6
CONTINUOUS
 62
     7
 10
323.0795
 20
-249.1465
 11
327.5034
 21
-249.1465
  0
LINE
  8
0
  6
CONTINUOUS
 62
     7
 10
313.9553
 20
-241.7925
 11
323.0794
 21
-238.1637
  0
LINE
  8
0
  6
CONTINUOUS
 62
     7
 10
313.9555
 20
-238.222
 11
326.8062
 21
-233.1111
  0
LINE
  8
0
  6
CONTINUOUS
 62
     7
 10
323.0795
 20
-238.1638
 11
323.0795
 21
-249.1465
  0
LINE
  8
0
  6
CONTINUOUS
 62
     7
 10
327.5034
 20
-231.3684
 11
327.5034
 21
-232.0834
  0
LINE
  8
0
  6
CONTINUOUS
 62
     7
 10
330.8211
 20
-231.3684
 11
330.8211
 21
-232.8338
  0
LINE
  8
0
  6
CONTINUOUS
 62
     7
 10
313.9554
 20
-238.2219
 11
313.9554
 21
-241.7925
  0
LINE
  8
0
  6
CONTINUOUS
 62
     7
 10
327.5034
 20
-231.3684
 11
330.8211
 21
-231.3684
  0
LINE
  8
0
  6
CONTINUOUS
 62
     7
 10
0.0
 20
254.5585
 11
0.0
 21
-254.5585
  0
LINE
  8
0
  6
CONTINUOUS
 62
     7
 10
-169.4368
 20
136.2775
 11
-169.4368
 21
135.7775
  0
LINE
  8
0
  6
CONTINUOUS
 62
     7
 10
-168.4368
 20
151.2775
 11
-168.4368
 21
152.2775
  0
LINE
  8
0
  6
CENTER
 62
     2
 10
-197.833
 20
143.7775
 11
-136.4913
 21
143.7775
  0
LINE
  8
0
  6
CONTINUOUS
 62
     7
 10
-194.9368
 20
152.7775
 11
-168.9368
 21
152.7775
  0
LINE
  8
0
  6
CONTINUOUS
 62
     7
 10
-194.9368
 20
134.7775
 11
-168.9368
 21
134.7775
  0
LINE
  8
0
  6
CONTINUOUS
 62
     7
 10
-168.4368
 20
135.2775
 11
-168.4368
 21
136.2775
  0
LINE
  8
0
  6
CONTINUOUS
 62
     7
 10
-195.4368
 20
135.2775
 11
-195.4368
 21
152.2775
  0
LINE
  8
0
  6
CENTER
 62
     2
 10
-181.9368
 20
132.0275
 11
-181.9368
 21
156.0049
  0
LINE
  8
0
  6
CONTINUOUS
 62
     7
 10
-194.4368
 20
151.7775
 11
-169.4368
 21
151.7775
  0
LINE
  8
0
  6
CONTINUOUS
 62
     7
 10
-194.4368
 20
135.7775
 11
-169.4368
 21
135.7775
  0
LINE
  8
0
  6
CONTINUOUS
 62
     7
 10
-194.4368
 20
151.7775
 11
-194.4368
 21
135.7775
  0
LINE
  8
0
  6
CONTINUOUS
 62
     7
 10
-169.4368
 20
151.7775
 11
-169.4368
 21
151.2775
  0
LINE
  8
0
  6
CONTINUOUS
 62
     7
 10
-169.4368
 20
135.7775
 11
-168.5833
 21
134.9239
  0
LINE
  8
0
  6
CONTINUOUS
 62
     7
 10
-194.4368
 20
135.7775
 11
-195.2903
 21
134.9239
  0
LINE
  8
0
  6
CONTINUOUS
 62
     7
 10
-169.4367
 20
151.7775
 11
-168.5832
 21
152.631
  0
LINE
  8
0
  6
CONTINUOUS
 62
     7
 10
-194.4368
 20
151.7776
 11
-195.2903
 21
152.6311
  0
LINE
  8
0
  6
CONTINUOUS
 62
     7
 10
-169.9368
 20
151.2775
 11
-169.9368
 21
136.2775
  0
LINE
  8
0
  6
CONTINUOUS
 62
     7
 10
-172.9368
 20
142.2775
 11
-169.9368
 21
142.2775
  0
LINE
  8
0
  6
CONTINUOUS
 62
     7
 10
-190.9368
 20
145.2775
 11
-193.9368
 21
145.2775
  0
LINE
  8
0
  6
CONTINUOUS
 62
     7
 10
-187.9368
 20
148.2775
 11
-187.9368
 21
151.2775
  0
LINE
  8
0
  6
CONTINUOUS
 62
     7
 10
-175.9368
 20
139.2775
 11
-175.9368
 21
136.2775
  0
LINE
  8
0
  6
CONTINUOUS
 62
     7
 10
-192.9368
 20
145.2775
 11
-192.9368
 21
137.2775
  0
LINE
  8
0
  6
CONTINUOUS
 62
     7
 10
-170.9368
 20
150.2775
 11
-170.9368
 21
142.2775
  0
LINE
  8
0
  6
CONTINUOUS
 62
     7
 10
-187.9368
 20
150.2775
 11
-170.9368
 21
150.2775
  0
LINE
  8
0
  6
CONTINUOUS
 62
     7
 10
-192.9368
 20
137.2775
 11
-175.9368
 21
137.2775
  0
LINE
  8
0
  6
CONTINUOUS
 62
     7
 10
-172.6368
 20
137.0476
 11
-172.6368
 21
136.7452
  0
LINE
  8
0
  6
CONTINUOUS
 62
     7
 10
-173.2368
 20
137.0476
 11
-173.2368
 21
136.7452
  0
LINE
  8
0
  6
CONTINUOUS
 62
     7
 10
-173.3976
 20
136.7695
 11
-173.3976
 21
137.0752
  0
LINE
  8
0
  6
CONTINUOUS
 62
     7
 10
-191.2368
 20
150.5074
 11
-191.2368
 21
150.8098
  0
LINE
  8
0
  6
CONTINUOUS
 62
     7
 10
-190.6368
 20
150.5074
 11
-190.6368
 21
150.8098
  0
LINE
  8
0
  6
CONTINUOUS
 62
     7
 10
-190.476
 20
150.7855
 11
-190.476
 21
150.4798
  0
LINE
  8
0
  6
CONTINUOUS
 62
     7
 10
-174.0399
 20
138.5422
 11
-173.6722
 21
138.9099
  0
LINE
  8
0
  6
CONTINUOUS
 62
     7
 10
-173.6722
 20
138.1744
 11
-173.3045
 21
138.5421
  0
LINE
  8
0
  6
CONTINUOUS
 62
     7
 10
-174.0399
 20
138.5421
 11
-173.6722
 21
138.1744
  0
LINE
  8
0
  6
CONTINUOUS
 62
     7
 10
-172.2014
 20
140.3806
 11
-171.8337
 21
140.0129
  0
LINE
  8
0
  6
CONTINUOUS
 62
     7
 10
-174.701
 20
140.674
 11
-173.6722
 21
139.6452
  0
LINE
  8
0
  6
CONTINUOUS
 62
     7
 10
-174.3332
 20
141.0417
 11
-173.3044
 21
140.0129
  0
LINE
  8
0
  6
CONTINUOUS
 62
     7
 10
-172.5691
 20
140.013
 11
-172.2014
 21
140.3806
  0
LINE
  8
0
  6
CONTINUOUS
 62
     7
 10
-172.2014
 20
139.6452
 11
-171.8337
 21
140.0129
  0
LINE
  8
0
  6
CONTINUOUS
 62
     7
 10
-172.5691
 20
138.5421
 11
-171.5403
 21
137.5134
  0
LINE
  8
0
  6
CONTINUOUS
 62
     7
 10
-172.2013
 20
138.9098
 11
-171.1726
 21
137.8811
  0
LINE
  8
0
  6
CONTINUOUS
 62
     7
 10
-192.04
 20
147.5422
 11
-191.6723
 21
147.9099
  0
LINE
  8
0
  6
CONTINUOUS
 62
     7
 10
-191.6722
 20
147.1745
 11
-191.3045
 21
147.5422
  0
LINE
  8
0
  6
CONTINUOUS
 62
     7
 10
-192.0399
 20
147.5421
 11
-191.6721
 21
147.1744
  0
LINE
  8
0
  6
CONTINUOUS
 62
     7
 10
-190.2014
 20
149.3806
 11
-189.8337
 21
149.0129
  0
LINE
  8
0
  6
CONTINUOUS
 62
     7
 10
-192.7009
 20
149.674
 11
-191.6722
 21
148.6452
  0
LINE
  8
0
  6
CONTINUOUS
 62
     7
 10
-192.3332
 20
150.0417
 11
-191.3044
 21
149.0129
  0
LINE
  8
0
  6
CONTINUOUS
 62
     7
 10
-190.5692
 20
149.013
 11
-190.2015
 21
149.3807
  0
LINE
  8
0
  6
CONTINUOUS
 62
     7
 10
-190.2014
 20
148.6453
 11
-189.8337
 21
149.013
  0
LINE
  8
0
  6
CONTINUOUS
 62
     7
 10
-190.5691
 20
147.5421
 11
-189.5403
 21
146.5133
  0
LINE
  8
0
  6
CONTINUOUS
 62
     7
 10
-190.2014
 20
147.9099
 11
-189.1726
 21
146.8811
  0
LINE
  8
0
  6
CENTER
 62
     2
 10
-172.9368
 20
143.2775
 11
-172.9368
 21
135.2775
  0
LINE
  8
0
  6
CENTER
 62
     2
 10
-190.9368
 20
152.2775
 11
-190.9368
 21
144.2775
  0
LINE
  8
0
  6
CENTER
 62
     2
 10
-194.9368
 20
148.2775
 11
-186.9368
 21
148.2775
  0
LINE
  8
0
  6
CENTER
 62
     2
 10
-176.9368
 20
139.2775
 11
-168.9368
 21
139.2775
  0
LINE
  8
0
  6
CONTINUOUS
 62
     7
 10
-193.4368
 20
151.2775
 11
-162.9368
 21
151.2775
  0
LINE
  8
0
  6
CONTINUOUS
 62
     7
 10
-193.9368
 20
150.7775
 11
-193.9368
 21
136.7775
  0
LINE
  8
0
  6
CONTINUOUS
 62
     7
 10
-193.4368
 20
136.2775
 11
-162.9368
 21
136.2775
  0
LINE
  8
0
  6
CONTINUOUS
 62
     7
 10
-166.9368
 20
151.2775
 11
-166.9368
 21
136.2775
  0
LINE
  8
0
  6
CONTINUOUS
 62
     7
 10
-162.9368
 20
151.2775
 11
-162.9368
 21
136.2775
  0
LINE
  8
0
  6
CENTER
 62
     2
 10
-147.3368
 20
154.1775
 11
-147.3368
 21
133.3775
  0
LINE
  8
0
  6
CONTINUOUS
 62
     7
 10
-150.8737
 20
150.2775
 11
-143.7999
 21
150.2775
  0
LINE
  8
0
  6
CONTINUOUS
 62
     7
 10
-150.8737
 20
137.2775
 11
-143.7999
 21
137.2775
  0
LINE
  8
0
  6
CONTINUOUS
 62
     7
 10
-143.4761
 20
150.0906
 11
-139.9391
 21
143.9644
  0
LINE
  8
0
  6
CONTINUOUS
 62
     7
 10
-154.7345
 20
143.5906
 11
-151.1975
 21
137.4644
  0
LINE
  8
0
  6
CONTINUOUS
 62
     7
 10
-139.9392
 20
143.5906
 11
-143.4761
 21
137.4645
  0
LINE
  8
0
  6
CONTINUOUS
 62
     7
 10
-151.1975
 20
150.0906
 11
-154.7344
 21
143.9644
  0
LINE
  8
0
  6
CONTINUOUS
 62
     7
 10
-139.9368
 20
150.6775
 11
-139.9368
 21
136.8775
  0
LINE
  8
0
  6
CONTINUOUS
 62
     7
 10
-138.7649
 20
140.9775
 11
-139.4368
 21
140.9775
  0
LINE
  8
0
  6
CONTINUOUS
 62
     7
 10
-138.7649
 20
146.5775
 11
-139.4368
 21
146.5775
  0
LINE
  8
0
  6
CONTINUOUS
 62
     7
 10
-139.4368
 20
147.0275
 11
-139.9368
 21
147.0275
  0
LINE
  8
0
  6
CONTINUOUS
 62
     7
 10
-139.4368
 20
140.5275
 11
-139.4368
 21
147.0275
  0
LINE
  8
0
  6
CONTINUOUS
 62
     7
 10
-139.4368
 20
140.5275
 11
-139.9368
 21
140.5275
  0
LINE
  8
0
  6
CONTINUOUS
 62
     7
 10
-162.9368
 20
136.3775
 11
-140.4368
 21
136.3775
  0
LINE
  8
0
  6
CONTINUOUS
 62
     7
 10
-162.9368
 20
151.1775
 11
-140.4368
 21
151.1775
  0
LINE
  8
0
  6
CONTINUOUS
 62
     7
 10
-162.4368
 20
151.1775
 11
-162.4368
 21
136.3775
  0
LINE
  8
0
  6
CENTER
 62
     2
 10
-181.9368
 20
57.15001
 11
-181.9368
 21
-35.54999
  0
LINE
  8
0
  6
CONTINUOUS
 62
     7
 10
-168.4368
 20
24.8
 11
-168.4368
 21
-32.3
  0
LINE
  8
0
  6
CONTINUOUS
 62
     7
 10
-195.4368
 20
24.8
 11
-195.4368
 21
-32.3
  0
LINE
  8
0
  6
CONTINUOUS
 62
     7
 10
-195.4368
 20
7.60002
 11
-168.4368
 21
7.60002
  0
LINE
  8
0
  6
CONTINUOUS
 62
     7
 10
-194.4366
 20
25.79991
 11
-195.4366
 21
24.79991
  0
LINE
  8
0
  6
CONTINUOUS
 62
     7
 10
-169.4368
 20
25.80003
 11
-168.4368
 21
24.80003
  0
LINE
  8
0
  6
CONTINUOUS
 62
     7
 10
-194.4368
 20
25.8
 11
-162.9368
 21
25.8
  0
LINE
  8
0
  6
CONTINUOUS
 62
     7
 10
-195.4368
 20
24.8
 11
-168.4368
 21
24.8
  0
LINE
  8
0
  6
CENTER
 62
     2
 10
-174.4368
 20
4.08186
 11
-174.4368
 21
-1.10907
  0
LINE
  8
0
  6
CENTER
 62
     2
 10
-177.3053
 20
1.60001
 11
-171.6066
 21
1.60001
  0
LINE
  8
0
  6
CONTINUOUS
 62
     7
 10
-195.4368
 20
-24.39999
 11
-168.4368
 21
-24.39999
  0
LINE
  8
0
  6
CONTINUOUS
 62
     7
 10
-194.9368
 20
-32.8
 11
-168.9368
 21
-32.8
  0
LINE
  8
0
  6
CENTER
 62
     2
 10
-171.4368
 20
-28.27174
 11
-171.4368
 21
-33.98251
  0
LINE
  8
0
  6
CONTINUOUS
 62
     7
 10
-174.6368
 20
-29.89999
 11
-174.6368
 21
-32.3
  0
LINE
  8
0
  6
CONTINUOUS
 62
     7
 10
-174.1368
 20
-29.39999
 11
-168.9368
 21
-29.39999
  0
LINE
  8
0
  6
CENTER
 62
     2
 10
-177.5515
 20
-18.39999
 11
-167.8272
 21
-18.39999
  0
LINE
  8
0
  6
CENTER
 62
     2
 10
-174.4368
 20
-15.27798
 11
-174.4368
 21
-21.75464
  0
LINE
  8
0
  6
CONTINUOUS
 62
     7
 10
-174.2368
 20
-30.57181
 11
-174.2368
 21
-29.39998
  0
LINE
  8
0
  6
CONTINUOUS
 62
     7
 10
-168.6368
 20
-30.57182
 11
-168.6368
 21
-29.40001
  0
LINE
  8
0
  6
CONTINUOUS
 62
     7
 10
-171.4368
 20
-20.0583
 11
-168.4368
 21
-20.0583
  0
LINE
  8
0
  6
CONTINUOUS
 62
     7
 10
-171.4368
 20
-16.74168
 11
-168.4368
 21
-16.74168
  0
LINE
  8
0
  6
CONTINUOUS
 62
     7
 10
-171.4368
 20
-16.74168
 11
-171.4368
 21
-20.0583
  0
LINE
  8
0
  6
CONTINUOUS
 62
     7
 10
-193.9368
 20
51.00002
 11
-166.9368
 21
51.00002
  0
LINE
  8
0
  6
CONTINUOUS
 62
     7
 10
-193.9368
 20
52.00002
 11
-193.9368
 21
25.8
  0
LINE
  8
0
  6
CONTINUOUS
 62
     7
 10
-169.9368
 20
51.99998
 11
-169.9368
 21
51.00002
  0
LINE
  8
0
  6
CONTINUOUS
 62
     7
 10
-192.9368
 20
54.00002
 11
-174.7626
 21
54.00002
  0
LINE
  8
0
  6
CONTINUOUS
 62
     7
 10
-193.9368
 20
52.00002
 11
-169.9368
 21
52.00002
  0
LINE
  8
0
  6
CONTINUOUS
 62
     7
 10
-193.9367
 20
51.99999
 11
-192.9367
 21
53.99999
  0
LINE
  8
0
  6
CONTINUOUS
 62
     7
 10
-169.9368
 20
51.99996
 11
-170.9368
 21
53.99998
  0
LINE
  8
0
  6
CONTINUOUS
 62
     7
 10
-175.9368
 20
54.00002
 11
-175.9368
 21
52.00002
  0
LINE
  8
0
  6
CENTER
 62
     2
 10
-172.9368
 20
57.00002
 11
-172.9368
 21
48.00002
  0
LINE
  8
0
  6
CONTINUOUS
 62
     7
 10
-170.3868
 20
52.60002
 11
-175.4868
 21
52.60002
  0
LINE
  8
0
  6
CONTINUOUS
 62
     7
 10
-173.2367
 20
52.00001
 11
-173.3975
 21
52.59999
  0
LINE
  8
0
  6
CONTINUOUS
 62
     7
 10
-172.6368
 20
52.6
 11
-172.4761
 21
52.00001
  0
LINE
  8
0
  6
CONTINUOUS
 62
     7
 10
-170.3868
 20
52.60002
 11
-170.3868
 21
52.00002
  0
LINE
  8
0
  6
CONTINUOUS
 62
     7
 10
-175.4868
 20
52.60002
 11
-175.4868
 21
52.00002
  0
LINE
  8
0
  6
CONTINUOUS
 62
     7
 10
-170.6868
 20
53.29375
 11
-170.6868
 21
52.60002
  0
LINE
  8
0
  6
CONTINUOUS
 62
     7
 10
-175.1868
 20
53.29375
 11
-175.1868
 21
52.59999
  0
LINE
  8
0
  6
CONTINUOUS
 62
     7
 10
-171.111
 20
54.00002
 11
-170.9368
 21
54.00002
  0
LINE
  8
0
  6
CENTER
 62
     2
 10
-190.9368
 20
57.00002
 11
-190.9368
 21
48.00002
  0
LINE
  8
0
  6
CONTINUOUS
 62
     7
 10
-166.9368
 20
51.00002
 11
-166.9368
 21
25.8
  0
LINE
  8
0
  6
CONTINUOUS
 62
     7
 10
-166.9368
 20
50.8
 11
-162.9368
 21
50.8
  0
LINE
  8
0
  6
CENTER
 62
     2
 10
-169.9368
 20
42.8
 11
-134.5368
 21
42.8
  0
LINE
  8
0
  6
CONTINUOUS
 62
     7
 10
-139.9368
 20
68.97624
 11
-139.9368
 21
62.50002
  0
LINE
  8
0
  6
CONTINUOUS
 62
     7
 10
-162.9368
 20
35.40001
 11
-140.4368
 21
35.40001
  0
LINE
  8
0
  6
CONTINUOUS
 62
     7
 10
-162.9368
 20
50.2
 11
-140.4368
 21
50.2
  0
LINE
  8
0
  6
CONTINUOUS
 62
     7
 10
-154.7368
 20
68.97624
 11
-154.7368
 21
62.50002
  0
LINE
  8
0
  6
CONTINUOUS
 62
     7
 10
-153.1368
 20
69.90001
 11
-141.5368
 21
69.90001
  0
LINE
  8
0
  6
CONTINUOUS
 62
     7
 10
-138.765
 20
40.00002
 11
-139.4368
 21
40.00002
  0
LINE
  8
0
  6
CONTINUOUS
 62
     7
 10
-138.765
 20
45.60002
 11
-139.4368
 21
45.60002
  0
LINE
  8
0
  6
CONTINUOUS
 62
     7
 10
-139.4368
 20
39.55
 11
-139.4368
 21
46.05
  0
LINE
  8
0
  6
CONTINUOUS
 62
     7
 10
-139.4368
 20
39.55003
 11
-139.9368
 21
39.55003
  0
LINE
  8
0
  6
CONTINUOUS
 62
     7
 10
-139.4368
 20
46.05003
 11
-139.9368
 21
46.05003
  0
LINE
  8
0
  6
CONTINUOUS
 62
     7
 10
-154.7368
 20
62.50002
 11
-139.9368
 21
62.50002
  0
LINE
  8
0
  6
CONTINUOUS
 62
     7
 10
-154.7368
 20
63.50002
 11
-139.9368
 21
63.50002
  0
LINE
  8
0
  6
CONTINUOUS
 62
     7
 10
-152.3368
 20
47.8
 11
-142.3368
 21
47.8
  0
LINE
  8
0
  6
CONTINUOUS
 62
     7
 10
-152.3368
 20
37.8
 11
-142.3368
 21
37.8
  0
LINE
  8
0
  6
CONTINUOUS
 62
     7
 10
-152.3368
 20
47.8
 11
-152.3368
 21
37.8
  0
LINE
  8
0
  6
CONTINUOUS
 62
     7
 10
-142.3368
 20
47.8
 11
-142.3368
 21
37.8
  0
LINE
  8
0
  6
CONTINUOUS
 62
     7
 10
-151.3368
 20
47.8
 11
-151.3368
 21
37.8
  0
LINE
  8
0
  6
CONTINUOUS
 62
     7
 10
-150.3368
 20
47.8
 11
-150.3368
 21
37.8
  0
LINE
  8
0
  6
CONTINUOUS
 62
     7
 10
-149.3368
 20
47.8
 11
-149.3368
 21
37.8
  0
LINE
  8
0
  6
CONTINUOUS
 62
     7
 10
-148.3368
 20
47.8
 11
-148.3368
 21
37.8
  0
LINE
  8
0
  6
CONTINUOUS
 62
     7
 10
-147.3368
 20
47.8
 11
-147.3368
 21
37.8
  0
LINE
  8
0
  6
CONTINUOUS
 62
     7
 10
-146.3368
 20
47.8
 11
-146.3368
 21
37.8
  0
LINE
  8
0
  6
CONTINUOUS
 62
     7
 10
-145.3368
 20
47.8
 11
-145.3368
 21
37.8
  0
LINE
  8
0
  6
CONTINUOUS
 62
     7
 10
-144.3368
 20
47.8
 11
-144.3368
 21
37.8
  0
LINE
  8
0
  6
CONTINUOUS
 62
     7
 10
-143.3368
 20
47.8
 11
-143.3368
 21
37.8
  0
LINE
  8
0
  6
CONTINUOUS
 62
     7
 10
-141.5368
 20
69.89998
 11
-139.9368
 21
68.97623
  0
LINE
  8
0
  6
CONTINUOUS
 62
     7
 10
-153.1368
 20
69.90005
 11
-154.7368
 21
68.97631
  0
LINE
  8
0
  6
CONTINUOUS
 62
     7
 10
-151.1975
 20
68.97624
 11
-151.1975
 21
63.50002
  0
LINE
  8
0
  6
CONTINUOUS
 62
     7
 10
-150.8737
 20
68.97624
 11
-150.8737
 21
63.50002
  0
LINE
  8
0
  6
CONTINUOUS
 62
     7
 10
-143.7999
 20
68.97624
 11
-143.7999
 21
63.50002
  0
LINE
  8
0
  6
CONTINUOUS
 62
     7
 10
-143.4761
 20
68.97624
 11
-143.4761
 21
63.50002
  0
LINE
  8
0
  6
CONTINUOUS
 62
     7
 10
-151.1975
 20
68.97624
 11
-150.8737
 21
68.97624
  0
LINE
  8
0
  6
CONTINUOUS
 62
     7
 10
-143.7999
 20
68.97624
 11
-143.4761
 21
68.97624
  0
LINE
  8
0
  6
CENTER
 62
     2
 10
-147.3368
 20
72.90001
 11
-147.3368
 21
32.40001
  0
LINE
  8
0
  6
CONTINUOUS
 62
     7
 10
-162.9368
 20
50.8
 11
-162.9368
 21
25.8
  0
LINE
  8
0
  6
CONTINUOUS
 62
     7
 10
-154.7368
 20
60.50002
 11
-139.9368
 21
60.50002
  0
LINE
  8
0
  6
CONTINUOUS
 62
     7
 10
-154.7368
 20
60.50002
 11
-154.7368
 21
50.2
  0
LINE
  8
0
  6
CONTINUOUS
 62
     7
 10
-139.9368
 20
60.50002
 11
-139.9368
 21
35.90001
  0
LINE
  8
0
  6
CONTINUOUS
 62
     7
 10
-141.3368
 20
62.50002
 11
-141.3368
 21
60.50002
  0
LINE
  8
0
  6
CONTINUOUS
 62
     7
 10
-153.3368
 20
62.50002
 11
-153.3368
 21
60.50002
  0
LINE
  8
0
  6
CONTINUOUS
 62
     7
 10
-142.0133
 20
62.50002
 11
-142.0133
 21
60.50002
  0
LINE
  8
0
  6
CONTINUOUS
 62
     7
 10
-152.6603
 20
62.50002
 11
-152.6603
 21
60.50002
  0
LINE
  8
0
  6
CONTINUOUS
 62
     7
 10
-162.4368
 20
35.40001
 11
-162.4368
 21
50.2
  0
LINE
  8
0
  6
CENTER
 62
     2
 10
-42.81229
 20
72.35081
 11
-42.81229
 21
-13.44551
  0
LINE
  8
0
  6
CONTINUOUS
 62
     7
 10
-33.81229
 20
24.80006
 11
-33.81229
 21
-32.29994
  0
LINE
  8
0
  6
CONTINUOUS
 62
     7
 10
-51.81229
 20
24.80006
 11
-51.81229
 21
-32.29994
  0
LINE
  8
0
  6
CONTINUOUS
 62
     7
 10
-51.81229
 20
24.80006
 11
-33.81229
 21
24.80006
  0
LINE
  8
0
  6
CENTER
 62
     2
 10
-45.73399
 20
22.30006
 11
-39.90259
 21
22.30006
  0
LINE
  8
0
  6
CENTER
 62
     2
 10
-40.65889
 20
1.60007
 11
-33.22792
 21
1.60007
  0
LINE
  8
0
  6
CENTER
 62
     2
 10
-36.31229
 20
6.19136
 11
-36.31229
 21
-2.8166
  0
LINE
  8
0
  6
CONTINUOUS
 62
     7
 10
-34.81229
 20
25.80003
 11
-33.8123
 21
24.80003
  0
LINE
  8
0
  6
CONTINUOUS
 62
     7
 10
-50.81227
 20
25.80005
 11
-51.81227
 21
24.80005
  0
LINE
  8
0
  6
CONTINUOUS
 62
     7
 10
-51.81229
 20
7.60008
 11
-33.81229
 21
7.60008
  0
LINE
  8
0
  6
CENTER
 62
     2
 10
-48.81229
 20
-28.05698
 11
-48.81229
 21
-34.4863
  0
LINE
  8
0
  6
CENTER
 62
     2
 10
-42.81229
 20
-15.80502
 11
-42.81229
 21
-34.01518
  0
LINE
  8
0
  6
CONTINUOUS
 62
     7
 10
-51.81229
 20
-24.39993
 11
-33.81229
 21
-24.39993
  0
LINE
  8
0
  6
CONTINUOUS
 62
     7
 10
-51.31229
 20
-32.79994
 11
-34.31229
 21
-32.79994
  0
LINE
  8
0
  6
CONTINUOUS
 62
     7
 10
-51.31229
 20
-29.39993
 11
-46.11229
 21
-29.39993
  0
LINE
  8
0
  6
CONTINUOUS
 62
     7
 10
-45.61229
 20
-29.89993
 11
-45.61229
 21
-32.29994
  0
LINE
  8
0
  6
CONTINUOUS
 62
     7
 10
-46.01227
 20
-30.57176
 11
-46.01227
 21
-29.39995
  0
LINE
  8
0
  6
CONTINUOUS
 62
     7
 10
-51.61227
 20
-30.57176
 11
-51.61227
 21
-29.39995
  0
LINE
  8
0
  6
CENTER
 62
     2
 10
-49.31229
 20
-13.98112
 11
-49.31229
 21
-22.43755
  0
LINE
  8
0
  6
CENTER
 62
     2
 10
-52.38739
 20
-18.39993
 11
-45.29492
 21
-18.39993
  0
LINE
  8
0
  6
CENTER
 62
     2
 10
-49.11493
 20
-6.39993
 11
-36.60519
 21
-6.39993
  0
LINE
  8
0
  6
CONTINUOUS
 62
     7
 10
-50.81229
 20
25.80006
 11
-34.81229
 21
25.80006
  0
LINE
  8
0
  6
CONTINUOUS
 62
     7
 10
-50.31229
 20
52.00008
 11
-50.31229
 21
25.80006
  0
LINE
  8
0
  6
CONTINUOUS
 62
     7
 10
-50.31229
 20
51.00008
 11
-50.2123
 21
51.00008
  0
LINE
  8
0
  6
CONTINUOUS
 62
     7
 10
-35.31229
 20
52.00008
 11
-35.31229
 21
25.80006
  0
LINE
  8
0
  6
CONTINUOUS
 62
     7
 10
-50.31229
 20
52.00005
 11
-50.2123
 21
52.00005
  0
LINE
  8
0
  6
CONTINUOUS
 62
     7
 10
-35.31231
 20
52.00009
 11
-35.4123
 21
52.20008
  0
LINE
  8
0
  6
CONTINUOUS
 62
     7
 10
-50.31226
 20
52.00006
 11
-50.21227
 21
52.20006
  0
LINE
  8
0
  6
CONTINUOUS
 62
     7
 10
-49.7123
 20
50.20006
 11
-35.91228
 21
50.20006
  0
LINE
  8
0
  6
CONTINUOUS
 62
     7
 10
-49.7123
 20
35.40007
 11
-35.91228
 21
35.40007
  0
LINE
  8
0
  6
CENTER
 62
     2
 10
-53.31229
 20
42.80006
 11
-32.31229
 21
42.80006
  0
LINE
  8
0
  6
CONTINUOUS
 62
     7
 10
-44.08512
 20
41.95157
 11
-43.66085
 21
42.37584
  0
LINE
  8
0
  6
CONTINUOUS
 62
     7
 10
-43.66082
 20
41.52732
 11
-43.23657
 21
41.95157
  0
LINE
  8
0
  6
CONTINUOUS
 62
     7
 10
-44.08509
 20
41.95155
 11
-43.66083
 21
41.52729
  0
LINE
  8
0
  6
CONTINUOUS
 62
     7
 10
-41.96375
 20
44.07286
 11
-41.53947
 21
43.64859
  0
LINE
  8
0
  6
CONTINUOUS
 62
     7
 10
-44.99292
 20
44.55648
 11
-43.66082
 21
43.22437
  0
LINE
  8
0
  6
CONTINUOUS
 62
     7
 10
-44.56864
 20
44.98075
 11
-43.23654
 21
43.64865
  0
LINE
  8
0
  6
CONTINUOUS
 62
     7
 10
-42.38806
 20
43.64863
 11
-41.9638
 21
44.07289
  0
LINE
  8
0
  6
CONTINUOUS
 62
     7
 10
-41.96377
 20
43.22437
 11
-41.53951
 21
43.64864
  0
LINE
  8
0
  6
CONTINUOUS
 62
     7
 10
-42.38801
 20
41.95156
 11
-41.0559
 21
40.61946
  0
LINE
  8
0
  6
CONTINUOUS
 62
     7
 10
-41.96373
 20
42.37584
 11
-40.63163
 21
41.04374
  0
LINE
  8
0
  6
CONTINUOUS
 62
     7
 10
-50.2123
 20
62.50005
 11
-35.41228
 21
62.50005
  0
LINE
  8
0
  6
CONTINUOUS
 62
     7
 10
-48.61229
 20
69.90007
 11
-37.01228
 21
69.90007
  0
LINE
  8
0
  6
CONTINUOUS
 62
     7
 10
-50.2123
 20
63.50005
 11
-35.41228
 21
63.50005
  0
LINE
  8
0
  6
CONTINUOUS
 62
     7
 10
-35.41228
 20
63.50005
 11
-35.41228
 21
62.50005
  0
LINE
  8
0
  6
CONTINUOUS
 62
     7
 10
-50.2123
 20
63.50005
 11
-50.2123
 21
62.50005
  0
LINE
  8
0
  6
CONTINUOUS
 62
     7
 10
-49.31229
 20
69.49593
 11
-49.31229
 21
63.50005
  0
LINE
  8
0
  6
CONTINUOUS
 62
     7
 10
-36.31229
 20
69.49593
 11
-36.31229
 21
63.50005
  0
LINE
  8
0
  6
CONTINUOUS
 62
     7
 10
-37.01231
 20
69.90009
 11
-36.31231
 21
69.49594
  0
LINE
  8
0
  6
CONTINUOUS
 62
     7
 10
-48.61233
 20
69.90013
 11
-49.31233
 21
69.49599
  0
LINE
  8
0
  6
CONTINUOUS
 62
     7
 10
-42.99919
 20
68.9763
 11
-42.62538
 21
68.9763
  0
LINE
  8
0
  6
CONTINUOUS
 62
     7
 10
-35.41228
 20
52.00005
 11
-35.31229
 21
52.00005
  0
LINE
  8
0
  6
CONTINUOUS
 62
     7
 10
-35.41228
 20
51.00008
 11
-35.31229
 21
51.00008
  0
LINE
  8
0
  6
CONTINUOUS
 62
     7
 10
-42.62538
 20
68.9763
 11
-42.62538
 21
63.50005
  0
LINE
  8
0
  6
CONTINUOUS
 62
     7
 10
-42.99919
 20
68.9763
 11
-42.99919
 21
63.50005
  0
LINE
  8
0
  6
CONTINUOUS
 62
     7
 10
-50.2123
 20
60.50005
 11
-35.41228
 21
60.50005
  0
LINE
  8
0
  6
CONTINUOUS
 62
     7
 10
-50.2123
 20
60.50005
 11
-50.2123
 21
35.90007
  0
LINE
  8
0
  6
CONTINUOUS
 62
     7
 10
-35.41228
 20
60.50005
 11
-35.41228
 21
35.90007
  0
LINE
  8
0
  6
CONTINUOUS
 62
     7
 10
-36.81229
 20
62.50005
 11
-36.81229
 21
60.50005
  0
LINE
  8
0
  6
CONTINUOUS
 62
     7
 10
-48.81229
 20
62.50005
 11
-48.81229
 21
60.50005
  0
LINE
  8
0
  6
CONTINUOUS
 62
     7
 10
-37.48878
 20
62.50005
 11
-37.48878
 21
60.50005
  0
LINE
  8
0
  6
CONTINUOUS
 62
     7
 10
-48.13579
 20
62.50005
 11
-48.13579
 21
60.50005
  0
LINE
  8
0
  6
CENTER
 62
     2
 10
-307.0614
 20
-22.38467
 11
-307.0614
 21
-36.44983
  0
LINE
  8
0
  6
CENTER
 62
     2
 10
-300.5614
 20
-15.73993
 11
-300.5614
 21
-21.19139
  0
LINE
  8
0
  6
CENTER
 62
     2
 10
-303.1682
 20
-18.39983
 11
-298.0614
 21
-18.39983
  0
LINE
  8
0
  6
CONTINUOUS
 62
     7
 10
-310.2614
 20
-30.57167
 11
-310.2614
 21
-29.39983
  0
LINE
  8
0
  6
CONTINUOUS
 62
     7
 10
-315.8614
 20
-30.57164
 11
-315.8614
 21
-29.39983
  0
LINE
  8
0
  6
CONTINUOUS
 62
     7
 10
-315.5614
 20
-29.39983
 11
-310.3614
 21
-29.39983
  0
LINE
  8
0
  6
CONTINUOUS
 62
     7
 10
-309.8614
 20
-29.89983
 11
-309.8614
 21
-32.29984
  0
LINE
  8
0
  6
CENTER
 62
     2
 10
-313.0614
 20
-28.40111
 11
-313.0614
 21
-33.75923
  0
LINE
  8
0
  6
CONTINUOUS
 62
     7
 10
-315.5614
 20
-32.79984
 11
-298.5614
 21
-32.79984
  0
LINE
  8
0
  6
CONTINUOUS
 62
     7
 10
-316.0614
 20
-24.39983
 11
-298.0614
 21
-24.39983
  0
LINE
  8
0
  6
CENTER
 62
     2
 10
-306.5614
 20
6.13939
 11
-306.5614
 21
-19.43483
  0
LINE
  8
0
  6
CONTINUOUS
 62
     7
 10
-307.5791
 20
15.56839
 11
-305.1296
 21
18.01789
  0
LINE
  8
0
  6
CONTINUOUS
 62
     7
 10
-308.9933
 20
16.9826
 11
-306.5438
 21
19.43209
  0
LINE
  8
0
  6
CONTINUOUS
 62
     7
 10
-307.5791
 20
19.43198
 11
-305.1296
 21
16.98248
  0
LINE
  8
0
  6
CONTINUOUS
 62
     7
 10
-308.9933
 20
18.01772
 11
-306.5438
 21
15.56823
  0
LINE
  8
0
  6
CONTINUOUS
 62
     7
 10
-308.4757
 20
18.91436
 11
-305.6472
 21
16.08593
  0
LINE
  8
0
  6
CONTINUOUS
 62
     7
 10
-308.4757
 20
16.08599
 11
-305.6472
 21
18.91442
  0
LINE
  8
0
  6
CONTINUOUS
 62
     7
 10
-316.0614
 20
24.80016
 11
-298.0614
 21
24.80016
  0
LINE
  8
0
  6
CONTINUOUS
 62
     7
 10
-316.0614
 20
7.60017
 11
-298.0614
 21
7.60017
  0
LINE
  8
0
  6
CONTINUOUS
 62
     7
 10
-298.0614
 20
24.80016
 11
-298.0614
 21
-32.29984
  0
LINE
  8
0
  6
CONTINUOUS
 62
     7
 10
-316.0614
 20
24.80016
 11
-316.0614
 21
-32.29984
  0
LINE
  8
0
  6
CONTINUOUS
 62
     7
 10
-315.0613
 20
25.80017
 11
-316.0613
 21
24.80017
  0
LINE
  8
0
  6
CONTINUOUS
 62
     7
 10
-299.0614
 20
25.80023
 11
-298.0614
 21
24.80025
  0
LINE
  8
0
  6
CENTER
 62
     2
 10
-313.2701
 20
-13.39983
 11
-300.7259
 21
-13.39983
  0
LINE
  8
0
  6
CENTER
 62
     2
 10
-312.7823
 20
-0.19983
 11
-300.7259
 21
-0.19983
  0
LINE
  8
0
  6
CENTER
 62
     2
 10
-313.5614
 20
4.35167
 11
-313.5614
 21
-0.81406
  0
LINE
  8
0
  6
CENTER
 62
     2
 10
-316.0614
 20
1.60017
 11
-311.0657
 21
1.60017
  0
LINE
  8
0
  6
CENTER
 62
     2
 10
-310.8254
 20
17.50017
 11
-303.2571
 21
17.50017
  0
LINE
  8
0
  6
CONTINUOUS
 62
     7
 10
-315.0614
 20
25.80016
 11
-299.0614
 21
25.80016
  0
LINE
  8
0
  6
CENTER
 62
     2
 10
-307.0614
 20
71.96892
 11
-307.0614
 21
-19.41025
  0
LINE
  8
0
  6
CONTINUOUS
 62
     7
 10
-314.5614
 20
52.00017
 11
-314.5614
 21
25.80016
  0
LINE
  8
0
  6
CONTINUOUS
 62
     7
 10
-299.5614
 20
52.00017
 11
-299.5614
 21
25.80016
  0
LINE
  8
0
  6
CONTINUOUS
 62
     7
 10
-308.5614
 20
54.00017
 11
-308.5614
 21
52.00017
  0
LINE
  8
0
  6
CONTINUOUS
 62
     7
 10
-313.5614
 20
48.00017
 11
-300.5614
 21
48.00017
  0
LINE
  8
0
  6
CONTINUOUS
 62
     7
 10
-313.5614
 20
44.00017
 11
-300.5614
 21
44.00017
  0
LINE
  8
0
  6
CONTINUOUS
 62
     7
 10
-300.5614
 20
48.00017
 11
-300.5614
 21
44.00017
  0
LINE
  8
0
  6
CONTINUOUS
 62
     7
 10
-313.5614
 20
48.00017
 11
-313.5614
 21
44.00017
  0
LINE
  8
0
  6
CONTINUOUS
 62
     7
 10
-312.8493
 20
47.10695
 11
-310.5076
 21
47.10695
  0
LINE
  8
0
  6
CONTINUOUS
 62
     7
 10
-312.8493
 20
45.03035
 11
-310.8611
 21
45.03035
  0
LINE
  8
0
  6
CONTINUOUS
 62
     7
 10
-312.8493
 20
44.50017
 11
-310.1542
 21
44.50017
  0
LINE
  8
0
  6
CONTINUOUS
 62
     7
 10
-312.8493
 20
46.57677
 11
-310.8611
 21
46.57677
  0
LINE
  8
0
  6
CONTINUOUS
 62
     7
 10
-312.8493
 20
47.10695
 11
-312.8493
 21
46.57677
  0
LINE
  8
0
  6
CONTINUOUS
 62
     7
 10
-310.1542
 20
46.75349
 11
-310.1542
 21
44.50017
  0
LINE
  8
0
  6
CONTINUOUS
 62
     7
 10
-310.8611
 20
46.57677
 11
-310.8611
 21
45.03035
  0
LINE
  8
0
  6
CONTINUOUS
 62
     7
 10
-309.7565
 20
47.10695
 11
-309.7565
 21
46.57677
  0
LINE
  8
0
  6
CONTINUOUS
 62
     7
 10
-307.2382
 20
46.57677
 11
-307.2382
 21
44.85362
  0
LINE
  8
0
  6
CONTINUOUS
 62
     7
 10
-307.9451
 20
46.57677
 11
-307.9451
 21
45.03035
  0
LINE
  8
0
  6
CONTINUOUS
 62
     7
 10
-312.8493
 20
45.03035
 11
-312.8493
 21
44.50017
  0
LINE
  8
0
  6
CONTINUOUS
 62
     7
 10
-309.7565
 20
47.10695
 11
-309.058
 21
47.10695
  0
LINE
  8
0
  6
CONTINUOUS
 62
     7
 10
-309.7565
 20
44.50017
 11
-309.2076
 21
44.50017
  0
LINE
  8
0
  6
CONTINUOUS
 62
     7
 10
-309.7563
 20
44.50008
 11
-309.1999
 21
46.57667
  0
LINE
  8
0
  6
CONTINUOUS
 62
     7
 10
-309.7565
 20
46.57677
 11
-309.2001
 21
46.57677
  0
LINE
  8
0
  6
CONTINUOUS
 62
     7
 10
-309.2077
 20
44.50016
 11
-308.6513
 21
46.57674
  0
LINE
  8
0
  6
CONTINUOUS
 62
     7
 10
-308.4753
 20
45.03035
 11
-307.9451
 21
45.03035
  0
LINE
  8
0
  6
CONTINUOUS
 62
     7
 10
-308.4755
 20
45.03029
 11
-308.3334
 21
44.50007
  0
LINE
  8
0
  6
CONTINUOUS
 62
     7
 10
-308.3332
 20
44.50017
 11
-307.5916
 21
44.50017
  0
LINE
  8
0
  6
CONTINUOUS
 62
     7
 10
-308.6512
 20
46.57677
 11
-307.9451
 21
46.57677
  0
LINE
  8
0
  6
CONTINUOUS
 62
     7
 10
-308.5092
 20
47.10695
 11
-307.7683
 21
47.10695
  0
LINE
  8
0
  6
CONTINUOUS
 62
     7
 10
-309.0579
 20
47.10695
 11
-308.9526
 21
47.50019
  0
LINE
  8
0
  6
CONTINUOUS
 62
     7
 10
-308.5089
 20
47.10691
 11
-308.4035
 21
47.50013
  0
LINE
  8
0
  6
CONTINUOUS
 62
     7
 10
-306.7963
 20
47.10695
 11
-305.9568
 21
47.10695
  0
LINE
  8
0
  6
CONTINUOUS
 62
     7
 10
-306.7963
 20
46.57677
 11
-304.7346
 21
46.57677
  0
LINE
  8
0
  6
CONTINUOUS
 62
     7
 10
-305.9568
 20
44.50017
 11
-305.2499
 21
44.50017
  0
LINE
  8
0
  6
CONTINUOUS
 62
     7
 10
-306.7963
 20
47.10695
 11
-306.7963
 21
46.57677
  0
LINE
  8
0
  6
CONTINUOUS
 62
     7
 10
-304.1895
 20
45.61537
 11
-304.1895
 21
45.03035
  0
LINE
  8
0
  6
CONTINUOUS
 62
     7
 10
-306.7962
 20
45.03012
 11
-305.9567
 21
45.42159
  0
LINE
  8
0
  6
CONTINUOUS
 62
     7
 10
-306.7963
 20
45.6153
 11
-304.7346
 21
46.57669
  0
LINE
  8
0
  6
CONTINUOUS
 62
     7
 10
-306.7963
 20
45.61537
 11
-306.7963
 21
45.03035
  0
LINE
  8
0
  6
CONTINUOUS
 62
     7
 10
-305.25
 20
45.52483
 11
-304.1895
 21
45.03036
  0
LINE
  8
0
  6
CONTINUOUS
 62
     7
 10
-304.8655
 20
45.9306
 11
-304.1894
 21
45.61531
  0
LINE
  8
0
  6
CONTINUOUS
 62
     7
 10
-304.1895
 20
46.75349
 11
-304.1895
 21
46.47112
  0
LINE
  8
0
  6
CONTINUOUS
 62
     7
 10
-305.9568
 20
47.50017
 11
-305.9568
 21
47.10695
  0
LINE
  8
0
  6
CONTINUOUS
 62
     7
 10
-305.2499
 20
47.50017
 11
-305.2499
 21
47.10695
  0
LINE
  8
0
  6
CONTINUOUS
 62
     7
 10
-305.2499
 20
47.10695
 11
-304.543
 21
47.10695
  0
LINE
  8
0
  6
CONTINUOUS
 62
     7
 10
-305.9568
 20
45.4218
 11
-305.9568
 21
44.50017
  0
LINE
  8
0
  6
CONTINUOUS
 62
     7
 10
-305.2499
 20
45.52483
 11
-305.2499
 21
44.50017
  0
LINE
  8
0
  6
CONTINUOUS
 62
     7
 10
-304.8655
 20
45.93039
 11
-304.3934
 21
46.15051
  0
LINE
  8
0
  6
CONTINUOUS
 62
     7
 10
-301.8036
 20
47.34111
 11
-301.2735
 21
47.34111
  0
LINE
  8
0
  6
CONTINUOUS
 62
     7
 10
-303.9686
 20
46.24593
 11
-303.9686
 21
45.67534
  0
LINE
  8
0
  6
CONTINUOUS
 62
     7
 10
-301.2735
 20
47.34111
 11
-301.2735
 21
47.10695
  0
LINE
  8
0
  6
CONTINUOUS
 62
     7
 10
-301.8036
 20
47.34111
 11
-301.8036
 21
47.22685
  0
LINE
  8
0
  6
CONTINUOUS
 62
     7
 10
-302.5106
 20
46.2552
 11
-302.5106
 21
44.50017
  0
LINE
  8
0
  6
CONTINUOUS
 62
     7
 10
-303.9685
 20
46.2459
 11
-301.915
 21
47.06262
  0
LINE
  8
0
  6
CONTINUOUS
 62
     7
 10
-303.9687
 20
45.67544
 11
-302.5107
 21
46.25534
  0
LINE
  8
0
  6
CONTINUOUS
 62
     7
 10
-302.5106
 20
44.50017
 11
-301.8036
 21
44.50017
  0
LINE
  8
0
  6
CONTINUOUS
 62
     7
 10
-301.8036
 20
46.53636
 11
-301.8036
 21
44.50017
  0
LINE
  8
0
  6
CONTINUOUS
 62
     7
 10
-301.8034
 20
46.53623
 11
-301.6075
 21
46.61415
  0
LINE
  8
0
  6
CONTINUOUS
 62
     7
 10
-308.9527
 20
47.50017
 11
-308.4038
 21
47.50017
  0
LINE
  8
0
  6
CONTINUOUS
 62
     7
 10
-307.5253
 20
47.50017
 11
-307.2993
 21
47.50017
  0
LINE
  8
0
  6
CONTINUOUS
 62
     7
 10
-305.9568
 20
47.50017
 11
-305.2499
 21
47.50017
  0
LINE
  8
0
  6
CONTINUOUS
 62
     7
 10
-307.5253
 20
47.14671
 11
-307.2993
 21
47.14671
  0
LINE
  8
0
  6
CONTINUOUS
 62
     7
 10
-307.5253
 20
47.50017
 11
-307.5253
 21
47.14671
  0
LINE
  8
0
  6
CONTINUOUS
 62
     7
 10
-307.2993
 20
47.50017
 11
-307.2993
 21
47.14671
  0
LINE
  8
0
  6
CONTINUOUS
 62
     7
 10
-307.1416
 20
47.50017
 11
-307.1416
 21
47.14671
  0
LINE
  8
0
  6
CONTINUOUS
 62
     7
 10
-306.9156
 20
47.50017
 11
-306.9156
 21
47.14671
  0
LINE
  8
0
  6
CONTINUOUS
 62
     7
 10
-307.1416
 20
47.50017
 11
-306.9156
 21
47.50017
  0
LINE
  8
0
  6
CONTINUOUS
 62
     7
 10
-307.1416
 20
47.14671
 11
-306.9156
 21
47.14671
  0
LINE
  8
0
  6
CONTINUOUS
 62
     7
 10
-314.5612
 20
52.0001
 11
-313.5612
 21
54.0001
  0
LINE
  8
0
  6
CONTINUOUS
 62
     7
 10
-313.8114
 20
53.2939
 11
-313.8114
 21
52.60014
  0
LINE
  8
0
  6
CENTER
 62
     2
 10
-311.5614
 20
57.00017
 11
-311.5614
 21
49.00017
  0
LINE
  8
0
  6
CONTINUOUS
 62
     7
 10
-313.5614
 20
54.00017
 11
-313.3871
 21
54.00017
  0
LINE
  8
0
  6
CONTINUOUS
 62
     7
 10
-309.3114
 20
53.2939
 11
-309.3114
 21
52.60014
  0
LINE
  8
0
  6
CONTINUOUS
 62
     7
 10
-309.7357
 20
54.00017
 11
-300.5614
 21
54.00017
  0
LINE
  8
0
  6
CENTER
 62
     2
 10
-302.5614
 20
57.00017
 11
-302.5614
 21
49.00017
  0
LINE
  8
0
  6
CONTINUOUS
 62
     7
 10
-299.5614
 20
52.00016
 11
-300.5613
 21
54.00015
  0
LINE
  8
0
  6
CONTINUOUS
 62
     7
 10
-314.5614
 20
52.00017
 11
-299.5614
 21
52.00017
  0
LINE
  8
0
  6
CONTINUOUS
 62
     7
 10
-314.5614
 20
51.00017
 11
-299.5614
 21
51.00017
  0
LINE
  8
0
  6
CONTINUOUS
 62
     7
 10
-309.0114
 20
52.60014
 11
-314.1114
 21
52.60014
  0
LINE
  8
0
  6
CONTINUOUS
 62
     7
 10
-309.0114
 20
52.60014
 11
-309.0114
 21
52.00017
  0
LINE
  8
0
  6
CONTINUOUS
 62
     7
 10
-314.1114
 20
52.60014
 11
-314.1114
 21
52.00017
  0
LINE
  8
0
  6
CONTINUOUS
 62
     7
 10
-314.4614
 20
62.50017
 11
-299.6614
 21
62.50017
  0
LINE
  8
0
  6
CONTINUOUS
 62
     7
 10
-312.8614
 20
69.90016
 11
-301.2614
 21
69.90016
  0
LINE
  8
0
  6
CONTINUOUS
 62
     7
 10
-314.4614
 20
63.50017
 11
-299.6614
 21
63.50017
  0
LINE
  8
0
  6
CONTINUOUS
 62
     7
 10
-299.6614
 20
63.50017
 11
-299.6614
 21
62.50017
  0
LINE
  8
0
  6
CONTINUOUS
 62
     7
 10
-314.4614
 20
63.50017
 11
-314.4614
 21
62.50017
  0
LINE
  8
0
  6
CONTINUOUS
 62
     7
 10
-313.5614
 20
69.49602
 11
-313.5614
 21
63.50017
  0
LINE
  8
0
  6
CONTINUOUS
 62
     7
 10
-300.5614
 20
69.49602
 11
-300.5614
 21
63.50017
  0
LINE
  8
0
  6
CONTINUOUS
 62
     7
 10
-301.2614
 20
69.90018
 11
-300.5614
 21
69.49605
  0
LINE
  8
0
  6
CONTINUOUS
 62
     7
 10
-312.8616
 20
69.90041
 11
-313.5616
 21
69.49626
  0
LINE
  8
0
  6
CONTINUOUS
 62
     7
 10
-307.2483
 20
68.97643
 11
-306.8745
 21
68.97643
  0
LINE
  8
0
  6
CONTINUOUS
 62
     7
 10
-307.2483
 20
68.97643
 11
-307.2483
 21
63.50017
  0
LINE
  8
0
  6
CONTINUOUS
 62
     7
 10
-306.8745
 20
68.97643
 11
-306.8745
 21
63.50017
  0
LINE
  8
0
  6
CONTINUOUS
 62
     7
 10
-314.4614
 20
60.50017
 11
-299.6614
 21
60.50017
  0
LINE
  8
0
  6
CONTINUOUS
 62
     7
 10
-314.4614
 20
60.50017
 11
-314.4614
 21
52.20015
  0
LINE
  8
0
  6
CONTINUOUS
 62
     7
 10
-299.6614
 20
60.50017
 11
-299.6614
 21
52.20018
  0
LINE
  8
0
  6
CONTINUOUS
 62
     7
 10
-313.0614
 20
62.50017
 11
-313.0614
 21
60.50017
  0
LINE
  8
0
  6
CONTINUOUS
 62
     7
 10
-301.0614
 20
62.50017
 11
-301.0614
 21
60.50017
  0
LINE
  8
0
  6
CONTINUOUS
 62
     7
 10
-301.7379
 20
62.50017
 11
-301.7379
 21
60.50017
  0
LINE
  8
0
  6
CONTINUOUS
 62
     7
 10
-312.3849
 20
62.50017
 11
-312.3849
 21
60.50017
  0
LINE
  8
0
  6
CENTER
 62
     2
 10
-175.9642
 20
-184.179
 11
-169.1067
 21
-184.179
  0
LINE
  8
0
  6
CENTER
 62
     2
 10
-194.5854
 20
-174.179
 11
-188.0624
 21
-174.179
  0
LINE
  8
0
  6
CENTER
 62
     2
 10
-172.4368
 20
-180.7817
 11
-172.4368
 21
-187.3604
  0
LINE
  8
0
  6
CENTER
 62
     2
 10
-191.4368
 20
-170.8578
 11
-191.4368
 21
-177.6038
  0
LINE
  8
0
  6
CONTINUOUS
 62
     7
 10
-171.0125
 20
-174.0276
 11
-170.5883
 21
-174.4518
  0
LINE
  8
0
  6
CONTINUOUS
 62
     7
 10
-170.5882
 20
-172.7548
 11
-170.164
 21
-172.3305
  0
LINE
  8
0
  6
CONTINUOUS
 62
     7
 10
-171.0125
 20
-172.3305
 11
-170.5882
 21
-171.9063
  0
LINE
  8
0
  6
CONTINUOUS
 62
     7
 10
-172.2854
 20
-171.9064
 11
-171.8611
 21
-172.3306
  0
LINE
  8
0
  6
CONTINUOUS
 62
     7
 10
-172.7096
 20
-172.3305
 11
-172.2853
 21
-172.7548
  0
LINE
  8
0
  6
CONTINUOUS
 62
     7
 10
-170.5883
 20
-171.9063
 11
-170.164
 21
-172.3306
  0
LINE
  8
0
  6
CONTINUOUS
 62
     7
 10
-172.7096
 20
-174.0276
 11
-172.2853
 21
-174.4519
  0
LINE
  8
0
  6
CONTINUOUS
 62
     7
 10
-170.5883
 20
-173.6035
 11
-170.1641
 21
-174.0277
  0
LINE
  8
0
  6
CENTER
 62
     2
 10
-181.9368
 20
-167.429
 11
-181.9368
 21
-191.4065
  0
LINE
  8
0
  6
CENTER
 62
     2
 10
-197.833
 20
-179.179
 11
-135.6477
 21
-179.179
  0
LINE
  8
0
  6
CONTINUOUS
 62
     7
 10
-194.9368
 20
-188.179
 11
-168.9368
 21
-188.179
  0
LINE
  8
0
  6
CONTINUOUS
 62
     7
 10
-194.9368
 20
-170.179
 11
-168.9368
 21
-170.179
  0
LINE
  8
0
  6
CONTINUOUS
 62
     7
 10
-168.4368
 20
-170.679
 11
-168.4368
 21
-187.679
  0
LINE
  8
0
  6
CONTINUOUS
 62
     7
 10
-195.4368
 20
-170.679
 11
-195.4368
 21
-187.679
  0
LINE
  8
0
  6
CENTER
 62
     2
 10
-175.5746
 20
-173.179
 11
-167.2668
 21
-173.179
  0
LINE
  8
0
  6
CENTER
 62
     2
 10
-196.6157
 20
-185.179
 11
-188.2688
 21
-185.179
  0
LINE
  8
0
  6
CENTER
 62
     2
 10
-192.4368
 20
-181.1467
 11
-192.4368
 21
-189.0888
  0
LINE
  8
0
  6
CENTER
 62
     2
 10
-171.4368
 20
-169.322
 11
-171.4368
 21
-177.0463
  0
LINE
  8
0
  6
CONTINUOUS
 62
     7
 10
-189.2367
 20
-185.179
 11
-189.2367
 21
-187.679
  0
LINE
  8
0
  6
CONTINUOUS
 62
     7
 10
-194.9368
 20
-181.979
 11
-192.4368
 21
-181.979
  0
LINE
  8
0
  6
CONTINUOUS
 62
     7
 10
-171.4368
 20
-176.379
 11
-168.9368
 21
-176.379
  0
LINE
  8
0
  6
CONTINUOUS
 62
     7
 10
-174.6368
 20
-170.679
 11
-174.6368
 21
-173.179
  0
LINE
  8
0
  6
CONTINUOUS
 62
     7
 10
-193.7095
 20
-184.3305
 11
-193.2853
 21
-183.9063
  0
LINE
  8
0
  6
CONTINUOUS
 62
     7
 10
-191.5882
 20
-186.4518
 11
-191.1639
 21
-186.0276
  0
LINE
  8
0
  6
CONTINUOUS
 62
     7
 10
-193.7095
 20
-186.0275
 11
-193.2853
 21
-185.6033
  0
LINE
  8
0
  6
CONTINUOUS
 62
     7
 10
-193.2852
 20
-186.4518
 11
-192.861
 21
-186.0276
  0
LINE
  8
0
  6
CONTINUOUS
 62
     7
 10
-193.7096
 20
-186.0276
 11
-193.2853
 21
-186.4518
  0
LINE
  8
0
  6
CONTINUOUS
 62
     7
 10
-191.5883
 20
-183.9063
 11
-191.164
 21
-184.3306
  0
LINE
  8
0
  6
CONTINUOUS
 62
     7
 10
-193.7096
 20
-184.3306
 11
-193.2854
 21
-184.7549
  0
LINE
  8
0
  6
CONTINUOUS
 62
     7
 10
-193.2854
 20
-183.9064
 11
-192.8611
 21
-184.3306
  0
LINE
  8
0
  6
CONTINUOUS
 62
     7
 10
-192.0125
 20
-184.3305
 11
-191.5882
 21
-183.9062
  0
LINE
  8
0
  6
CONTINUOUS
 62
     7
 10
-191.5882
 20
-184.7548
 11
-191.1639
 21
-184.3305
  0
LINE
  8
0
  6
CONTINUOUS
 62
     7
 10
-192.0126
 20
-186.0276
 11
-191.5883
 21
-186.4519
  0
LINE
  8
0
  6
CONTINUOUS
 62
     7
 10
-191.5883
 20
-185.6034
 11
-191.1641
 21
-186.0277
  0
LINE
  8
0
  6
CONTINUOUS
 62
     7
 10
-172.7095
 20
-172.3306
 11
-172.2852
 21
-171.9063
  0
LINE
  8
0
  6
CONTINUOUS
 62
     7
 10
-170.5882
 20
-174.4519
 11
-170.1639
 21
-174.0276
  0
LINE
  8
0
  6
CONTINUOUS
 62
     7
 10
-172.7095
 20
-174.0276
 11
-172.2853
 21
-173.6033
  0
LINE
  8
0
  6
CONTINUOUS
 62
     7
 10
-172.2853
 20
-174.4518
 11
-171.861
 21
-174.0276
  0
LINE
  8
0
  6
CONTINUOUS
 62
     7
 10
-168.4368
 20
-186.679
 11
-162.9368
 21
-186.679
  0
LINE
  8
0
  6
CONTINUOUS
 62
     7
 10
-168.4368
 20
-171.679
 11
-162.9368
 21
-171.679
  0
LINE
  8
0
  6
CONTINUOUS
 62
     7
 10
-166.9368
 20
-171.679
 11
-166.9368
 21
-186.679
  0
LINE
  8
0
  6
CONTINUOUS
 62
     7
 10
-162.9368
 20
-171.679
 11
-162.9368
 21
-186.679
  0
LINE
  8
0
  6
CONTINUOUS
 62
     7
 10
-162.9368
 20
-186.579
 11
-140.4368
 21
-186.579
  0
LINE
  8
0
  6
CONTINUOUS
 62
     7
 10
-162.9368
 20
-171.779
 11
-140.4368
 21
-171.779
  0
LINE
  8
0
  6
CONTINUOUS
 62
     7
 10
-139.9368
 20
-172.279
 11
-139.9368
 21
-186.079
  0
LINE
  8
0
  6
CONTINUOUS
 62
     7
 10
-138.7649
 20
-181.979
 11
-139.4368
 21
-181.979
  0
LINE
  8
0
  6
CONTINUOUS
 62
     7
 10
-138.7649
 20
-176.379
 11
-139.4368
 21
-176.379
  0
LINE
  8
0
  6
CONTINUOUS
 62
     7
 10
-139.4368
 20
-182.429
 11
-139.4368
 21
-175.929
  0
LINE
  8
0
  6
CONTINUOUS
 62
     7
 10
-139.4368
 20
-182.429
 11
-139.9368
 21
-182.429
  0
LINE
  8
0
  6
CONTINUOUS
 62
     7
 10
-139.4368
 20
-175.929
 11
-139.9368
 21
-175.929
  0
LINE
  8
0
  6
CENTER
 62
     2
 10
-147.3367
 20
-168.779
 11
-147.3367
 21
-189.579
  0
LINE
  8
0
  6
CONTINUOUS
 62
     7
 10
-162.4368
 20
-171.779
 11
-162.4368
 21
-186.579
  0
LINE
  8
0
  6
CONTINUOUS
 62
     7
 10
161.4372
 20
124.2773
 11
160.9372
 21
124.2773
  0
LINE
  8
0
  6
CONTINUOUS
 62
     7
 10
176.4372
 20
123.2773
 11
177.4372
 21
123.2773
  0
LINE
  8
0
  6
CONTINUOUS
 62
     7
 10
177.9372
 20
149.7773
 11
177.9372
 21
123.7773
  0
LINE
  8
0
  6
CONTINUOUS
 62
     7
 10
159.9372
 20
149.7773
 11
159.9372
 21
123.7773
  0
LINE
  8
0
  6
CONTINUOUS
 62
     7
 10
160.4372
 20
123.2773
 11
161.4372
 21
123.2773
  0
LINE
  8
0
  6
CONTINUOUS
 62
     7
 10
160.4372
 20
150.2773
 11
177.4372
 21
150.2773
  0
LINE
  8
0
  6
CONTINUOUS
 62
     7
 10
176.9372
 20
149.2773
 11
176.9372
 21
124.2773
  0
LINE
  8
0
  6
CONTINUOUS
 62
     7
 10
160.9372
 20
149.2773
 11
160.9372
 21
124.2773
  0
LINE
  8
0
  6
CONTINUOUS
 62
     7
 10
176.9372
 20
149.2773
 11
160.9372
 21
149.2773
  0
LINE
  8
0
  6
CONTINUOUS
 62
     7
 10
176.9372
 20
124.2773
 11
176.4372
 21
124.2773
  0
LINE
  8
0
  6
CONTINUOUS
 62
     7
 10
160.9373
 20
124.2772
 11
160.0837
 21
123.4236
  0
LINE
  8
0
  6
CONTINUOUS
 62
     7
 10
160.9371
 20
149.2774
 11
160.0836
 21
150.1309
  0
LINE
  8
0
  6
CONTINUOUS
 62
     7
 10
176.9371
 20
124.2774
 11
177.7907
 21
123.4238
  0
LINE
  8
0
  6
CONTINUOUS
 62
     7
 10
176.9371
 20
149.2774
 11
177.7907
 21
150.131
  0
LINE
  8
0
  6
CONTINUOUS
 62
     7
 10
176.4372
 20
124.7773
 11
161.4372
 21
124.7773
  0
LINE
  8
0
  6
CONTINUOUS
 62
     7
 10
167.4372
 20
127.7773
 11
167.4372
 21
124.7773
  0
LINE
  8
0
  6
CONTINUOUS
 62
     7
 10
170.4372
 20
145.7773
 11
170.4372
 21
148.7773
  0
LINE
  8
0
  6
CONTINUOUS
 62
     7
 10
173.4372
 20
142.7773
 11
176.4372
 21
142.7773
  0
LINE
  8
0
  6
CONTINUOUS
 62
     7
 10
164.4372
 20
130.7773
 11
161.4372
 21
130.7773
  0
LINE
  8
0
  6
CONTINUOUS
 62
     7
 10
170.4372
 20
147.7773
 11
162.4372
 21
147.7773
  0
LINE
  8
0
  6
CONTINUOUS
 62
     7
 10
175.4372
 20
125.7773
 11
167.4372
 21
125.7773
  0
LINE
  8
0
  6
CONTINUOUS
 62
     7
 10
175.4372
 20
142.7773
 11
175.4372
 21
125.7773
  0
LINE
  8
0
  6
CONTINUOUS
 62
     7
 10
162.4372
 20
147.7773
 11
162.4372
 21
130.7773
  0
LINE
  8
0
  6
CONTINUOUS
 62
     7
 10
162.2073
 20
127.4773
 11
161.9049
 21
127.4773
  0
LINE
  8
0
  6
CONTINUOUS
 62
     7
 10
162.2073
 20
128.0773
 11
161.9049
 21
128.0773
  0
LINE
  8
0
  6
CONTINUOUS
 62
     7
 10
161.9292
 20
128.2381
 11
162.2348
 21
128.2381
  0
LINE
  8
0
  6
CONTINUOUS
 62
     7
 10
175.6671
 20
146.0773
 11
175.9695
 21
146.0773
  0
LINE
  8
0
  6
CONTINUOUS
 62
     7
 10
175.6671
 20
145.4773
 11
175.9695
 21
145.4773
  0
LINE
  8
0
  6
CONTINUOUS
 62
     7
 10
175.9452
 20
145.3166
 11
175.6395
 21
145.3166
  0
LINE
  8
0
  6
CONTINUOUS
 62
     7
 10
163.7018
 20
128.8804
 11
164.0695
 21
128.5127
  0
LINE
  8
0
  6
CONTINUOUS
 62
     7
 10
163.3341
 20
128.5127
 11
163.7018
 21
128.145
  0
LINE
  8
0
  6
CONTINUOUS
 62
     7
 10
163.7017
 20
128.8805
 11
163.334
 21
128.5128
  0
LINE
  8
0
  6
CONTINUOUS
 62
     7
 10
165.5402
 20
127.042
 11
165.1725
 21
126.6743
  0
LINE
  8
0
  6
CONTINUOUS
 62
     7
 10
165.8336
 20
129.5416
 11
164.8048
 21
128.5128
  0
LINE
  8
0
  6
CONTINUOUS
 62
     7
 10
166.2013
 20
129.1739
 11
165.1725
 21
128.1451
  0
LINE
  8
0
  6
CONTINUOUS
 62
     7
 10
165.1726
 20
127.4096
 11
165.5403
 21
127.0419
  0
LINE
  8
0
  6
CONTINUOUS
 62
     7
 10
164.8049
 20
127.0419
 11
165.1726
 21
126.6742
  0
LINE
  8
0
  6
CONTINUOUS
 62
     7
 10
163.7017
 20
127.4097
 11
162.6729
 21
126.381
  0
LINE
  8
0
  6
CONTINUOUS
 62
     7
 10
164.0694
 20
127.042
 11
163.0406
 21
126.0132
  0
LINE
  8
0
  6
CONTINUOUS
 62
     7
 10
172.7018
 20
146.8804
 11
173.0695
 21
146.5127
  0
LINE
  8
0
  6
CONTINUOUS
 62
     7
 10
172.3341
 20
146.5127
 11
172.7018
 21
146.145
  0
LINE
  8
0
  6
CONTINUOUS
 62
     7
 10
172.7018
 20
146.8805
 11
172.3341
 21
146.5128
  0
LINE
  8
0
  6
CONTINUOUS
 62
     7
 10
174.5402
 20
145.042
 11
174.1725
 21
144.6743
  0
LINE
  8
0
  6
CONTINUOUS
 62
     7
 10
174.8336
 20
147.5416
 11
173.8048
 21
146.5128
  0
LINE
  8
0
  6
CONTINUOUS
 62
     7
 10
175.2013
 20
147.1739
 11
174.1725
 21
146.1451
  0
LINE
  8
0
  6
CONTINUOUS
 62
     7
 10
174.1726
 20
145.4096
 11
174.5402
 21
145.0419
  0
LINE
  8
0
  6
CONTINUOUS
 62
     7
 10
173.8049
 20
145.0419
 11
174.1726
 21
144.6743
  0
LINE
  8
0
  6
CONTINUOUS
 62
     7
 10
172.7018
 20
145.4097
 11
171.673
 21
144.3809
  0
LINE
  8
0
  6
CONTINUOUS
 62
     7
 10
173.0694
 20
145.042
 11
172.0406
 21
144.0132
  0
LINE
  8
0
  6
CENTER
 62
     2
 10
168.4372
 20
127.7773
 11
160.4372
 21
127.7773
  0
LINE
  8
0
  6
CENTER
 62
     2
 10
177.4372
 20
145.7773
 11
169.4372
 21
145.7773
  0
LINE
  8
0
  6
CENTER
 62
     2
 10
173.4372
 20
149.7773
 11
173.4372
 21
141.7773
  0
LINE
  8
0
  6
CENTER
 62
     2
 10
164.4372
 20
131.7773
 11
164.4372
 21
123.7773
  0
LINE
  8
0
  6
CONTINUOUS
 62
     7
 10
176.4372
 20
148.2773
 11
176.4372
 21
117.7773
  0
LINE
  8
0
  6
CONTINUOUS
 62
     7
 10
175.9372
 20
148.7773
 11
161.9372
 21
148.7773
  0
LINE
  8
0
  6
CONTINUOUS
 62
     7
 10
161.4372
 20
148.2773
 11
161.4372
 21
117.7773
  0
LINE
  8
0
  6
CONTINUOUS
 62
     7
 10
176.4372
 20
121.7773
 11
161.4372
 21
121.7773
  0
LINE
  8
0
  6
CONTINUOUS
 62
     7
 10
176.4372
 20
117.7773
 11
161.4372
 21
117.7773
  0
LINE
  8
0
  6
CENTER
 62
     2
 10
179.3372
 20
102.1773
 11
158.5372
 21
102.1773
  0
LINE
  8
0
  6
CONTINUOUS
 62
     7
 10
175.4372
 20
105.7143
 11
175.4372
 21
98.64038
  0
LINE
  8
0
  6
CONTINUOUS
 62
     7
 10
162.4372
 20
105.7143
 11
162.4372
 21
98.64038
  0
LINE
  8
0
  6
CONTINUOUS
 62
     7
 10
175.2502
 20
98.31671
 11
169.1241
 21
94.77975
  0
LINE
  8
0
  6
CONTINUOUS
 62
     7
 10
168.7502
 20
109.5751
 11
162.624
 21
106.0381
  0
LINE
  8
0
  6
CONTINUOUS
 62
     7
 10
168.7503
 20
94.77972
 11
162.6241
 21
98.31667
  0
LINE
  8
0
  6
CONTINUOUS
 62
     7
 10
175.2503
 20
106.0381
 11
169.1241
 21
109.575
  0
LINE
  8
0
  6
CONTINUOUS
 62
     7
 10
175.8372
 20
94.77734
 11
162.0372
 21
94.77734
  0
LINE
  8
0
  6
CONTINUOUS
 62
     7
 10
166.1372
 20
93.6055
 11
166.1372
 21
94.27731
  0
LINE
  8
0
  6
CONTINUOUS
 62
     7
 10
171.7372
 20
93.6055
 11
171.7372
 21
94.27734
  0
LINE
  8
0
  6
CONTINUOUS
 62
     7
 10
172.1872
 20
94.27734
 11
172.1872
 21
94.77734
  0
LINE
  8
0
  6
CONTINUOUS
 62
     7
 10
165.6872
 20
94.27734
 11
172.1872
 21
94.27734
  0
LINE
  8
0
  6
CONTINUOUS
 62
     7
 10
165.6872
 20
94.27731
 11
165.6872
 21
94.77731
  0
LINE
  8
0
  6
CONTINUOUS
 62
     7
 10
161.5372
 20
117.7773
 11
161.5372
 21
95.27734
  0
LINE
  8
0
  6
CONTINUOUS
 62
     7
 10
176.3372
 20
117.7773
 11
176.3372
 21
95.27734
  0
LINE
  8
0
  6
CONTINUOUS
 62
     7
 10
176.3372
 20
117.2773
 11
161.5372
 21
117.2773
  0
LINE
  8
0
  6
CENTER
 62
     2
 10
168.9372
 20
152.6736
 11
168.9372
 21
89.82602
  0
LINE
  8
0
  6
CENTER
 62
     2
 10
157.1872
 20
136.7773
 11
181.1646
 21
136.7773
  0
LINE
  8
0
  6
CENTER
 62
     2
 10
168.9368
 20
72.16669
 11
168.9368
 21
-35.80431
  0
LINE
  8
0
  6
CONTINUOUS
 62
     7
 10
177.9368
 20
24.80002
 11
177.9368
 21
-32.29999
  0
LINE
  8
0
  6
CONTINUOUS
 62
     7
 10
159.9368
 20
24.80002
 11
159.9368
 21
-32.29999
  0
LINE
  8
0
  6
CONTINUOUS
 62
     7
 10
159.9368
 20
7.60002
 11
177.9368
 21
7.60002
  0
LINE
  8
0
  6
CONTINUOUS
 62
     7
 10
160.9368
 20
25.80003
 11
159.9368
 21
24.80003
  0
LINE
  8
0
  6
CONTINUOUS
 62
     7
 10
176.9367
 20
25.80001
 11
177.9368
 21
24.79997
  0
LINE
  8
0
  6
CENTER
 62
     2
 10
175.4368
 20
6.19131
 11
175.4368
 21
-2.81665
  0
LINE
  8
0
  6
CENTER
 62
     2
 10
171.0902
 20
1.60002
 11
178.5212
 21
1.60002
  0
LINE
  8
0
  6
CENTER
 62
     2
 10
166.0151
 20
22.30002
 11
171.8465
 21
22.30002
  0
LINE
  8
0
  6
CONTINUOUS
 62
     7
 10
160.9368
 20
25.80002
 11
176.9368
 21
25.80002
  0
LINE
  8
0
  6
CONTINUOUS
 62
     7
 10
159.9368
 20
24.80002
 11
177.9368
 21
24.80002
  0
LINE
  8
0
  6
CONTINUOUS
 62
     7
 10
159.9368
 20
-24.39998
 11
177.9368
 21
-24.39998
  0
LINE
  8
0
  6
CONTINUOUS
 62
     7
 10
160.4368
 20
-32.79999
 11
177.4368
 21
-32.79999
  0
LINE
  8
0
  6
CENTER
 62
     2
 10
159.2323
 20
-18.39998
 11
167.0788
 21
-18.39998
  0
LINE
  8
0
  6
CENTER
 62
     2
 10
162.4368
 20
-13.95908
 11
162.4368
 21
-22.55298
  0
LINE
  8
0
  6
CONTINUOUS
 62
     7
 10
161.4368
 20
52.00003
 11
161.4368
 21
25.80002
  0
LINE
  8
0
  6
CONTINUOUS
 62
     7
 10
161.4368
 20
51.00003
 11
161.5368
 21
51.00003
  0
LINE
  8
0
  6
CONTINUOUS
 62
     7
 10
176.4368
 20
52.00003
 11
176.4368
 21
25.80002
  0
LINE
  8
0
  6
CONTINUOUS
 62
     7
 10
161.4368
 20
52.0
 11
161.5368
 21
52.0
  0
LINE
  8
0
  6
CONTINUOUS
 62
     7
 10
176.4368
 20
52.00003
 11
176.3368
 21
52.20003
  0
LINE
  8
0
  6
CONTINUOUS
 62
     7
 10
161.4368
 20
52.0
 11
161.5367
 21
52.19999
  0
LINE
  8
0
  6
CONTINUOUS
 62
     7
 10
162.0368
 20
50.20001
 11
175.8368
 21
50.20001
  0
LINE
  8
0
  6
CONTINUOUS
 62
     7
 10
162.0368
 20
35.40002
 11
175.8368
 21
35.40002
  0
LINE
  8
0
  6
CENTER
 62
     2
 10
158.4368
 20
42.80002
 11
179.4368
 21
42.80002
  0
LINE
  8
0
  6
CONTINUOUS
 62
     7
 10
167.6639
 20
41.9516
 11
168.0882
 21
42.37586
  0
LINE
  8
0
  6
CONTINUOUS
 62
     7
 10
168.0882
 20
41.52727
 11
168.5125
 21
41.95153
  0
LINE
  8
0
  6
CONTINUOUS
 62
     7
 10
167.664
 20
41.95146
 11
168.0883
 21
41.52721
  0
LINE
  8
0
  6
CONTINUOUS
 62
     7
 10
169.7853
 20
44.07278
 11
170.2096
 21
43.64853
  0
LINE
  8
0
  6
CONTINUOUS
 62
     7
 10
166.7562
 20
44.55636
 11
168.0883
 21
43.22423
  0
LINE
  8
0
  6
CONTINUOUS
 62
     7
 10
167.1805
 20
44.98066
 11
168.5125
 21
43.64857
  0
LINE
  8
0
  6
CONTINUOUS
 62
     7
 10
169.361
 20
43.64865
 11
169.7852
 21
44.07292
  0
LINE
  8
0
  6
CONTINUOUS
 62
     7
 10
169.7853
 20
43.22433
 11
170.2096
 21
43.64859
  0
LINE
  8
0
  6
CONTINUOUS
 62
     7
 10
169.3611
 20
41.95145
 11
170.6932
 21
40.61937
  0
LINE
  8
0
  6
CONTINUOUS
 62
     7
 10
169.7854
 20
42.37575
 11
171.1175
 21
41.04367
  0
LINE
  8
0
  6
CONTINUOUS
 62
     7
 10
161.5368
 20
62.50003
 11
176.3368
 21
62.50003
  0
LINE
  8
0
  6
CONTINUOUS
 62
     7
 10
163.1368
 20
69.90002
 11
174.7368
 21
69.90002
  0
LINE
  8
0
  6
CONTINUOUS
 62
     7
 10
161.5368
 20
63.50003
 11
176.3368
 21
63.50003
  0
LINE
  8
0
  6
CONTINUOUS
 62
     7
 10
176.3368
 20
63.50003
 11
176.3368
 21
62.50003
  0
LINE
  8
0
  6
CONTINUOUS
 62
     7
 10
161.5368
 20
63.50003
 11
161.5368
 21
62.50003
  0
LINE
  8
0
  6
CONTINUOUS
 62
     7
 10
162.4368
 20
69.49588
 11
162.4368
 21
63.50003
  0
LINE
  8
0
  6
CONTINUOUS
 62
     7
 10
175.4368
 20
69.49588
 11
175.4368
 21
63.50003
  0
LINE
  8
0
  6
CONTINUOUS
 62
     7
 10
174.7368
 20
69.90005
 11
175.4368
 21
69.49591
  0
LINE
  8
0
  6
CONTINUOUS
 62
     7
 10
163.1367
 20
69.90012
 11
162.4368
 21
69.49598
  0
LINE
  8
0
  6
CONTINUOUS
 62
     7
 10
168.7499
 20
68.97626
 11
169.1237
 21
68.97626
  0
LINE
  8
0
  6
CONTINUOUS
 62
     7
 10
176.3368
 20
52.0
 11
176.4368
 21
52.0
  0
LINE
  8
0
  6
CONTINUOUS
 62
     7
 10
176.3368
 20
51.00003
 11
176.4368
 21
51.00003
  0
LINE
  8
0
  6
CONTINUOUS
 62
     7
 10
169.1237
 20
68.97626
 11
169.1237
 21
63.50003
  0
LINE
  8
0
  6
CONTINUOUS
 62
     7
 10
168.7499
 20
68.97626
 11
168.7499
 21
63.50003
  0
LINE
  8
0
  6
CONTINUOUS
 62
     7
 10
161.5368
 20
60.50003
 11
176.3368
 21
60.50003
  0
LINE
  8
0
  6
CONTINUOUS
 62
     7
 10
161.5368
 20
60.50003
 11
161.5368
 21
35.90002
  0
LINE
  8
0
  6
CONTINUOUS
 62
     7
 10
176.3368
 20
60.50003
 11
176.3368
 21
35.90002
  0
LINE
  8
0
  6
CONTINUOUS
 62
     7
 10
174.9368
 20
62.50003
 11
174.9368
 21
60.50003
  0
LINE
  8
0
  6
CONTINUOUS
 62
     7
 10
162.9368
 20
62.50003
 11
162.9368
 21
60.50003
  0
LINE
  8
0
  6
CONTINUOUS
 62
     7
 10
174.2603
 20
62.50003
 11
174.2603
 21
60.50003
  0
LINE
  8
0
  6
CONTINUOUS
 62
     7
 10
163.6133
 20
62.50003
 11
163.6133
 21
60.50003
  0
LINE
  8
0
  6
CENTER
 62
     2
 10
162.9368
 20
-28.52469
 11
162.9368
 21
-33.9722
  0
LINE
  8
0
  6
CONTINUOUS
 62
     7
 10
165.6368
 20
-29.39998
 11
160.4368
 21
-29.39998
  0
LINE
  8
0
  6
CONTINUOUS
 62
     7
 10
166.1368
 20
-29.89998
 11
166.1368
 21
-32.29999
  0
LINE
  8
0
  6
CONTINUOUS
 62
     7
 10
160.1368
 20
-30.57181
 11
160.1368
 21
-29.39998
  0
LINE
  8
0
  6
CONTINUOUS
 62
     7
 10
165.7368
 20
-30.57181
 11
165.7368
 21
-29.39999
  0
LINE
  8
0
  6
CENTER
 62
     2
 10
285.5612
 20
57.35019
 11
285.5612
 21
-35.45512
  0
LINE
  8
0
  6
CONTINUOUS
 62
     7
 10
272.0612
 20
24.80019
 11
272.0612
 21
-32.2998
  0
LINE
  8
0
  6
CONTINUOUS
 62
     7
 10
299.0612
 20
24.80019
 11
299.0612
 21
-32.2998
  0
LINE
  8
0
  6
CONTINUOUS
 62
     7
 10
298.0611
 20
25.80011
 11
299.0611
 21
24.80011
  0
LINE
  8
0
  6
CONTINUOUS
 62
     7
 10
273.0611
 20
25.80019
 11
272.0611
 21
24.80019
  0
LINE
  8
0
  6
CONTINUOUS
 62
     7
 10
298.0612
 20
25.80019
 11
266.5612
 21
25.80019
  0
LINE
  8
0
  6
CONTINUOUS
 62
     7
 10
299.0612
 20
24.80019
 11
272.0612
 21
24.80019
  0
LINE
  8
0
  6
CONTINUOUS
 62
     7
 10
298.5612
 20
-32.7998
 11
272.5612
 21
-32.7998
  0
LINE
  8
0
  6
CONTINUOUS
 62
     7
 10
275.0612
 20
3.2585
 11
272.0612
 21
3.2585
  0
LINE
  8
0
  6
CONTINUOUS
 62
     7
 10
275.0612
 20
-0.05812
 11
272.0612
 21
-0.05812
  0
LINE
  8
0
  6
CONTINUOUS
 62
     7
 10
275.0612
 20
3.2585
 11
275.0612
 21
-0.05812
  0
LINE
  8
0
  6
CENTER
 62
     2
 10
270.8898
 20
1.60019
 11
276.5432
 21
1.60019
  0
LINE
  8
0
  6
CONTINUOUS
 62
     7
 10
299.0612
 20
7.60019
 11
272.0612
 21
7.60019
  0
LINE
  8
0
  6
CONTINUOUS
 62
     7
 10
299.0612
 20
-24.39981
 11
272.0612
 21
-24.39981
  0
LINE
  8
0
  6
CONTINUOUS
 62
     7
 10
297.5612
 20
51.00018
 11
270.5612
 21
51.00018
  0
LINE
  8
0
  6
CONTINUOUS
 62
     7
 10
297.5612
 20
52.00018
 11
297.5612
 21
25.80019
  0
LINE
  8
0
  6
CONTINUOUS
 62
     7
 10
273.5612
 20
52.00018
 11
273.5612
 21
51.00018
  0
LINE
  8
0
  6
CONTINUOUS
 62
     7
 10
274.5612
 20
54.00018
 11
292.7354
 21
54.00018
  0
LINE
  8
0
  6
CONTINUOUS
 62
     7
 10
297.5612
 20
52.00018
 11
273.5612
 21
52.00018
  0
LINE
  8
0
  6
CONTINUOUS
 62
     7
 10
273.5612
 20
52.00014
 11
274.5612
 21
54.00016
  0
LINE
  8
0
  6
CONTINUOUS
 62
     7
 10
297.5612
 20
52.00018
 11
296.5612
 21
54.0002
  0
LINE
  8
0
  6
CONTINUOUS
 62
     7
 10
291.5612
 20
54.00018
 11
291.5612
 21
52.00018
  0
LINE
  8
0
  6
CENTER
 62
     2
 10
294.5612
 20
57.00018
 11
294.5612
 21
48.00018
  0
LINE
  8
0
  6
CONTINUOUS
 62
     7
 10
297.1111
 20
52.60019
 11
292.0112
 21
52.60019
  0
LINE
  8
0
  6
CONTINUOUS
 62
     7
 10
294.2613
 20
52.00023
 11
294.1006
 21
52.60022
  0
LINE
  8
0
  6
CONTINUOUS
 62
     7
 10
294.8612
 20
52.60021
 11
295.022
 21
52.00019
  0
LINE
  8
0
  6
CONTINUOUS
 62
     7
 10
297.1111
 20
52.60019
 11
297.1111
 21
52.00018
  0
LINE
  8
0
  6
CONTINUOUS
 62
     7
 10
292.0112
 20
52.60019
 11
292.0112
 21
52.00018
  0
LINE
  8
0
  6
CONTINUOUS
 62
     7
 10
296.8112
 20
53.29395
 11
296.8112
 21
52.60019
  0
LINE
  8
0
  6
CONTINUOUS
 62
     7
 10
292.3112
 20
53.29395
 11
292.3112
 21
52.60019
  0
LINE
  8
0
  6
CONTINUOUS
 62
     7
 10
296.3869
 20
54.00018
 11
296.5612
 21
54.00018
  0
LINE
  8
0
  6
CENTER
 62
     2
 10
276.5612
 20
57.00018
 11
276.5612
 21
48.00018
  0
LINE
  8
0
  6
CONTINUOUS
 62
     7
 10
270.5612
 20
51.00018
 11
270.5612
 21
25.80019
  0
LINE
  8
0
  6
CONTINUOUS
 62
     7
 10
270.5612
 20
50.8002
 11
266.5612
 21
50.8002
  0
LINE
  8
0
  6
CENTER
 62
     2
 10
273.5612
 20
42.8002
 11
238.1611
 21
42.8002
  0
LINE
  8
0
  6
CONTINUOUS
 62
     7
 10
243.5611
 20
68.97641
 11
243.5611
 21
62.50018
  0
LINE
  8
0
  6
CONTINUOUS
 62
     7
 10
258.3611
 20
68.97644
 11
258.3611
 21
62.50018
  0
LINE
  8
0
  6
CONTINUOUS
 62
     7
 10
256.7612
 20
69.90021
 11
245.1611
 21
69.90021
  0
LINE
  8
0
  6
CONTINUOUS
 62
     7
 10
242.3893
 20
40.00018
 11
243.0611
 21
40.00018
  0
LINE
  8
0
  6
CONTINUOUS
 62
     7
 10
242.3893
 20
45.60019
 11
243.0611
 21
45.60019
  0
LINE
  8
0
  6
CONTINUOUS
 62
     7
 10
243.0611
 20
39.5502
 11
243.0611
 21
46.0502
  0
LINE
  8
0
  6
CONTINUOUS
 62
     7
 10
243.0612
 20
39.55029
 11
243.5612
 21
39.55029
  0
LINE
  8
0
  6
CONTINUOUS
 62
     7
 10
243.0611
 20
46.0502
 11
243.5611
 21
46.0502
  0
LINE
  8
0
  6
CONTINUOUS
 62
     7
 10
258.3611
 20
62.50018
 11
243.5611
 21
62.50018
  0
LINE
  8
0
  6
CONTINUOUS
 62
     7
 10
258.3611
 20
63.50018
 11
243.5611
 21
63.50018
  0
LINE
  8
0
  6
CENTER
 62
     2
 10
250.9612
 20
72.90021
 11
250.9612
 21
32.40018
  0
LINE
  8
0
  6
CONTINUOUS
 62
     7
 10
255.9612
 20
47.8002
 11
245.9612
 21
47.8002
  0
LINE
  8
0
  6
CONTINUOUS
 62
     7
 10
255.9612
 20
37.8002
 11
245.9612
 21
37.8002
  0
LINE
  8
0
  6
CONTINUOUS
 62
     7
 10
255.9612
 20
47.8002
 11
255.9612
 21
37.8002
  0
LINE
  8
0
  6
CONTINUOUS
 62
     7
 10
245.9612
 20
47.8002
 11
245.9612
 21
37.8002
  0
LINE
  8
0
  6
CONTINUOUS
 62
     7
 10
254.9612
 20
47.8002
 11
254.9612
 21
37.8002
  0
LINE
  8
0
  6
CONTINUOUS
 62
     7
 10
253.9612
 20
47.8002
 11
253.9612
 21
37.8002
  0
LINE
  8
0
  6
CONTINUOUS
 62
     7
 10
252.9612
 20
47.8002
 11
252.9612
 21
37.8002
  0
LINE
  8
0
  6
CONTINUOUS
 62
     7
 10
251.9612
 20
47.8002
 11
251.9612
 21
37.8002
  0
LINE
  8
0
  6
CONTINUOUS
 62
     7
 10
250.9612
 20
47.8002
 11
250.9612
 21
37.8002
  0
LINE
  8
0
  6
CONTINUOUS
 62
     7
 10
249.9612
 20
47.8002
 11
249.9612
 21
37.8002
  0
LINE
  8
0
  6
CONTINUOUS
 62
     7
 10
248.9612
 20
47.8002
 11
248.9612
 21
37.8002
  0
LINE
  8
0
  6
CONTINUOUS
 62
     7
 10
247.9612
 20
47.8002
 11
247.9612
 21
37.8002
  0
LINE
  8
0
  6
CONTINUOUS
 62
     7
 10
246.9612
 20
47.8002
 11
246.9612
 21
37.8002
  0
LINE
  8
0
  6
CONTINUOUS
 62
     7
 10
245.1612
 20
69.40018
 11
243.5612
 21
68.97642
  0
LINE
  8
0
  6
CONTINUOUS
 62
     7
 10
256.7612
 20
69.90018
 11
258.3612
 21
68.97642
  0
LINE
  8
0
  6
CONTINUOUS
 62
     7
 10
254.8218
 20
68.97644
 11
254.8218
 21
63.50018
  0
LINE
  8
0
  6
CONTINUOUS
 62
     7
 10
254.4981
 20
68.97644
 11
254.4981
 21
63.50018
  0
LINE
  8
0
  6
CONTINUOUS
 62
     7
 10
247.4242
 20
68.97644
 11
247.4242
 21
63.50018
  0
LINE
  8
0
  6
CONTINUOUS
 62
     7
 10
247.1004
 20
68.97644
 11
247.1004
 21
63.50018
  0
LINE
  8
0
  6
CONTINUOUS
 62
     7
 10
254.8218
 20
68.97644
 11
254.4981
 21
68.97644
  0
LINE
  8
0
  6
CONTINUOUS
 62
     7
 10
247.4242
 20
68.97644
 11
247.1004
 21
68.97644
  0
LINE
  8
0
  6
CONTINUOUS
 62
     7
 10
266.5612
 20
50.2002
 11
244.0611
 21
50.2002
  0
LINE
  8
0
  6
CONTINUOUS
 62
     7
 10
266.5612
 20
35.40021
 11
244.0611
 21
35.40021
  0
LINE
  8
0
  6
CONTINUOUS
 62
     7
 10
266.5612
 20
50.8002
 11
266.5612
 21
25.80019
  0
LINE
  8
0
  6
CONTINUOUS
 62
     7
 10
258.3611
 20
60.50018
 11
243.5611
 21
60.50018
  0
LINE
  8
0
  6
CONTINUOUS
 62
     7
 10
243.5611
 20
60.50018
 11
243.5611
 21
35.90021
  0
LINE
  8
0
  6
CONTINUOUS
 62
     7
 10
258.3611
 20
60.50018
 11
258.3611
 21
50.2002
  0
LINE
  8
0
  6
CONTINUOUS
 62
     7
 10
256.9612
 20
62.50018
 11
256.9612
 21
60.50018
  0
LINE
  8
0
  6
CONTINUOUS
 62
     7
 10
244.9612
 20
62.50018
 11
244.9612
 21
60.50018
  0
LINE
  8
0
  6
CONTINUOUS
 62
     7
 10
245.6376
 20
62.50018
 11
245.6376
 21
60.50018
  0
LINE
  8
0
  6
CONTINUOUS
 62
     7
 10
256.2847
 20
62.50018
 11
256.2847
 21
60.50018
  0
LINE
  8
0
  6
CONTINUOUS
 62
     7
 10
266.0612
 20
35.40018
 11
266.0612
 21
50.2002
  0
LINE
  8
0
  6
CENTER
 62
     2
 10
296.0612
 20
-28.52452
 11
296.0612
 21
-33.97203
  0
LINE
  8
0
  6
CONTINUOUS
 62
     7
 10
293.3611
 20
-29.39981
 11
298.5612
 21
-29.39981
  0
LINE
  8
0
  6
CONTINUOUS
 62
     7
 10
292.8611
 20
-29.89981
 11
292.8611
 21
-32.2998
  0
LINE
  8
0
  6
CONTINUOUS
 62
     7
 10
293.2612
 20
-30.57164
 11
293.2612
 21
-29.39981
  0
LINE
  8
0
  6
CONTINUOUS
 62
     7
 10
298.8611
 20
-30.57164
 11
298.8611
 21
-29.39981
  0
LINE
  8
0
  6
CENTER
 62
     2
 10
173.9369
 20
-166.2065
 11
173.9369
 21
-159.349
  0
LINE
  8
0
  6
CENTER
 62
     2
 10
163.9369
 20
-184.8278
 11
163.9369
 21
-178.3048
  0
LINE
  8
0
  6
CENTER
 62
     2
 10
170.5396
 20
-162.6791
 11
177.1183
 21
-162.6791
  0
LINE
  8
0
  6
CENTER
 62
     2
 10
160.6157
 20
-181.6791
 11
167.3617
 21
-181.6791
  0
LINE
  8
0
  6
CONTINUOUS
 62
     7
 10
163.7855
 20
-161.2549
 11
164.2097
 21
-160.8306
  0
LINE
  8
0
  6
CONTINUOUS
 62
     7
 10
162.5126
 20
-160.8306
 11
162.0884
 21
-160.4064
  0
LINE
  8
0
  6
CONTINUOUS
 62
     7
 10
162.0884
 20
-161.2549
 11
161.6642
 21
-160.8306
  0
LINE
  8
0
  6
CONTINUOUS
 62
     7
 10
161.6641
 20
-162.5276
 11
162.0884
 21
-162.1034
  0
LINE
  8
0
  6
CONTINUOUS
 62
     7
 10
162.0884
 20
-162.9519
 11
162.5127
 21
-162.5277
  0
LINE
  8
0
  6
CONTINUOUS
 62
     7
 10
161.6641
 20
-160.8306
 11
162.0884
 21
-160.4063
  0
LINE
  8
0
  6
CONTINUOUS
 62
     7
 10
163.7855
 20
-162.9519
 11
164.2097
 21
-162.5276
  0
LINE
  8
0
  6
CONTINUOUS
 62
     7
 10
163.3612
 20
-160.8306
 11
163.7855
 21
-160.4063
  0
LINE
  8
0
  6
CENTER
 62
     2
 10
157.1869
 20
-172.1791
 11
181.1644
 21
-172.1791
  0
LINE
  8
0
  6
CENTER
 62
     2
 10
168.9369
 20
-188.0753
 11
168.9369
 21
-124.8689
  0
LINE
  8
0
  6
CONTINUOUS
 62
     7
 10
177.9369
 20
-185.1791
 11
177.9369
 21
-159.1791
  0
LINE
  8
0
  6
CONTINUOUS
 62
     7
 10
159.9369
 20
-185.1791
 11
159.9369
 21
-159.1791
  0
LINE
  8
0
  6
CONTINUOUS
 62
     7
 10
160.4369
 20
-158.6791
 11
177.4369
 21
-158.6791
  0
LINE
  8
0
  6
CONTINUOUS
 62
     7
 10
160.4369
 20
-185.6791
 11
177.4369
 21
-185.6791
  0
LINE
  8
0
  6
CENTER
 62
     2
 10
162.9369
 20
-165.8169
 11
162.9369
 21
-157.5092
  0
LINE
  8
0
  6
CENTER
 62
     2
 10
174.9369
 20
-186.8581
 11
174.9369
 21
-178.5112
  0
LINE
  8
0
  6
CENTER
 62
     2
 10
170.9046
 20
-182.6791
 11
178.8467
 21
-182.6791
  0
LINE
  8
0
  6
CENTER
 62
     2
 10
159.0798
 20
-161.6791
 11
166.8042
 21
-161.6791
  0
LINE
  8
0
  6
CONTINUOUS
 62
     7
 10
174.9369
 20
-179.4791
 11
177.4369
 21
-179.4791
  0
LINE
  8
0
  6
CONTINUOUS
 62
     7
 10
171.7369
 20
-185.1791
 11
171.7369
 21
-182.6791
  0
LINE
  8
0
  6
CONTINUOUS
 62
     7
 10
166.1369
 20
-161.6791
 11
166.1369
 21
-159.1791
  0
LINE
  8
0
  6
CONTINUOUS
 62
     7
 10
160.4369
 20
-164.8791
 11
162.9369
 21
-164.8791
  0
LINE
  8
0
  6
CONTINUOUS
 62
     7
 10
174.0883
 20
-183.9519
 11
173.6641
 21
-183.5277
  0
LINE
  8
0
  6
CONTINUOUS
 62
     7
 10
176.2097
 20
-181.8307
 11
175.7854
 21
-181.4064
  0
LINE
  8
0
  6
CONTINUOUS
 62
     7
 10
175.7854
 20
-183.9519
 11
175.3611
 21
-183.5277
  0
LINE
  8
0
  6
CONTINUOUS
 62
     7
 10
176.2097
 20
-183.5276
 11
175.7854
 21
-183.1033
  0
LINE
  8
0
  6
CONTINUOUS
 62
     7
 10
175.7854
 20
-183.9519
 11
176.2097
 21
-183.5277
  0
LINE
  8
0
  6
CONTINUOUS
 62
     7
 10
173.6642
 20
-181.8306
 11
174.0884
 21
-181.4063
  0
LINE
  8
0
  6
CONTINUOUS
 62
     7
 10
174.0884
 20
-183.9519
 11
174.5126
 21
-183.5276
  0
LINE
  8
0
  6
CONTINUOUS
 62
     7
 10
173.6642
 20
-183.5277
 11
174.0884
 21
-183.1034
  0
LINE
  8
0
  6
CONTINUOUS
 62
     7
 10
174.0884
 20
-182.2549
 11
173.6641
 21
-181.8306
  0
LINE
  8
0
  6
CONTINUOUS
 62
     7
 10
174.5126
 20
-181.8306
 11
174.0884
 21
-181.4063
  0
LINE
  8
0
  6
CONTINUOUS
 62
     7
 10
175.7854
 20
-182.2548
 11
176.2097
 21
-181.8306
  0
LINE
  8
0
  6
CONTINUOUS
 62
     7
 10
175.3613
 20
-181.8306
 11
175.7855
 21
-181.4063
  0
LINE
  8
0
  6
CONTINUOUS
 62
     7
 10
162.0884
 20
-162.952
 11
161.6641
 21
-162.5277
  0
LINE
  8
0
  6
CONTINUOUS
 62
     7
 10
164.2097
 20
-160.8306
 11
163.7854
 21
-160.4063
  0
LINE
  8
0
  6
CONTINUOUS
 62
     7
 10
163.7855
 20
-162.9519
 11
163.3612
 21
-162.5276
  0
LINE
  8
0
  6
CONTINUOUS
 62
     7
 10
164.2097
 20
-162.5277
 11
163.7854
 21
-162.1034
  0
LINE
  8
0
  6
CONTINUOUS
 62
     7
 10
176.4369
 20
-158.6791
 11
176.4369
 21
-153.1791
  0
LINE
  8
0
  6
CONTINUOUS
 62
     7
 10
161.4369
 20
-158.6791
 11
161.4369
 21
-153.1791
  0
LINE
  8
0
  6
CONTINUOUS
 62
     7
 10
161.4369
 20
-157.1791
 11
176.4369
 21
-157.1791
  0
LINE
  8
0
  6
CONTINUOUS
 62
     7
 10
161.4369
 20
-153.1791
 11
176.4369
 21
-153.1791
  0
LINE
  8
0
  6
CONTINUOUS
 62
     7
 10
176.3369
 20
-153.1791
 11
176.3369
 21
-130.6791
  0
LINE
  8
0
  6
CONTINUOUS
 62
     7
 10
161.5369
 20
-153.1791
 11
161.5369
 21
-130.6791
  0
LINE
  8
0
  6
CONTINUOUS
 62
     7
 10
162.0369
 20
-130.1791
 11
175.8369
 21
-130.1791
  0
LINE
  8
0
  6
CONTINUOUS
 62
     7
 10
171.7369
 20
-129.0073
 11
171.7369
 21
-129.6791
  0
LINE
  8
0
  6
CONTINUOUS
 62
     7
 10
166.1369
 20
-129.0073
 11
166.1369
 21
-129.6791
  0
LINE
  8
0
  6
CONTINUOUS
 62
     7
 10
172.1869
 20
-129.6791
 11
165.6869
 21
-129.6791
  0
LINE
  8
0
  6
CONTINUOUS
 62
     7
 10
172.1869
 20
-129.6791
 11
172.1869
 21
-130.1791
  0
LINE
  8
0
  6
CONTINUOUS
 62
     7
 10
165.6869
 20
-129.6791
 11
165.6869
 21
-130.1791
  0
LINE
  8
0
  6
CENTER
 62
     2
 10
158.5369
 20
-137.5791
 11
179.3369
 21
-137.5791
  0
LINE
  8
0
  6
CONTINUOUS
 62
     7
 10
161.5369
 20
-152.6791
 11
176.3369
 21
-152.6791
  0
LINE
  8
0
  6
CENTER
 62
     2
 10
55.31206
 20
57.35025
 11
55.31206
 21
-35.45506
  0
LINE
  8
0
  6
CONTINUOUS
 62
     7
 10
68.81206
 20
24.80025
 11
68.81206
 21
-32.29974
  0
LINE
  8
0
  6
CONTINUOUS
 62
     7
 10
42.81237
 20
25.79988
 11
41.8124
 21
24.7999
  0
LINE
  8
0
  6
CONTINUOUS
 62
     7
 10
67.81209
 20
25.80025
 11
68.81207
 21
24.80027
  0
LINE
  8
0
  6
CONTINUOUS
 62
     7
 10
42.81206
 20
25.80025
 11
74.31206
 21
25.80025
  0
LINE
  8
0
  6
CONTINUOUS
 62
     7
 10
41.81206
 20
24.80025
 11
68.81206
 21
24.80025
  0
LINE
  8
0
  6
CONTINUOUS
 62
     7
 10
42.31206
 20
-32.79974
 11
68.31206
 21
-32.79974
  0
LINE
  8
0
  6
CONTINUOUS
 62
     7
 10
65.81206
 20
-16.74144
 11
68.81206
 21
-16.74144
  0
LINE
  8
0
  6
CONTINUOUS
 62
     7
 10
65.81206
 20
-20.05806
 11
68.81206
 21
-20.05806
  0
LINE
  8
0
  6
CONTINUOUS
 62
     7
 10
65.81206
 20
-16.74144
 11
65.81206
 21
-20.05806
  0
LINE
  8
0
  6
CENTER
 62
     2
 10
64.17534
 20
-18.39975
 11
70.3275
 21
-18.39975
  0
LINE
  8
0
  6
CONTINUOUS
 62
     7
 10
41.81206
 20
24.80025
 11
41.81206
 21
-32.29974
  0
LINE
  8
0
  6
CONTINUOUS
 62
     7
 10
41.81206
 20
-24.39975
 11
68.81206
 21
-24.39975
  0
LINE
  8
0
  6
CONTINUOUS
 62
     7
 10
41.81206
 20
7.60025
 11
68.81206
 21
7.60025
  0
LINE
  8
0
  6
CONTINUOUS
 62
     7
 10
43.31206
 20
51.00024
 11
70.31206
 21
51.00024
  0
LINE
  8
0
  6
CONTINUOUS
 62
     7
 10
43.31206
 20
52.00024
 11
43.31206
 21
25.80025
  0
LINE
  8
0
  6
CONTINUOUS
 62
     7
 10
67.31206
 20
52.00021
 11
67.31206
 21
51.00024
  0
LINE
  8
0
  6
CONTINUOUS
 62
     7
 10
44.31206
 20
54.00024
 11
62.48631
 21
54.00024
  0
LINE
  8
0
  6
CONTINUOUS
 62
     7
 10
43.31206
 20
52.00024
 11
67.31206
 21
52.00024
  0
LINE
  8
0
  6
CONTINUOUS
 62
     7
 10
43.31206
 20
52.00023
 11
44.31206
 21
54.00023
  0
LINE
  8
0
  6
CONTINUOUS
 62
     7
 10
67.31208
 20
52.00032
 11
66.31207
 21
54.00034
  0
LINE
  8
0
  6
CONTINUOUS
 62
     7
 10
61.31206
 20
54.00024
 11
61.31206
 21
52.00024
  0
LINE
  8
0
  6
CENTER
 62
     2
 10
64.31206
 20
57.00024
 11
64.31206
 21
48.00024
  0
LINE
  8
0
  6
CONTINUOUS
 62
     7
 10
66.86205
 20
52.60025
 11
61.76207
 21
52.60025
  0
LINE
  8
0
  6
CONTINUOUS
 62
     7
 10
64.01207
 20
52.00026
 11
63.85131
 21
52.60025
  0
LINE
  8
0
  6
CONTINUOUS
 62
     7
 10
64.61182
 20
52.60023
 11
64.77258
 21
52.00025
  0
LINE
  8
0
  6
CONTINUOUS
 62
     7
 10
66.86205
 20
52.60025
 11
66.86205
 21
52.00024
  0
LINE
  8
0
  6
CONTINUOUS
 62
     7
 10
61.76207
 20
52.60025
 11
61.76207
 21
52.00024
  0
LINE
  8
0
  6
CONTINUOUS
 62
     7
 10
66.56206
 20
53.29401
 11
66.56206
 21
52.60025
  0
LINE
  8
0
  6
CONTINUOUS
 62
     7
 10
62.06206
 20
53.29401
 11
62.06206
 21
52.60025
  0
LINE
  8
0
  6
CONTINUOUS
 62
     7
 10
66.1378
 20
54.00024
 11
66.31206
 21
54.00024
  0
LINE
  8
0
  6
CENTER
 62
     2
 10
46.31206
 20
57.00024
 11
46.31206
 21
48.00024
  0
LINE
  8
0
  6
CONTINUOUS
 62
     7
 10
70.31206
 20
51.00024
 11
70.31206
 21
25.80025
  0
LINE
  8
0
  6
CONTINUOUS
 62
     7
 10
70.31206
 20
50.80026
 11
74.31206
 21
50.80026
  0
LINE
  8
0
  6
CENTER
 62
     2
 10
67.31206
 20
42.80026
 11
102.7121
 21
42.80026
  0
LINE
  8
0
  6
CONTINUOUS
 62
     7
 10
97.31206
 20
68.97647
 11
97.31206
 21
62.50024
  0
LINE
  8
0
  6
CONTINUOUS
 62
     7
 10
74.31206
 20
35.40027
 11
96.81206
 21
35.40027
  0
LINE
  8
0
  6
CONTINUOUS
 62
     7
 10
74.31206
 20
50.20026
 11
96.81206
 21
50.20026
  0
LINE
  8
0
  6
CONTINUOUS
 62
     7
 10
82.51207
 20
68.9765
 11
82.51207
 21
62.50024
  0
LINE
  8
0
  6
CONTINUOUS
 62
     7
 10
84.11205
 20
69.90027
 11
95.71202
 21
69.90027
  0
LINE
  8
0
  6
CONTINUOUS
 62
     7
 10
98.48387
 20
40.00027
 11
97.81206
 21
40.00027
  0
LINE
  8
0
  6
CONTINUOUS
 62
     7
 10
98.48387
 20
45.60028
 11
97.81206
 21
45.60028
  0
LINE
  8
0
  6
CONTINUOUS
 62
     7
 10
97.81206
 20
39.55026
 11
97.81206
 21
46.05026
  0
LINE
  8
0
  6
CONTINUOUS
 62
     7
 10
97.81206
 20
39.55026
 11
97.31206
 21
39.55026
  0
LINE
  8
0
  6
CONTINUOUS
 62
     7
 10
97.81206
 20
46.05026
 11
97.31206
 21
46.05026
  0
LINE
  8
0
  6
CONTINUOUS
 62
     7
 10
82.51207
 20
62.50024
 11
97.31206
 21
62.50024
  0
LINE
  8
0
  6
CONTINUOUS
 62
     7
 10
82.51207
 20
63.50024
 11
97.31206
 21
63.50024
  0
LINE
  8
0
  6
CONTINUOUS
 62
     7
 10
84.91203
 20
47.80026
 11
94.91203
 21
47.80026
  0
LINE
  8
0
  6
CONTINUOUS
 62
     7
 10
84.91203
 20
37.80026
 11
94.91203
 21
37.80026
  0
LINE
  8
0
  6
CONTINUOUS
 62
     7
 10
84.91203
 20
47.80026
 11
84.91203
 21
37.80026
  0
LINE
  8
0
  6
CONTINUOUS
 62
     7
 10
94.91203
 20
47.80026
 11
94.91203
 21
37.80026
  0
LINE
  8
0
  6
CONTINUOUS
 62
     7
 10
85.91203
 20
47.80026
 11
85.91203
 21
37.80026
  0
LINE
  8
0
  6
CONTINUOUS
 62
     7
 10
86.91203
 20
47.80026
 11
86.91203
 21
37.80026
  0
LINE
  8
0
  6
CONTINUOUS
 62
     7
 10
87.91203
 20
47.80026
 11
87.91203
 21
37.80026
  0
LINE
  8
0
  6
CONTINUOUS
 62
     7
 10
88.91203
 20
47.80026
 11
88.91203
 21
37.80026
  0
LINE
  8
0
  6
CONTINUOUS
 62
     7
 10
89.91203
 20
47.80026
 11
89.91203
 21
37.80026
  0
LINE
  8
0
  6
CONTINUOUS
 62
     7
 10
90.91203
 20
47.80026
 11
90.91203
 21
37.80026
  0
LINE
  8
0
  6
CONTINUOUS
 62
     7
 10
91.91203
 20
47.80026
 11
91.91203
 21
37.80026
  0
LINE
  8
0
  6
CONTINUOUS
 62
     7
 10
92.91203
 20
47.80026
 11
92.91203
 21
37.80026
  0
LINE
  8
0
  6
CONTINUOUS
 62
     7
 10
93.91203
 20
47.80026
 11
93.91203
 21
37.80026
  0
LINE
  8
0
  6
CONTINUOUS
 62
     7
 10
95.7121
 20
69.90019
 11
97.3121
 21
68.97643
  0
LINE
  8
0
  6
CONTINUOUS
 62
     7
 10
84.11201
 20
69.90028
 11
82.51202
 21
68.97652
  0
LINE
  8
0
  6
CONTINUOUS
 62
     7
 10
86.05138
 20
68.9765
 11
86.05138
 21
63.50024
  0
LINE
  8
0
  6
CONTINUOUS
 62
     7
 10
86.37511
 20
68.9765
 11
86.37511
 21
63.50024
  0
LINE
  8
0
  6
CONTINUOUS
 62
     7
 10
93.44902
 20
68.9765
 11
93.44902
 21
63.50024
  0
LINE
  8
0
  6
CONTINUOUS
 62
     7
 10
93.77275
 20
68.9765
 11
93.77275
 21
63.50024
  0
LINE
  8
0
  6
CONTINUOUS
 62
     7
 10
86.05138
 20
68.9765
 11
86.37511
 21
68.9765
  0
LINE
  8
0
  6
CONTINUOUS
 62
     7
 10
93.44902
 20
68.9765
 11
93.77275
 21
68.9765
  0
LINE
  8
0
  6
CENTER
 62
     2
 10
89.91203
 20
72.90027
 11
89.91203
 21
32.40024
  0
LINE
  8
0
  6
CONTINUOUS
 62
     7
 10
74.31206
 20
50.80026
 11
74.31206
 21
25.80025
  0
LINE
  8
0
  6
CONTINUOUS
 62
     7
 10
82.51207
 20
60.50024
 11
97.31206
 21
60.50024
  0
LINE
  8
0
  6
CONTINUOUS
 62
     7
 10
82.51207
 20
60.50024
 11
82.51207
 21
50.20026
  0
LINE
  8
0
  6
CONTINUOUS
 62
     7
 10
97.31206
 20
60.50024
 11
97.31206
 21
35.90027
  0
LINE
  8
0
  6
CONTINUOUS
 62
     7
 10
95.91203
 20
62.50024
 11
95.91203
 21
60.50024
  0
LINE
  8
0
  6
CONTINUOUS
 62
     7
 10
83.91203
 20
62.50024
 11
83.91203
 21
60.50024
  0
LINE
  8
0
  6
CONTINUOUS
 62
     7
 10
95.23558
 20
62.50024
 11
95.23558
 21
60.50024
  0
LINE
  8
0
  6
CONTINUOUS
 62
     7
 10
84.58855
 20
62.50024
 11
84.58855
 21
60.50024
  0
LINE
  8
0
  6
CONTINUOUS
 62
     7
 10
74.81206
 20
35.40027
 11
74.81206
 21
50.20026
  0
LINE
  8
0
  6
CENTER
 62
     2
 10
65.81206
 20
-28.52446
 11
65.81206
 21
-33.97197
  0
LINE
  8
0
  6
CONTINUOUS
 62
     7
 10
63.11205
 20
-29.39975
 11
68.31206
 21
-29.39975
  0
LINE
  8
0
  6
CONTINUOUS
 62
     7
 10
62.61205
 20
-29.89975
 11
62.61205
 21
-32.29974
  0
LINE
  8
0
  6
CONTINUOUS
 62
     7
 10
63.01207
 20
-30.57158
 11
63.01207
 21
-29.39975
  0
LINE
  8
0
  6
CONTINUOUS
 62
     7
 10
68.61205
 20
-30.57158
 11
68.61205
 21
-29.39975
  0
ARC
  8
0
  6
CONTINUOUS
 62
     7
 10
273.0354
 20
-235.0457
 40
2.21188
 50
0.0
 51
89.99999
  0
ARC
  8
0
  6
CONTINUOUS
 62
     7
 10
291.2836
 20
-246.9346
 40
2.2119
 50
270.0
 51
0.0
  0
ARC
  8
0
  6
CONTINUOUS
 62
     7
 10
290.1776
 20
-236.1516
 40
3.31784
 50
0.0
 51
89.99999
  0
ARC
  8
0
  6
CONTINUOUS
 62
     7
 10
310.3611
 20
-236.8128
 40
2.21189
 50
295.0
 51
0.0
  0
ARC
  8
0
  6
CONTINUOUS
 62
     7
 10
310.3611
 20
-235.0457
 40
2.21188
 50
0.0
 51
89.99999
  0
ARC
  8
0
  6
CONTINUOUS
 62
     7
 10
327.5034
 20
-232.8338
 40
3.31784
 50
291.6884
 51
0.0
  0
ARC
  8
0
  6
CONTINUOUS
 62
     7
 10
326.3973
 20
-232.0834
 40
1.10595
 50
291.689
 51
0.0
  0
ARC
  8
0
  6
CONTINUOUS
 62
     7
 10
-194.9368
 20
135.2775
 40
0.5
 50
180.0
 51
270.0
  0
ARC
  8
0
  6
CONTINUOUS
 62
     7
 10
-168.9368
 20
135.2775
 40
0.5
 50
270.0
 51
0.0
  0
ARC
  8
0
  6
CONTINUOUS
 62
     7
 10
-168.9368
 20
152.2775
 40
0.5
 50
0.0
 51
89.99999
  0
ARC
  8
0
  6
CONTINUOUS
 62
     7
 10
-194.9368
 20
152.2775
 40
0.5
 50
89.99999
 51
180.0
  0
ARC
  8
0
  6
CONTINUOUS
 62
     7
 10
-172.9368
 20
139.2775
 40
3.0
 50
89.99999
 51
180.0
  0
ARC
  8
0
  6
CONTINUOUS
 62
     7
 10
-190.9368
 20
148.2775
 40
3.0
 50
270.0
 51
0.0
  0
ARC
  8
0
  6
CONTINUOUS
 62
     7
 10
-172.9368
 20
139.2775
 40
2.55
 50
276.7564
 51
263.2436
  0
ARC
  8
0
  6
CONTINUOUS
 62
     7
 10
-190.9368
 20
148.2775
 40
2.55
 50
96.7564
 51
83.24359
  0
CIRCLE
  8
0
  6
CONTINUOUS
 62
     7
 10
-172.9368
 20
139.2775
 40
2.25
  0
ARC
  8
0
  6
CONTINUOUS
 62
     7
 10
-172.9368
 20
140.3806
 40
0.51999
 50
225.0
 51
315.0
  0
ARC
  8
0
  6
CONTINUOUS
 62
     7
 10
-174.0399
 20
139.2775
 40
0.51999
 50
315.0
 51
45.0
  0
ARC
  8
0
  6
CONTINUOUS
 62
     7
 10
-171.8337
 20
139.2775
 40
0.51999
 50
135.0
 51
225.0
  0
ARC
  8
0
  6
CONTINUOUS
 62
     7
 10
-172.9368
 20
138.1744
 40
0.51999
 50
45.0
 51
135.0
  0
CIRCLE
  8
0
  6
CONTINUOUS
 62
     7
 10
-190.9368
 20
148.2775
 40
2.25
  0
ARC
  8
0
  6
CONTINUOUS
 62
     7
 10
-190.9368
 20
149.3806
 40
0.51999
 50
225.0
 51
315.0
  0
ARC
  8
0
  6
CONTINUOUS
 62
     7
 10
-192.0399
 20
148.2775
 40
0.51999
 50
315.0
 51
45.0
  0
ARC
  8
0
  6
CONTINUOUS
 62
     7
 10
-189.8337
 20
148.2775
 40
0.51999
 50
135.0
 51
225.0
  0
ARC
  8
0
  6
CONTINUOUS
 62
     7
 10
-190.9368
 20
147.1744
 40
0.51999
 50
45.0
 51
135.0
  0
ARC
  8
0
  6
CONTINUOUS
 62
     7
 10
-193.4368
 20
150.7775
 40
0.5
 50
89.99999
 51
180.0
  0
ARC
  8
0
  6
CONTINUOUS
 62
     7
 10
-193.4368
 20
136.7775
 40
0.5
 50
180.0
 51
270.0
  0
CIRCLE
  8
0
  6
CONTINUOUS
 62
     7
 10
-147.3368
 20
143.7775
 40
7.4
  0
CIRCLE
  8
0
  6
CONTINUOUS
 62
     7
 10
-147.3368
 20
143.7775
 40
3.8
  0
CIRCLE
  8
0
  6
CONTINUOUS
 62
     7
 10
-147.3368
 20
143.7775
 40
5.8
  0
ARC
  8
0
  6
CONTINUOUS
 62
     7
 10
-140.4368
 20
136.8775
 40
0.5
 50
270.0
 51
0.0
  0
ARC
  8
0
  6
CONTINUOUS
 62
     7
 10
-142.5368
 20
143.7775
 40
5.0
 50
330.5077
 51
29.49228
  0
ARC
  8
0
  6
CONTINUOUS
 62
     7
 10
-138.765
 20
145.9108
 40
0.66666
 50
29.49227
 51
89.99999
  0
ARC
  8
0
  6
CONTINUOUS
 62
     7
 10
-138.765
 20
141.6442
 40
0.66667
 50
270.0
 51
330.5077
  0
ARC
  8
0
  6
CONTINUOUS
 62
     7
 10
-140.4368
 20
150.6775
 40
0.5
 50
0.0
 51
89.99999
  0
CIRCLE
  8
0
  6
CONTINUOUS
 62
     7
 10
-174.4368
 20
1.60001
 40
1.6
  0
ARC
  8
0
  6
CONTINUOUS
 62
     7
 10
-194.9368
 20
-32.3
 40
0.5
 50
180.0
 51
270.0
  0
ARC
  8
0
  6
CONTINUOUS
 62
     7
 10
-168.9368
 20
-32.3
 40
0.5
 50
270.0
 51
0.0
  0
ARC
  8
0
  6
CONTINUOUS
 62
     7
 10
-174.1368
 20
-29.89999
 40
0.5
 50
89.99999
 51
180.0
  0
ARC
  8
0
  6
CONTINUOUS
 62
     7
 10
-175.1368
 20
-32.3
 40
0.5
 50
270.0
 51
0.0
  0
ARC
  8
0
  6
CONTINUOUS
 62
     7
 10
-168.9368
 20
-28.89999
 40
0.5
 50
270.0
 51
0.0
  0
CIRCLE
  8
0
  6
CONTINUOUS
 62
     7
 10
-174.4368
 20
-18.39999
 40
1.6
  0
ARC
  8
0
  6
CONTINUOUS
 62
     7
 10
-171.4368
 20
-26.79999
 40
5.0
 50
240.5077
 51
299.4923
  0
ARC
  8
0
  6
CONTINUOUS
 62
     7
 10
-173.5701
 20
-30.57182
 40
0.66667
 50
180.0
 51
240.5079
  0
ARC
  8
0
  6
CONTINUOUS
 62
     7
 10
-169.3035
 20
-30.57182
 40
0.66666
 50
299.4921
 51
0.0
  0
ARC
  8
0
  6
CONTINUOUS
 62
     7
 10
-172.9368
 20
48.3
 40
6.0
 50
73.80862
 51
106.1914
  0
ARC
  8
0
  6
CONTINUOUS
 62
     7
 10
-171.4868
 20
53.29375
 40
0.8
 50
0.0
 51
73.8082
  0
ARC
  8
0
  6
CONTINUOUS
 62
     7
 10
-174.3868
 20
53.29375
 40
0.8
 50
106.1918
 51
180.0
  0
ARC
  8
0
  6
CONTINUOUS
 62
     7
 10
-190.9368
 20
48.3
 40
6.0
 50
73.80862
 51
106.1914
  0
ARC
  8
0
  6
CONTINUOUS
 62
     7
 10
-192.3868
 20
53.29375
 40
0.8
 50
106.1918
 51
118.0138
  0
ARC
  8
0
  6
CONTINUOUS
 62
     7
 10
-189.4868
 20
53.29375
 40
0.8
 50
61.98621
 51
73.8082
  0
ARC
  8
0
  6
CONTINUOUS
 62
     7
 10
-140.4368
 20
35.90001
 40
0.5
 50
270.0
 51
0.0
  0
ARC
  8
0
  6
CONTINUOUS
 62
     7
 10
-140.4368
 20
49.7
 40
0.5
 50
0.0
 51
89.99999
  0
ARC
  8
0
  6
CONTINUOUS
 62
     7
 10
-142.5368
 20
42.8
 40
5.0
 50
330.5077
 51
29.49232
  0
ARC
  8
0
  6
CONTINUOUS
 62
     7
 10
-138.765
 20
40.66667
 40
0.66667
 50
270.0
 51
330.5074
  0
ARC
  8
0
  6
CONTINUOUS
 62
     7
 10
-138.765
 20
44.93333
 40
0.66666
 50
29.49256
 51
89.99999
  0
ARC
  8
0
  6
CONTINUOUS
 62
     7
 10
-141.7064
 20
66.22261
 40
3.27324
 50
62.72894
 51
122.7273
  0
ARC
  8
0
  6
CONTINUOUS
 62
     7
 10
-147.3368
 20
57.19838
 40
12.29748
 50
73.28477
 51
106.7153
  0
ARC
  8
0
  6
CONTINUOUS
 62
     7
 10
-152.9671
 20
66.22258
 40
3.27326
 50
57.27284
 51
117.273
  0
ARC
  8
0
  6
CONTINUOUS
 62
     7
 10
-49.31229
 20
-18.39993
 40
3.0
 50
213.5573
 51
0.0
  0
ARC
  8
0
  6
CONTINUOUS
 62
     7
 10
-49.31229
 20
-18.39993
 40
3.0
 50
0.0
 51
146.4427
  0
ARC
  8
0
  6
CONTINUOUS
 62
     7
 10
-48.81229
 20
-26.79993
 40
5.0
 50
240.5076
 51
299.4923
  0
ARC
  8
0
  6
CONTINUOUS
 62
     7
 10
-50.94562
 20
-30.57176
 40
0.66667
 50
180.0
 51
240.5076
  0
ARC
  8
0
  6
CONTINUOUS
 62
     7
 10
-46.67896
 20
-30.57176
 40
0.66667
 50
299.4924
 51
0.0
  0
ARC
  8
0
  6
CONTINUOUS
 62
     7
 10
-45.11229
 20
-32.29994
 40
0.5
 50
180.0
 51
270.0
  0
ARC
  8
0
  6
CONTINUOUS
 62
     7
 10
-51.31229
 20
-32.29994
 40
0.5
 50
180.0
 51
270.0
  0
ARC
  8
0
  6
CONTINUOUS
 62
     7
 10
-46.11229
 20
-29.89993
 40
0.5
 50
0.0
 51
89.99999
  0
ARC
  8
0
  6
CONTINUOUS
 62
     7
 10
-34.31229
 20
-32.29994
 40
0.5
 50
270.0
 51
0.0
  0
CIRCLE
  8
0
  6
CONTINUOUS
 62
     7
 10
-36.31229
 20
1.60007
 40
1.6
  0
ARC
  8
0
  6
CONTINUOUS
 62
     7
 10
-36.31229
 20
1.60007
 40
3.0
 50
33.55732
 51
326.4427
  0
CIRCLE
  8
0
  6
CONTINUOUS
 62
     7
 10
-42.81229
 20
22.30006
 40
1.65
  0
CIRCLE
  8
0
  6
CONTINUOUS
 62
     7
 10
-42.81229
 20
-6.39993
 40
4.86435
  0
CIRCLE
  8
0
  6
CONTINUOUS
 62
     7
 10
-42.81229
 20
-6.39993
 40
4.28325
  0
ARC
  8
0
  6
CONTINUOUS
 62
     7
 10
-51.31229
 20
-28.89993
 40
0.5
 50
180.0
 51
270.0
  0
CIRCLE
  8
0
  6
CONTINUOUS
 62
     7
 10
-49.31229
 20
-18.39993
 40
1.6
  0
ARC
  8
0
  6
CONTINUOUS
 62
     7
 10
-49.7123
 20
35.90007
 40
0.5
 50
180.0
 51
270.0
  0
ARC
  8
0
  6
CONTINUOUS
 62
     7
 10
-35.91228
 20
35.90007
 40
0.5
 50
270.0
 51
0.0
  0
ARC
  8
0
  6
CONTINUOUS
 62
     7
 10
-49.7123
 20
49.70006
 40
0.5
 50
89.99999
 51
180.0
  0
ARC
  8
0
  6
CONTINUOUS
 62
     7
 10
-35.91228
 20
49.70006
 40
0.5
 50
0.0
 51
89.99999
  0
CIRCLE
  8
0
  6
CONTINUOUS
 62
     7
 10
-42.81229
 20
42.80006
 40
2.8
  0
ARC
  8
0
  6
CONTINUOUS
 62
     7
 10
-42.81229
 20
44.07286
 40
0.6
 50
225.0
 51
315.0
  0
ARC
  8
0
  6
CONTINUOUS
 62
     7
 10
-44.08507
 20
42.80006
 40
0.6
 50
315.0
 51
45.0
  0
ARC
  8
0
  6
CONTINUOUS
 62
     7
 10
-41.53951
 20
42.80006
 40
0.6
 50
135.0
 51
225.0
  0
ARC
  8
0
  6
CONTINUOUS
 62
     7
 10
-42.81229
 20
41.52727
 40
0.6
 50
45.0
 51
135.0
  0
CIRCLE
  8
0
  6
CONTINUOUS
 62
     7
 10
-42.81229
 20
42.80006
 40
3.25
  0
ARC
  8
0
  6
CONTINUOUS
 62
     7
 10
-39.46883
 20
59.64854
 40
9.84738
 50
71.30401
 51
108.696
  0
ARC
  8
0
  6
CONTINUOUS
 62
     7
 10
-46.15575
 20
59.64854
 40
9.84738
 50
71.30401
 51
108.696
  0
CIRCLE
  8
0
  6
CONTINUOUS
 62
     7
 10
-300.5614
 20
-18.39983
 40
1.6
  0
ARC
  8
0
  6
CONTINUOUS
 62
     7
 10
-310.928
 20
-30.57166
 40
0.66667
 50
299.4933
 51
0.0
  0
ARC
  8
0
  6
CONTINUOUS
 62
     7
 10
-315.1948
 20
-30.57166
 40
0.66666
 50
180.0
 51
240.5067
  0
ARC
  8
0
  6
CONTINUOUS
 62
     7
 10
-313.0614
 20
-26.79982
 40
5.00001
 50
240.5075
 51
299.4925
  0
ARC
  8
0
  6
CONTINUOUS
 62
     7
 10
-309.3614
 20
-32.29984
 40
0.5
 50
180.0
 51
270.0
  0
ARC
  8
0
  6
CONTINUOUS
 62
     7
 10
-315.5614
 20
-28.89983
 40
0.5
 50
180.0
 51
270.0
  0
CIRCLE
  8
0
  6
CONTINUOUS
 62
     7
 10
-313.5614
 20
1.60017
 40
1.6
  0
CIRCLE
  8
0
  6
CONTINUOUS
 62
     7
 10
-307.0614
 20
17.50017
 40
2.65
  0
CIRCLE
  8
0
  6
CONTINUOUS
 62
     7
 10
-306.5614
 20
-0.19983
 40
4.86435
  0
CIRCLE
  8
0
  6
CONTINUOUS
 62
     7
 10
-306.5614
 20
-0.19983
 40
4.28325
  0
CIRCLE
  8
0
  6
CONTINUOUS
 62
     7
 10
-307.0614
 20
-13.39983
 40
4.86435
  0
CIRCLE
  8
0
  6
CONTINUOUS
 62
     7
 10
-307.0614
 20
-13.39983
 40
4.28325
  0
CIRCLE
  8
0
  6
CONTINUOUS
 62
     7
 10
-307.0614
 20
17.50017
 40
2.0
  0
ARC
  8
0
  6
CONTINUOUS
 62
     7
 10
-315.5614
 20
-32.29984
 40
0.5
 50
180.0
 51
270.0
  0
ARC
  8
0
  6
CONTINUOUS
 62
     7
 10
-298.5614
 20
-32.29984
 40
0.5
 50
270.0
 51
0.0
  0
ARC
  8
0
  6
CONTINUOUS
 62
     7
 10
-310.3614
 20
-29.89983
 40
0.5
 50
0.0
 51
89.99999
  0
ARC
  8
0
  6
CONTINUOUS
 62
     7
 10
-310.5076
 20
46.75349
 40
0.35345
 50
0.0
 51
89.99999
  0
ARC
  8
0
  6
CONTINUOUS
 62
     7
 10
-307.5916
 20
44.85362
 40
0.35346
 50
270.0
 51
0.0
  0
ARC
  8
0
  6
CONTINUOUS
 62
     7
 10
-307.7683
 20
46.57677
 40
0.53018
 50
0.0
 51
89.99999
  0
ARC
  8
0
  6
CONTINUOUS
 62
     7
 10
-304.543
 20
46.75349
 40
0.35345
 50
0.0
 51
89.99999
  0
ARC
  8
0
  6
CONTINUOUS
 62
     7
 10
-304.543
 20
46.47112
 40
0.35347
 50
295.0005
 51
0.0
  0
ARC
  8
0
  6
CONTINUOUS
 62
     7
 10
-301.8036
 20
47.10695
 40
0.53019
 50
291.6869
 51
0.0
  0
ARC
  8
0
  6
CONTINUOUS
 62
     7
 10
-301.9804
 20
47.22685
 40
0.17673
 50
291.687
 51
0.0
  0
ARC
  8
0
  6
CONTINUOUS
 62
     7
 10
-313.0114
 20
53.2939
 40
0.8
 50
106.1918
 51
180.0
  0
ARC
  8
0
  6
CONTINUOUS
 62
     7
 10
-311.5614
 20
48.30016
 40
6.0
 50
73.80876
 51
106.1912
  0
ARC
  8
0
  6
CONTINUOUS
 62
     7
 10
-310.1114
 20
53.2939
 40
0.79999
 50
0.0
 51
73.8082
  0
ARC
  8
0
  6
CONTINUOUS
 62
     7
 10
-302.5614
 20
48.30016
 40
6.0
 50
73.80876
 51
106.1912
  0
ARC
  8
0
  6
CONTINUOUS
 62
     7
 10
-304.0114
 20
53.2939
 40
0.8
 50
106.1918
 51
118.0148
  0
ARC
  8
0
  6
CONTINUOUS
 62
     7
 10
-301.1114
 20
53.2939
 40
0.80001
 50
61.98524
 51
73.8082
  0
ARC
  8
0
  6
CONTINUOUS
 62
     7
 10
-303.718
 20
59.64864
 40
9.84738
 50
71.30395
 51
108.696
  0
ARC
  8
0
  6
CONTINUOUS
 62
     7
 10
-310.4048
 20
59.64867
 40
9.84738
 50
71.30395
 51
108.696
  0
CIRCLE
  8
0
  6
CONTINUOUS
 62
     7
 10
-172.4368
 20
-184.179
 40
1.5
  0
CIRCLE
  8
0
  6
CONTINUOUS
 62
     7
 10
-191.4368
 20
-174.179
 40
1.5
  0
CIRCLE
  8
0
  6
CONTINUOUS
 62
     7
 10
-191.4368
 20
-174.179
 40
1.0
  0
ARC
  8
0
  6
CONTINUOUS
 62
     7
 10
-194.9368
 20
-170.679
 40
0.5
 50
89.99999
 51
180.0
  0
ARC
  8
0
  6
CONTINUOUS
 62
     7
 10
-168.9368
 20
-170.679
 40
0.5
 50
0.0
 51
89.99999
  0
ARC
  8
0
  6
CONTINUOUS
 62
     7
 10
-168.9368
 20
-187.679
 40
0.5
 50
270.0
 51
0.0
  0
ARC
  8
0
  6
CONTINUOUS
 62
     7
 10
-194.9368
 20
-187.679
 40
0.5
 50
180.0
 51
270.0
  0
ARC
  8
0
  6
CONTINUOUS
 62
     7
 10
-171.4368
 20
-173.179
 40
3.2
 50
180.0
 51
270.0
  0
ARC
  8
0
  6
CONTINUOUS
 62
     7
 10
-192.4368
 20
-185.179
 40
3.2
 50
0.0
 51
89.99999
  0
ARC
  8
0
  6
CONTINUOUS
 62
     7
 10
-194.9368
 20
-181.479
 40
0.5
 50
180.0
 51
270.0
  0
ARC
  8
0
  6
CONTINUOUS
 62
     7
 10
-188.7367
 20
-187.679
 40
0.5
 50
180.0
 51
270.0
  0
ARC
  8
0
  6
CONTINUOUS
 62
     7
 10
-175.1368
 20
-170.679
 40
0.5
 50
0.0
 51
89.99999
  0
ARC
  8
0
  6
CONTINUOUS
 62
     7
 10
-168.9368
 20
-176.879
 40
0.5
 50
0.0
 51
89.99999
  0
CIRCLE
  8
0
  6
CONTINUOUS
 62
     7
 10
-192.4368
 20
-185.179
 40
2.8
  0
ARC
  8
0
  6
CONTINUOUS
 62
     7
 10
-192.4368
 20
-183.9063
 40
0.60001
 50
225.0
 51
315.0
  0
ARC
  8
0
  6
CONTINUOUS
 62
     7
 10
-193.7095
 20
-185.179
 40
0.60001
 50
315.0
 51
45.0
  0
ARC
  8
0
  6
CONTINUOUS
 62
     7
 10
-191.164
 20
-185.179
 40
0.60001
 50
135.0
 51
225.0
  0
ARC
  8
0
  6
CONTINUOUS
 62
     7
 10
-192.4368
 20
-186.4518
 40
0.60001
 50
45.0
 51
135.0
  0
CIRCLE
  8
0
  6
CONTINUOUS
 62
     7
 10
-171.4368
 20
-173.179
 40
2.8
  0
ARC
  8
0
  6
CONTINUOUS
 62
     7
 10
-171.4368
 20
-171.9063
 40
0.60001
 50
225.0
 51
315.0
  0
ARC
  8
0
  6
CONTINUOUS
 62
     7
 10
-172.7095
 20
-173.179
 40
0.60001
 50
315.0
 51
45.0
  0
ARC
  8
0
  6
CONTINUOUS
 62
     7
 10
-170.164
 20
-173.179
 40
0.60001
 50
135.0
 51
225.0
  0
ARC
  8
0
  6
CONTINUOUS
 62
     7
 10
-171.4368
 20
-174.4518
 40
0.60001
 50
45.0
 51
135.0
  0
CIRCLE
  8
0
  6
CONTINUOUS
 62
     7
 10
-191.4368
 20
-174.179
 40
2.35
  0
CIRCLE
  8
0
  6
CONTINUOUS
 62
     7
 10
-172.4368
 20
-184.179
 40
2.35
  0
CIRCLE
  8
0
  6
CONTINUOUS
 62
     7
 10
-172.4368
 20
-184.179
 40
1.0
  0
ARC
  8
0
  6
CONTINUOUS
 62
     7
 10
-140.4368
 20
-172.279
 40
0.5
 50
0.0
 51
89.99999
  0
ARC
  8
0
  6
CONTINUOUS
 62
     7
 10
-140.4368
 20
-186.079
 40
0.5
 50
270.0
 51
0.0
  0
ARC
  8
0
  6
CONTINUOUS
 62
     7
 10
-142.5368
 20
-179.179
 40
5.0
 50
330.5077
 51
29.49228
  0
ARC
  8
0
  6
CONTINUOUS
 62
     7
 10
-138.7649
 20
-181.3124
 40
0.66667
 50
270.0
 51
330.5077
  0
ARC
  8
0
  6
CONTINUOUS
 62
     7
 10
-138.7649
 20
-177.0457
 40
0.66666
 50
29.49227
 51
89.99999
  0
ARC
  8
0
  6
CONTINUOUS
 62
     7
 10
160.4372
 20
149.7773
 40
0.5
 50
89.99999
 51
180.0
  0
ARC
  8
0
  6
CONTINUOUS
 62
     7
 10
160.4372
 20
123.7773
 40
0.5
 50
180.0
 51
270.0
  0
ARC
  8
0
  6
CONTINUOUS
 62
     7
 10
177.4372
 20
123.7773
 40
0.5
 50
270.0
 51
0.0
  0
ARC
  8
0
  6
CONTINUOUS
 62
     7
 10
177.4372
 20
149.7773
 40
0.5
 50
0.0
 51
89.99999
  0
ARC
  8
0
  6
CONTINUOUS
 62
     7
 10
164.4372
 20
127.7773
 40
3.0
 50
0.0
 51
89.99999
  0
ARC
  8
0
  6
CONTINUOUS
 62
     7
 10
173.4372
 20
145.7773
 40
3.0
 50
180.0
 51
270.0
  0
ARC
  8
0
  6
CONTINUOUS
 62
     7
 10
164.4372
 20
127.7773
 40
2.55
 50
186.7562
 51
173.2436
  0
ARC
  8
0
  6
CONTINUOUS
 62
     7
 10
173.4372
 20
145.7773
 40
2.55
 50
6.75641
 51
353.2436
  0
CIRCLE
  8
0
  6
CONTINUOUS
 62
     7
 10
164.4372
 20
127.7773
 40
2.25
  0
ARC
  8
0
  6
CONTINUOUS
 62
     7
 10
165.5403
 20
127.7773
 40
0.51999
 50
135.0
 51
225.0006
  0
ARC
  8
0
  6
CONTINUOUS
 62
     7
 10
164.4372
 20
128.8804
 40
0.51999
 50
225.0
 51
315.0
  0
ARC
  8
0
  6
CONTINUOUS
 62
     7
 10
164.4372
 20
126.6743
 40
0.52
 50
45.0006
 51
134.9994
  0
ARC
  8
0
  6
CONTINUOUS
 62
     7
 10
163.3341
 20
127.7773
 40
0.52
 50
314.9994
 51
45.0
  0
CIRCLE
  8
0
  6
CONTINUOUS
 62
     7
 10
173.4372
 20
145.7773
 40
2.25
  0
ARC
  8
0
  6
CONTINUOUS
 62
     7
 10
174.5403
 20
145.7773
 40
0.51999
 50
135.0
 51
225.0
  0
ARC
  8
0
  6
CONTINUOUS
 62
     7
 10
173.4372
 20
146.8804
 40
0.51999
 50
225.0
 51
315.0
  0
ARC
  8
0
  6
CONTINUOUS
 62
     7
 10
173.4372
 20
144.6743
 40
0.51999
 50
45.0
 51
135.0
  0
ARC
  8
0
  6
CONTINUOUS
 62
     7
 10
172.3341
 20
145.7773
 40
0.51999
 50
315.0
 51
45.0
  0
ARC
  8
0
  6
CONTINUOUS
 62
     7
 10
175.9372
 20
148.2773
 40
0.5
 50
0.0
 51
89.99999
  0
ARC
  8
0
  6
CONTINUOUS
 62
     7
 10
161.9372
 20
148.2773
 40
0.5
 50
89.99999
 51
180.0
  0
CIRCLE
  8
0
  6
CONTINUOUS
 62
     7
 10
168.9372
 20
102.1773
 40
7.4
  0
CIRCLE
  8
0
  6
CONTINUOUS
 62
     7
 10
168.9372
 20
102.1773
 40
3.8
  0
CIRCLE
  8
0
  6
CONTINUOUS
 62
     7
 10
168.9372
 20
102.1773
 40
5.8
  0
ARC
  8
0
  6
CONTINUOUS
 62
     7
 10
162.0372
 20
95.27734
 40
0.5
 50
180.0
 51
270.0
  0
ARC
  8
0
  6
CONTINUOUS
 62
     7
 10
168.9372
 20
97.37732
 40
5.0
 50
240.5077
 51
299.4923
  0
ARC
  8
0
  6
CONTINUOUS
 62
     7
 10
171.0705
 20
93.6055
 40
0.66667
 50
299.4919
 51
0.0
  0
ARC
  8
0
  6
CONTINUOUS
 62
     7
 10
166.8038
 20
93.6055
 40
0.66667
 50
180.0
 51
240.508
  0
ARC
  8
0
  6
CONTINUOUS
 62
     7
 10
175.8372
 20
95.27734
 40
0.5
 50
270.0
 51
0.0
  0
CIRCLE
  8
0
  6
CONTINUOUS
 62
     7
 10
175.4368
 20
1.60002
 40
1.6
  0
ARC
  8
0
  6
CONTINUOUS
 62
     7
 10
175.4368
 20
1.60002
 40
3.0
 50
33.55732
 51
326.4427
  0
CIRCLE
  8
0
  6
CONTINUOUS
 62
     7
 10
168.9368
 20
22.30002
 40
1.65
  0
ARC
  8
0
  6
CONTINUOUS
 62
     7
 10
160.4368
 20
-32.29999
 40
0.5
 50
180.0
 51
270.0
  0
ARC
  8
0
  6
CONTINUOUS
 62
     7
 10
177.4368
 20
-32.29999
 40
0.5
 50
270.0
 51
0.0
  0
CIRCLE
  8
0
  6
CONTINUOUS
 62
     7
 10
162.4368
 20
-18.39998
 40
1.6
  0
ARC
  8
0
  6
CONTINUOUS
 62
     7
 10
162.4368
 20
-18.39998
 40
3.0
 50
0.0
 51
146.4427
  0
ARC
  8
0
  6
CONTINUOUS
 62
     7
 10
162.4368
 20
-18.39998
 40
3.0
 50
213.5573
 51
0.0
  0
ARC
  8
0
  6
CONTINUOUS
 62
     7
 10
162.0368
 20
35.90002
 40
0.5
 50
180.0
 51
270.0
  0
ARC
  8
0
  6
CONTINUOUS
 62
     7
 10
175.8368
 20
35.90002
 40
0.5
 50
270.0
 51
0.0
  0
ARC
  8
0
  6
CONTINUOUS
 62
     7
 10
162.0368
 20
49.70001
 40
0.5
 50
89.99999
 51
180.0
  0
ARC
  8
0
  6
CONTINUOUS
 62
     7
 10
175.8368
 20
49.70001
 40
0.5
 50
0.0
 51
89.99999
  0
CIRCLE
  8
0
  6
CONTINUOUS
 62
     7
 10
168.9368
 20
42.80002
 40
2.8
  0
ARC
  8
0
  6
CONTINUOUS
 62
     7
 10
168.9368
 20
44.07281
 40
0.6
 50
224.9995
 51
315.0005
  0
ARC
  8
0
  6
CONTINUOUS
 62
     7
 10
167.664
 20
42.80002
 40
0.6
 50
315.0005
 51
44.99949
  0
ARC
  8
0
  6
CONTINUOUS
 62
     7
 10
170.2096
 20
42.80002
 40
0.6
 50
135.0005
 51
224.9995
  0
ARC
  8
0
  6
CONTINUOUS
 62
     7
 10
168.9368
 20
41.52722
 40
0.6
 50
44.99949
 51
135.0005
  0
CIRCLE
  8
0
  6
CONTINUOUS
 62
     7
 10
168.9368
 20
42.80002
 40
3.25
  0
ARC
  8
0
  6
CONTINUOUS
 62
     7
 10
172.2803
 20
59.6485
 40
9.84738
 50
71.30403
 51
108.696
  0
ARC
  8
0
  6
CONTINUOUS
 62
     7
 10
165.5933
 20
59.6485
 40
9.84738
 50
71.30403
 51
108.696
  0
ARC
  8
0
  6
CONTINUOUS
 62
     7
 10
165.6368
 20
-29.89998
 40
0.5
 50
0.0
 51
89.99999
  0
ARC
  8
0
  6
CONTINUOUS
 62
     7
 10
160.4368
 20
-28.89998
 40
0.5
 50
180.0
 51
270.0
  0
ARC
  8
0
  6
CONTINUOUS
 62
     7
 10
166.6368
 20
-32.29999
 40
0.5
 50
180.0
 51
270.0
  0
ARC
  8
0
  6
CONTINUOUS
 62
     7
 10
162.9368
 20
-26.79999
 40
5.0
 50
240.5077
 51
299.4923
  0
ARC
  8
0
  6
CONTINUOUS
 62
     7
 10
160.8035
 20
-30.57181
 40
0.66667
 50
180.0
 51
240.5079
  0
ARC
  8
0
  6
CONTINUOUS
 62
     7
 10
165.0701
 20
-30.57181
 40
0.66666
 50
299.4921
 51
0.0
  0
ARC
  8
0
  6
CONTINUOUS
 62
     7
 10
298.5612
 20
-32.2998
 40
0.5
 50
270.0
 51
0.0
  0
ARC
  8
0
  6
CONTINUOUS
 62
     7
 10
272.5612
 20
-32.2998
 40
0.5
 50
180.0
 51
270.0
  0
ARC
  8
0
  6
CONTINUOUS
 62
     7
 10
294.5612
 20
48.3002
 40
6.0
 50
73.80876
 51
106.1912
  0
ARC
  8
0
  6
CONTINUOUS
 62
     7
 10
296.0112
 20
53.29395
 40
0.79999
 50
0.0
 51
73.8082
  0
ARC
  8
0
  6
CONTINUOUS
 62
     7
 10
293.1111
 20
53.29395
 40
0.8
 50
106.1918
 51
180.0
  0
ARC
  8
0
  6
CONTINUOUS
 62
     7
 10
276.5612
 20
48.30017
 40
6.0
 50
73.80876
 51
106.1912
  0
ARC
  8
0
  6
CONTINUOUS
 62
     7
 10
275.1111
 20
53.29391
 40
0.8
 50
106.1918
 51
118.0148
  0
ARC
  8
0
  6
CONTINUOUS
 62
     7
 10
278.0112
 20
53.29391
 40
0.80001
 50
61.98524
 51
73.8082
  0
ARC
  8
0
  6
CONTINUOUS
 62
     7
 10
244.0611
 20
35.90021
 40
0.5
 50
180.0
 51
270.0
  0
ARC
  8
0
  6
CONTINUOUS
 62
     7
 10
244.0611
 20
49.7002
 40
0.5
 50
89.99999
 51
180.0
  0
ARC
  8
0
  6
CONTINUOUS
 62
     7
 10
244.0611
 20
35.90021
 40
0.5
 50
180.0
 51
270.0
  0
ARC
  8
0
  6
CONTINUOUS
 62
     7
 10
244.0611
 20
49.7002
 40
0.5
 50
89.99999
 51
180.0
  0
ARC
  8
0
  6
CONTINUOUS
 62
     7
 10
246.1611
 20
42.8002
 40
5.00001
 50
150.5076
 51
209.4923
  0
ARC
  8
0
  6
CONTINUOUS
 62
     7
 10
242.3893
 20
40.66687
 40
0.66666
 50
209.4926
 51
270.0
  0
ARC
  8
0
  6
CONTINUOUS
 62
     7
 10
242.3893
 20
44.93353
 40
0.66667
 50
89.99999
 51
150.5074
  0
ARC
  8
0
  6
CONTINUOUS
 62
     7
 10
245.3308
 20
66.22278
 40
3.27324
 50
57.27263
 51
117.271
  0
ARC
  8
0
  6
CONTINUOUS
 62
     7
 10
250.9612
 20
57.19855
 40
12.29748
 50
73.2847
 51
106.7152
  0
ARC
  8
0
  6
CONTINUOUS
 62
     7
 10
256.5915
 20
66.22278
 40
3.27326
 50
62.72702
 51
122.7271
  0
ARC
  8
0
  6
CONTINUOUS
 62
     7
 10
293.3611
 20
-29.89981
 40
0.5
 50
89.99999
 51
180.0
  0
ARC
  8
0
  6
CONTINUOUS
 62
     7
 10
298.5612
 20
-28.89981
 40
0.5
 50
270.0
 51
0.0
  0
ARC
  8
0
  6
CONTINUOUS
 62
     7
 10
292.3611
 20
-32.2998
 40
0.5
 50
270.0
 51
0.0
  0
ARC
  8
0
  6
CONTINUOUS
 62
     7
 10
296.0612
 20
-26.7998
 40
5.00001
 50
240.5075
 51
299.4925
  0
ARC
  8
0
  6
CONTINUOUS
 62
     7
 10
293.9278
 20
-30.57164
 40
0.66666
 50
180.0
 51
240.5067
  0
ARC
  8
0
  6
CONTINUOUS
 62
     7
 10
298.1945
 20
-30.57164
 40
0.66667
 50
299.4933
 51
0.0
  0
CIRCLE
  8
0
  6
CONTINUOUS
 62
     7
 10
173.9369
 20
-162.6791
 40
1.5
  0
CIRCLE
  8
0
  6
CONTINUOUS
 62
     7
 10
163.9369
 20
-181.6791
 40
1.5
  0
CIRCLE
  8
0
  6
CONTINUOUS
 62
     7
 10
163.9369
 20
-181.6791
 40
1.0
  0
ARC
  8
0
  6
CONTINUOUS
 62
     7
 10
160.4369
 20
-185.1791
 40
0.5
 50
180.0
 51
270.0
  0
ARC
  8
0
  6
CONTINUOUS
 62
     7
 10
160.4369
 20
-159.1791
 40
0.5
 50
89.99999
 51
180.0
  0
ARC
  8
0
  6
CONTINUOUS
 62
     7
 10
177.4369
 20
-159.1791
 40
0.5
 50
0.0
 51
89.99999
  0
ARC
  8
0
  6
CONTINUOUS
 62
     7
 10
177.4369
 20
-185.1791
 40
0.5
 50
270.0
 51
0.0
  0
ARC
  8
0
  6
CONTINUOUS
 62
     7
 10
162.9369
 20
-161.6791
 40
3.2
 50
270.0
 51
0.0
  0
ARC
  8
0
  6
CONTINUOUS
 62
     7
 10
174.9369
 20
-182.6791
 40
3.2
 50
89.99999
 51
180.0
  0
ARC
  8
0
  6
CONTINUOUS
 62
     7
 10
171.2369
 20
-185.1791
 40
0.5
 50
270.0
 51
0.0
  0
ARC
  8
0
  6
CONTINUOUS
 62
     7
 10
177.4369
 20
-178.9791
 40
0.5
 50
270.0
 51
0.0
  0
ARC
  8
0
  6
CONTINUOUS
 62
     7
 10
160.4369
 20
-165.3791
 40
0.5
 50
89.99999
 51
180.0
  0
ARC
  8
0
  6
CONTINUOUS
 62
     7
 10
166.6369
 20
-159.1791
 40
0.5
 50
89.99999
 51
180.0
  0
CIRCLE
  8
0
  6
CONTINUOUS
 62
     7
 10
174.9369
 20
-182.6791
 40
2.8
  0
ARC
  8
0
  6
CONTINUOUS
 62
     7
 10
173.6641
 20
-182.6791
 40
0.60001
 50
315.0
 51
45.0
  0
ARC
  8
0
  6
CONTINUOUS
 62
     7
 10
174.9369
 20
-183.9519
 40
0.60001
 50
45.0
 51
135.0
  0
ARC
  8
0
  6
CONTINUOUS
 62
     7
 10
174.9369
 20
-181.4063
 40
0.60001
 50
225.0
 51
315.0
  0
ARC
  8
0
  6
CONTINUOUS
 62
     7
 10
176.2097
 20
-182.6791
 40
0.60001
 50
135.0
 51
225.0
  0
CIRCLE
  8
0
  6
CONTINUOUS
 62
     7
 10
162.9369
 20
-161.6791
 40
2.8
  0
ARC
  8
0
  6
CONTINUOUS
 62
     7
 10
161.6641
 20
-161.6791
 40
0.60001
 50
315.0
 51
45.0
  0
ARC
  8
0
  6
CONTINUOUS
 62
     7
 10
162.9369
 20
-162.9519
 40
0.60001
 50
45.0
 51
135.0
  0
ARC
  8
0
  6
CONTINUOUS
 62
     7
 10
162.9369
 20
-160.4063
 40
0.60001
 50
225.0
 51
315.0
  0
ARC
  8
0
  6
CONTINUOUS
 62
     7
 10
164.2097
 20
-161.6791
 40
0.60001
 50
135.0
 51
225.0
  0
CIRCLE
  8
0
  6
CONTINUOUS
 62
     7
 10
163.9369
 20
-181.6791
 40
2.35
  0
CIRCLE
  8
0
  6
CONTINUOUS
 62
     7
 10
173.9369
 20
-162.6791
 40
2.35
  0
CIRCLE
  8
0
  6
CONTINUOUS
 62
     7
 10
173.9369
 20
-162.6791
 40
1.0
  0
ARC
  8
0
  6
CONTINUOUS
 62
     7
 10
162.0369
 20
-130.6791
 40
0.5
 50
89.99999
 51
180.0
  0
ARC
  8
0
  6
CONTINUOUS
 62
     7
 10
175.8369
 20
-130.6791
 40
0.5
 50
0.0
 51
89.99999
  0
ARC
  8
0
  6
CONTINUOUS
 62
     7
 10
168.9369
 20
-132.7791
 40
5.0
 50
60.50772
 51
119.4923
  0
ARC
  8
0
  6
CONTINUOUS
 62
     7
 10
171.0703
 20
-129.0073
 40
0.66667
 50
0.0
 51
60.50773
  0
ARC
  8
0
  6
CONTINUOUS
 62
     7
 10
166.8036
 20
-129.0073
 40
0.66666
 50
119.4923
 51
180.0
  0
ARC
  8
0
  6
CONTINUOUS
 62
     7
 10
42.31206
 20
-32.29974
 40
0.5
 50
180.0
 51
270.0
  0
ARC
  8
0
  6
CONTINUOUS
 62
     7
 10
68.31206
 20
-32.29974
 40
0.5
 50
270.0
 51
0.0
  0
ARC
  8
0
  6
CONTINUOUS
 62
     7
 10
64.31206
 20
48.30026
 40
6.0
 50
73.80869
 51
106.1913
  0
ARC
  8
0
  6
CONTINUOUS
 62
     7
 10
65.76207
 20
53.29401
 40
0.8
 50
0.0
 51
73.80872
  0
ARC
  8
0
  6
CONTINUOUS
 62
     7
 10
62.86205
 20
53.29401
 40
0.8
 50
106.1913
 51
180.0
  0
ARC
  8
0
  6
CONTINUOUS
 62
     7
 10
46.31206
 20
48.30023
 40
6.0
 50
73.80865
 51
106.1913
  0
ARC
  8
0
  6
CONTINUOUS
 62
     7
 10
44.86205
 20
53.29398
 40
0.8
 50
106.1913
 51
118.0138
  0
ARC
  8
0
  6
CONTINUOUS
 62
     7
 10
47.76207
 20
53.29398
 40
0.8
 50
61.98621
 51
73.80872
  0
ARC
  8
0
  6
CONTINUOUS
 62
     7
 10
96.81206
 20
35.90027
 40
0.5
 50
270.0
 51
0.0
  0
ARC
  8
0
  6
CONTINUOUS
 62
     7
 10
96.81206
 20
49.70026
 40
0.5
 50
0.0
 51
89.99999
  0
ARC
  8
0
  6
CONTINUOUS
 62
     7
 10
94.71208
 20
42.80026
 40
5.0
 50
330.5077
 51
29.4924
  0
ARC
  8
0
  6
CONTINUOUS
 62
     7
 10
98.48387
 20
40.66693
 40
0.66667
 50
270.0
 51
330.5078
  0
ARC
  8
0
  6
CONTINUOUS
 62
     7
 10
98.48387
 20
44.93359
 40
0.66667
 50
29.49223
 51
89.99999
  0
ARC
  8
0
  6
CONTINUOUS
 62
     7
 10
95.5424
 20
66.22284
 40
3.27324
 50
62.72881
 51
122.7273
  0
ARC
  8
0
  6
CONTINUOUS
 62
     7
 10
89.91203
 20
57.19861
 40
12.29748
 50
73.28473
 51
106.7153
  0
ARC
  8
0
  6
CONTINUOUS
 62
     7
 10
84.28172
 20
66.22284
 40
3.27327
 50
57.27274
 51
117.273
  0
ARC
  8
0
  6
CONTINUOUS
 62
     7
 10
63.11205
 20
-29.89975
 40
0.5
 50
89.99999
 51
180.0
  0
ARC
  8
0
  6
CONTINUOUS
 62
     7
 10
68.31206
 20
-28.89975
 40
0.5
 50
270.0
 51
0.0
  0
ARC
  8
0
  6
CONTINUOUS
 62
     7
 10
62.11205
 20
-32.29974
 40
0.5
 50
270.0
 51
0.0
  0
ARC
  8
0
  6
CONTINUOUS
 62
     7
 10
65.81206
 20
-26.79974
 40
5.0
 50
240.5076
 51
299.4923
  0
ARC
  8
0
  6
CONTINUOUS
 62
     7
 10
63.6787
 20
-30.57158
 40
0.66667
 50
180.0
 51
240.5076
  0
ARC
  8
0
  6
CONTINUOUS
 62
     7
 10
67.94542
 20
-30.57158
 40
0.66666
 50
299.4921
 51
0.0
  0
TEXT
  8
0
  6
CONTINUOUS
 62
     7
 10
-350.9787
 20
200.5946
 40
8.5
  1
MODEL : 181E1-39
 41
0.8
  7
STANDARD
  0
TEXT
  8
0
  6
CONTINUOUS
 62
     7
 10
229.0661
 20
236.2625
 40
8.5
  1
DATE : NOV ,1989
 41
0.8
  7
STANDARD
  0
TEXT
  8
0
  6
CONTINUOUS
 62
     7
 10
-366.8907
 20
235.5575
 40
10.0
  1
180 CONNECTOR,-39
 41
0.69402
  7
STANDARD
  0
TEXT
  8
0
  6
CONTINUOUS
 62
     7
 10
19.88928
 20
200.5946
 40
8.5
  1
MODEL : A181E1-39
 41
0.8
  7
STANDARD
  0
TEXT
  8
0
  6
CONTINUOUS
 62
     7
 10
-42.64371
 20
-15.33993
 40
2.0
  1
A
 41
0.8
  7
STANDARD
  0
TEXT
  8
0
  6
CONTINUOUS
 62
     7
 10
-314.3928
 20
4.66017
 40
2.0
  1
R
 41
0.8
  7
STANDARD
  0
TEXT
  8
0
  6
CONTINUOUS
 62
     7
 10
-306.8928
 20
-21.83983
 40
2.0
  1
P
 41
0.8
  7
STANDARD
  0
ENDSEC
  0
EOF
