  0
SECTION
  2
HEADER
  9
$ACADVER
  1
AC1002
  9
$INSBASE
 10
0.0
 20
0.0
  9
$EXTMIN
 10
-370.8736
 20
-254.5585
  9
$EXTMAX
 10
370.8736
 20
254.5585
  9
$LIMMIN
 10
0.0
 20
0.0
  9
$LIMMAX
 10
12.0
 20
9.0
  9
$VIEWCTR
 10
28.6093211
 20
0.0
  9
$VIEWSIZE
 40
509.117
  9
$SNAPMODE
 70
     0
  9
$SNAPUNIT
 10
1.0
 20
1.0
  9
$SNAPBASE
 10
0.0
 20
0.0
  9
$SNAPANG
 50
0.0
  9
$SNAPSTYLE
 70
     0
  9
$SNAPISOPAIR
 70
     0
  9
$GRIDMODE
 70
     0
  9
$GRIDUNIT
 10
0.0
 20
0.0
  9
$ORTHOMODE
 70
     0
  9
$REGENMODE
 70
     1
  9
$FILLMODE
 70
     1
  9
$QTEXTMODE
 70
     0
  9
$DRAGMODE
 70
     2
  9
$LTSCALE
 40
1.0
  9
$OSMODE
 70
     0
  9
$ATTMODE
 70
     1
  9
$TEXTSIZE
 40
0.2
  9
$TRACEWID
 40
0.05
  9
$TEXTSTYLE
  7
AAA
  9
$CLAYER
  8
0
  9
$CELTYPE
  6
BYLAYER
  9
$CECOLOR
 62
   256
  9
$DIMSCALE
 40
1.0
  9
$DIMASZ
 40
0.18
  9
$DIMEXO
 40
0.0625
  9
$DIMDLI
 40
0.38
  9
$DIMRND
 40
0.0
  9
$DIMDLE
 40
0.0
  9
$DIMEXE
 40
0.18
  9
$DIMTP
 40
0.0
  9
$DIMTM
 40
0.0
  9
$DIMTXT
 40
0.18
  9
$DIMCEN
 40
0.09
  9
$DIMTSZ
 40
0.0
  9
$DIMTOL
 70
     0
  9
$DIMLIM
 70
     0
  9
$DIMTIH
 70
     1
  9
$DIMTOH
 70
     1
  9
$DIMSE1
 70
     0
  9
$DIMSE2
 70
     0
  9
$DIMTAD
 70
     0
  9
$DIMZIN
 70
     0
  9
$DIMBLK
  1

  9
$LUNITS
 70
     2
  9
$LUPREC
 70
     4
  9
$AXISMODE
 70
     0
  9
$AXISUNIT
 10
0.0
 20
0.0
  9
$SKETCHINC
 40
0.1
  9
$FILLETRAD
 40
0.0
  9
$AUNITS
 70
     0
  9
$AUPREC
 70
     0
  9
$MENU
  1
ACAD
  9
$ELEVATION
 40
0.0
  9
$THICKNESS
 40
0.0
  9
$VIEWDIR
 10
0.0
 20
0.0
 30
1.0
  9
$LIMCHECK
 70
     0
  9
$BLIPMODE
 70
     1
  9
$CHAMFERA
 40
0.0
  9
$CHAMFERB
 40
0.0
  9
$FASTZOOM
 70
     1
  9
$SKPOLY
 70
     0
  9
$TDCREATE
 40
2447880.6862963460
  9
$TDUPDATE
 40
2447880.6862963460
  9
$TDINDWG
 40
0.0082638889
  9
$TDUSRTIMER
 40
0.0082638889
  9
$USRTIMER
 70
     1
  9
$ANGBASE
 50
0.0
  9
$ANGDIR
 70
     0
  9
$PDMODE
 70
     0
  9
$PDSIZE
 40
0.0
  9
$PLINEWID
 40
0.0
  9
$COORDS
 70
     0
  9
$USERI1
 70
     0
  9
$USERI2
 70
     0
  9
$USERI3
 70
     0
  9
$USERI4
 70
     0
  9
$USERI5
 70
     0
  9
$USERR1
 40
0.0
  9
$USERR2
 40
0.0
  9
$USERR3
 40
0.0
  9
$USERR4
 40
0.0
  9
$USERR5
 40
0.0
  0
ENDSEC
  0
SECTION
  2
TABLES
  0
TABLE
  2
LTYPE
 70
     2
  0
LTYPE
  2
CONTINUOUS
 70
    64
  3
SOLID
 72
    65
 73
     0
 40
0.0
  0
LTYPE
  2
CENTER
 70
    64
  3
CENTER
 72
    65
 73
     4
 40
2.0
 49
1.25
 49
-0.25
 49
0.25
 49
-0.25
  0
ENDTAB
  0
TABLE
  2
LAYER
 70
     1
  0
LAYER
  2
0
 70
    64
 62
     7
  6
CONTINUOUS
  0
ENDTAB
  0
TABLE
  2
STYLE
 70
     2
  0
STYLE
  2
AAA
 70
     0
 40
0.0
 41
1.0
 50
0.0
 71
     0
 42
0.2
  3
TXT
  4

  0
STYLE
  2
STANDARD
 70
    64
 40
0.0
 41
1.0
 50
0.0
 71
     0
 42
0.2
  3
TXT
  4
BIGFONT
  0
ENDTAB
  0
TABLE
  2
VIEW
 70
     0
  0
ENDTAB
  0
ENDSEC
  0
SECTION
  2
BLOCKS
  0
ENDSEC
  0
SECTION
  2
ENTITIES
  0
POINT
  8
0
  6
CONTINUOUS
 62
     7
 10
-168.4367
 20
150.2774
  0
POINT
  8
0
  6
CONTINUOUS
 62
     7
 10
-195.4367
 20
150.2774
  0
POINT
  8
0
  6
CONTINUOUS
 62
     7
 10
-195.4368
 20
1.60001
  0
POINT
  8
0
  6
CONTINUOUS
 62
     7
 10
-168.4368
 20
1.60001
  0
POINT
  8
0
  6
CONTINUOUS
 62
     7
 10
-168.4368
 20
-49.10001
  0
POINT
  8
0
  6
CONTINUOUS
 62
     7
 10
-168.4368
 20
22.3
  0
POINT
  8
0
  6
CONTINUOUS
 62
     7
 10
-36.31221
 20
1.60011
  0
POINT
  8
0
  6
CONTINUOUS
 62
     7
 10
-42.81221
 20
-49.09988
  0
POINT
  8
0
  6
CONTINUOUS
 62
     7
 10
-43.31221
 20
-21.3999
  0
POINT
  8
0
  6
CONTINUOUS
 62
     7
 10
-42.31221
 20
-5.3999
  0
POINT
  8
0
  6
CONTINUOUS
 62
     7
 10
-42.81221
 20
22.30011
  0
POINT
  8
0
  6
CONTINUOUS
 62
     7
 10
-298.0613
 20
1.60013
  0
POINT
  8
0
  6
CONTINUOUS
 62
     7
 10
-313.5613
 20
1.60013
  0
POINT
  8
0
  6
CONTINUOUS
 62
     7
 10
-307.5613
 20
-26.59988
  0
POINT
  8
0
  6
CONTINUOUS
 62
     7
 10
-307.0613
 20
-13.39987
  0
POINT
  8
0
  6
CONTINUOUS
 62
     7
 10
-306.5613
 20
-0.19986
  0
POINT
  8
0
  6
CONTINUOUS
 62
     7
 10
-195.4367
 20
-185.679
  0
POINT
  8
0
  6
CONTINUOUS
 62
     7
 10
-168.4367
 20
-185.679
  0
POINT
  8
0
  6
CONTINUOUS
 62
     7
 10
175.4368
 20
1.60002
  0
POINT
  8
0
  6
CONTINUOUS
 62
     7
 10
168.9368
 20
-49.09998
  0
POINT
  8
0
  6
CONTINUOUS
 62
     7
 10
168.9368
 20
22.30002
  0
POINT
  8
0
  6
CONTINUOUS
 62
     7
 10
175.4371
 20
150.2773
  0
POINT
  8
0
  6
CONTINUOUS
 62
     7
 10
68.81203
 20
1.6002
  0
POINT
  8
0
  6
CONTINUOUS
 62
     7
 10
41.81203
 20
1.6002
  0
POINT
  8
0
  6
CONTINUOUS
 62
     7
 10
68.81197
 20
-49.09979
  0
POINT
  8
0
  6
CONTINUOUS
 62
     7
 10
68.81197
 20
22.3002
  0
POINT
  8
0
  6
CONTINUOUS
 62
     7
 10
175.437
 20
-185.6791
  0
POINT
  8
0
  6
CONTINUOUS
 62
     7
 10
299.0611
 20
1.6001
  0
POINT
  8
0
  6
CONTINUOUS
 62
     7
 10
272.0611
 20
-49.0999
  0
POINT
  8
0
  6
CONTINUOUS
 62
     7
 10
272.0611
 20
22.30009
  0
LINE
  8
0
  6
CONTINUOUS
 62
     7
 10
218.3292
 20
-225.9564
 11
370.8736
 21
-225.9564
  0
LINE
  8
0
  6
CONTINUOUS
 62
     7
 10
-218.3292
 20
225.9564
 11
-218.3292
 21
254.5585
  0
LINE
  8
0
  6
CONTINUOUS
 62
     7
 10
-370.8736
 20
225.9564
 11
-218.3292
 21
225.9564
  0
LINE
  8
0
  6
CONTINUOUS
 62
     7
 10
-370.8736
 20
254.5585
 11
370.8736
 21
254.5585
  0
LINE
  8
0
  6
CONTINUOUS
 62
     7
 10
-370.8736
 20
-254.5585
 11
370.8736
 21
-254.5585
  0
LINE
  8
0
  6
CONTINUOUS
 62
     7
 10
370.8736
 20
254.5585
 11
370.8736
 21
-254.5585
  0
LINE
  8
0
  6
CONTINUOUS
 62
     7
 10
-370.8736
 20
-254.5585
 11
-370.8736
 21
254.5585
  0
LINE
  8
0
  6
CONTINUOUS
 62
     7
 10
218.3292
 20
-225.9564
 11
218.3292
 21
-254.5585
  0
LINE
  8
0
  6
CONTINUOUS
 62
     7
 10
218.3292
 20
254.5585
 11
218.3292
 21
225.9564
  0
LINE
  8
0
  6
CONTINUOUS
 62
     7
 10
218.3292
 20
225.9564
 11
370.8736
 21
225.9564
  0
LINE
  8
0
  6
CONTINUOUS
 62
     7
 10
258.3816
 20
-232.8337
 11
258.3816
 21
-236.1516
  0
LINE
  8
0
  6
CONTINUOUS
 62
     7
 10
258.3816
 20
-236.1516
 11
270.8235
 21
-236.1516
  0
LINE
  8
0
  6
CONTINUOUS
 62
     7
 10
258.3816
 20
-249.1465
 11
275.2473
 21
-249.1465
  0
LINE
  8
0
  6
CONTINUOUS
 62
     7
 10
258.3816
 20
-245.8286
 11
270.8235
 21
-245.8286
  0
LINE
  8
0
  6
CONTINUOUS
 62
     7
 10
258.3816
 20
-232.8337
 11
273.0354
 21
-232.8337
  0
LINE
  8
0
  6
CONTINUOUS
 62
     7
 10
270.8235
 20
-236.1516
 11
270.8235
 21
-245.8286
  0
LINE
  8
0
  6
CONTINUOUS
 62
     7
 10
275.2473
 20
-235.0457
 11
275.2473
 21
-249.1465
  0
LINE
  8
0
  6
CONTINUOUS
 62
     7
 10
258.3816
 20
-245.8286
 11
258.3816
 21
-249.1465
  0
LINE
  8
0
  6
CONTINUOUS
 62
     7
 10
293.4954
 20
-236.1516
 11
293.4954
 21
-246.9346
  0
LINE
  8
0
  6
CONTINUOUS
 62
     7
 10
277.7357
 20
-232.8337
 11
277.7357
 21
-236.1516
  0
LINE
  8
0
  6
CONTINUOUS
 62
     7
 10
293.9378
 20
-232.585
 11
295.5138
 21
-232.585
  0
LINE
  8
0
  6
CONTINUOUS
 62
     7
 10
293.9378
 20
-230.373
 11
295.5138
 21
-230.373
  0
LINE
  8
0
  6
CONTINUOUS
 62
     7
 10
295.5138
 20
-230.373
 11
295.5138
 21
-232.585
  0
LINE
  8
0
  6
CONTINUOUS
 62
     7
 10
293.9378
 20
-230.373
 11
293.9378
 21
-232.585
  0
LINE
  8
0
  6
CONTINUOUS
 62
     7
 10
293.1083
 20
-230.373
 11
293.1083
 21
-232.585
  0
LINE
  8
0
  6
CONTINUOUS
 62
     7
 10
282.7661
 20
-230.373
 11
286.2009
 21
-230.373
  0
LINE
  8
0
  6
CONTINUOUS
 62
     7
 10
285.5413
 20
-232.8335
 11
286.2006
 21
-230.3727
  0
LINE
  8
0
  6
CONTINUOUS
 62
     7
 10
282.1067
 20
-232.8337
 11
282.766
 21
-230.373
  0
LINE
  8
0
  6
CONTINUOUS
 62
     7
 10
285.5416
 20
-232.8337
 11
290.1776
 21
-232.8337
  0
LINE
  8
0
  6
CONTINUOUS
 62
     7
 10
284.6526
 20
-236.1516
 11
289.0716
 21
-236.1516
  0
LINE
  8
0
  6
CONTINUOUS
 62
     7
 10
286.6429
 20
-249.1465
 11
291.2836
 21
-249.1465
  0
LINE
  8
0
  6
CONTINUOUS
 62
     7
 10
285.7537
 20
-245.8286
 11
286.6427
 21
-249.1463
  0
LINE
  8
0
  6
CONTINUOUS
 62
     7
 10
285.7538
 20
-245.8286
 11
289.0716
 21
-245.8286
  0
LINE
  8
0
  6
CONTINUOUS
 62
     7
 10
281.1707
 20
-249.1466
 11
284.6527
 21
-236.1517
  0
LINE
  8
0
  6
CONTINUOUS
 62
     7
 10
277.7357
 20
-236.1516
 11
281.2177
 21
-236.1516
  0
LINE
  8
0
  6
CONTINUOUS
 62
     7
 10
277.7354
 20
-249.1462
 11
281.2175
 21
-236.1513
  0
LINE
  8
0
  6
CONTINUOUS
 62
     7
 10
277.7357
 20
-249.1465
 11
281.1706
 21
-249.1465
  0
LINE
  8
0
  6
CONTINUOUS
 62
     7
 10
277.7357
 20
-232.8337
 11
282.1067
 21
-232.8337
  0
LINE
  8
0
  6
CONTINUOUS
 62
     7
 10
289.0716
 20
-236.1516
 11
289.0716
 21
-245.8286
  0
LINE
  8
0
  6
CONTINUOUS
 62
     7
 10
291.5323
 20
-230.373
 11
293.1083
 21
-230.373
  0
LINE
  8
0
  6
CONTINUOUS
 62
     7
 10
291.5323
 20
-232.585
 11
293.1083
 21
-232.585
  0
LINE
  8
0
  6
CONTINUOUS
 62
     7
 10
291.5323
 20
-230.373
 11
291.5323
 21
-232.585
  0
LINE
  8
0
  6
CONTINUOUS
 62
     7
 10
301.5135
 20
-230.373
 11
305.9373
 21
-230.373
  0
LINE
  8
0
  6
CONTINUOUS
 62
     7
 10
308.3423
 20
-240.1951
 11
311.2962
 21
-238.8176
  0
LINE
  8
0
  6
CONTINUOUS
 62
     7
 10
305.9373
 20
-242.7344
 11
305.9373
 21
-249.1465
  0
LINE
  8
0
  6
CONTINUOUS
 62
     7
 10
301.5135
 20
-243.379
 11
301.5135
 21
-249.1465
  0
LINE
  8
0
  6
CONTINUOUS
 62
     7
 10
305.9373
 20
-232.8337
 11
310.3611
 21
-232.8337
  0
LINE
  8
0
  6
CONTINUOUS
 62
     7
 10
305.9373
 20
-230.373
 11
305.9373
 21
-232.8337
  0
LINE
  8
0
  6
CONTINUOUS
 62
     7
 10
301.5135
 20
-230.373
 11
301.5135
 21
-232.8337
  0
LINE
  8
0
  6
CONTINUOUS
 62
     7
 10
312.573
 20
-235.0457
 11
312.573
 21
-236.8128
  0
LINE
  8
0
  6
CONTINUOUS
 62
     7
 10
308.3424
 20
-240.195
 11
312.5734
 21
-242.168
  0
LINE
  8
0
  6
CONTINUOUS
 62
     7
 10
305.9373
 20
-242.7343
 11
312.5731
 21
-245.8286
  0
LINE
  8
0
  6
CONTINUOUS
 62
     7
 10
296.2603
 20
-242.1678
 11
296.2603
 21
-245.8286
  0
LINE
  8
0
  6
CONTINUOUS
 62
     7
 10
296.2607
 20
-242.1682
 11
309.1626
 21
-236.1519
  0
LINE
  8
0
  6
CONTINUOUS
 62
     7
 10
296.2603
 20
-245.8286
 11
301.5136
 21
-243.3789
  0
LINE
  8
0
  6
CONTINUOUS
 62
     7
 10
312.573
 20
-242.1678
 11
312.573
 21
-245.8286
  0
LINE
  8
0
  6
CONTINUOUS
 62
     7
 10
296.2603
 20
-232.8337
 11
296.2603
 21
-236.1516
  0
LINE
  8
0
  6
CONTINUOUS
 62
     7
 10
301.5135
 20
-249.1465
 11
305.9373
 21
-249.1465
  0
LINE
  8
0
  6
CONTINUOUS
 62
     7
 10
296.2603
 20
-236.1516
 11
309.1621
 21
-236.1516
  0
LINE
  8
0
  6
CONTINUOUS
 62
     7
 10
296.2603
 20
-232.8337
 11
301.5135
 21
-232.8337
  0
LINE
  8
0
  6
CONTINUOUS
 62
     7
 10
327.504
 20
-236.4047
 11
328.73
 21
-235.9171
  0
LINE
  8
0
  6
CONTINUOUS
 62
     7
 10
327.5034
 20
-236.4044
 11
327.5034
 21
-249.1465
  0
LINE
  8
0
  6
CONTINUOUS
 62
     7
 10
323.0795
 20
-249.1465
 11
327.5034
 21
-249.1465
  0
LINE
  8
0
  6
CONTINUOUS
 62
     7
 10
313.9553
 20
-241.7925
 11
323.0794
 21
-238.1637
  0
LINE
  8
0
  6
CONTINUOUS
 62
     7
 10
313.9555
 20
-238.222
 11
326.8062
 21
-233.1111
  0
LINE
  8
0
  6
CONTINUOUS
 62
     7
 10
323.0795
 20
-238.1638
 11
323.0795
 21
-249.1465
  0
LINE
  8
0
  6
CONTINUOUS
 62
     7
 10
327.5034
 20
-231.3684
 11
327.5034
 21
-232.0834
  0
LINE
  8
0
  6
CONTINUOUS
 62
     7
 10
330.8211
 20
-231.3684
 11
330.8211
 21
-232.8338
  0
LINE
  8
0
  6
CONTINUOUS
 62
     7
 10
313.9554
 20
-238.2219
 11
313.9554
 21
-241.7925
  0
LINE
  8
0
  6
CONTINUOUS
 62
     7
 10
327.5034
 20
-231.3684
 11
330.8211
 21
-231.3684
  0
LINE
  8
0
  6
CONTINUOUS
 62
     7
 10
0.0
 20
254.5585
 11
0.0
 21
-254.5585
  0
LINE
  8
0
  6
CONTINUOUS
 62
     7
 10
-169.4367
 20
136.2774
 11
-169.4367
 21
135.7774
  0
LINE
  8
0
  6
CONTINUOUS
 62
     7
 10
-168.4367
 20
151.2774
 11
-168.4367
 21
152.2774
  0
LINE
  8
0
  6
CENTER
 62
     2
 10
-197.833
 20
143.7774
 11
-136.4913
 21
143.7774
  0
LINE
  8
0
  6
CONTINUOUS
 62
     7
 10
-194.9367
 20
152.7774
 11
-168.9367
 21
152.7774
  0
LINE
  8
0
  6
CONTINUOUS
 62
     7
 10
-194.9367
 20
134.7774
 11
-168.9367
 21
134.7774
  0
LINE
  8
0
  6
CONTINUOUS
 62
     7
 10
-168.4367
 20
135.2774
 11
-168.4367
 21
136.2774
  0
LINE
  8
0
  6
CONTINUOUS
 62
     7
 10
-195.4367
 20
135.2774
 11
-195.4367
 21
152.2774
  0
LINE
  8
0
  6
CENTER
 62
     2
 10
-181.9367
 20
132.0274
 11
-181.9367
 21
156.0049
  0
LINE
  8
0
  6
CONTINUOUS
 62
     7
 10
-194.4367
 20
151.7774
 11
-169.4367
 21
151.7774
  0
LINE
  8
0
  6
CONTINUOUS
 62
     7
 10
-194.4367
 20
135.7774
 11
-169.4367
 21
135.7774
  0
LINE
  8
0
  6
CONTINUOUS
 62
     7
 10
-194.4367
 20
151.7774
 11
-194.4367
 21
135.7774
  0
LINE
  8
0
  6
CONTINUOUS
 62
     7
 10
-169.4367
 20
151.7774
 11
-169.4367
 21
151.2774
  0
LINE
  8
0
  6
CONTINUOUS
 62
     7
 10
-169.4368
 20
135.7774
 11
-168.5832
 21
134.9238
  0
LINE
  8
0
  6
CONTINUOUS
 62
     7
 10
-194.4367
 20
135.7774
 11
-195.2903
 21
134.9239
  0
LINE
  8
0
  6
CONTINUOUS
 62
     7
 10
-169.4367
 20
151.7774
 11
-168.5832
 21
152.631
  0
LINE
  8
0
  6
CONTINUOUS
 62
     7
 10
-194.4367
 20
151.7775
 11
-195.2902
 21
152.6311
  0
LINE
  8
0
  6
CONTINUOUS
 62
     7
 10
-169.9367
 20
151.2774
 11
-169.9367
 21
136.2774
  0
LINE
  8
0
  6
CONTINUOUS
 62
     7
 10
-172.9367
 20
142.2774
 11
-169.9367
 21
142.2774
  0
LINE
  8
0
  6
CONTINUOUS
 62
     7
 10
-190.9367
 20
145.2774
 11
-193.9367
 21
145.2774
  0
LINE
  8
0
  6
CONTINUOUS
 62
     7
 10
-187.9367
 20
148.2774
 11
-187.9367
 21
151.2774
  0
LINE
  8
0
  6
CONTINUOUS
 62
     7
 10
-175.9367
 20
139.2774
 11
-175.9367
 21
136.2774
  0
LINE
  8
0
  6
CONTINUOUS
 62
     7
 10
-192.9367
 20
145.2774
 11
-192.9367
 21
137.2774
  0
LINE
  8
0
  6
CONTINUOUS
 62
     7
 10
-170.9367
 20
150.2774
 11
-170.9367
 21
142.2774
  0
LINE
  8
0
  6
CONTINUOUS
 62
     7
 10
-187.9367
 20
150.2774
 11
-170.9367
 21
150.2774
  0
LINE
  8
0
  6
CONTINUOUS
 62
     7
 10
-192.9367
 20
137.2774
 11
-175.9367
 21
137.2774
  0
LINE
  8
0
  6
CONTINUOUS
 62
     7
 10
-172.6367
 20
137.0475
 11
-172.6367
 21
136.7451
  0
LINE
  8
0
  6
CONTINUOUS
 62
     7
 10
-173.2367
 20
137.0475
 11
-173.2367
 21
136.7451
  0
LINE
  8
0
  6
CONTINUOUS
 62
     7
 10
-173.3975
 20
136.7694
 11
-173.3975
 21
137.0751
  0
LINE
  8
0
  6
CONTINUOUS
 62
     7
 10
-191.2367
 20
150.5074
 11
-191.2367
 21
150.8097
  0
LINE
  8
0
  6
CONTINUOUS
 62
     7
 10
-190.6367
 20
150.5074
 11
-190.6367
 21
150.8097
  0
LINE
  8
0
  6
CONTINUOUS
 62
     7
 10
-190.4759
 20
150.7855
 11
-190.4759
 21
150.4798
  0
LINE
  8
0
  6
CONTINUOUS
 62
     7
 10
-174.0398
 20
138.5421
 11
-173.6721
 21
138.9098
  0
LINE
  8
0
  6
CONTINUOUS
 62
     7
 10
-173.6721
 20
138.1744
 11
-173.3044
 21
138.542
  0
LINE
  8
0
  6
CONTINUOUS
 62
     7
 10
-174.0397
 20
138.5421
 11
-173.672
 21
138.1744
  0
LINE
  8
0
  6
CONTINUOUS
 62
     7
 10
-172.2013
 20
140.3806
 11
-171.8336
 21
140.0129
  0
LINE
  8
0
  6
CONTINUOUS
 62
     7
 10
-174.7009
 20
140.674
 11
-173.6721
 21
139.6452
  0
LINE
  8
0
  6
CONTINUOUS
 62
     7
 10
-174.3332
 20
141.0417
 11
-173.3044
 21
140.0129
  0
LINE
  8
0
  6
CONTINUOUS
 62
     7
 10
-172.569
 20
140.0129
 11
-172.2013
 21
140.3806
  0
LINE
  8
0
  6
CONTINUOUS
 62
     7
 10
-172.2013
 20
139.6452
 11
-171.8336
 21
140.0128
  0
LINE
  8
0
  6
CONTINUOUS
 62
     7
 10
-172.569
 20
138.5421
 11
-171.5403
 21
137.5133
  0
LINE
  8
0
  6
CONTINUOUS
 62
     7
 10
-172.2013
 20
138.9098
 11
-171.1725
 21
137.881
  0
LINE
  8
0
  6
CONTINUOUS
 62
     7
 10
-192.0398
 20
147.5421
 11
-191.6721
 21
147.9098
  0
LINE
  8
0
  6
CONTINUOUS
 62
     7
 10
-191.6721
 20
147.1744
 11
-191.3045
 21
147.5421
  0
LINE
  8
0
  6
CONTINUOUS
 62
     7
 10
-192.0397
 20
147.5421
 11
-191.6721
 21
147.1744
  0
LINE
  8
0
  6
CONTINUOUS
 62
     7
 10
-190.2013
 20
149.3806
 11
-189.8336
 21
149.0129
  0
LINE
  8
0
  6
CONTINUOUS
 62
     7
 10
-192.7009
 20
149.674
 11
-191.6721
 21
148.6452
  0
LINE
  8
0
  6
CONTINUOUS
 62
     7
 10
-192.3332
 20
150.0417
 11
-191.3044
 21
149.0129
  0
LINE
  8
0
  6
CONTINUOUS
 62
     7
 10
-190.569
 20
149.0129
 11
-190.2013
 21
149.3806
  0
LINE
  8
0
  6
CONTINUOUS
 62
     7
 10
-190.2014
 20
148.6451
 11
-189.8337
 21
149.0128
  0
LINE
  8
0
  6
CONTINUOUS
 62
     7
 10
-190.569
 20
147.5421
 11
-189.5402
 21
146.5133
  0
LINE
  8
0
  6
CONTINUOUS
 62
     7
 10
-190.2013
 20
147.9098
 11
-189.1725
 21
146.881
  0
LINE
  8
0
  6
CENTER
 62
     2
 10
-172.9367
 20
143.2774
 11
-172.9367
 21
135.2774
  0
LINE
  8
0
  6
CENTER
 62
     2
 10
-190.9367
 20
152.2774
 11
-190.9367
 21
144.2774
  0
LINE
  8
0
  6
CENTER
 62
     2
 10
-194.9367
 20
148.2774
 11
-186.9367
 21
148.2774
  0
LINE
  8
0
  6
CENTER
 62
     2
 10
-176.9367
 20
139.2774
 11
-168.9367
 21
139.2774
  0
LINE
  8
0
  6
CONTINUOUS
 62
     7
 10
-193.4367
 20
151.2774
 11
-162.9367
 21
151.2774
  0
LINE
  8
0
  6
CONTINUOUS
 62
     7
 10
-193.9367
 20
150.7774
 11
-193.9367
 21
136.7774
  0
LINE
  8
0
  6
CONTINUOUS
 62
     7
 10
-193.4367
 20
136.2774
 11
-162.9367
 21
136.2774
  0
LINE
  8
0
  6
CONTINUOUS
 62
     7
 10
-166.9367
 20
151.2774
 11
-166.9367
 21
136.2774
  0
LINE
  8
0
  6
CONTINUOUS
 62
     7
 10
-162.9367
 20
151.2774
 11
-162.9367
 21
136.2774
  0
LINE
  8
0
  6
CENTER
 62
     2
 10
-147.3367
 20
154.1774
 11
-147.3367
 21
133.3774
  0
LINE
  8
0
  6
CONTINUOUS
 62
     7
 10
-150.8737
 20
150.2774
 11
-143.7998
 21
150.2774
  0
LINE
  8
0
  6
CONTINUOUS
 62
     7
 10
-150.8737
 20
137.2774
 11
-143.7998
 21
137.2774
  0
LINE
  8
0
  6
CONTINUOUS
 62
     7
 10
-143.476
 20
150.0906
 11
-139.9391
 21
143.9644
  0
LINE
  8
0
  6
CONTINUOUS
 62
     7
 10
-154.7344
 20
143.5906
 11
-151.1974
 21
137.4644
  0
LINE
  8
0
  6
CONTINUOUS
 62
     7
 10
-139.9391
 20
143.5905
 11
-143.476
 21
137.4644
  0
LINE
  8
0
  6
CONTINUOUS
 62
     7
 10
-151.1974
 20
150.0905
 11
-154.7344
 21
143.9644
  0
LINE
  8
0
  6
CONTINUOUS
 62
     7
 10
-139.9367
 20
150.6774
 11
-139.9367
 21
136.8774
  0
LINE
  8
0
  6
CONTINUOUS
 62
     7
 10
-138.7649
 20
140.9774
 11
-139.4367
 21
140.9774
  0
LINE
  8
0
  6
CONTINUOUS
 62
     7
 10
-138.7649
 20
146.5775
 11
-139.4367
 21
146.5775
  0
LINE
  8
0
  6
CONTINUOUS
 62
     7
 10
-139.4367
 20
147.0275
 11
-139.9367
 21
147.0275
  0
LINE
  8
0
  6
CONTINUOUS
 62
     7
 10
-139.4367
 20
140.5275
 11
-139.4367
 21
147.0275
  0
LINE
  8
0
  6
CONTINUOUS
 62
     7
 10
-139.4367
 20
140.5275
 11
-139.9367
 21
140.5275
  0
LINE
  8
0
  6
CONTINUOUS
 62
     7
 10
-162.9367
 20
136.3774
 11
-140.4367
 21
136.3774
  0
LINE
  8
0
  6
CONTINUOUS
 62
     7
 10
-162.9367
 20
151.1774
 11
-140.4367
 21
151.1774
  0
LINE
  8
0
  6
CONTINUOUS
 62
     7
 10
-162.4367
 20
151.1774
 11
-162.4367
 21
136.3774
  0
LINE
  8
0
  6
CENTER
 62
     2
 10
-181.9368
 20
57.15001
 11
-181.9368
 21
-84.14999
  0
LINE
  8
0
  6
CONTINUOUS
 62
     7
 10
-168.4368
 20
24.8
 11
-168.4368
 21
-51.60001
  0
LINE
  8
0
  6
CONTINUOUS
 62
     7
 10
-195.4368
 20
24.8
 11
-195.4368
 21
-51.60001
  0
LINE
  8
0
  6
CONTINUOUS
 62
     7
 10
-195.4368
 20
-34.39999
 11
-168.4368
 21
-34.39999
  0
LINE
  8
0
  6
CONTINUOUS
 62
     7
 10
-195.4368
 20
7.60001
 11
-168.4368
 21
7.60001
  0
LINE
  8
0
  6
CONTINUOUS
 62
     7
 10
-194.4368
 20
25.79999
 11
-195.4368
 21
24.80001
  0
LINE
  8
0
  6
CONTINUOUS
 62
     7
 10
-169.4368
 20
25.79998
 11
-168.4368
 21
24.79998
  0
LINE
  8
0
  6
CONTINUOUS
 62
     7
 10
-171.4368
 20
-26.74167
 11
-168.4368
 21
-26.74167
  0
LINE
  8
0
  6
CONTINUOUS
 62
     7
 10
-171.4368
 20
-30.05832
 11
-168.4368
 21
-30.05832
  0
LINE
  8
0
  6
CONTINUOUS
 62
     7
 10
-171.4368
 20
-26.74167
 11
-171.4368
 21
-30.05832
  0
LINE
  8
0
  6
CONTINUOUS
 62
     7
 10
-194.4368
 20
25.8
 11
-162.9368
 21
25.8
  0
LINE
  8
0
  6
CONTINUOUS
 62
     7
 10
-195.4368
 20
24.8
 11
-168.4368
 21
24.8
  0
LINE
  8
0
  6
CONTINUOUS
 62
     7
 10
-195.4368
 20
-51.59999
 11
-194.4368
 21
-52.59999
  0
LINE
  8
0
  6
CONTINUOUS
 62
     7
 10
-168.4368
 20
-51.59999
 11
-169.4368
 21
-52.59999
  0
LINE
  8
0
  6
CONTINUOUS
 62
     7
 10
-195.4368
 20
-51.60001
 11
-168.4368
 21
-51.60001
  0
LINE
  8
0
  6
CONTINUOUS
 62
     7
 10
-194.4368
 20
-52.60001
 11
-162.9368
 21
-52.60001
  0
LINE
  8
0
  6
CENTER
 62
     2
 10
-174.4368
 20
4.80864
 11
-174.4368
 21
-1.55508
  0
LINE
  8
0
  6
CENTER
 62
     2
 10
-177.4665
 20
-28.39999
 11
-167.453
 21
-28.39999
  0
LINE
  8
0
  6
CENTER
 62
     2
 10
-177.4665
 20
1.60001
 11
-171.3836
 21
1.60001
  0
LINE
  8
0
  6
CENTER
 62
     2
 10
-174.4368
 20
-25.5126
 11
-174.4368
 21
-31.50198
  0
LINE
  8
0
  6
CONTINUOUS
 62
     7
 10
-193.9368
 20
51.0
 11
-166.9368
 21
51.0
  0
LINE
  8
0
  6
CONTINUOUS
 62
     7
 10
-193.9368
 20
52.0
 11
-193.9368
 21
25.8
  0
LINE
  8
0
  6
CONTINUOUS
 62
     7
 10
-169.9368
 20
51.99998
 11
-169.9368
 21
51.0
  0
LINE
  8
0
  6
CONTINUOUS
 62
     7
 10
-192.9368
 20
54.0
 11
-174.7626
 21
54.0
  0
LINE
  8
0
  6
CONTINUOUS
 62
     7
 10
-193.9368
 20
52.0
 11
-169.9368
 21
52.0
  0
LINE
  8
0
  6
CONTINUOUS
 62
     7
 10
-193.9367
 20
51.99998
 11
-192.9367
 21
53.99999
  0
LINE
  8
0
  6
CONTINUOUS
 62
     7
 10
-169.9368
 20
52.00002
 11
-170.9368
 21
54.00002
  0
LINE
  8
0
  6
CONTINUOUS
 62
     7
 10
-175.9368
 20
54.0
 11
-175.9368
 21
52.0
  0
LINE
  8
0
  6
CENTER
 62
     2
 10
-172.9368
 20
57.0
 11
-172.9368
 21
48.0
  0
LINE
  8
0
  6
CONTINUOUS
 62
     7
 10
-170.3868
 20
52.60001
 11
-175.4868
 21
52.60001
  0
LINE
  8
0
  6
CONTINUOUS
 62
     7
 10
-173.2367
 20
52.00001
 11
-173.3975
 21
52.60001
  0
LINE
  8
0
  6
CONTINUOUS
 62
     7
 10
-172.6368
 20
52.60002
 11
-172.476
 21
52.00002
  0
LINE
  8
0
  6
CONTINUOUS
 62
     7
 10
-170.3868
 20
52.60001
 11
-170.3868
 21
52.0
  0
LINE
  8
0
  6
CONTINUOUS
 62
     7
 10
-175.4868
 20
52.60001
 11
-175.4868
 21
52.0
  0
LINE
  8
0
  6
CONTINUOUS
 62
     7
 10
-170.6868
 20
53.29376
 11
-170.6868
 21
52.60001
  0
LINE
  8
0
  6
CONTINUOUS
 62
     7
 10
-175.1868
 20
53.29375
 11
-175.1868
 21
52.60001
  0
LINE
  8
0
  6
CONTINUOUS
 62
     7
 10
-171.111
 20
54.0
 11
-170.9368
 21
54.0
  0
LINE
  8
0
  6
CENTER
 62
     2
 10
-190.9368
 20
57.0
 11
-190.9368
 21
48.0
  0
LINE
  8
0
  6
CONTINUOUS
 62
     7
 10
-166.9368
 20
51.0
 11
-166.9368
 21
25.8
  0
LINE
  8
0
  6
CONTINUOUS
 62
     7
 10
-166.9368
 20
50.8
 11
-162.9368
 21
50.8
  0
LINE
  8
0
  6
CENTER
 62
     2
 10
-169.9368
 20
42.8
 11
-134.5368
 21
42.8
  0
LINE
  8
0
  6
CONTINUOUS
 62
     7
 10
-139.9368
 20
68.97623
 11
-139.9368
 21
62.5
  0
LINE
  8
0
  6
CONTINUOUS
 62
     7
 10
-162.9368
 20
35.40001
 11
-140.4368
 21
35.40001
  0
LINE
  8
0
  6
CONTINUOUS
 62
     7
 10
-162.9368
 20
50.20001
 11
-140.4368
 21
50.20001
  0
LINE
  8
0
  6
CONTINUOUS
 62
     7
 10
-154.7368
 20
68.97626
 11
-154.7368
 21
62.5
  0
LINE
  8
0
  6
CONTINUOUS
 62
     7
 10
-153.1368
 20
69.90001
 11
-141.5368
 21
69.90001
  0
LINE
  8
0
  6
CONTINUOUS
 62
     7
 10
-138.765
 20
40.00003
 11
-139.4368
 21
40.00003
  0
LINE
  8
0
  6
CONTINUOUS
 62
     7
 10
-138.765
 20
45.60002
 11
-139.4368
 21
45.60002
  0
LINE
  8
0
  6
CONTINUOUS
 62
     7
 10
-139.4368
 20
39.55002
 11
-139.4368
 21
46.05002
  0
LINE
  8
0
  6
CONTINUOUS
 62
     7
 10
-139.4368
 20
39.55002
 11
-139.9368
 21
39.55002
  0
LINE
  8
0
  6
CONTINUOUS
 62
     7
 10
-139.4368
 20
46.05002
 11
-139.9368
 21
46.05002
  0
LINE
  8
0
  6
CONTINUOUS
 62
     7
 10
-154.7368
 20
62.5
 11
-139.9368
 21
62.5
  0
LINE
  8
0
  6
CONTINUOUS
 62
     7
 10
-154.7368
 20
63.5
 11
-139.9368
 21
63.5
  0
LINE
  8
0
  6
CONTINUOUS
 62
     7
 10
-152.3368
 20
47.8
 11
-142.3368
 21
47.8
  0
LINE
  8
0
  6
CONTINUOUS
 62
     7
 10
-152.3368
 20
37.8
 11
-142.3368
 21
37.8
  0
LINE
  8
0
  6
CONTINUOUS
 62
     7
 10
-152.3368
 20
47.8
 11
-152.3368
 21
37.8
  0
LINE
  8
0
  6
CONTINUOUS
 62
     7
 10
-142.3368
 20
47.8
 11
-142.3368
 21
37.8
  0
LINE
  8
0
  6
CONTINUOUS
 62
     7
 10
-151.3368
 20
47.8
 11
-151.3368
 21
37.8
  0
LINE
  8
0
  6
CONTINUOUS
 62
     7
 10
-150.3368
 20
47.8
 11
-150.3368
 21
37.8
  0
LINE
  8
0
  6
CONTINUOUS
 62
     7
 10
-149.3368
 20
47.8
 11
-149.3368
 21
37.8
  0
LINE
  8
0
  6
CONTINUOUS
 62
     7
 10
-148.3368
 20
47.8
 11
-148.3368
 21
37.8
  0
LINE
  8
0
  6
CONTINUOUS
 62
     7
 10
-147.3368
 20
47.8
 11
-147.3368
 21
37.8
  0
LINE
  8
0
  6
CONTINUOUS
 62
     7
 10
-146.3368
 20
47.8
 11
-146.3368
 21
37.8
  0
LINE
  8
0
  6
CONTINUOUS
 62
     7
 10
-145.3368
 20
47.8
 11
-145.3368
 21
37.8
  0
LINE
  8
0
  6
CONTINUOUS
 62
     7
 10
-144.3368
 20
47.8
 11
-144.3368
 21
37.8
  0
LINE
  8
0
  6
CONTINUOUS
 62
     7
 10
-143.3368
 20
47.8
 11
-143.3368
 21
37.8
  0
LINE
  8
0
  6
CONTINUOUS
 62
     7
 10
-141.5368
 20
69.9
 11
-139.9368
 21
68.97623
  0
LINE
  8
0
  6
CONTINUOUS
 62
     7
 10
-153.1368
 20
69.9
 11
-154.7368
 21
68.97625
  0
LINE
  8
0
  6
CONTINUOUS
 62
     7
 10
-151.1975
 20
68.97624
 11
-151.1975
 21
63.5
  0
LINE
  8
0
  6
CONTINUOUS
 62
     7
 10
-150.8737
 20
68.97624
 11
-150.8737
 21
63.5
  0
LINE
  8
0
  6
CONTINUOUS
 62
     7
 10
-143.7999
 20
68.97624
 11
-143.7999
 21
63.5
  0
LINE
  8
0
  6
CONTINUOUS
 62
     7
 10
-143.4761
 20
68.97624
 11
-143.4761
 21
63.5
  0
LINE
  8
0
  6
CONTINUOUS
 62
     7
 10
-151.1975
 20
68.97624
 11
-150.8737
 21
68.97624
  0
LINE
  8
0
  6
CONTINUOUS
 62
     7
 10
-143.7999
 20
68.97624
 11
-143.4761
 21
68.97624
  0
LINE
  8
0
  6
CENTER
 62
     2
 10
-147.3368
 20
72.90001
 11
-147.3368
 21
32.40001
  0
LINE
  8
0
  6
CONTINUOUS
 62
     7
 10
-162.9368
 20
50.8
 11
-162.9368
 21
25.8
  0
LINE
  8
0
  6
CONTINUOUS
 62
     7
 10
-154.7368
 20
60.5
 11
-139.9368
 21
60.5
  0
LINE
  8
0
  6
CONTINUOUS
 62
     7
 10
-154.7368
 20
60.5
 11
-154.7368
 21
50.20001
  0
LINE
  8
0
  6
CONTINUOUS
 62
     7
 10
-139.9368
 20
60.5
 11
-139.9368
 21
35.90001
  0
LINE
  8
0
  6
CONTINUOUS
 62
     7
 10
-141.3368
 20
62.5
 11
-141.3368
 21
60.5
  0
LINE
  8
0
  6
CONTINUOUS
 62
     7
 10
-153.3368
 20
62.5
 11
-153.3368
 21
60.5
  0
LINE
  8
0
  6
CONTINUOUS
 62
     7
 10
-142.0133
 20
62.5
 11
-142.0133
 21
60.5
  0
LINE
  8
0
  6
CONTINUOUS
 62
     7
 10
-152.6603
 20
62.5
 11
-152.6603
 21
60.5
  0
LINE
  8
0
  6
CONTINUOUS
 62
     7
 10
-162.4368
 20
35.40001
 11
-162.4368
 21
50.20001
  0
LINE
  8
0
  6
CONTINUOUS
 62
     7
 10
-193.9368
 20
-77.79999
 11
-166.9368
 21
-77.79999
  0
LINE
  8
0
  6
CONTINUOUS
 62
     7
 10
-193.9368
 20
-78.79999
 11
-193.9368
 21
-52.60001
  0
LINE
  8
0
  6
CONTINUOUS
 62
     7
 10
-169.9368
 20
-78.79999
 11
-169.9368
 21
-77.79999
  0
LINE
  8
0
  6
CONTINUOUS
 62
     7
 10
-170.9368
 20
-80.79999
 11
-189.111
 21
-80.79999
  0
LINE
  8
0
  6
CONTINUOUS
 62
     7
 10
-193.9368
 20
-78.79999
 11
-169.9368
 21
-78.79999
  0
LINE
  8
0
  6
CONTINUOUS
 62
     7
 10
-169.9368
 20
-78.79995
 11
-170.9368
 21
-80.79996
  0
LINE
  8
0
  6
CONTINUOUS
 62
     7
 10
-193.9367
 20
-78.79999
 11
-192.9367
 21
-80.79997
  0
LINE
  8
0
  6
CONTINUOUS
 62
     7
 10
-187.9368
 20
-80.79999
 11
-187.9368
 21
-78.79999
  0
LINE
  8
0
  6
CENTER
 62
     2
 10
-190.9368
 20
-83.79999
 11
-190.9368
 21
-74.79999
  0
LINE
  8
0
  6
CONTINUOUS
 62
     7
 10
-193.4868
 20
-79.39999
 11
-188.3868
 21
-79.39999
  0
LINE
  8
0
  6
CONTINUOUS
 62
     7
 10
-190.6367
 20
-78.79997
 11
-190.476
 21
-79.39998
  0
LINE
  8
0
  6
CONTINUOUS
 62
     7
 10
-191.2368
 20
-79.39995
 11
-191.3975
 21
-78.79996
  0
LINE
  8
0
  6
CONTINUOUS
 62
     7
 10
-193.4868
 20
-79.39999
 11
-193.4868
 21
-78.79999
  0
LINE
  8
0
  6
CONTINUOUS
 62
     7
 10
-188.3868
 20
-79.39999
 11
-188.3868
 21
-78.79999
  0
LINE
  8
0
  6
CONTINUOUS
 62
     7
 10
-193.1868
 20
-80.09375
 11
-193.1868
 21
-79.39999
  0
LINE
  8
0
  6
CONTINUOUS
 62
     7
 10
-188.6868
 20
-80.09375
 11
-188.6868
 21
-79.39999
  0
LINE
  8
0
  6
CONTINUOUS
 62
     7
 10
-192.7626
 20
-80.79999
 11
-192.9368
 21
-80.79999
  0
LINE
  8
0
  6
CENTER
 62
     2
 10
-172.9368
 20
-83.79999
 11
-172.9368
 21
-74.79999
  0
LINE
  8
0
  6
CONTINUOUS
 62
     7
 10
-166.9368
 20
-77.79999
 11
-166.9368
 21
-52.60001
  0
LINE
  8
0
  6
CONTINUOUS
 62
     7
 10
-166.9368
 20
-77.59998
 11
-162.9368
 21
-77.59998
  0
LINE
  8
0
  6
CENTER
 62
     2
 10
-169.9368
 20
-69.59998
 11
-134.5368
 21
-69.59998
  0
LINE
  8
0
  6
CONTINUOUS
 62
     7
 10
-139.9368
 20
-95.77621
 11
-139.9368
 21
-89.29999
  0
LINE
  8
0
  6
CONTINUOUS
 62
     7
 10
-154.7368
 20
-95.77625
 11
-154.7368
 21
-89.29999
  0
LINE
  8
0
  6
CONTINUOUS
 62
     7
 10
-153.1368
 20
-96.70001
 11
-141.5368
 21
-96.70001
  0
LINE
  8
0
  6
CONTINUOUS
 62
     7
 10
-138.765
 20
-66.79999
 11
-139.4368
 21
-66.79999
  0
LINE
  8
0
  6
CONTINUOUS
 62
     7
 10
-138.765
 20
-72.39999
 11
-139.4368
 21
-72.39999
  0
LINE
  8
0
  6
CONTINUOUS
 62
     7
 10
-139.4368
 20
-66.34998
 11
-139.4368
 21
-72.84998
  0
LINE
  8
0
  6
CONTINUOUS
 62
     7
 10
-139.4368
 20
-66.3501
 11
-139.9368
 21
-66.3501
  0
LINE
  8
0
  6
CONTINUOUS
 62
     7
 10
-139.4368
 20
-72.84998
 11
-139.9368
 21
-72.84998
  0
LINE
  8
0
  6
CONTINUOUS
 62
     7
 10
-154.7368
 20
-89.29999
 11
-139.9368
 21
-89.29999
  0
LINE
  8
0
  6
CONTINUOUS
 62
     7
 10
-154.7368
 20
-90.29999
 11
-139.9368
 21
-90.29999
  0
LINE
  8
0
  6
CENTER
 62
     2
 10
-147.3368
 20
-99.70001
 11
-147.3368
 21
-59.20001
  0
LINE
  8
0
  6
CONTINUOUS
 62
     7
 10
-152.3368
 20
-74.59998
 11
-142.3368
 21
-74.59998
  0
LINE
  8
0
  6
CONTINUOUS
 62
     7
 10
-152.3368
 20
-64.59998
 11
-142.3368
 21
-64.59998
  0
LINE
  8
0
  6
CONTINUOUS
 62
     7
 10
-152.3368
 20
-74.59998
 11
-152.3368
 21
-64.59998
  0
LINE
  8
0
  6
CONTINUOUS
 62
     7
 10
-142.3368
 20
-74.59998
 11
-142.3368
 21
-64.59998
  0
LINE
  8
0
  6
CONTINUOUS
 62
     7
 10
-151.3368
 20
-74.59998
 11
-151.3368
 21
-64.59998
  0
LINE
  8
0
  6
CONTINUOUS
 62
     7
 10
-150.3368
 20
-74.59998
 11
-150.3368
 21
-64.59998
  0
LINE
  8
0
  6
CONTINUOUS
 62
     7
 10
-149.3368
 20
-74.59998
 11
-149.3368
 21
-64.59998
  0
LINE
  8
0
  6
CONTINUOUS
 62
     7
 10
-148.3368
 20
-74.59998
 11
-148.3368
 21
-64.59998
  0
LINE
  8
0
  6
CONTINUOUS
 62
     7
 10
-147.3368
 20
-74.59998
 11
-147.3368
 21
-64.59998
  0
LINE
  8
0
  6
CONTINUOUS
 62
     7
 10
-146.3368
 20
-74.59998
 11
-146.3368
 21
-64.59998
  0
LINE
  8
0
  6
CONTINUOUS
 62
     7
 10
-145.3368
 20
-74.59998
 11
-145.3368
 21
-64.59998
  0
LINE
  8
0
  6
CONTINUOUS
 62
     7
 10
-144.3368
 20
-74.59998
 11
-144.3368
 21
-64.59998
  0
LINE
  8
0
  6
CONTINUOUS
 62
     7
 10
-143.3368
 20
-74.59998
 11
-143.3368
 21
-64.59998
  0
LINE
  8
0
  6
CONTINUOUS
 62
     7
 10
-141.5368
 20
-96.7
 11
-139.9368
 21
-95.77625
  0
LINE
  8
0
  6
CONTINUOUS
 62
     7
 10
-153.1368
 20
-96.70001
 11
-154.7368
 21
-95.77626
  0
LINE
  8
0
  6
CONTINUOUS
 62
     7
 10
-151.1975
 20
-95.77625
 11
-151.1975
 21
-90.29999
  0
LINE
  8
0
  6
CONTINUOUS
 62
     7
 10
-150.8737
 20
-95.77625
 11
-150.8737
 21
-90.29999
  0
LINE
  8
0
  6
CONTINUOUS
 62
     7
 10
-143.7999
 20
-95.77625
 11
-143.7999
 21
-90.29999
  0
LINE
  8
0
  6
CONTINUOUS
 62
     7
 10
-143.4761
 20
-95.77625
 11
-143.4761
 21
-90.29999
  0
LINE
  8
0
  6
CONTINUOUS
 62
     7
 10
-151.1975
 20
-95.77625
 11
-150.8737
 21
-95.77625
  0
LINE
  8
0
  6
CONTINUOUS
 62
     7
 10
-143.7999
 20
-95.77625
 11
-143.4761
 21
-95.77625
  0
LINE
  8
0
  6
CONTINUOUS
 62
     7
 10
-162.9368
 20
-77.0
 11
-140.4368
 21
-77.0
  0
LINE
  8
0
  6
CONTINUOUS
 62
     7
 10
-162.9368
 20
-62.20001
 11
-140.4368
 21
-62.20001
  0
LINE
  8
0
  6
CONTINUOUS
 62
     7
 10
-162.9368
 20
-77.59998
 11
-162.9368
 21
-52.60001
  0
LINE
  8
0
  6
CONTINUOUS
 62
     7
 10
-154.7368
 20
-87.29999
 11
-139.9368
 21
-87.29999
  0
LINE
  8
0
  6
CONTINUOUS
 62
     7
 10
-139.9368
 20
-87.29999
 11
-139.9368
 21
-62.70001
  0
LINE
  8
0
  6
CONTINUOUS
 62
     7
 10
-154.7368
 20
-87.29999
 11
-154.7368
 21
-77.0
  0
LINE
  8
0
  6
CONTINUOUS
 62
     7
 10
-153.3368
 20
-89.29999
 11
-153.3368
 21
-87.29999
  0
LINE
  8
0
  6
CONTINUOUS
 62
     7
 10
-141.3368
 20
-89.29999
 11
-141.3368
 21
-87.29999
  0
LINE
  8
0
  6
CONTINUOUS
 62
     7
 10
-142.0133
 20
-89.29999
 11
-142.0133
 21
-87.29999
  0
LINE
  8
0
  6
CONTINUOUS
 62
     7
 10
-152.6603
 20
-89.29999
 11
-152.6603
 21
-87.29999
  0
LINE
  8
0
  6
CONTINUOUS
 62
     7
 10
-162.4368
 20
-62.19998
 11
-162.4368
 21
-77.0
  0
LINE
  8
0
  6
CONTINUOUS
 62
     7
 10
-316.0613
 20
7.60013
 11
-298.0613
 21
7.60013
  0
LINE
  8
0
  6
CENTER
 62
     2
 10
-307.0613
 20
72.43985
 11
-307.0613
 21
-99.79907
  0
LINE
  8
0
  6
CONTINUOUS
 62
     7
 10
-298.0613
 20
24.80013
 11
-298.0613
 21
-51.59988
  0
LINE
  8
0
  6
CONTINUOUS
 62
     7
 10
-316.0613
 20
24.80013
 11
-316.0613
 21
-51.59988
  0
LINE
  8
0
  6
CONTINUOUS
 62
     7
 10
-316.0613
 20
-34.39987
 11
-298.0613
 21
-34.39987
  0
LINE
  8
0
  6
CONTINUOUS
 62
     7
 10
-315.0612
 20
25.80009
 11
-316.0613
 21
24.80006
  0
LINE
  8
0
  6
CONTINUOUS
 62
     7
 10
-299.0613
 20
25.80012
 11
-298.0613
 21
24.80013
  0
LINE
  8
0
  6
CENTER
 62
     2
 10
-313.4095
 20
-26.59988
 11
-301.144
 21
-26.59988
  0
LINE
  8
0
  6
CENTER
 62
     2
 10
-313.2701
 20
-13.39987
 11
-300.7258
 21
-13.39987
  0
LINE
  8
0
  6
CENTER
 62
     2
 10
-312.7822
 20
-0.19986
 11
-300.7258
 21
-0.19986
  0
LINE
  8
0
  6
CENTER
 62
     2
 10
-313.5613
 20
4.35161
 11
-313.5613
 21
-0.81412
  0
LINE
  8
0
  6
CENTER
 62
     2
 10
-300.5613
 20
-25.68158
 11
-300.5613
 21
-31.2077
  0
LINE
  8
0
  6
CENTER
 62
     2
 10
-303.1369
 20
-28.39987
 11
-298.0613
 21
-28.39987
  0
LINE
  8
0
  6
CENTER
 62
     2
 10
-316.0613
 20
1.60013
 11
-311.0657
 21
1.60013
  0
LINE
  8
0
  6
CENTER
 62
     2
 10
-310.8254
 20
17.50012
 11
-303.257
 21
17.50012
  0
LINE
  8
0
  6
CONTINUOUS
 62
     7
 10
-315.0613
 20
25.80013
 11
-299.0613
 21
25.80013
  0
LINE
  8
0
  6
CONTINUOUS
 62
     7
 10
-316.0613
 20
24.80013
 11
-298.0613
 21
24.80013
  0
LINE
  8
0
  6
CONTINUOUS
 62
     7
 10
-308.4756
 20
16.08588
 11
-305.6471
 21
18.91431
  0
LINE
  8
0
  6
CONTINUOUS
 62
     7
 10
-308.4756
 20
18.91428
 11
-305.6472
 21
16.08586
  0
LINE
  8
0
  6
CONTINUOUS
 62
     7
 10
-308.9932
 20
18.01778
 11
-306.5437
 21
15.56828
  0
LINE
  8
0
  6
CONTINUOUS
 62
     7
 10
-307.579
 20
19.43199
 11
-305.1295
 21
16.98249
  0
LINE
  8
0
  6
CONTINUOUS
 62
     7
 10
-308.9932
 20
16.98248
 11
-306.5437
 21
19.43197
  0
LINE
  8
0
  6
CONTINUOUS
 62
     7
 10
-307.5791
 20
15.5683
 11
-305.1296
 21
18.01779
  0
LINE
  8
0
  6
CONTINUOUS
 62
     7
 10
-316.0613
 20
-51.59986
 11
-315.0613
 21
-52.59986
  0
LINE
  8
0
  6
CONTINUOUS
 62
     7
 10
-298.0612
 20
-51.59985
 11
-299.0613
 21
-52.59987
  0
LINE
  8
0
  6
CONTINUOUS
 62
     7
 10
-316.0613
 20
-51.59988
 11
-298.0613
 21
-51.59988
  0
LINE
  8
0
  6
CONTINUOUS
 62
     7
 10
-299.0613
 20
-52.59988
 11
-315.0613
 21
-52.59988
  0
LINE
  8
0
  6
CENTER
 62
     2
 10
-302.8947
 20
-44.29987
 11
-311.228
 21
-44.29987
  0
LINE
  8
0
  6
CONTINUOUS
 62
     7
 10
-308.4755
 20
-45.71408
 11
-305.6471
 21
-42.88565
  0
LINE
  8
0
  6
CONTINUOUS
 62
     7
 10
-308.4756
 20
-42.88567
 11
-305.6472
 21
-45.7141
  0
LINE
  8
0
  6
CONTINUOUS
 62
     7
 10
-307.5791
 20
-42.36805
 11
-305.1296
 21
-44.81755
  0
LINE
  8
0
  6
CONTINUOUS
 62
     7
 10
-308.9933
 20
-43.78228
 11
-306.5438
 21
-46.23178
  0
LINE
  8
0
  6
CONTINUOUS
 62
     7
 10
-308.9932
 20
-44.81753
 11
-306.5437
 21
-42.36803
  0
LINE
  8
0
  6
CONTINUOUS
 62
     7
 10
-307.579
 20
-46.23174
 11
-305.1295
 21
-43.78224
  0
LINE
  8
0
  6
CENTER
 62
     2
 10
-307.5613
 20
-20.39987
 11
-307.5613
 21
-32.56448
  0
LINE
  8
0
  6
CENTER
 62
     2
 10
-306.5613
 20
5.62314
 11
-306.5613
 21
-6.23349
  0
LINE
  8
0
  6
CONTINUOUS
 62
     7
 10
-314.5613
 20
52.00012
 11
-314.5613
 21
25.80013
  0
LINE
  8
0
  6
CONTINUOUS
 62
     7
 10
-299.5613
 20
52.00012
 11
-299.5613
 21
25.80013
  0
LINE
  8
0
  6
CONTINUOUS
 62
     7
 10
-308.5613
 20
54.00012
 11
-308.5613
 21
52.00012
  0
LINE
  8
0
  6
CONTINUOUS
 62
     7
 10
-313.5613
 20
48.00012
 11
-300.5613
 21
48.00012
  0
LINE
  8
0
  6
CONTINUOUS
 62
     7
 10
-313.5613
 20
44.00012
 11
-300.5613
 21
44.00012
  0
LINE
  8
0
  6
CONTINUOUS
 62
     7
 10
-300.5613
 20
48.00012
 11
-300.5613
 21
44.00012
  0
LINE
  8
0
  6
CONTINUOUS
 62
     7
 10
-313.5613
 20
48.00012
 11
-313.5613
 21
44.00012
  0
LINE
  8
0
  6
CONTINUOUS
 62
     7
 10
-312.8492
 20
47.1069
 11
-310.5076
 21
47.1069
  0
LINE
  8
0
  6
CONTINUOUS
 62
     7
 10
-312.8492
 20
45.03032
 11
-310.861
 21
45.03032
  0
LINE
  8
0
  6
CONTINUOUS
 62
     7
 10
-312.8492
 20
44.50012
 11
-310.1541
 21
44.50012
  0
LINE
  8
0
  6
CONTINUOUS
 62
     7
 10
-312.8492
 20
46.57672
 11
-310.861
 21
46.57672
  0
LINE
  8
0
  6
CONTINUOUS
 62
     7
 10
-312.8492
 20
47.1069
 11
-312.8492
 21
46.57672
  0
LINE
  8
0
  6
CONTINUOUS
 62
     7
 10
-310.1541
 20
46.75345
 11
-310.1541
 21
44.50012
  0
LINE
  8
0
  6
CONTINUOUS
 62
     7
 10
-310.861
 20
46.57672
 11
-310.861
 21
45.03032
  0
LINE
  8
0
  6
CONTINUOUS
 62
     7
 10
-309.7565
 20
47.1069
 11
-309.7565
 21
46.57672
  0
LINE
  8
0
  6
CONTINUOUS
 62
     7
 10
-307.2381
 20
46.57672
 11
-307.2381
 21
44.85358
  0
LINE
  8
0
  6
CONTINUOUS
 62
     7
 10
-307.945
 20
46.57672
 11
-307.945
 21
45.03032
  0
LINE
  8
0
  6
CONTINUOUS
 62
     7
 10
-312.8492
 20
45.03032
 11
-312.8492
 21
44.50012
  0
LINE
  8
0
  6
CONTINUOUS
 62
     7
 10
-309.7565
 20
47.1069
 11
-309.058
 21
47.1069
  0
LINE
  8
0
  6
CONTINUOUS
 62
     7
 10
-309.7565
 20
44.50012
 11
-309.2076
 21
44.50012
  0
LINE
  8
0
  6
CONTINUOUS
 62
     7
 10
-309.7564
 20
44.50012
 11
-309.2
 21
46.57673
  0
LINE
  8
0
  6
CONTINUOUS
 62
     7
 10
-309.7565
 20
46.57672
 11
-309.2001
 21
46.57672
  0
LINE
  8
0
  6
CONTINUOUS
 62
     7
 10
-309.2076
 20
44.50012
 11
-308.6512
 21
46.57671
  0
LINE
  8
0
  6
CONTINUOUS
 62
     7
 10
-308.4752
 20
45.03032
 11
-307.945
 21
45.03032
  0
LINE
  8
0
  6
CONTINUOUS
 62
     7
 10
-308.4753
 20
45.03031
 11
-308.3332
 21
44.50012
  0
LINE
  8
0
  6
CONTINUOUS
 62
     7
 10
-308.3331
 20
44.50012
 11
-307.5916
 21
44.50012
  0
LINE
  8
0
  6
CONTINUOUS
 62
     7
 10
-308.6512
 20
46.57672
 11
-307.945
 21
46.57672
  0
LINE
  8
0
  6
CONTINUOUS
 62
     7
 10
-308.5091
 20
47.1069
 11
-307.7682
 21
47.1069
  0
LINE
  8
0
  6
CONTINUOUS
 62
     7
 10
-309.058
 20
47.10692
 11
-308.9526
 21
47.50012
  0
LINE
  8
0
  6
CONTINUOUS
 62
     7
 10
-308.509
 20
47.10689
 11
-308.4036
 21
47.5001
  0
LINE
  8
0
  6
CONTINUOUS
 62
     7
 10
-306.7963
 20
47.1069
 11
-305.9568
 21
47.1069
  0
LINE
  8
0
  6
CONTINUOUS
 62
     7
 10
-306.7963
 20
46.57672
 11
-304.7346
 21
46.57672
  0
LINE
  8
0
  6
CONTINUOUS
 62
     7
 10
-305.9568
 20
44.50012
 11
-305.2499
 21
44.50012
  0
LINE
  8
0
  6
CONTINUOUS
 62
     7
 10
-306.7963
 20
47.1069
 11
-306.7963
 21
46.57672
  0
LINE
  8
0
  6
CONTINUOUS
 62
     7
 10
-304.1895
 20
45.61533
 11
-304.1895
 21
45.03032
  0
LINE
  8
0
  6
CONTINUOUS
 62
     7
 10
-306.7962
 20
45.03032
 11
-305.9568
 21
45.42178
  0
LINE
  8
0
  6
CONTINUOUS
 62
     7
 10
-306.7962
 20
45.6153
 11
-304.7345
 21
46.57669
  0
LINE
  8
0
  6
CONTINUOUS
 62
     7
 10
-306.7963
 20
45.61533
 11
-306.7963
 21
45.03032
  0
LINE
  8
0
  6
CONTINUOUS
 62
     7
 10
-305.2499
 20
45.52481
 11
-304.1895
 21
45.03035
  0
LINE
  8
0
  6
CONTINUOUS
 62
     7
 10
-304.8654
 20
45.93055
 11
-304.1893
 21
45.61528
  0
LINE
  8
0
  6
CONTINUOUS
 62
     7
 10
-304.1895
 20
46.75345
 11
-304.1895
 21
46.47105
  0
LINE
  8
0
  6
CONTINUOUS
 62
     7
 10
-305.9568
 20
47.50012
 11
-305.9568
 21
47.1069
  0
LINE
  8
0
  6
CONTINUOUS
 62
     7
 10
-305.2499
 20
47.50012
 11
-305.2499
 21
47.1069
  0
LINE
  8
0
  6
CONTINUOUS
 62
     7
 10
-305.2499
 20
47.1069
 11
-304.5429
 21
47.1069
  0
LINE
  8
0
  6
CONTINUOUS
 62
     7
 10
-305.9568
 20
45.42177
 11
-305.9568
 21
44.50012
  0
LINE
  8
0
  6
CONTINUOUS
 62
     7
 10
-305.2499
 20
45.52478
 11
-305.2499
 21
44.50012
  0
LINE
  8
0
  6
CONTINUOUS
 62
     7
 10
-304.8655
 20
45.93051
 11
-304.3935
 21
46.15061
  0
LINE
  8
0
  6
CONTINUOUS
 62
     7
 10
-301.8036
 20
47.34106
 11
-301.2734
 21
47.34106
  0
LINE
  8
0
  6
CONTINUOUS
 62
     7
 10
-303.9686
 20
46.24588
 11
-303.9686
 21
45.67529
  0
LINE
  8
0
  6
CONTINUOUS
 62
     7
 10
-301.2734
 20
47.34106
 11
-301.2734
 21
47.1069
  0
LINE
  8
0
  6
CONTINUOUS
 62
     7
 10
-301.8036
 20
47.34106
 11
-301.8036
 21
47.22681
  0
LINE
  8
0
  6
CONTINUOUS
 62
     7
 10
-302.5105
 20
46.25516
 11
-302.5105
 21
44.50012
  0
LINE
  8
0
  6
CONTINUOUS
 62
     7
 10
-303.9685
 20
46.24585
 11
-301.915
 21
47.06255
  0
LINE
  8
0
  6
CONTINUOUS
 62
     7
 10
-303.9685
 20
45.67528
 11
-302.5105
 21
46.25515
  0
LINE
  8
0
  6
CONTINUOUS
 62
     7
 10
-302.5105
 20
44.50012
 11
-301.8036
 21
44.50012
  0
LINE
  8
0
  6
CONTINUOUS
 62
     7
 10
-301.8036
 20
46.53632
 11
-301.8036
 21
44.50012
  0
LINE
  8
0
  6
CONTINUOUS
 62
     7
 10
-301.8035
 20
46.53629
 11
-301.6075
 21
46.61423
  0
LINE
  8
0
  6
CONTINUOUS
 62
     7
 10
-308.9526
 20
47.50012
 11
-308.4037
 21
47.50012
  0
LINE
  8
0
  6
CONTINUOUS
 62
     7
 10
-307.5253
 20
47.50012
 11
-307.2993
 21
47.50012
  0
LINE
  8
0
  6
CONTINUOUS
 62
     7
 10
-305.9568
 20
47.50012
 11
-305.2499
 21
47.50012
  0
LINE
  8
0
  6
CONTINUOUS
 62
     7
 10
-307.5253
 20
47.14667
 11
-307.2993
 21
47.14667
  0
LINE
  8
0
  6
CONTINUOUS
 62
     7
 10
-307.5253
 20
47.50012
 11
-307.5253
 21
47.14667
  0
LINE
  8
0
  6
CONTINUOUS
 62
     7
 10
-307.2993
 20
47.50012
 11
-307.2993
 21
47.14667
  0
LINE
  8
0
  6
CONTINUOUS
 62
     7
 10
-307.1415
 20
47.50012
 11
-307.1415
 21
47.14667
  0
LINE
  8
0
  6
CONTINUOUS
 62
     7
 10
-306.9155
 20
47.50012
 11
-306.9155
 21
47.14667
  0
LINE
  8
0
  6
CONTINUOUS
 62
     7
 10
-307.1415
 20
47.50012
 11
-306.9155
 21
47.50012
  0
LINE
  8
0
  6
CONTINUOUS
 62
     7
 10
-307.1415
 20
47.14667
 11
-306.9155
 21
47.14667
  0
LINE
  8
0
  6
CONTINUOUS
 62
     7
 10
-314.5612
 20
52.00014
 11
-313.5612
 21
54.00013
  0
LINE
  8
0
  6
CONTINUOUS
 62
     7
 10
-313.8113
 20
53.29385
 11
-313.8113
 21
52.60011
  0
LINE
  8
0
  6
CENTER
 62
     2
 10
-311.5613
 20
57.00012
 11
-311.5613
 21
49.00012
  0
LINE
  8
0
  6
CONTINUOUS
 62
     7
 10
-313.5613
 20
54.00012
 11
-313.3871
 21
54.00012
  0
LINE
  8
0
  6
CONTINUOUS
 62
     7
 10
-309.3113
 20
53.29385
 11
-309.3113
 21
52.60011
  0
LINE
  8
0
  6
CONTINUOUS
 62
     7
 10
-309.7356
 20
54.00012
 11
-300.5613
 21
54.00012
  0
LINE
  8
0
  6
CENTER
 62
     2
 10
-302.5613
 20
57.00012
 11
-302.5613
 21
49.00012
  0
LINE
  8
0
  6
CONTINUOUS
 62
     7
 10
-299.5613
 20
52.00015
 11
-300.5613
 21
54.00015
  0
LINE
  8
0
  6
CONTINUOUS
 62
     7
 10
-314.5613
 20
52.00012
 11
-299.5613
 21
52.00012
  0
LINE
  8
0
  6
CONTINUOUS
 62
     7
 10
-314.5613
 20
51.00012
 11
-299.5613
 21
51.00012
  0
LINE
  8
0
  6
CONTINUOUS
 62
     7
 10
-309.0114
 20
52.60011
 11
-314.1113
 21
52.60011
  0
LINE
  8
0
  6
CONTINUOUS
 62
     7
 10
-309.0114
 20
52.60011
 11
-309.0114
 21
52.00012
  0
LINE
  8
0
  6
CONTINUOUS
 62
     7
 10
-314.1113
 20
52.60011
 11
-314.1113
 21
52.00012
  0
LINE
  8
0
  6
CONTINUOUS
 62
     7
 10
-314.4614
 20
62.50012
 11
-299.6613
 21
62.50012
  0
LINE
  8
0
  6
CONTINUOUS
 62
     7
 10
-312.8613
 20
69.90013
 11
-301.2614
 21
69.90013
  0
LINE
  8
0
  6
CONTINUOUS
 62
     7
 10
-314.4614
 20
63.50012
 11
-299.6613
 21
63.50012
  0
LINE
  8
0
  6
CONTINUOUS
 62
     7
 10
-299.6613
 20
63.50012
 11
-299.6613
 21
62.50012
  0
LINE
  8
0
  6
CONTINUOUS
 62
     7
 10
-314.4614
 20
63.50012
 11
-314.4614
 21
62.50012
  0
LINE
  8
0
  6
CONTINUOUS
 62
     7
 10
-313.5613
 20
69.49599
 11
-313.5613
 21
63.50012
  0
LINE
  8
0
  6
CONTINUOUS
 62
     7
 10
-300.5613
 20
69.49599
 11
-300.5613
 21
63.50012
  0
LINE
  8
0
  6
CONTINUOUS
 62
     7
 10
-301.2614
 20
69.90012
 11
-300.5614
 21
69.49597
  0
LINE
  8
0
  6
CONTINUOUS
 62
     7
 10
-312.8613
 20
69.90025
 11
-313.5613
 21
69.4961
  0
LINE
  8
0
  6
CONTINUOUS
 62
     7
 10
-307.2482
 20
68.97636
 11
-306.8745
 21
68.97636
  0
LINE
  8
0
  6
CONTINUOUS
 62
     7
 10
-307.2482
 20
68.97636
 11
-307.2482
 21
63.50012
  0
LINE
  8
0
  6
CONTINUOUS
 62
     7
 10
-306.8745
 20
68.97636
 11
-306.8745
 21
63.50012
  0
LINE
  8
0
  6
CONTINUOUS
 62
     7
 10
-314.4614
 20
60.50012
 11
-299.6613
 21
60.50012
  0
LINE
  8
0
  6
CONTINUOUS
 62
     7
 10
-314.4614
 20
60.50012
 11
-314.4614
 21
52.2001
  0
LINE
  8
0
  6
CONTINUOUS
 62
     7
 10
-299.6613
 20
60.50012
 11
-299.6613
 21
52.20013
  0
LINE
  8
0
  6
CONTINUOUS
 62
     7
 10
-313.0613
 20
62.50012
 11
-313.0613
 21
60.50012
  0
LINE
  8
0
  6
CONTINUOUS
 62
     7
 10
-301.0613
 20
62.50012
 11
-301.0613
 21
60.50012
  0
LINE
  8
0
  6
CONTINUOUS
 62
     7
 10
-301.7379
 20
62.50012
 11
-301.7379
 21
60.50012
  0
LINE
  8
0
  6
CONTINUOUS
 62
     7
 10
-312.3848
 20
62.50012
 11
-312.3848
 21
60.50012
  0
LINE
  8
0
  6
CONTINUOUS
 62
     7
 10
-299.5613
 20
-78.79987
 11
-299.5613
 21
-52.59988
  0
LINE
  8
0
  6
CONTINUOUS
 62
     7
 10
-314.5613
 20
-78.79987
 11
-314.5613
 21
-52.59988
  0
LINE
  8
0
  6
CONTINUOUS
 62
     7
 10
-305.5613
 20
-80.79987
 11
-305.5613
 21
-78.79987
  0
LINE
  8
0
  6
CONTINUOUS
 62
     7
 10
-300.5613
 20
-74.79987
 11
-313.5613
 21
-74.79987
  0
LINE
  8
0
  6
CONTINUOUS
 62
     7
 10
-300.5613
 20
-70.79987
 11
-313.5613
 21
-70.79987
  0
LINE
  8
0
  6
CONTINUOUS
 62
     7
 10
-313.5613
 20
-74.79987
 11
-313.5613
 21
-70.79987
  0
LINE
  8
0
  6
CONTINUOUS
 62
     7
 10
-300.5613
 20
-74.79987
 11
-300.5613
 21
-70.79987
  0
LINE
  8
0
  6
CONTINUOUS
 62
     7
 10
-301.2734
 20
-73.90665
 11
-303.6151
 21
-73.90665
  0
LINE
  8
0
  6
CONTINUOUS
 62
     7
 10
-301.2734
 20
-71.83008
 11
-303.2617
 21
-71.83008
  0
LINE
  8
0
  6
CONTINUOUS
 62
     7
 10
-301.2734
 20
-71.29987
 11
-303.9686
 21
-71.29987
  0
LINE
  8
0
  6
CONTINUOUS
 62
     7
 10
-301.2734
 20
-73.37646
 11
-303.2617
 21
-73.37646
  0
LINE
  8
0
  6
CONTINUOUS
 62
     7
 10
-301.2734
 20
-73.90665
 11
-301.2734
 21
-73.37646
  0
LINE
  8
0
  6
CONTINUOUS
 62
     7
 10
-303.9686
 20
-73.55319
 11
-303.9686
 21
-71.29987
  0
LINE
  8
0
  6
CONTINUOUS
 62
     7
 10
-303.2617
 20
-73.37646
 11
-303.2617
 21
-71.83008
  0
LINE
  8
0
  6
CONTINUOUS
 62
     7
 10
-304.3662
 20
-73.90665
 11
-304.3662
 21
-73.37646
  0
LINE
  8
0
  6
CONTINUOUS
 62
     7
 10
-306.8846
 20
-73.37646
 11
-306.8846
 21
-71.65332
  0
LINE
  8
0
  6
CONTINUOUS
 62
     7
 10
-306.1777
 20
-73.37646
 11
-306.1777
 21
-71.83008
  0
LINE
  8
0
  6
CONTINUOUS
 62
     7
 10
-301.2734
 20
-71.83008
 11
-301.2734
 21
-71.29987
  0
LINE
  8
0
  6
CONTINUOUS
 62
     7
 10
-304.3662
 20
-73.90665
 11
-305.0647
 21
-73.90665
  0
LINE
  8
0
  6
CONTINUOUS
 62
     7
 10
-304.3662
 20
-71.29987
 11
-304.9151
 21
-71.29987
  0
LINE
  8
0
  6
CONTINUOUS
 62
     7
 10
-304.3661
 20
-71.29991
 11
-304.9225
 21
-73.3765
  0
LINE
  8
0
  6
CONTINUOUS
 62
     7
 10
-304.3662
 20
-73.37646
 11
-304.9226
 21
-73.37646
  0
LINE
  8
0
  6
CONTINUOUS
 62
     7
 10
-304.9152
 20
-71.2998
 11
-305.4716
 21
-73.37639
  0
LINE
  8
0
  6
CONTINUOUS
 62
     7
 10
-305.6475
 20
-71.83008
 11
-306.1777
 21
-71.83008
  0
LINE
  8
0
  6
CONTINUOUS
 62
     7
 10
-305.6476
 20
-71.83012
 11
-305.7897
 21
-71.29993
  0
LINE
  8
0
  6
CONTINUOUS
 62
     7
 10
-305.7896
 20
-71.29987
 11
-306.5311
 21
-71.29987
  0
LINE
  8
0
  6
CONTINUOUS
 62
     7
 10
-305.4715
 20
-73.37646
 11
-306.1777
 21
-73.37646
  0
LINE
  8
0
  6
CONTINUOUS
 62
     7
 10
-305.6136
 20
-73.90665
 11
-306.3544
 21
-73.90665
  0
LINE
  8
0
  6
CONTINUOUS
 62
     7
 10
-305.0647
 20
-73.90662
 11
-305.1701
 21
-74.29985
  0
LINE
  8
0
  6
CONTINUOUS
 62
     7
 10
-305.6135
 20
-73.90666
 11
-305.7188
 21
-74.2999
  0
LINE
  8
0
  6
CONTINUOUS
 62
     7
 10
-307.3264
 20
-73.90665
 11
-308.1659
 21
-73.90665
  0
LINE
  8
0
  6
CONTINUOUS
 62
     7
 10
-307.3264
 20
-73.37646
 11
-309.3881
 21
-73.37646
  0
LINE
  8
0
  6
CONTINUOUS
 62
     7
 10
-308.1659
 20
-71.29987
 11
-308.8728
 21
-71.29987
  0
LINE
  8
0
  6
CONTINUOUS
 62
     7
 10
-307.3264
 20
-73.90665
 11
-307.3264
 21
-73.37646
  0
LINE
  8
0
  6
CONTINUOUS
 62
     7
 10
-309.9332
 20
-72.41507
 11
-309.9332
 21
-71.83008
  0
LINE
  8
0
  6
CONTINUOUS
 62
     7
 10
-307.3264
 20
-71.83002
 11
-308.1658
 21
-72.22148
  0
LINE
  8
0
  6
CONTINUOUS
 62
     7
 10
-307.3264
 20
-72.41502
 11
-309.3881
 21
-73.37642
  0
LINE
  8
0
  6
CONTINUOUS
 62
     7
 10
-307.3264
 20
-72.41507
 11
-307.3264
 21
-71.83008
  0
LINE
  8
0
  6
CONTINUOUS
 62
     7
 10
-308.8728
 20
-72.3245
 11
-309.9332
 21
-71.83004
  0
LINE
  8
0
  6
CONTINUOUS
 62
     7
 10
-309.2571
 20
-72.73038
 11
-309.9333
 21
-72.41511
  0
LINE
  8
0
  6
CONTINUOUS
 62
     7
 10
-309.9332
 20
-73.55319
 11
-309.9332
 21
-73.27081
  0
LINE
  8
0
  6
CONTINUOUS
 62
     7
 10
-308.1659
 20
-74.29987
 11
-308.1659
 21
-73.90665
  0
LINE
  8
0
  6
CONTINUOUS
 62
     7
 10
-308.8728
 20
-74.29987
 11
-308.8728
 21
-73.90665
  0
LINE
  8
0
  6
CONTINUOUS
 62
     7
 10
-308.8728
 20
-73.90665
 11
-309.5798
 21
-73.90665
  0
LINE
  8
0
  6
CONTINUOUS
 62
     7
 10
-308.1659
 20
-72.2215
 11
-308.1659
 21
-71.29987
  0
LINE
  8
0
  6
CONTINUOUS
 62
     7
 10
-308.8728
 20
-72.32452
 11
-308.8728
 21
-71.29987
  0
LINE
  8
0
  6
CONTINUOUS
 62
     7
 10
-309.2571
 20
-72.7303
 11
-309.7292
 21
-72.9504
  0
LINE
  8
0
  6
CONTINUOUS
 62
     7
 10
-312.3191
 20
-74.14081
 11
-312.8492
 21
-74.14081
  0
LINE
  8
0
  6
CONTINUOUS
 62
     7
 10
-310.1541
 20
-73.04562
 11
-310.1541
 21
-72.47504
  0
LINE
  8
0
  6
CONTINUOUS
 62
     7
 10
-312.8492
 20
-74.14081
 11
-312.8492
 21
-73.90665
  0
LINE
  8
0
  6
CONTINUOUS
 62
     7
 10
-312.3191
 20
-74.14081
 11
-312.3191
 21
-74.02655
  0
LINE
  8
0
  6
CONTINUOUS
 62
     7
 10
-311.6122
 20
-73.0549
 11
-311.6122
 21
-71.29987
  0
LINE
  8
0
  6
CONTINUOUS
 62
     7
 10
-310.1541
 20
-73.04558
 11
-312.2077
 21
-73.86231
  0
LINE
  8
0
  6
CONTINUOUS
 62
     7
 10
-310.1541
 20
-72.47507
 11
-311.6121
 21
-73.05495
  0
LINE
  8
0
  6
CONTINUOUS
 62
     7
 10
-311.6122
 20
-71.29987
 11
-312.3191
 21
-71.29987
  0
LINE
  8
0
  6
CONTINUOUS
 62
     7
 10
-312.3191
 20
-73.33606
 11
-312.3191
 21
-71.29987
  0
LINE
  8
0
  6
CONTINUOUS
 62
     7
 10
-312.3192
 20
-73.33595
 11
-312.5151
 21
-73.41389
  0
LINE
  8
0
  6
CONTINUOUS
 62
     7
 10
-305.17
 20
-74.29987
 11
-305.7189
 21
-74.29987
  0
LINE
  8
0
  6
CONTINUOUS
 62
     7
 10
-306.5974
 20
-74.29987
 11
-306.8234
 21
-74.29987
  0
LINE
  8
0
  6
CONTINUOUS
 62
     7
 10
-308.1659
 20
-74.29987
 11
-308.8728
 21
-74.29987
  0
LINE
  8
0
  6
CONTINUOUS
 62
     7
 10
-306.5974
 20
-73.94641
 11
-306.8234
 21
-73.94641
  0
LINE
  8
0
  6
CONTINUOUS
 62
     7
 10
-306.5974
 20
-74.29987
 11
-306.5974
 21
-73.94641
  0
LINE
  8
0
  6
CONTINUOUS
 62
     7
 10
-306.8234
 20
-74.29987
 11
-306.8234
 21
-73.94641
  0
LINE
  8
0
  6
CONTINUOUS
 62
     7
 10
-306.9811
 20
-74.29987
 11
-306.9811
 21
-73.94641
  0
LINE
  8
0
  6
CONTINUOUS
 62
     7
 10
-307.2072
 20
-74.29987
 11
-307.2072
 21
-73.94641
  0
LINE
  8
0
  6
CONTINUOUS
 62
     7
 10
-306.9811
 20
-74.29987
 11
-307.2072
 21
-74.29987
  0
LINE
  8
0
  6
CONTINUOUS
 62
     7
 10
-306.9811
 20
-73.94641
 11
-307.2072
 21
-73.94641
  0
LINE
  8
0
  6
CONTINUOUS
 62
     7
 10
-299.5614
 20
-78.79988
 11
-300.5614
 21
-80.7999
  0
LINE
  8
0
  6
CONTINUOUS
 62
     7
 10
-300.3113
 20
-80.0936
 11
-300.3113
 21
-79.39987
  0
LINE
  8
0
  6
CENTER
 62
     2
 10
-302.5613
 20
-83.79987
 11
-302.5613
 21
-75.79987
  0
LINE
  8
0
  6
CONTINUOUS
 62
     7
 10
-300.5613
 20
-80.79987
 11
-300.7356
 21
-80.79987
  0
LINE
  8
0
  6
CONTINUOUS
 62
     7
 10
-304.8113
 20
-80.09363
 11
-304.8113
 21
-79.39987
  0
LINE
  8
0
  6
CONTINUOUS
 62
     7
 10
-304.3871
 20
-80.79987
 11
-313.5613
 21
-80.79987
  0
LINE
  8
0
  6
CENTER
 62
     2
 10
-311.5613
 20
-83.79987
 11
-311.5613
 21
-75.79987
  0
LINE
  8
0
  6
CONTINUOUS
 62
     7
 10
-314.5613
 20
-78.79986
 11
-313.5613
 21
-80.79986
  0
LINE
  8
0
  6
CONTINUOUS
 62
     7
 10
-299.5613
 20
-78.79987
 11
-314.5613
 21
-78.79987
  0
LINE
  8
0
  6
CONTINUOUS
 62
     7
 10
-299.5613
 20
-77.79987
 11
-314.5613
 21
-77.79987
  0
LINE
  8
0
  6
CONTINUOUS
 62
     7
 10
-305.1113
 20
-79.39984
 11
-300.0114
 21
-79.39984
  0
LINE
  8
0
  6
CONTINUOUS
 62
     7
 10
-305.1113
 20
-79.39984
 11
-305.1113
 21
-78.79987
  0
LINE
  8
0
  6
CONTINUOUS
 62
     7
 10
-300.0114
 20
-79.39984
 11
-300.0114
 21
-78.79987
  0
LINE
  8
0
  6
CONTINUOUS
 62
     7
 10
-299.6613
 20
-89.29987
 11
-314.4614
 21
-89.29987
  0
LINE
  8
0
  6
CONTINUOUS
 62
     7
 10
-301.2614
 20
-96.69989
 11
-312.8613
 21
-96.69989
  0
LINE
  8
0
  6
CONTINUOUS
 62
     7
 10
-299.6613
 20
-90.29987
 11
-314.4614
 21
-90.29987
  0
LINE
  8
0
  6
CONTINUOUS
 62
     7
 10
-314.4614
 20
-90.29987
 11
-314.4614
 21
-89.29987
  0
LINE
  8
0
  6
CONTINUOUS
 62
     7
 10
-299.6613
 20
-90.29987
 11
-299.6613
 21
-89.29987
  0
LINE
  8
0
  6
CONTINUOUS
 62
     7
 10
-300.5613
 20
-96.29572
 11
-300.5613
 21
-90.29987
  0
LINE
  8
0
  6
CONTINUOUS
 62
     7
 10
-313.5613
 20
-96.29572
 11
-313.5613
 21
-90.29987
  0
LINE
  8
0
  6
CONTINUOUS
 62
     7
 10
-312.8614
 20
-96.69995
 11
-313.5614
 21
-96.29581
  0
LINE
  8
0
  6
CONTINUOUS
 62
     7
 10
-301.2613
 20
-96.7
 11
-300.5613
 21
-96.29586
  0
LINE
  8
0
  6
CONTINUOUS
 62
     7
 10
-306.8745
 20
-95.77612
 11
-307.2482
 21
-95.77612
  0
LINE
  8
0
  6
CONTINUOUS
 62
     7
 10
-306.8745
 20
-95.77612
 11
-306.8745
 21
-90.29987
  0
LINE
  8
0
  6
CONTINUOUS
 62
     7
 10
-307.2482
 20
-95.77612
 11
-307.2482
 21
-90.29987
  0
LINE
  8
0
  6
CONTINUOUS
 62
     7
 10
-299.6613
 20
-87.29987
 11
-314.4614
 21
-87.29987
  0
LINE
  8
0
  6
CONTINUOUS
 62
     7
 10
-299.6613
 20
-87.29987
 11
-299.6613
 21
-78.99985
  0
LINE
  8
0
  6
CONTINUOUS
 62
     7
 10
-314.4614
 20
-87.29987
 11
-314.4614
 21
-78.99988
  0
LINE
  8
0
  6
CONTINUOUS
 62
     7
 10
-301.0613
 20
-89.29987
 11
-301.0613
 21
-87.29987
  0
LINE
  8
0
  6
CONTINUOUS
 62
     7
 10
-313.0613
 20
-89.29987
 11
-313.0613
 21
-87.29987
  0
LINE
  8
0
  6
CONTINUOUS
 62
     7
 10
-312.3848
 20
-89.29987
 11
-312.3848
 21
-87.29987
  0
LINE
  8
0
  6
CONTINUOUS
 62
     7
 10
-301.7379
 20
-89.29987
 11
-301.7379
 21
-87.29987
  0
LINE
  8
0
  6
CENTER
 62
     2
 10
-42.81221
 20
72.95901
 11
-42.81221
 21
-100.0193
  0
LINE
  8
0
  6
CONTINUOUS
 62
     7
 10
-33.81221
 20
24.80011
 11
-33.81221
 21
-51.59988
  0
LINE
  8
0
  6
CONTINUOUS
 62
     7
 10
-51.81221
 20
24.80011
 11
-51.81221
 21
-51.59988
  0
LINE
  8
0
  6
CONTINUOUS
 62
     7
 10
-51.81221
 20
7.60011
 11
-33.81221
 21
7.60011
  0
LINE
  8
0
  6
CONTINUOUS
 62
     7
 10
-51.81221
 20
-34.3999
 11
-33.81221
 21
-34.3999
  0
LINE
  8
0
  6
CONTINUOUS
 62
     7
 10
-50.81222
 20
25.80013
 11
-51.81222
 21
24.80013
  0
LINE
  8
0
  6
CONTINUOUS
 62
     7
 10
-34.81221
 20
25.8001
 11
-33.81221
 21
24.80009
  0
LINE
  8
0
  6
CENTER
 62
     2
 10
-48.89574
 20
-21.3999
 11
-36.73442
 21
-21.3999
  0
LINE
  8
0
  6
CENTER
 62
     2
 10
-48.45964
 20
-5.3999
 11
-36.83134
 21
-5.3999
  0
LINE
  8
0
  6
CENTER
 62
     2
 10
-36.31221
 20
6.19141
 11
-36.31221
 21
-2.81656
  0
LINE
  8
0
  6
CENTER
 62
     2
 10
-49.31221
 20
-24.28714
 11
-49.31221
 21
-32.69177
  0
LINE
  8
0
  6
CENTER
 62
     2
 10
-52.22441
 20
-28.3999
 11
-45.15385
 21
-28.3999
  0
LINE
  8
0
  6
CENTER
 62
     2
 10
-40.6588
 20
1.60011
 11
-33.22783
 21
1.60011
  0
LINE
  8
0
  6
CENTER
 62
     2
 10
-45.73393
 20
22.30011
 11
-39.90251
 21
22.30011
  0
LINE
  8
0
  6
CONTINUOUS
 62
     7
 10
-50.81221
 20
25.80011
 11
-34.81221
 21
25.80011
  0
LINE
  8
0
  6
CONTINUOUS
 62
     7
 10
-51.81221
 20
24.80011
 11
-33.81221
 21
24.80011
  0
LINE
  8
0
  6
CONTINUOUS
 62
     7
 10
-51.81223
 20
-51.59986
 11
-50.81221
 21
-52.59988
  0
LINE
  8
0
  6
CONTINUOUS
 62
     7
 10
-33.81221
 20
-51.59989
 11
-34.81221
 21
-52.59989
  0
LINE
  8
0
  6
CONTINUOUS
 62
     7
 10
-51.81221
 20
-51.59988
 11
-33.81221
 21
-51.59988
  0
LINE
  8
0
  6
CONTINUOUS
 62
     7
 10
-34.81221
 20
-52.59988
 11
-50.81218
 21
-52.59988
  0
LINE
  8
0
  6
CENTER
 62
     2
 10
-39.31221
 20
-49.09988
 11
-45.64555
 21
-49.09988
  0
LINE
  8
0
  6
CENTER
 62
     2
 10
-42.31221
 20
0.93198
 11
-42.31221
 21
-11.54257
  0
LINE
  8
0
  6
CENTER
 62
     2
 10
-43.31221
 20
-15.0968
 11
-43.31221
 21
-27.43198
  0
LINE
  8
0
  6
CENTER
 62
     2
 10
-53.56841
 20
-13.3999
 11
-32.25645
 21
-13.3999
  0
LINE
  8
0
  6
CONTINUOUS
 62
     7
 10
-50.31221
 20
52.00012
 11
-50.31221
 21
25.80011
  0
LINE
  8
0
  6
CONTINUOUS
 62
     7
 10
-50.31221
 20
51.00012
 11
-50.2122
 21
51.00012
  0
LINE
  8
0
  6
CONTINUOUS
 62
     7
 10
-35.31221
 20
52.00012
 11
-35.31221
 21
25.80011
  0
LINE
  8
0
  6
CONTINUOUS
 62
     7
 10
-50.31221
 20
52.00009
 11
-50.2122
 21
52.00009
  0
LINE
  8
0
  6
CONTINUOUS
 62
     7
 10
-35.31223
 20
52.00011
 11
-35.41222
 21
52.20011
  0
LINE
  8
0
  6
CONTINUOUS
 62
     7
 10
-50.31221
 20
52.00009
 11
-50.21223
 21
52.20006
  0
LINE
  8
0
  6
CONTINUOUS
 62
     7
 10
-49.7122
 20
50.2001
 11
-35.91222
 21
50.2001
  0
LINE
  8
0
  6
CONTINUOUS
 62
     7
 10
-49.7122
 20
35.40012
 11
-35.91222
 21
35.40012
  0
LINE
  8
0
  6
CENTER
 62
     2
 10
-53.31221
 20
42.80011
 11
-32.31221
 21
42.80011
  0
LINE
  8
0
  6
CONTINUOUS
 62
     7
 10
-44.085
 20
41.95151
 11
-43.66071
 21
42.3758
  0
LINE
  8
0
  6
CONTINUOUS
 62
     7
 10
-43.66068
 20
41.52728
 11
-43.23644
 21
41.95153
  0
LINE
  8
0
  6
CONTINUOUS
 62
     7
 10
-44.08498
 20
41.95159
 11
-43.66071
 21
41.52732
  0
LINE
  8
0
  6
CONTINUOUS
 62
     7
 10
-41.96371
 20
44.07296
 11
-41.53944
 21
43.6487
  0
LINE
  8
0
  6
CONTINUOUS
 62
     7
 10
-44.99286
 20
44.5565
 11
-43.66075
 21
43.22439
  0
LINE
  8
0
  6
CONTINUOUS
 62
     7
 10
-44.56855
 20
44.98078
 11
-43.23644
 21
43.64868
  0
LINE
  8
0
  6
CONTINUOUS
 62
     7
 10
-42.38792
 20
43.64859
 11
-41.96368
 21
44.07283
  0
LINE
  8
0
  6
CONTINUOUS
 62
     7
 10
-41.96363
 20
43.22433
 11
-41.53936
 21
43.64861
  0
LINE
  8
0
  6
CONTINUOUS
 62
     7
 10
-42.38795
 20
41.95159
 11
-41.05584
 21
40.61948
  0
LINE
  8
0
  6
CONTINUOUS
 62
     7
 10
-41.96366
 20
42.3759
 11
-40.63153
 21
41.04377
  0
LINE
  8
0
  6
CONTINUOUS
 62
     7
 10
-50.2122
 20
62.50011
 11
-35.41222
 21
62.50011
  0
LINE
  8
0
  6
CONTINUOUS
 62
     7
 10
-48.61223
 20
69.90012
 11
-37.01219
 21
69.90012
  0
LINE
  8
0
  6
CONTINUOUS
 62
     7
 10
-50.2122
 20
63.50011
 11
-35.41222
 21
63.50011
  0
LINE
  8
0
  6
CONTINUOUS
 62
     7
 10
-35.41222
 20
63.50011
 11
-35.41222
 21
62.50011
  0
LINE
  8
0
  6
CONTINUOUS
 62
     7
 10
-50.2122
 20
63.50011
 11
-50.2122
 21
62.50011
  0
LINE
  8
0
  6
CONTINUOUS
 62
     7
 10
-49.31221
 20
69.49597
 11
-49.31221
 21
63.50011
  0
LINE
  8
0
  6
CONTINUOUS
 62
     7
 10
-36.31221
 20
69.49597
 11
-36.31221
 21
63.50011
  0
LINE
  8
0
  6
CONTINUOUS
 62
     7
 10
-37.01222
 20
69.90012
 11
-36.31222
 21
69.49598
  0
LINE
  8
0
  6
CONTINUOUS
 62
     7
 10
-48.61219
 20
69.90009
 11
-49.31218
 21
69.49595
  0
LINE
  8
0
  6
CONTINUOUS
 62
     7
 10
-42.99913
 20
68.97635
 11
-42.62529
 21
68.97635
  0
LINE
  8
0
  6
CONTINUOUS
 62
     7
 10
-35.41222
 20
52.00009
 11
-35.31221
 21
52.00009
  0
LINE
  8
0
  6
CONTINUOUS
 62
     7
 10
-35.41222
 20
51.00012
 11
-35.31221
 21
51.00012
  0
LINE
  8
0
  6
CONTINUOUS
 62
     7
 10
-42.62529
 20
68.97635
 11
-42.62529
 21
63.50011
  0
LINE
  8
0
  6
CONTINUOUS
 62
     7
 10
-42.99913
 20
68.97635
 11
-42.99913
 21
63.50011
  0
LINE
  8
0
  6
CONTINUOUS
 62
     7
 10
-50.2122
 20
60.50011
 11
-35.41222
 21
60.50011
  0
LINE
  8
0
  6
CONTINUOUS
 62
     7
 10
-50.2122
 20
60.50011
 11
-50.2122
 21
35.90012
  0
LINE
  8
0
  6
CONTINUOUS
 62
     7
 10
-35.41222
 20
60.50011
 11
-35.41222
 21
35.90012
  0
LINE
  8
0
  6
CONTINUOUS
 62
     7
 10
-36.81221
 20
62.50011
 11
-36.81221
 21
60.50011
  0
LINE
  8
0
  6
CONTINUOUS
 62
     7
 10
-48.81221
 20
62.50011
 11
-48.81221
 21
60.50011
  0
LINE
  8
0
  6
CONTINUOUS
 62
     7
 10
-37.48869
 20
62.50011
 11
-37.48869
 21
60.50011
  0
LINE
  8
0
  6
CONTINUOUS
 62
     7
 10
-48.13573
 20
62.50011
 11
-48.13573
 21
60.50011
  0
LINE
  8
0
  6
CONTINUOUS
 62
     7
 10
-35.31221
 20
-78.79987
 11
-35.31221
 21
-52.59988
  0
LINE
  8
0
  6
CONTINUOUS
 62
     7
 10
-35.31221
 20
-77.79987
 11
-35.41222
 21
-77.79987
  0
LINE
  8
0
  6
CONTINUOUS
 62
     7
 10
-50.31221
 20
-78.79987
 11
-50.31221
 21
-52.59988
  0
LINE
  8
0
  6
CONTINUOUS
 62
     7
 10
-35.31221
 20
-78.79987
 11
-35.41222
 21
-78.79987
  0
LINE
  8
0
  6
CONTINUOUS
 62
     7
 10
-50.31227
 20
-78.79987
 11
-50.21227
 21
-78.99989
  0
LINE
  8
0
  6
CONTINUOUS
 62
     7
 10
-35.31221
 20
-78.79985
 11
-35.41221
 21
-78.99985
  0
LINE
  8
0
  6
CONTINUOUS
 62
     7
 10
-35.91222
 20
-76.99988
 11
-49.7122
 21
-76.99988
  0
LINE
  8
0
  6
CONTINUOUS
 62
     7
 10
-35.91222
 20
-62.19989
 11
-49.7122
 21
-62.19989
  0
LINE
  8
0
  6
CENTER
 62
     2
 10
-32.31221
 20
-69.59988
 11
-53.31221
 21
-69.59988
  0
LINE
  8
0
  6
CONTINUOUS
 62
     7
 10
-41.53936
 20
-68.75141
 11
-41.96363
 21
-69.17568
  0
LINE
  8
0
  6
CONTINUOUS
 62
     7
 10
-41.96365
 20
-68.32713
 11
-42.38792
 21
-68.7514
  0
LINE
  8
0
  6
CONTINUOUS
 62
     7
 10
-41.53947
 20
-68.75137
 11
-41.96372
 21
-68.32712
  0
LINE
  8
0
  6
CONTINUOUS
 62
     7
 10
-43.66079
 20
-70.87268
 11
-44.08504
 21
-70.44844
  0
LINE
  8
0
  6
CONTINUOUS
 62
     7
 10
-40.6316
 20
-71.35623
 11
-41.96368
 21
-70.02415
  0
LINE
  8
0
  6
CONTINUOUS
 62
     7
 10
-41.05593
 20
-71.78056
 11
-42.38801
 21
-70.44848
  0
LINE
  8
0
  6
CONTINUOUS
 62
     7
 10
-43.23641
 20
-70.44846
 11
-43.66068
 21
-70.87273
  0
LINE
  8
0
  6
CONTINUOUS
 62
     7
 10
-43.6607
 20
-70.02418
 11
-44.08497
 21
-70.44845
  0
LINE
  8
0
  6
CONTINUOUS
 62
     7
 10
-43.23646
 20
-68.75137
 11
-44.56859
 21
-67.41924
  0
LINE
  8
0
  6
CONTINUOUS
 62
     7
 10
-43.66082
 20
-69.17567
 11
-44.99292
 21
-67.84357
  0
LINE
  8
0
  6
CONTINUOUS
 62
     7
 10
-35.41222
 20
-89.29987
 11
-50.2122
 21
-89.29987
  0
LINE
  8
0
  6
CONTINUOUS
 62
     7
 10
-37.01219
 20
-96.69989
 11
-48.61223
 21
-96.69989
  0
LINE
  8
0
  6
CONTINUOUS
 62
     7
 10
-35.41222
 20
-90.29987
 11
-50.2122
 21
-90.29987
  0
LINE
  8
0
  6
CONTINUOUS
 62
     7
 10
-50.2122
 20
-90.29987
 11
-50.2122
 21
-89.29987
  0
LINE
  8
0
  6
CONTINUOUS
 62
     7
 10
-35.41222
 20
-90.29987
 11
-35.41222
 21
-89.29987
  0
LINE
  8
0
  6
CONTINUOUS
 62
     7
 10
-36.31221
 20
-96.29575
 11
-36.31221
 21
-90.29987
  0
LINE
  8
0
  6
CONTINUOUS
 62
     7
 10
-49.31221
 20
-96.29575
 11
-49.31221
 21
-90.29987
  0
LINE
  8
0
  6
CONTINUOUS
 62
     7
 10
-48.61223
 20
-96.69991
 11
-49.31223
 21
-96.29576
  0
LINE
  8
0
  6
CONTINUOUS
 62
     7
 10
-37.01212
 20
-96.70001
 11
-36.31213
 21
-96.29587
  0
LINE
  8
0
  6
CONTINUOUS
 62
     7
 10
-42.62529
 20
-95.77612
 11
-42.99913
 21
-95.77612
  0
LINE
  8
0
  6
CONTINUOUS
 62
     7
 10
-50.2122
 20
-78.79987
 11
-50.31221
 21
-78.79987
  0
LINE
  8
0
  6
CONTINUOUS
 62
     7
 10
-50.2122
 20
-77.79987
 11
-50.31221
 21
-77.79987
  0
LINE
  8
0
  6
CONTINUOUS
 62
     7
 10
-42.99913
 20
-95.77612
 11
-42.99913
 21
-90.29987
  0
LINE
  8
0
  6
CONTINUOUS
 62
     7
 10
-42.62529
 20
-95.77612
 11
-42.62529
 21
-90.29987
  0
LINE
  8
0
  6
CONTINUOUS
 62
     7
 10
-35.41222
 20
-87.29987
 11
-50.2122
 21
-87.29987
  0
LINE
  8
0
  6
CONTINUOUS
 62
     7
 10
-35.41222
 20
-87.29987
 11
-35.41222
 21
-62.69989
  0
LINE
  8
0
  6
CONTINUOUS
 62
     7
 10
-50.2122
 20
-87.29987
 11
-50.2122
 21
-62.69989
  0
LINE
  8
0
  6
CONTINUOUS
 62
     7
 10
-48.81221
 20
-89.29987
 11
-48.81221
 21
-87.29987
  0
LINE
  8
0
  6
CONTINUOUS
 62
     7
 10
-36.81221
 20
-89.29987
 11
-36.81221
 21
-87.29987
  0
LINE
  8
0
  6
CONTINUOUS
 62
     7
 10
-48.13573
 20
-89.29987
 11
-48.13573
 21
-87.29987
  0
LINE
  8
0
  6
CONTINUOUS
 62
     7
 10
-37.48869
 20
-89.29987
 11
-37.48869
 21
-87.29987
  0
LINE
  8
0
  6
CONTINUOUS
 62
     7
 10
-169.4367
 20
-186.679
 11
-169.4367
 21
-187.179
  0
LINE
  8
0
  6
CONTINUOUS
 62
     7
 10
-168.4367
 20
-171.679
 11
-168.4367
 21
-170.679
  0
LINE
  8
0
  6
CENTER
 62
     2
 10
-197.833
 20
-179.179
 11
-136.4913
 21
-179.179
  0
LINE
  8
0
  6
CONTINUOUS
 62
     7
 10
-194.9367
 20
-170.179
 11
-168.9367
 21
-170.179
  0
LINE
  8
0
  6
CONTINUOUS
 62
     7
 10
-194.9367
 20
-188.179
 11
-168.9367
 21
-188.179
  0
LINE
  8
0
  6
CONTINUOUS
 62
     7
 10
-168.4367
 20
-187.679
 11
-168.4367
 21
-186.679
  0
LINE
  8
0
  6
CONTINUOUS
 62
     7
 10
-195.4367
 20
-187.679
 11
-195.4367
 21
-170.679
  0
LINE
  8
0
  6
CENTER
 62
     2
 10
-181.9367
 20
-190.929
 11
-181.9367
 21
-166.9516
  0
LINE
  8
0
  6
CONTINUOUS
 62
     7
 10
-194.4367
 20
-171.179
 11
-169.4367
 21
-171.179
  0
LINE
  8
0
  6
CONTINUOUS
 62
     7
 10
-194.4367
 20
-187.179
 11
-169.4367
 21
-187.179
  0
LINE
  8
0
  6
CONTINUOUS
 62
     7
 10
-194.4367
 20
-171.179
 11
-194.4367
 21
-187.179
  0
LINE
  8
0
  6
CONTINUOUS
 62
     7
 10
-169.4367
 20
-171.179
 11
-169.4367
 21
-171.679
  0
LINE
  8
0
  6
CONTINUOUS
 62
     7
 10
-169.4366
 20
-187.179
 11
-168.5831
 21
-188.0325
  0
LINE
  8
0
  6
CONTINUOUS
 62
     7
 10
-194.4367
 20
-187.1791
 11
-195.2903
 21
-188.0326
  0
LINE
  8
0
  6
CONTINUOUS
 62
     7
 10
-169.4368
 20
-171.179
 11
-168.5832
 21
-170.3255
  0
LINE
  8
0
  6
CONTINUOUS
 62
     7
 10
-194.4368
 20
-171.1791
 11
-195.2903
 21
-170.3256
  0
LINE
  8
0
  6
CONTINUOUS
 62
     7
 10
-169.9367
 20
-171.679
 11
-169.9367
 21
-186.679
  0
LINE
  8
0
  6
CONTINUOUS
 62
     7
 10
-172.9367
 20
-180.679
 11
-169.9367
 21
-180.679
  0
LINE
  8
0
  6
CONTINUOUS
 62
     7
 10
-190.9367
 20
-177.679
 11
-193.9367
 21
-177.679
  0
LINE
  8
0
  6
CONTINUOUS
 62
     7
 10
-187.9367
 20
-174.679
 11
-187.9367
 21
-171.679
  0
LINE
  8
0
  6
CONTINUOUS
 62
     7
 10
-175.9367
 20
-183.679
 11
-175.9367
 21
-186.679
  0
LINE
  8
0
  6
CONTINUOUS
 62
     7
 10
-192.9367
 20
-177.679
 11
-192.9367
 21
-185.679
  0
LINE
  8
0
  6
CONTINUOUS
 62
     7
 10
-170.9367
 20
-172.679
 11
-170.9367
 21
-180.679
  0
LINE
  8
0
  6
CONTINUOUS
 62
     7
 10
-187.9367
 20
-172.679
 11
-170.9367
 21
-172.679
  0
LINE
  8
0
  6
CONTINUOUS
 62
     7
 10
-192.9367
 20
-185.679
 11
-175.9367
 21
-185.679
  0
LINE
  8
0
  6
CONTINUOUS
 62
     7
 10
-172.6367
 20
-185.909
 11
-172.6367
 21
-186.2113
  0
LINE
  8
0
  6
CONTINUOUS
 62
     7
 10
-173.2367
 20
-185.909
 11
-173.2367
 21
-186.2113
  0
LINE
  8
0
  6
CONTINUOUS
 62
     7
 10
-173.3975
 20
-186.1871
 11
-173.3975
 21
-185.8814
  0
LINE
  8
0
  6
CONTINUOUS
 62
     7
 10
-191.2367
 20
-172.4491
 11
-191.2367
 21
-172.1468
  0
LINE
  8
0
  6
CONTINUOUS
 62
     7
 10
-190.6367
 20
-172.4491
 11
-190.6367
 21
-172.1468
  0
LINE
  8
0
  6
CONTINUOUS
 62
     7
 10
-190.476
 20
-172.171
 11
-190.476
 21
-172.4767
  0
LINE
  8
0
  6
CONTINUOUS
 62
     7
 10
-174.0398
 20
-184.4145
 11
-173.6721
 21
-184.0468
  0
LINE
  8
0
  6
CONTINUOUS
 62
     7
 10
-173.6721
 20
-184.7822
 11
-173.3044
 21
-184.4145
  0
LINE
  8
0
  6
CONTINUOUS
 62
     7
 10
-174.0399
 20
-184.4145
 11
-173.6721
 21
-184.7822
  0
LINE
  8
0
  6
CONTINUOUS
 62
     7
 10
-172.2013
 20
-182.576
 11
-171.8336
 21
-182.9437
  0
LINE
  8
0
  6
CONTINUOUS
 62
     7
 10
-174.7009
 20
-182.2826
 11
-173.6721
 21
-183.3114
  0
LINE
  8
0
  6
CONTINUOUS
 62
     7
 10
-174.3332
 20
-181.9149
 11
-173.3044
 21
-182.9436
  0
LINE
  8
0
  6
CONTINUOUS
 62
     7
 10
-172.569
 20
-182.9437
 11
-172.2013
 21
-182.576
  0
LINE
  8
0
  6
CONTINUOUS
 62
     7
 10
-172.2013
 20
-183.3114
 11
-171.8336
 21
-182.9437
  0
LINE
  8
0
  6
CONTINUOUS
 62
     7
 10
-172.569
 20
-184.4144
 11
-171.5403
 21
-185.4432
  0
LINE
  8
0
  6
CONTINUOUS
 62
     7
 10
-172.2014
 20
-184.0467
 11
-171.1726
 21
-185.0755
  0
LINE
  8
0
  6
CONTINUOUS
 62
     7
 10
-192.0398
 20
-175.4145
 11
-191.6721
 21
-175.0468
  0
LINE
  8
0
  6
CONTINUOUS
 62
     7
 10
-191.6721
 20
-175.7822
 11
-191.3044
 21
-175.4145
  0
LINE
  8
0
  6
CONTINUOUS
 62
     7
 10
-192.0398
 20
-175.4145
 11
-191.6721
 21
-175.7822
  0
LINE
  8
0
  6
CONTINUOUS
 62
     7
 10
-190.2013
 20
-173.576
 11
-189.8336
 21
-173.9437
  0
LINE
  8
0
  6
CONTINUOUS
 62
     7
 10
-192.701
 20
-173.2826
 11
-191.6722
 21
-174.3114
  0
LINE
  8
0
  6
CONTINUOUS
 62
     7
 10
-192.3333
 20
-172.9149
 11
-191.3045
 21
-173.9437
  0
LINE
  8
0
  6
CONTINUOUS
 62
     7
 10
-190.569
 20
-173.9437
 11
-190.2013
 21
-173.576
  0
LINE
  8
0
  6
CONTINUOUS
 62
     7
 10
-190.2013
 20
-174.3114
 11
-189.8336
 21
-173.9437
  0
LINE
  8
0
  6
CONTINUOUS
 62
     7
 10
-190.5691
 20
-175.4145
 11
-189.5403
 21
-176.4433
  0
LINE
  8
0
  6
CONTINUOUS
 62
     7
 10
-190.2014
 20
-175.0468
 11
-189.1726
 21
-176.0756
  0
LINE
  8
0
  6
CENTER
 62
     2
 10
-172.9367
 20
-179.679
 11
-172.9367
 21
-187.679
  0
LINE
  8
0
  6
CENTER
 62
     2
 10
-190.9367
 20
-170.679
 11
-190.9367
 21
-178.679
  0
LINE
  8
0
  6
CENTER
 62
     2
 10
-194.9367
 20
-174.679
 11
-186.9367
 21
-174.679
  0
LINE
  8
0
  6
CENTER
 62
     2
 10
-176.9367
 20
-183.679
 11
-168.9367
 21
-183.679
  0
LINE
  8
0
  6
CONTINUOUS
 62
     7
 10
-193.4367
 20
-171.679
 11
-162.9367
 21
-171.679
  0
LINE
  8
0
  6
CONTINUOUS
 62
     7
 10
-193.9367
 20
-172.179
 11
-193.9367
 21
-186.179
  0
LINE
  8
0
  6
CONTINUOUS
 62
     7
 10
-193.4367
 20
-186.679
 11
-162.9367
 21
-186.679
  0
LINE
  8
0
  6
CONTINUOUS
 62
     7
 10
-166.9367
 20
-171.679
 11
-166.9367
 21
-186.679
  0
LINE
  8
0
  6
CONTINUOUS
 62
     7
 10
-162.9367
 20
-171.679
 11
-162.9367
 21
-186.679
  0
LINE
  8
0
  6
CENTER
 62
     2
 10
-147.3367
 20
-168.7791
 11
-147.3367
 21
-189.579
  0
LINE
  8
0
  6
CONTINUOUS
 62
     7
 10
-150.8737
 20
-172.679
 11
-143.7998
 21
-172.679
  0
LINE
  8
0
  6
CONTINUOUS
 62
     7
 10
-150.8737
 20
-185.679
 11
-143.7998
 21
-185.679
  0
LINE
  8
0
  6
CONTINUOUS
 62
     7
 10
-143.4761
 20
-172.866
 11
-139.9391
 21
-178.9921
  0
LINE
  8
0
  6
CONTINUOUS
 62
     7
 10
-154.7344
 20
-179.366
 11
-151.1975
 21
-185.4922
  0
LINE
  8
0
  6
CONTINUOUS
 62
     7
 10
-139.9389
 20
-179.366
 11
-143.4759
 21
-185.4921
  0
LINE
  8
0
  6
CONTINUOUS
 62
     7
 10
-151.1974
 20
-172.8659
 11
-154.7343
 21
-178.9921
  0
LINE
  8
0
  6
CONTINUOUS
 62
     7
 10
-139.9367
 20
-172.2791
 11
-139.9367
 21
-186.079
  0
LINE
  8
0
  6
CONTINUOUS
 62
     7
 10
-138.7649
 20
-181.979
 11
-139.4367
 21
-181.979
  0
LINE
  8
0
  6
CONTINUOUS
 62
     7
 10
-138.7649
 20
-176.379
 11
-139.4367
 21
-176.379
  0
LINE
  8
0
  6
CONTINUOUS
 62
     7
 10
-139.4367
 20
-175.929
 11
-139.9367
 21
-175.929
  0
LINE
  8
0
  6
CONTINUOUS
 62
     7
 10
-139.4367
 20
-182.429
 11
-139.4367
 21
-175.929
  0
LINE
  8
0
  6
CONTINUOUS
 62
     7
 10
-139.4367
 20
-182.429
 11
-139.9367
 21
-182.429
  0
LINE
  8
0
  6
CONTINUOUS
 62
     7
 10
-162.9367
 20
-186.579
 11
-140.4367
 21
-186.579
  0
LINE
  8
0
  6
CONTINUOUS
 62
     7
 10
-162.9367
 20
-171.7791
 11
-140.4367
 21
-171.7791
  0
LINE
  8
0
  6
CONTINUOUS
 62
     7
 10
-162.4367
 20
-171.7791
 11
-162.4367
 21
-186.579
  0
LINE
  8
0
  6
CONTINUOUS
 62
     7
 10
161.4371
 20
124.2773
 11
160.9371
 21
124.2773
  0
LINE
  8
0
  6
CONTINUOUS
 62
     7
 10
176.4371
 20
123.2773
 11
177.4371
 21
123.2773
  0
LINE
  8
0
  6
CONTINUOUS
 62
     7
 10
177.9371
 20
149.7773
 11
177.9371
 21
123.7773
  0
LINE
  8
0
  6
CONTINUOUS
 62
     7
 10
159.9371
 20
149.7773
 11
159.9371
 21
123.7773
  0
LINE
  8
0
  6
CONTINUOUS
 62
     7
 10
160.4371
 20
123.2773
 11
161.4371
 21
123.2773
  0
LINE
  8
0
  6
CONTINUOUS
 62
     7
 10
160.4371
 20
150.2773
 11
177.4371
 21
150.2773
  0
LINE
  8
0
  6
CONTINUOUS
 62
     7
 10
176.9371
 20
149.2773
 11
176.9371
 21
124.2773
  0
LINE
  8
0
  6
CONTINUOUS
 62
     7
 10
160.9371
 20
149.2773
 11
160.9371
 21
124.2773
  0
LINE
  8
0
  6
CONTINUOUS
 62
     7
 10
176.9371
 20
149.2773
 11
160.9371
 21
149.2773
  0
LINE
  8
0
  6
CONTINUOUS
 62
     7
 10
176.9371
 20
124.2773
 11
176.4371
 21
124.2773
  0
LINE
  8
0
  6
CONTINUOUS
 62
     7
 10
160.937
 20
124.2773
 11
160.0835
 21
123.4237
  0
LINE
  8
0
  6
CONTINUOUS
 62
     7
 10
160.9371
 20
149.2773
 11
160.0835
 21
150.1308
  0
LINE
  8
0
  6
CONTINUOUS
 62
     7
 10
176.9371
 20
124.2772
 11
177.7906
 21
123.4237
  0
LINE
  8
0
  6
CONTINUOUS
 62
     7
 10
176.9371
 20
149.2773
 11
177.7907
 21
150.1309
  0
LINE
  8
0
  6
CONTINUOUS
 62
     7
 10
176.4371
 20
124.7773
 11
161.4371
 21
124.7773
  0
LINE
  8
0
  6
CONTINUOUS
 62
     7
 10
167.4371
 20
127.7773
 11
167.4371
 21
124.7773
  0
LINE
  8
0
  6
CONTINUOUS
 62
     7
 10
170.4371
 20
145.7773
 11
170.4371
 21
148.7773
  0
LINE
  8
0
  6
CONTINUOUS
 62
     7
 10
173.4371
 20
142.7773
 11
176.4371
 21
142.7773
  0
LINE
  8
0
  6
CONTINUOUS
 62
     7
 10
164.4371
 20
130.7773
 11
161.4371
 21
130.7773
  0
LINE
  8
0
  6
CONTINUOUS
 62
     7
 10
170.4371
 20
147.7773
 11
162.4371
 21
147.7773
  0
LINE
  8
0
  6
CONTINUOUS
 62
     7
 10
175.4371
 20
125.7773
 11
167.4371
 21
125.7773
  0
LINE
  8
0
  6
CONTINUOUS
 62
     7
 10
175.4371
 20
142.7773
 11
175.4371
 21
125.7773
  0
LINE
  8
0
  6
CONTINUOUS
 62
     7
 10
162.4371
 20
147.7773
 11
162.4371
 21
130.7773
  0
LINE
  8
0
  6
CONTINUOUS
 62
     7
 10
162.2072
 20
127.4773
 11
161.9048
 21
127.4773
  0
LINE
  8
0
  6
CONTINUOUS
 62
     7
 10
162.2072
 20
128.0773
 11
161.9048
 21
128.0773
  0
LINE
  8
0
  6
CONTINUOUS
 62
     7
 10
161.9291
 20
128.238
 11
162.2348
 21
128.238
  0
LINE
  8
0
  6
CONTINUOUS
 62
     7
 10
175.667
 20
146.0773
 11
175.9694
 21
146.0773
  0
LINE
  8
0
  6
CONTINUOUS
 62
     7
 10
175.667
 20
145.4773
 11
175.9694
 21
145.4773
  0
LINE
  8
0
  6
CONTINUOUS
 62
     7
 10
175.9451
 20
145.3165
 11
175.6394
 21
145.3165
  0
LINE
  8
0
  6
CONTINUOUS
 62
     7
 10
163.7018
 20
128.8804
 11
164.0695
 21
128.5127
  0
LINE
  8
0
  6
CONTINUOUS
 62
     7
 10
163.3342
 20
128.5127
 11
163.7018
 21
128.1451
  0
LINE
  8
0
  6
CONTINUOUS
 62
     7
 10
163.7017
 20
128.8803
 11
163.3341
 21
128.5126
  0
LINE
  8
0
  6
CONTINUOUS
 62
     7
 10
165.5402
 20
127.0419
 11
165.1725
 21
126.6742
  0
LINE
  8
0
  6
CONTINUOUS
 62
     7
 10
165.8336
 20
129.5414
 11
164.8048
 21
128.5126
  0
LINE
  8
0
  6
CONTINUOUS
 62
     7
 10
166.2014
 20
129.1737
 11
165.1725
 21
128.1449
  0
LINE
  8
0
  6
CONTINUOUS
 62
     7
 10
165.1726
 20
127.4096
 11
165.5403
 21
127.0419
  0
LINE
  8
0
  6
CONTINUOUS
 62
     7
 10
164.8049
 20
127.042
 11
165.1726
 21
126.6743
  0
LINE
  8
0
  6
CONTINUOUS
 62
     7
 10
163.7017
 20
127.4096
 11
162.6729
 21
126.3808
  0
LINE
  8
0
  6
CONTINUOUS
 62
     7
 10
164.0695
 20
127.0418
 11
163.0407
 21
126.013
  0
LINE
  8
0
  6
CONTINUOUS
 62
     7
 10
172.7019
 20
146.8805
 11
173.0695
 21
146.5128
  0
LINE
  8
0
  6
CONTINUOUS
 62
     7
 10
172.3341
 20
146.5128
 11
172.7018
 21
146.1451
  0
LINE
  8
0
  6
CONTINUOUS
 62
     7
 10
172.7018
 20
146.8803
 11
172.3341
 21
146.5126
  0
LINE
  8
0
  6
CONTINUOUS
 62
     7
 10
174.5402
 20
145.0419
 11
174.1725
 21
144.6742
  0
LINE
  8
0
  6
CONTINUOUS
 62
     7
 10
174.8336
 20
147.5414
 11
173.8048
 21
146.5126
  0
LINE
  8
0
  6
CONTINUOUS
 62
     7
 10
175.2013
 20
147.1737
 11
174.1725
 21
146.1449
  0
LINE
  8
0
  6
CONTINUOUS
 62
     7
 10
174.1727
 20
145.4097
 11
174.5403
 21
145.042
  0
LINE
  8
0
  6
CONTINUOUS
 62
     7
 10
173.8049
 20
145.042
 11
174.1726
 21
144.6743
  0
LINE
  8
0
  6
CONTINUOUS
 62
     7
 10
172.7017
 20
145.4095
 11
171.6729
 21
144.3808
  0
LINE
  8
0
  6
CONTINUOUS
 62
     7
 10
173.0694
 20
145.0418
 11
172.0407
 21
144.013
  0
LINE
  8
0
  6
CENTER
 62
     2
 10
168.4371
 20
127.7773
 11
160.4371
 21
127.7773
  0
LINE
  8
0
  6
CENTER
 62
     2
 10
177.4371
 20
145.7773
 11
169.4371
 21
145.7773
  0
LINE
  8
0
  6
CENTER
 62
     2
 10
173.4371
 20
149.7773
 11
173.4371
 21
141.7773
  0
LINE
  8
0
  6
CENTER
 62
     2
 10
164.4371
 20
131.7773
 11
164.4371
 21
123.7773
  0
LINE
  8
0
  6
CONTINUOUS
 62
     7
 10
176.4371
 20
148.2773
 11
176.4371
 21
117.7773
  0
LINE
  8
0
  6
CONTINUOUS
 62
     7
 10
175.9371
 20
148.7773
 11
161.9371
 21
148.7773
  0
LINE
  8
0
  6
CONTINUOUS
 62
     7
 10
161.4371
 20
148.2773
 11
161.4371
 21
117.7773
  0
LINE
  8
0
  6
CONTINUOUS
 62
     7
 10
176.4371
 20
121.7773
 11
161.4371
 21
121.7773
  0
LINE
  8
0
  6
CONTINUOUS
 62
     7
 10
176.4371
 20
117.7773
 11
161.4371
 21
117.7773
  0
LINE
  8
0
  6
CENTER
 62
     2
 10
179.3371
 20
102.1773
 11
158.5371
 21
102.1773
  0
LINE
  8
0
  6
CONTINUOUS
 62
     7
 10
175.4371
 20
105.7142
 11
175.4371
 21
98.64032
  0
LINE
  8
0
  6
CONTINUOUS
 62
     7
 10
162.4371
 20
105.7142
 11
162.4371
 21
98.64032
  0
LINE
  8
0
  6
CONTINUOUS
 62
     7
 10
175.2502
 20
98.31655
 11
169.124
 21
94.77959
  0
LINE
  8
0
  6
CONTINUOUS
 62
     7
 10
168.7501
 20
109.5749
 11
162.6239
 21
106.0379
  0
LINE
  8
0
  6
CONTINUOUS
 62
     7
 10
168.7502
 20
94.77969
 11
162.6241
 21
98.31664
  0
LINE
  8
0
  6
CONTINUOUS
 62
     7
 10
175.2502
 20
106.038
 11
169.1241
 21
109.575
  0
LINE
  8
0
  6
CONTINUOUS
 62
     7
 10
175.8371
 20
94.77728
 11
162.0371
 21
94.77728
  0
LINE
  8
0
  6
CONTINUOUS
 62
     7
 10
166.1371
 20
93.60544
 11
166.1371
 21
94.27725
  0
LINE
  8
0
  6
CONTINUOUS
 62
     7
 10
171.7371
 20
93.60544
 11
171.7371
 21
94.27728
  0
LINE
  8
0
  6
CONTINUOUS
 62
     7
 10
172.1871
 20
94.27728
 11
172.1871
 21
94.77728
  0
LINE
  8
0
  6
CONTINUOUS
 62
     7
 10
165.6871
 20
94.27728
 11
172.1871
 21
94.27728
  0
LINE
  8
0
  6
CONTINUOUS
 62
     7
 10
165.6871
 20
94.27725
 11
165.6871
 21
94.77725
  0
LINE
  8
0
  6
CONTINUOUS
 62
     7
 10
161.5371
 20
117.7773
 11
161.5371
 21
95.27728
  0
LINE
  8
0
  6
CONTINUOUS
 62
     7
 10
176.3371
 20
117.7773
 11
176.3371
 21
95.27728
  0
LINE
  8
0
  6
CONTINUOUS
 62
     7
 10
176.3371
 20
117.2773
 11
161.5371
 21
117.2773
  0
LINE
  8
0
  6
CENTER
 62
     2
 10
168.9371
 20
152.6735
 11
168.9371
 21
89.82596
  0
LINE
  8
0
  6
CENTER
 62
     2
 10
157.1871
 20
136.7773
 11
181.1646
 21
136.7773
  0
LINE
  8
0
  6
CENTER
 62
     2
 10
168.9368
 20
71.6846
 11
168.9368
 21
-99.83331
  0
LINE
  8
0
  6
CONTINUOUS
 62
     7
 10
177.9368
 20
24.80002
 11
177.9368
 21
-51.59998
  0
LINE
  8
0
  6
CONTINUOUS
 62
     7
 10
159.9368
 20
7.60002
 11
177.9368
 21
7.60002
  0
LINE
  8
0
  6
CONTINUOUS
 62
     7
 10
159.9368
 20
-34.39998
 11
177.9368
 21
-34.39998
  0
LINE
  8
0
  6
CONTINUOUS
 62
     7
 10
160.9367
 20
25.80003
 11
159.9367
 21
24.80005
  0
LINE
  8
0
  6
CONTINUOUS
 62
     7
 10
176.9367
 20
25.79999
 11
177.9367
 21
24.79999
  0
LINE
  8
0
  6
CENTER
 62
     2
 10
175.4368
 20
6.19131
 11
175.4368
 21
-2.81665
  0
LINE
  8
0
  6
CENTER
 62
     2
 10
162.4368
 20
-24.28723
 11
162.4368
 21
-32.69186
  0
LINE
  8
0
  6
CENTER
 62
     2
 10
159.5246
 20
-28.39998
 11
166.6691
 21
-28.39998
  0
LINE
  8
0
  6
CENTER
 62
     2
 10
171.0902
 20
1.60002
 11
178.5211
 21
1.60002
  0
LINE
  8
0
  6
CENTER
 62
     2
 10
166.0151
 20
22.30002
 11
171.8465
 21
22.30002
  0
LINE
  8
0
  6
CONTINUOUS
 62
     7
 10
160.9368
 20
25.80002
 11
176.9368
 21
25.80002
  0
LINE
  8
0
  6
CONTINUOUS
 62
     7
 10
159.9368
 20
24.80002
 11
177.9368
 21
24.80002
  0
LINE
  8
0
  6
CONTINUOUS
 62
     7
 10
159.9368
 20
24.80002
 11
159.9368
 21
-51.59998
  0
LINE
  8
0
  6
CONTINUOUS
 62
     7
 10
159.9367
 20
-51.60001
 11
160.9367
 21
-52.60001
  0
LINE
  8
0
  6
CONTINUOUS
 62
     7
 10
176.9368
 20
-52.59995
 11
177.9368
 21
-51.59992
  0
LINE
  8
0
  6
CONTINUOUS
 62
     7
 10
159.9368
 20
-51.59998
 11
177.9368
 21
-51.59998
  0
LINE
  8
0
  6
CONTINUOUS
 62
     7
 10
176.9368
 20
-52.59998
 11
160.9368
 21
-52.59998
  0
LINE
  8
0
  6
CENTER
 62
     2
 10
171.8812
 20
-49.09998
 11
165.9702
 21
-49.09998
  0
LINE
  8
0
  6
CENTER
 62
     2
 10
158.836
 20
-13.39998
 11
179.6138
 21
-13.39998
  0
LINE
  8
0
  6
CONTINUOUS
 62
     7
 10
161.4368
 20
52.00003
 11
161.4368
 21
25.80002
  0
LINE
  8
0
  6
CONTINUOUS
 62
     7
 10
161.4368
 20
51.00003
 11
161.5368
 21
51.00003
  0
LINE
  8
0
  6
CONTINUOUS
 62
     7
 10
176.4368
 20
52.00003
 11
176.4368
 21
25.80002
  0
LINE
  8
0
  6
CONTINUOUS
 62
     7
 10
161.4368
 20
52.0
 11
161.5368
 21
52.0
  0
LINE
  8
0
  6
CONTINUOUS
 62
     7
 10
176.4368
 20
52.00001
 11
176.3368
 21
52.20001
  0
LINE
  8
0
  6
CONTINUOUS
 62
     7
 10
161.4368
 20
52.00005
 11
161.5368
 21
52.20005
  0
LINE
  8
0
  6
CONTINUOUS
 62
     7
 10
162.0368
 20
50.20001
 11
175.8368
 21
50.20001
  0
LINE
  8
0
  6
CONTINUOUS
 62
     7
 10
162.0368
 20
35.40002
 11
175.8368
 21
35.40002
  0
LINE
  8
0
  6
CENTER
 62
     2
 10
158.4368
 20
42.80002
 11
179.4368
 21
42.80002
  0
LINE
  8
0
  6
CONTINUOUS
 62
     7
 10
167.664
 20
41.9515
 11
168.0883
 21
42.37574
  0
LINE
  8
0
  6
CONTINUOUS
 62
     7
 10
168.0883
 20
41.52722
 11
168.5125
 21
41.95147
  0
LINE
  8
0
  6
CONTINUOUS
 62
     7
 10
167.6641
 20
41.95156
 11
168.0883
 21
41.52729
  0
LINE
  8
0
  6
CONTINUOUS
 62
     7
 10
169.7854
 20
44.07291
 11
170.2097
 21
43.64865
  0
LINE
  8
0
  6
CONTINUOUS
 62
     7
 10
166.7562
 20
44.55647
 11
168.0883
 21
43.22436
  0
LINE
  8
0
  6
CONTINUOUS
 62
     7
 10
167.1804
 20
44.9807
 11
168.5125
 21
43.6486
  0
LINE
  8
0
  6
CONTINUOUS
 62
     7
 10
169.3611
 20
43.64853
 11
169.7854
 21
44.07282
  0
LINE
  8
0
  6
CONTINUOUS
 62
     7
 10
169.7853
 20
43.22425
 11
170.2096
 21
43.64854
  0
LINE
  8
0
  6
CONTINUOUS
 62
     7
 10
169.3611
 20
41.95157
 11
170.6932
 21
40.61946
  0
LINE
  8
0
  6
CONTINUOUS
 62
     7
 10
169.7853
 20
42.3758
 11
171.1174
 21
41.0437
  0
LINE
  8
0
  6
CONTINUOUS
 62
     7
 10
161.5368
 20
62.50003
 11
176.3368
 21
62.50003
  0
LINE
  8
0
  6
CONTINUOUS
 62
     7
 10
163.1368
 20
69.90002
 11
174.7368
 21
69.90002
  0
LINE
  8
0
  6
CONTINUOUS
 62
     7
 10
161.5368
 20
63.50003
 11
176.3368
 21
63.50003
  0
LINE
  8
0
  6
CONTINUOUS
 62
     7
 10
176.3368
 20
63.50003
 11
176.3368
 21
62.50003
  0
LINE
  8
0
  6
CONTINUOUS
 62
     7
 10
161.5368
 20
63.50003
 11
161.5368
 21
62.50003
  0
LINE
  8
0
  6
CONTINUOUS
 62
     7
 10
162.4368
 20
69.49588
 11
162.4368
 21
63.50003
  0
LINE
  8
0
  6
CONTINUOUS
 62
     7
 10
175.4368
 20
69.49588
 11
175.4368
 21
63.50003
  0
LINE
  8
0
  6
CONTINUOUS
 62
     7
 10
174.7368
 20
69.90008
 11
175.4368
 21
69.49593
  0
LINE
  8
0
  6
CONTINUOUS
 62
     7
 10
163.1368
 20
69.90002
 11
162.4368
 21
69.49587
  0
LINE
  8
0
  6
CONTINUOUS
 62
     7
 10
168.7499
 20
68.97626
 11
169.1237
 21
68.97626
  0
LINE
  8
0
  6
CONTINUOUS
 62
     7
 10
176.3368
 20
52.0
 11
176.4368
 21
52.0
  0
LINE
  8
0
  6
CONTINUOUS
 62
     7
 10
176.3368
 20
51.00003
 11
176.4368
 21
51.00003
  0
LINE
  8
0
  6
CONTINUOUS
 62
     7
 10
169.1237
 20
68.97626
 11
169.1237
 21
63.50003
  0
LINE
  8
0
  6
CONTINUOUS
 62
     7
 10
168.7499
 20
68.97626
 11
168.7499
 21
63.50003
  0
LINE
  8
0
  6
CONTINUOUS
 62
     7
 10
161.5368
 20
60.50003
 11
176.3368
 21
60.50003
  0
LINE
  8
0
  6
CONTINUOUS
 62
     7
 10
161.5368
 20
60.50003
 11
161.5368
 21
35.90002
  0
LINE
  8
0
  6
CONTINUOUS
 62
     7
 10
176.3368
 20
60.50003
 11
176.3368
 21
35.90002
  0
LINE
  8
0
  6
CONTINUOUS
 62
     7
 10
174.9368
 20
62.50003
 11
174.9368
 21
60.50003
  0
LINE
  8
0
  6
CONTINUOUS
 62
     7
 10
162.9368
 20
62.50003
 11
162.9368
 21
60.50003
  0
LINE
  8
0
  6
CONTINUOUS
 62
     7
 10
174.2603
 20
62.50003
 11
174.2603
 21
60.50003
  0
LINE
  8
0
  6
CONTINUOUS
 62
     7
 10
163.6133
 20
62.50003
 11
163.6133
 21
60.50003
  0
LINE
  8
0
  6
CONTINUOUS
 62
     7
 10
176.4368
 20
-78.79999
 11
176.4368
 21
-52.59998
  0
LINE
  8
0
  6
CONTINUOUS
 62
     7
 10
176.4368
 20
-77.79999
 11
176.3368
 21
-77.79999
  0
LINE
  8
0
  6
CONTINUOUS
 62
     7
 10
161.4368
 20
-78.79999
 11
161.4368
 21
-52.59998
  0
LINE
  8
0
  6
CONTINUOUS
 62
     7
 10
176.4368
 20
-78.79996
 11
176.3368
 21
-78.79996
  0
LINE
  8
0
  6
CONTINUOUS
 62
     7
 10
161.4367
 20
-78.80001
 11
161.5367
 21
-79.00002
  0
LINE
  8
0
  6
CONTINUOUS
 62
     7
 10
176.4368
 20
-78.79996
 11
176.3368
 21
-78.99992
  0
LINE
  8
0
  6
CONTINUOUS
 62
     7
 10
175.8368
 20
-76.99997
 11
162.0368
 21
-76.99997
  0
LINE
  8
0
  6
CONTINUOUS
 62
     7
 10
175.8368
 20
-62.19998
 11
162.0368
 21
-62.19998
  0
LINE
  8
0
  6
CENTER
 62
     2
 10
179.4368
 20
-69.59998
 11
158.4368
 21
-69.59998
  0
LINE
  8
0
  6
CONTINUOUS
 62
     7
 10
170.2096
 20
-68.75148
 11
169.7853
 21
-69.17575
  0
LINE
  8
0
  6
CONTINUOUS
 62
     7
 10
169.7853
 20
-68.32718
 11
169.3611
 21
-68.75145
  0
LINE
  8
0
  6
CONTINUOUS
 62
     7
 10
170.2095
 20
-68.75142
 11
169.7853
 21
-68.32717
  0
LINE
  8
0
  6
CONTINUOUS
 62
     7
 10
168.0883
 20
-70.87274
 11
167.664
 21
-70.44847
  0
LINE
  8
0
  6
CONTINUOUS
 62
     7
 10
171.1174
 20
-71.35636
 11
169.7853
 21
-70.02424
  0
LINE
  8
0
  6
CONTINUOUS
 62
     7
 10
170.6932
 20
-71.78059
 11
169.3611
 21
-70.44849
  0
LINE
  8
0
  6
CONTINUOUS
 62
     7
 10
168.5125
 20
-70.44853
 11
168.0883
 21
-70.8728
  0
LINE
  8
0
  6
CONTINUOUS
 62
     7
 10
168.0883
 20
-70.02423
 11
167.664
 21
-70.4485
  0
LINE
  8
0
  6
CONTINUOUS
 62
     7
 10
168.5125
 20
-68.75145
 11
167.1804
 21
-67.41935
  0
LINE
  8
0
  6
CONTINUOUS
 62
     7
 10
168.0883
 20
-69.1757
 11
166.7562
 21
-67.8436
  0
LINE
  8
0
  6
CONTINUOUS
 62
     7
 10
176.3368
 20
-89.29997
 11
161.5368
 21
-89.29997
  0
LINE
  8
0
  6
CONTINUOUS
 62
     7
 10
174.7368
 20
-96.69998
 11
163.1368
 21
-96.69998
  0
LINE
  8
0
  6
CONTINUOUS
 62
     7
 10
176.3368
 20
-90.29997
 11
161.5368
 21
-90.29997
  0
LINE
  8
0
  6
CONTINUOUS
 62
     7
 10
161.5368
 20
-90.29997
 11
161.5368
 21
-89.29997
  0
LINE
  8
0
  6
CONTINUOUS
 62
     7
 10
176.3368
 20
-90.29997
 11
176.3368
 21
-89.29997
  0
LINE
  8
0
  6
CONTINUOUS
 62
     7
 10
175.4368
 20
-96.29584
 11
175.4368
 21
-90.29997
  0
LINE
  8
0
  6
CONTINUOUS
 62
     7
 10
162.4368
 20
-96.29584
 11
162.4368
 21
-90.29997
  0
LINE
  8
0
  6
CONTINUOUS
 62
     7
 10
163.1368
 20
-96.69999
 11
162.4368
 21
-96.29586
  0
LINE
  8
0
  6
CONTINUOUS
 62
     7
 10
174.7368
 20
-96.70004
 11
175.4368
 21
-96.2959
  0
LINE
  8
0
  6
CONTINUOUS
 62
     7
 10
169.1237
 20
-95.77621
 11
168.7499
 21
-95.77621
  0
LINE
  8
0
  6
CONTINUOUS
 62
     7
 10
161.5368
 20
-78.79996
 11
161.4368
 21
-78.79996
  0
LINE
  8
0
  6
CONTINUOUS
 62
     7
 10
161.5368
 20
-77.79999
 11
161.4368
 21
-77.79999
  0
LINE
  8
0
  6
CONTINUOUS
 62
     7
 10
168.7499
 20
-95.77621
 11
168.7499
 21
-90.29997
  0
LINE
  8
0
  6
CONTINUOUS
 62
     7
 10
169.1237
 20
-95.77621
 11
169.1237
 21
-90.29997
  0
LINE
  8
0
  6
CONTINUOUS
 62
     7
 10
176.3368
 20
-87.29997
 11
161.5368
 21
-87.29997
  0
LINE
  8
0
  6
CONTINUOUS
 62
     7
 10
176.3368
 20
-87.29997
 11
176.3368
 21
-62.69998
  0
LINE
  8
0
  6
CONTINUOUS
 62
     7
 10
161.5368
 20
-87.29997
 11
161.5368
 21
-62.69998
  0
LINE
  8
0
  6
CONTINUOUS
 62
     7
 10
162.9368
 20
-89.29997
 11
162.9368
 21
-87.29997
  0
LINE
  8
0
  6
CONTINUOUS
 62
     7
 10
174.9368
 20
-89.29997
 11
174.9368
 21
-87.29997
  0
LINE
  8
0
  6
CONTINUOUS
 62
     7
 10
163.6133
 20
-89.29997
 11
163.6133
 21
-87.29997
  0
LINE
  8
0
  6
CONTINUOUS
 62
     7
 10
174.2603
 20
-89.29997
 11
174.2603
 21
-87.29997
  0
LINE
  8
0
  6
CENTER
 62
     2
 10
55.31197
 20
57.15021
 11
55.31197
 21
-83.00157
  0
LINE
  8
0
  6
CONTINUOUS
 62
     7
 10
42.81203
 20
25.80017
 11
41.81203
 21
24.80016
  0
LINE
  8
0
  6
CONTINUOUS
 62
     7
 10
67.81196
 20
25.80019
 11
68.81196
 21
24.80019
  0
LINE
  8
0
  6
CONTINUOUS
 62
     7
 10
65.81197
 20
-26.74149
 11
68.81197
 21
-26.74149
  0
LINE
  8
0
  6
CONTINUOUS
 62
     7
 10
65.81197
 20
-30.05811
 11
68.81197
 21
-30.05811
  0
LINE
  8
0
  6
CONTINUOUS
 62
     7
 10
65.81197
 20
-26.74149
 11
65.81197
 21
-30.05811
  0
LINE
  8
0
  6
CONTINUOUS
 62
     7
 10
42.812
 20
25.8002
 11
74.31197
 21
25.8002
  0
LINE
  8
0
  6
CONTINUOUS
 62
     7
 10
41.81197
 20
24.8002
 11
68.81197
 21
24.8002
  0
LINE
  8
0
  6
CONTINUOUS
 62
     7
 10
41.81203
 20
-34.3998
 11
68.81197
 21
-34.3998
  0
LINE
  8
0
  6
CONTINUOUS
 62
     7
 10
41.81203
 20
7.6002
 11
68.81197
 21
7.6002
  0
LINE
  8
0
  6
CONTINUOUS
 62
     7
 10
41.81203
 20
24.8002
 11
41.81203
 21
-51.59979
  0
LINE
  8
0
  6
CONTINUOUS
 62
     7
 10
41.81201
 20
-51.59979
 11
42.81201
 21
-52.59979
  0
LINE
  8
0
  6
CONTINUOUS
 62
     7
 10
68.81197
 20
24.8002
 11
68.81197
 21
-51.59979
  0
LINE
  8
0
  6
CONTINUOUS
 62
     7
 10
67.81197
 20
-52.59977
 11
68.81194
 21
-51.59979
  0
LINE
  8
0
  6
CONTINUOUS
 62
     7
 10
41.81203
 20
-51.59979
 11
68.81197
 21
-51.59979
  0
LINE
  8
0
  6
CONTINUOUS
 62
     7
 10
42.81203
 20
-52.59981
 11
74.31197
 21
-52.59981
  0
LINE
  8
0
  6
CENTER
 62
     2
 10
64.24217
 20
-28.3998
 11
70.09019
 21
-28.3998
  0
LINE
  8
0
  6
CENTER
 62
     2
 10
39.32112
 20
-13.3998
 11
70.97865
 21
-13.3998
  0
LINE
  8
0
  6
CONTINUOUS
 62
     7
 10
43.31197
 20
51.00021
 11
70.31197
 21
51.00021
  0
LINE
  8
0
  6
CONTINUOUS
 62
     7
 10
43.31197
 20
52.00021
 11
43.31197
 21
25.8002
  0
LINE
  8
0
  6
CONTINUOUS
 62
     7
 10
67.31197
 20
52.00018
 11
67.31197
 21
51.00021
  0
LINE
  8
0
  6
CONTINUOUS
 62
     7
 10
44.31197
 20
54.00021
 11
62.48622
 21
54.00021
  0
LINE
  8
0
  6
CONTINUOUS
 62
     7
 10
43.31197
 20
52.00021
 11
67.31197
 21
52.00021
  0
LINE
  8
0
  6
CONTINUOUS
 62
     7
 10
43.312
 20
52.00026
 11
44.312
 21
54.00025
  0
LINE
  8
0
  6
CONTINUOUS
 62
     7
 10
67.31194
 20
52.00019
 11
66.31194
 21
54.00019
  0
LINE
  8
0
  6
CONTINUOUS
 62
     7
 10
61.31197
 20
54.00021
 11
61.31197
 21
52.00021
  0
LINE
  8
0
  6
CENTER
 62
     2
 10
64.31197
 20
57.00021
 11
64.31197
 21
48.00021
  0
LINE
  8
0
  6
CONTINUOUS
 62
     7
 10
66.86198
 20
52.60019
 11
61.76198
 21
52.60019
  0
LINE
  8
0
  6
CONTINUOUS
 62
     7
 10
64.01198
 20
52.00021
 11
63.85121
 21
52.6002
  0
LINE
  8
0
  6
CONTINUOUS
 62
     7
 10
64.61214
 20
52.60027
 11
64.77291
 21
52.00026
  0
LINE
  8
0
  6
CONTINUOUS
 62
     7
 10
66.86198
 20
52.60019
 11
66.86198
 21
52.00021
  0
LINE
  8
0
  6
CONTINUOUS
 62
     7
 10
61.76198
 20
52.60019
 11
61.76198
 21
52.00021
  0
LINE
  8
0
  6
CONTINUOUS
 62
     7
 10
66.562
 20
53.29398
 11
66.562
 21
52.60022
  0
LINE
  8
0
  6
CONTINUOUS
 62
     7
 10
62.062
 20
53.29395
 11
62.062
 21
52.60019
  0
LINE
  8
0
  6
CONTINUOUS
 62
     7
 10
66.13777
 20
54.00021
 11
66.31197
 21
54.00021
  0
LINE
  8
0
  6
CENTER
 62
     2
 10
46.31197
 20
57.00021
 11
46.31197
 21
48.00021
  0
LINE
  8
0
  6
CONTINUOUS
 62
     7
 10
70.31197
 20
51.00021
 11
70.31197
 21
25.8002
  0
LINE
  8
0
  6
CONTINUOUS
 62
     7
 10
70.31197
 20
50.8002
 11
74.31197
 21
50.8002
  0
LINE
  8
0
  6
CENTER
 62
     2
 10
67.31197
 20
42.8002
 11
102.712
 21
42.8002
  0
LINE
  8
0
  6
CONTINUOUS
 62
     7
 10
97.31197
 20
68.97641
 11
97.31197
 21
62.50021
  0
LINE
  8
0
  6
CONTINUOUS
 62
     7
 10
74.31197
 20
35.40021
 11
96.81197
 21
35.40021
  0
LINE
  8
0
  6
CONTINUOUS
 62
     7
 10
74.31197
 20
50.2002
 11
96.81197
 21
50.2002
  0
LINE
  8
0
  6
CONTINUOUS
 62
     7
 10
82.51198
 20
68.97644
 11
82.51198
 21
62.50021
  0
LINE
  8
0
  6
CONTINUOUS
 62
     7
 10
84.11198
 20
69.90021
 11
95.71199
 21
69.90021
  0
LINE
  8
0
  6
CONTINUOUS
 62
     7
 10
98.48378
 20
40.00021
 11
97.81197
 21
40.00021
  0
LINE
  8
0
  6
CONTINUOUS
 62
     7
 10
98.48378
 20
45.60022
 11
97.81197
 21
45.60022
  0
LINE
  8
0
  6
CONTINUOUS
 62
     7
 10
97.81197
 20
39.5502
 11
97.81197
 21
46.0502
  0
LINE
  8
0
  6
CONTINUOUS
 62
     7
 10
97.81197
 20
39.55023
 11
97.31197
 21
39.55023
  0
LINE
  8
0
  6
CONTINUOUS
 62
     7
 10
97.81197
 20
46.05023
 11
97.31197
 21
46.05023
  0
LINE
  8
0
  6
CONTINUOUS
 62
     7
 10
82.51198
 20
62.50021
 11
97.31197
 21
62.50021
  0
LINE
  8
0
  6
CONTINUOUS
 62
     7
 10
82.51198
 20
63.50021
 11
97.31197
 21
63.50021
  0
LINE
  8
0
  6
CONTINUOUS
 62
     7
 10
84.91197
 20
47.8002
 11
94.91197
 21
47.8002
  0
LINE
  8
0
  6
CONTINUOUS
 62
     7
 10
84.91197
 20
37.8002
 11
94.91197
 21
37.8002
  0
LINE
  8
0
  6
CONTINUOUS
 62
     7
 10
84.91197
 20
47.8002
 11
84.91197
 21
37.8002
  0
LINE
  8
0
  6
CONTINUOUS
 62
     7
 10
94.91197
 20
47.8002
 11
94.91197
 21
37.8002
  0
LINE
  8
0
  6
CONTINUOUS
 62
     7
 10
85.91197
 20
47.8002
 11
85.91197
 21
37.8002
  0
LINE
  8
0
  6
CONTINUOUS
 62
     7
 10
86.91197
 20
47.8002
 11
86.91197
 21
37.8002
  0
LINE
  8
0
  6
CONTINUOUS
 62
     7
 10
87.91197
 20
47.8002
 11
87.91197
 21
37.8002
  0
LINE
  8
0
  6
CONTINUOUS
 62
     7
 10
88.91197
 20
47.8002
 11
88.91197
 21
37.8002
  0
LINE
  8
0
  6
CONTINUOUS
 62
     7
 10
89.91197
 20
47.8002
 11
89.91197
 21
37.8002
  0
LINE
  8
0
  6
CONTINUOUS
 62
     7
 10
90.91197
 20
47.8002
 11
90.91197
 21
37.8002
  0
LINE
  8
0
  6
CONTINUOUS
 62
     7
 10
91.91197
 20
47.8002
 11
91.91197
 21
37.8002
  0
LINE
  8
0
  6
CONTINUOUS
 62
     7
 10
92.91197
 20
47.8002
 11
92.91197
 21
37.8002
  0
LINE
  8
0
  6
CONTINUOUS
 62
     7
 10
93.91197
 20
47.8002
 11
93.91197
 21
37.8002
  0
LINE
  8
0
  6
CONTINUOUS
 62
     7
 10
95.71194
 20
69.9001
 11
97.31194
 21
68.97634
  0
LINE
  8
0
  6
CONTINUOUS
 62
     7
 10
84.11201
 20
69.90022
 11
82.51202
 21
68.97646
  0
LINE
  8
0
  6
CONTINUOUS
 62
     7
 10
86.05128
 20
68.97644
 11
86.05128
 21
63.50021
  0
LINE
  8
0
  6
CONTINUOUS
 62
     7
 10
86.37502
 20
68.97644
 11
86.37502
 21
63.50021
  0
LINE
  8
0
  6
CONTINUOUS
 62
     7
 10
93.44893
 20
68.97644
 11
93.44893
 21
63.50021
  0
LINE
  8
0
  6
CONTINUOUS
 62
     7
 10
93.77266
 20
68.97644
 11
93.77266
 21
63.50021
  0
LINE
  8
0
  6
CONTINUOUS
 62
     7
 10
86.05128
 20
68.97644
 11
86.37502
 21
68.97644
  0
LINE
  8
0
  6
CONTINUOUS
 62
     7
 10
93.44893
 20
68.97644
 11
93.77266
 21
68.97644
  0
LINE
  8
0
  6
CENTER
 62
     2
 10
89.91197
 20
72.90021
 11
89.91197
 21
32.40021
  0
LINE
  8
0
  6
CONTINUOUS
 62
     7
 10
74.31197
 20
50.8002
 11
74.31197
 21
25.8002
  0
LINE
  8
0
  6
CONTINUOUS
 62
     7
 10
82.51198
 20
60.50021
 11
97.31197
 21
60.50021
  0
LINE
  8
0
  6
CONTINUOUS
 62
     7
 10
82.51198
 20
60.50021
 11
82.51198
 21
50.2002
  0
LINE
  8
0
  6
CONTINUOUS
 62
     7
 10
97.31197
 20
60.50021
 11
97.31197
 21
35.90021
  0
LINE
  8
0
  6
CONTINUOUS
 62
     7
 10
95.91197
 20
62.50021
 11
95.91197
 21
60.50021
  0
LINE
  8
0
  6
CONTINUOUS
 62
     7
 10
83.91197
 20
62.50021
 11
83.91197
 21
60.50021
  0
LINE
  8
0
  6
CONTINUOUS
 62
     7
 10
95.23549
 20
62.50021
 11
95.23549
 21
60.50021
  0
LINE
  8
0
  6
CONTINUOUS
 62
     7
 10
84.58849
 20
62.50021
 11
84.58849
 21
60.50021
  0
LINE
  8
0
  6
CONTINUOUS
 62
     7
 10
74.812
 20
35.40021
 11
74.812
 21
50.20023
  0
LINE
  8
0
  6
CONTINUOUS
 62
     7
 10
43.31197
 20
-77.7998
 11
70.31197
 21
-77.7998
  0
LINE
  8
0
  6
CONTINUOUS
 62
     7
 10
43.31197
 20
-78.7998
 11
43.31197
 21
-52.59979
  0
LINE
  8
0
  6
CONTINUOUS
 62
     7
 10
67.31197
 20
-78.7998
 11
67.31197
 21
-77.7998
  0
LINE
  8
0
  6
CONTINUOUS
 62
     7
 10
66.31197
 20
-80.7998
 11
48.13774
 21
-80.7998
  0
LINE
  8
0
  6
CONTINUOUS
 62
     7
 10
43.31197
 20
-78.7998
 11
67.31197
 21
-78.7998
  0
LINE
  8
0
  6
CONTINUOUS
 62
     7
 10
67.3119
 20
-78.79973
 11
66.3119
 21
-80.79971
  0
LINE
  8
0
  6
CONTINUOUS
 62
     7
 10
43.31192
 20
-78.79982
 11
44.31193
 21
-80.79982
  0
LINE
  8
0
  6
CONTINUOUS
 62
     7
 10
49.31197
 20
-80.7998
 11
49.31197
 21
-78.7998
  0
LINE
  8
0
  6
CENTER
 62
     2
 10
46.31197
 20
-83.7998
 11
46.31197
 21
-74.7998
  0
LINE
  8
0
  6
CONTINUOUS
 62
     7
 10
43.76198
 20
-79.3998
 11
48.86198
 21
-79.3998
  0
LINE
  8
0
  6
CONTINUOUS
 62
     7
 10
46.61171
 20
-78.79983
 11
46.77249
 21
-79.39982
  0
LINE
  8
0
  6
CONTINUOUS
 62
     7
 10
46.01183
 20
-79.39981
 11
45.85105
 21
-78.79983
  0
LINE
  8
0
  6
CONTINUOUS
 62
     7
 10
43.76198
 20
-79.3998
 11
43.76198
 21
-78.7998
  0
LINE
  8
0
  6
CONTINUOUS
 62
     7
 10
48.86198
 20
-79.3998
 11
48.86198
 21
-78.7998
  0
LINE
  8
0
  6
CONTINUOUS
 62
     7
 10
44.062
 20
-80.09354
 11
44.062
 21
-79.3998
  0
LINE
  8
0
  6
CONTINUOUS
 62
     7
 10
48.56197
 20
-80.09354
 11
48.56197
 21
-79.3998
  0
LINE
  8
0
  6
CONTINUOUS
 62
     7
 10
44.48622
 20
-80.7998
 11
44.312
 21
-80.7998
  0
LINE
  8
0
  6
CENTER
 62
     2
 10
64.31197
 20
-83.7998
 11
64.31197
 21
-74.7998
  0
LINE
  8
0
  6
CONTINUOUS
 62
     7
 10
70.31197
 20
-77.7998
 11
70.31197
 21
-52.59979
  0
LINE
  8
0
  6
CONTINUOUS
 62
     7
 10
70.31197
 20
-77.59979
 11
74.31197
 21
-77.59979
  0
LINE
  8
0
  6
CENTER
 62
     2
 10
67.31197
 20
-69.59979
 11
102.712
 21
-69.59979
  0
LINE
  8
0
  6
CONTINUOUS
 62
     7
 10
97.31197
 20
-95.77603
 11
97.31197
 21
-89.29979
  0
LINE
  8
0
  6
CONTINUOUS
 62
     7
 10
82.51198
 20
-95.77603
 11
82.51198
 21
-89.29979
  0
LINE
  8
0
  6
CONTINUOUS
 62
     7
 10
84.11198
 20
-96.6998
 11
95.71196
 21
-96.6998
  0
LINE
  8
0
  6
CONTINUOUS
 62
     7
 10
98.48381
 20
-66.7998
 11
97.81197
 21
-66.7998
  0
LINE
  8
0
  6
CONTINUOUS
 62
     7
 10
98.48381
 20
-72.3998
 11
97.81197
 21
-72.3998
  0
LINE
  8
0
  6
CONTINUOUS
 62
     7
 10
97.81197
 20
-66.34979
 11
97.81197
 21
-72.84979
  0
LINE
  8
0
  6
CONTINUOUS
 62
     7
 10
97.81197
 20
-66.3499
 11
97.31197
 21
-66.3499
  0
LINE
  8
0
  6
CONTINUOUS
 62
     7
 10
97.81197
 20
-72.84979
 11
97.31197
 21
-72.84979
  0
LINE
  8
0
  6
CONTINUOUS
 62
     7
 10
82.51198
 20
-89.29979
 11
97.31197
 21
-89.29979
  0
LINE
  8
0
  6
CONTINUOUS
 62
     7
 10
82.51198
 20
-90.29979
 11
97.31197
 21
-90.29979
  0
LINE
  8
0
  6
CENTER
 62
     2
 10
89.91197
 20
-99.6998
 11
89.91197
 21
-59.1998
  0
LINE
  8
0
  6
CONTINUOUS
 62
     7
 10
84.91197
 20
-74.59979
 11
94.91197
 21
-74.59979
  0
LINE
  8
0
  6
CONTINUOUS
 62
     7
 10
84.91197
 20
-64.59979
 11
94.91197
 21
-64.59979
  0
LINE
  8
0
  6
CONTINUOUS
 62
     7
 10
84.91197
 20
-74.59979
 11
84.91197
 21
-64.59979
  0
LINE
  8
0
  6
CONTINUOUS
 62
     7
 10
94.91197
 20
-74.59979
 11
94.91197
 21
-64.59979
  0
LINE
  8
0
  6
CONTINUOUS
 62
     7
 10
85.91197
 20
-74.59979
 11
85.91197
 21
-64.59979
  0
LINE
  8
0
  6
CONTINUOUS
 62
     7
 10
86.91197
 20
-74.59979
 11
86.91197
 21
-64.59979
  0
LINE
  8
0
  6
CONTINUOUS
 62
     7
 10
87.91197
 20
-74.59979
 11
87.91197
 21
-64.59979
  0
LINE
  8
0
  6
CONTINUOUS
 62
     7
 10
88.91197
 20
-74.59979
 11
88.91197
 21
-64.59979
  0
LINE
  8
0
  6
CONTINUOUS
 62
     7
 10
89.91197
 20
-74.59979
 11
89.91197
 21
-64.59979
  0
LINE
  8
0
  6
CONTINUOUS
 62
     7
 10
90.91197
 20
-74.59979
 11
90.91197
 21
-64.59979
  0
LINE
  8
0
  6
CONTINUOUS
 62
     7
 10
91.91197
 20
-74.59979
 11
91.91197
 21
-64.59979
  0
LINE
  8
0
  6
CONTINUOUS
 62
     7
 10
92.91197
 20
-74.59979
 11
92.91197
 21
-64.59979
  0
LINE
  8
0
  6
CONTINUOUS
 62
     7
 10
93.91197
 20
-74.59979
 11
93.91197
 21
-64.59979
  0
LINE
  8
0
  6
CONTINUOUS
 62
     7
 10
95.71192
 20
-96.69978
 11
97.31194
 21
-95.77602
  0
LINE
  8
0
  6
CONTINUOUS
 62
     7
 10
84.11199
 20
-96.69978
 11
82.51199
 21
-95.77601
  0
LINE
  8
0
  6
CONTINUOUS
 62
     7
 10
86.05128
 20
-95.77603
 11
86.05128
 21
-90.29979
  0
LINE
  8
0
  6
CONTINUOUS
 62
     7
 10
86.37502
 20
-95.77603
 11
86.37502
 21
-90.29979
  0
LINE
  8
0
  6
CONTINUOUS
 62
     7
 10
93.44893
 20
-95.77603
 11
93.44893
 21
-90.29979
  0
LINE
  8
0
  6
CONTINUOUS
 62
     7
 10
93.77266
 20
-95.77603
 11
93.77266
 21
-90.29979
  0
LINE
  8
0
  6
CONTINUOUS
 62
     7
 10
86.05128
 20
-95.77603
 11
86.37502
 21
-95.77603
  0
LINE
  8
0
  6
CONTINUOUS
 62
     7
 10
93.44893
 20
-95.77603
 11
93.77266
 21
-95.77603
  0
LINE
  8
0
  6
CONTINUOUS
 62
     7
 10
74.31197
 20
-76.99979
 11
96.81197
 21
-76.99979
  0
LINE
  8
0
  6
CONTINUOUS
 62
     7
 10
74.31197
 20
-62.1998
 11
96.81197
 21
-62.1998
  0
LINE
  8
0
  6
CONTINUOUS
 62
     7
 10
74.31197
 20
-77.59979
 11
74.31197
 21
-52.59979
  0
LINE
  8
0
  6
CONTINUOUS
 62
     7
 10
82.51198
 20
-87.29979
 11
97.31197
 21
-87.29979
  0
LINE
  8
0
  6
CONTINUOUS
 62
     7
 10
97.31197
 20
-87.29979
 11
97.31197
 21
-62.6998
  0
LINE
  8
0
  6
CONTINUOUS
 62
     7
 10
82.51198
 20
-87.29979
 11
82.51198
 21
-76.99979
  0
LINE
  8
0
  6
CONTINUOUS
 62
     7
 10
83.91197
 20
-89.29979
 11
83.91197
 21
-87.29979
  0
LINE
  8
0
  6
CONTINUOUS
 62
     7
 10
95.91197
 20
-89.29979
 11
95.91197
 21
-87.29979
  0
LINE
  8
0
  6
CONTINUOUS
 62
     7
 10
95.23549
 20
-89.29979
 11
95.23549
 21
-87.29979
  0
LINE
  8
0
  6
CONTINUOUS
 62
     7
 10
84.58846
 20
-89.29979
 11
84.58846
 21
-87.29979
  0
LINE
  8
0
  6
CONTINUOUS
 62
     7
 10
74.81194
 20
-62.1998
 11
74.81194
 21
-76.99979
  0
LINE
  8
0
  6
CENTER
 62
     2
 10
285.5611
 20
57.15012
 11
285.5611
 21
-82.39769
  0
LINE
  8
0
  6
CONTINUOUS
 62
     7
 10
272.0611
 20
24.80009
 11
272.0611
 21
-51.5999
  0
LINE
  8
0
  6
CONTINUOUS
 62
     7
 10
299.0611
 20
24.80009
 11
299.0611
 21
-51.5999
  0
LINE
  8
0
  6
CONTINUOUS
 62
     7
 10
298.061
 20
25.79999
 11
299.061
 21
24.79997
  0
LINE
  8
0
  6
CONTINUOUS
 62
     7
 10
273.0611
 20
25.80011
 11
272.0611
 21
24.80013
  0
LINE
  8
0
  6
CONTINUOUS
 62
     7
 10
275.0611
 20
3.25841
 11
272.0611
 21
3.25841
  0
LINE
  8
0
  6
CONTINUOUS
 62
     7
 10
275.0611
 20
-0.05821
 11
272.0611
 21
-0.05821
  0
LINE
  8
0
  6
CONTINUOUS
 62
     7
 10
275.0611
 20
3.25841
 11
275.0611
 21
-0.05821
  0
LINE
  8
0
  6
CONTINUOUS
 62
     7
 10
298.0611
 20
25.80009
 11
266.5611
 21
25.80009
  0
LINE
  8
0
  6
CONTINUOUS
 62
     7
 10
299.0611
 20
24.80009
 11
272.0611
 21
24.80009
  0
LINE
  8
0
  6
CENTER
 62
     2
 10
269.5611
 20
-13.3999
 11
301.5176
 21
-13.3999
  0
LINE
  8
0
  6
CONTINUOUS
 62
     7
 10
299.0611
 20
-34.3999
 11
272.0611
 21
-34.3999
  0
LINE
  8
0
  6
CONTINUOUS
 62
     7
 10
299.0611
 20
7.6001
 11
272.0611
 21
7.6001
  0
LINE
  8
0
  6
CONTINUOUS
 62
     7
 10
272.0611
 20
-51.60001
 11
273.0611
 21
-52.60003
  0
LINE
  8
0
  6
CONTINUOUS
 62
     7
 10
299.061
 20
-51.59983
 11
298.061
 21
-52.5998
  0
LINE
  8
0
  6
CONTINUOUS
 62
     7
 10
272.0611
 20
-51.5999
 11
299.0611
 21
-51.5999
  0
LINE
  8
0
  6
CONTINUOUS
 62
     7
 10
298.0611
 20
-52.59988
 11
266.5611
 21
-52.59988
  0
LINE
  8
0
  6
CENTER
 62
     2
 10
270.5372
 20
1.6001
 11
276.0939
 21
1.6001
  0
LINE
  8
0
  6
CONTINUOUS
 62
     7
 10
297.5611
 20
51.00009
 11
270.5611
 21
51.00009
  0
LINE
  8
0
  6
CONTINUOUS
 62
     7
 10
297.5611
 20
52.00009
 11
297.5611
 21
25.80009
  0
LINE
  8
0
  6
CONTINUOUS
 62
     7
 10
273.5611
 20
52.00009
 11
273.5611
 21
51.00009
  0
LINE
  8
0
  6
CONTINUOUS
 62
     7
 10
274.5611
 20
54.00009
 11
292.7354
 21
54.00009
  0
LINE
  8
0
  6
CONTINUOUS
 62
     7
 10
297.5611
 20
52.00009
 11
273.5611
 21
52.00009
  0
LINE
  8
0
  6
CONTINUOUS
 62
     7
 10
273.5611
 20
52.00014
 11
274.5611
 21
54.00016
  0
LINE
  8
0
  6
CONTINUOUS
 62
     7
 10
297.5609
 20
51.99995
 11
296.5609
 21
53.99994
  0
LINE
  8
0
  6
CONTINUOUS
 62
     7
 10
291.5611
 20
54.00009
 11
291.5611
 21
52.00009
  0
LINE
  8
0
  6
CENTER
 62
     2
 10
294.5611
 20
57.00009
 11
294.5611
 21
48.00009
  0
LINE
  8
0
  6
CONTINUOUS
 62
     7
 10
297.1111
 20
52.6001
 11
292.0111
 21
52.6001
  0
LINE
  8
0
  6
CONTINUOUS
 62
     7
 10
294.2607
 20
51.99997
 11
294.0999
 21
52.59997
  0
LINE
  8
0
  6
CONTINUOUS
 62
     7
 10
294.8606
 20
52.59995
 11
295.0213
 21
51.99994
  0
LINE
  8
0
  6
CONTINUOUS
 62
     7
 10
297.1111
 20
52.6001
 11
297.1111
 21
52.00009
  0
LINE
  8
0
  6
CONTINUOUS
 62
     7
 10
292.0111
 20
52.6001
 11
292.0111
 21
52.00009
  0
LINE
  8
0
  6
CONTINUOUS
 62
     7
 10
296.8111
 20
53.29385
 11
296.8111
 21
52.6001
  0
LINE
  8
0
  6
CONTINUOUS
 62
     7
 10
292.3111
 20
53.29385
 11
292.3111
 21
52.6001
  0
LINE
  8
0
  6
CONTINUOUS
 62
     7
 10
296.3868
 20
54.00009
 11
296.5611
 21
54.00009
  0
LINE
  8
0
  6
CENTER
 62
     2
 10
276.5611
 20
57.00009
 11
276.5611
 21
48.00009
  0
LINE
  8
0
  6
CONTINUOUS
 62
     7
 10
270.5611
 20
51.00009
 11
270.5611
 21
25.80009
  0
LINE
  8
0
  6
CONTINUOUS
 62
     7
 10
270.5611
 20
50.80011
 11
266.5611
 21
50.80011
  0
LINE
  8
0
  6
CENTER
 62
     2
 10
273.5611
 20
42.80011
 11
238.1611
 21
42.80011
  0
LINE
  8
0
  6
CONTINUOUS
 62
     7
 10
243.5611
 20
68.97632
 11
243.5611
 21
62.50009
  0
LINE
  8
0
  6
CONTINUOUS
 62
     7
 10
258.3611
 20
68.97635
 11
258.3611
 21
62.50009
  0
LINE
  8
0
  6
CONTINUOUS
 62
     7
 10
256.7611
 20
69.90012
 11
245.1611
 21
69.90012
  0
LINE
  8
0
  6
CONTINUOUS
 62
     7
 10
242.3893
 20
40.00009
 11
243.0611
 21
40.00009
  0
LINE
  8
0
  6
CONTINUOUS
 62
     7
 10
242.3893
 20
45.6001
 11
243.0611
 21
45.6001
  0
LINE
  8
0
  6
CONTINUOUS
 62
     7
 10
243.0611
 20
39.55011
 11
243.0611
 21
46.05011
  0
LINE
  8
0
  6
CONTINUOUS
 62
     7
 10
243.0611
 20
39.5502
 11
243.5611
 21
39.5502
  0
LINE
  8
0
  6
CONTINUOUS
 62
     7
 10
243.0611
 20
46.05011
 11
243.5611
 21
46.05011
  0
LINE
  8
0
  6
CONTINUOUS
 62
     7
 10
258.3611
 20
62.50009
 11
243.5611
 21
62.50009
  0
LINE
  8
0
  6
CONTINUOUS
 62
     7
 10
258.3611
 20
63.50009
 11
243.5611
 21
63.50009
  0
LINE
  8
0
  6
CENTER
 62
     2
 10
250.9611
 20
72.90012
 11
250.9611
 21
32.40009
  0
LINE
  8
0
  6
CONTINUOUS
 62
     7
 10
255.9611
 20
47.80011
 11
245.9611
 21
47.80011
  0
LINE
  8
0
  6
CONTINUOUS
 62
     7
 10
255.9611
 20
37.80011
 11
245.9611
 21
37.80011
  0
LINE
  8
0
  6
CONTINUOUS
 62
     7
 10
255.9611
 20
47.80011
 11
255.9611
 21
37.80011
  0
LINE
  8
0
  6
CONTINUOUS
 62
     7
 10
245.9611
 20
47.80011
 11
245.9611
 21
37.80011
  0
LINE
  8
0
  6
CONTINUOUS
 62
     7
 10
254.9611
 20
47.80011
 11
254.9611
 21
37.80011
  0
LINE
  8
0
  6
CONTINUOUS
 62
     7
 10
253.9611
 20
47.80011
 11
253.9611
 21
37.80011
  0
LINE
  8
0
  6
CONTINUOUS
 62
     7
 10
252.9611
 20
47.80011
 11
252.9611
 21
37.80011
  0
LINE
  8
0
  6
CONTINUOUS
 62
     7
 10
251.9611
 20
47.80011
 11
251.9611
 21
37.80011
  0
LINE
  8
0
  6
CONTINUOUS
 62
     7
 10
250.9611
 20
47.80011
 11
250.9611
 21
37.80011
  0
LINE
  8
0
  6
CONTINUOUS
 62
     7
 10
249.9611
 20
47.80011
 11
249.9611
 21
37.80011
  0
LINE
  8
0
  6
CONTINUOUS
 62
     7
 10
248.9611
 20
47.80011
 11
248.9611
 21
37.80011
  0
LINE
  8
0
  6
CONTINUOUS
 62
     7
 10
247.9611
 20
47.80011
 11
247.9611
 21
37.80011
  0
LINE
  8
0
  6
CONTINUOUS
 62
     7
 10
246.9611
 20
47.80011
 11
246.9611
 21
37.80011
  0
LINE
  8
0
  6
CONTINUOUS
 62
     7
 10
245.1611
 20
69.90007
 11
243.5611
 21
68.9763
  0
LINE
  8
0
  6
CONTINUOUS
 62
     7
 10
256.7611
 20
69.90019
 11
258.3611
 21
68.97643
  0
LINE
  8
0
  6
CONTINUOUS
 62
     7
 10
254.8218
 20
68.97635
 11
254.8218
 21
63.50009
  0
LINE
  8
0
  6
CONTINUOUS
 62
     7
 10
254.4981
 20
68.97635
 11
254.4981
 21
63.50009
  0
LINE
  8
0
  6
CONTINUOUS
 62
     7
 10
247.4241
 20
68.97635
 11
247.4241
 21
63.50009
  0
LINE
  8
0
  6
CONTINUOUS
 62
     7
 10
247.1004
 20
68.97635
 11
247.1004
 21
63.50009
  0
LINE
  8
0
  6
CONTINUOUS
 62
     7
 10
254.8218
 20
68.97635
 11
254.4981
 21
68.97635
  0
LINE
  8
0
  6
CONTINUOUS
 62
     7
 10
247.4241
 20
68.97635
 11
247.1004
 21
68.97635
  0
LINE
  8
0
  6
CONTINUOUS
 62
     7
 10
266.5611
 20
50.2001
 11
244.0611
 21
50.2001
  0
LINE
  8
0
  6
CONTINUOUS
 62
     7
 10
266.5611
 20
35.40012
 11
244.0611
 21
35.40012
  0
LINE
  8
0
  6
CONTINUOUS
 62
     7
 10
266.5611
 20
50.80011
 11
266.5611
 21
25.80009
  0
LINE
  8
0
  6
CONTINUOUS
 62
     7
 10
258.3611
 20
60.50009
 11
243.5611
 21
60.50009
  0
LINE
  8
0
  6
CONTINUOUS
 62
     7
 10
243.5611
 20
60.50009
 11
243.5611
 21
35.90012
  0
LINE
  8
0
  6
CONTINUOUS
 62
     7
 10
258.3611
 20
60.50009
 11
258.3611
 21
50.2001
  0
LINE
  8
0
  6
CONTINUOUS
 62
     7
 10
256.9611
 20
62.50009
 11
256.9611
 21
60.50009
  0
LINE
  8
0
  6
CONTINUOUS
 62
     7
 10
244.9611
 20
62.50009
 11
244.9611
 21
60.50009
  0
LINE
  8
0
  6
CONTINUOUS
 62
     7
 10
245.6376
 20
62.50009
 11
245.6376
 21
60.50009
  0
LINE
  8
0
  6
CONTINUOUS
 62
     7
 10
256.2846
 20
62.50009
 11
256.2846
 21
60.50009
  0
LINE
  8
0
  6
CONTINUOUS
 62
     7
 10
266.0611
 20
35.40009
 11
266.0611
 21
50.2001
  0
LINE
  8
0
  6
CONTINUOUS
 62
     7
 10
297.5611
 20
-77.7999
 11
270.5611
 21
-77.7999
  0
LINE
  8
0
  6
CONTINUOUS
 62
     7
 10
297.5611
 20
-78.7999
 11
297.5611
 21
-52.5999
  0
LINE
  8
0
  6
CONTINUOUS
 62
     7
 10
273.5611
 20
-78.79987
 11
273.5611
 21
-77.7999
  0
LINE
  8
0
  6
CONTINUOUS
 62
     7
 10
296.5611
 20
-80.7999
 11
278.3868
 21
-80.7999
  0
LINE
  8
0
  6
CONTINUOUS
 62
     7
 10
297.5611
 20
-78.7999
 11
273.5611
 21
-78.7999
  0
LINE
  8
0
  6
CONTINUOUS
 62
     7
 10
297.561
 20
-78.79988
 11
296.561
 21
-80.7999
  0
LINE
  8
0
  6
CONTINUOUS
 62
     7
 10
273.5611
 20
-78.79991
 11
274.5611
 21
-80.7999
  0
LINE
  8
0
  6
CONTINUOUS
 62
     7
 10
279.5611
 20
-80.7999
 11
279.5611
 21
-78.7999
  0
LINE
  8
0
  6
CENTER
 62
     2
 10
276.5611
 20
-83.7999
 11
276.5611
 21
-74.7999
  0
LINE
  8
0
  6
CONTINUOUS
 62
     7
 10
274.0111
 20
-79.3999
 11
279.1111
 21
-79.3999
  0
LINE
  8
0
  6
CONTINUOUS
 62
     7
 10
276.861
 20
-78.79992
 11
277.0218
 21
-79.39991
  0
LINE
  8
0
  6
CONTINUOUS
 62
     7
 10
276.2615
 20
-79.39983
 11
276.1007
 21
-78.7998
  0
LINE
  8
0
  6
CONTINUOUS
 62
     7
 10
274.0111
 20
-79.3999
 11
274.0111
 21
-78.7999
  0
LINE
  8
0
  6
CONTINUOUS
 62
     7
 10
279.1111
 20
-79.3999
 11
279.1111
 21
-78.7999
  0
LINE
  8
0
  6
CONTINUOUS
 62
     7
 10
274.3111
 20
-80.09366
 11
274.3111
 21
-79.3999
  0
LINE
  8
0
  6
CONTINUOUS
 62
     7
 10
278.8111
 20
-80.09363
 11
278.8111
 21
-79.39989
  0
LINE
  8
0
  6
CONTINUOUS
 62
     7
 10
274.7353
 20
-80.7999
 11
274.5611
 21
-80.7999
  0
LINE
  8
0
  6
CENTER
 62
     2
 10
294.5611
 20
-83.7999
 11
294.5611
 21
-74.7999
  0
LINE
  8
0
  6
CONTINUOUS
 62
     7
 10
270.5611
 20
-77.7999
 11
270.5611
 21
-52.5999
  0
LINE
  8
0
  6
CONTINUOUS
 62
     7
 10
270.5611
 20
-77.5999
 11
266.5611
 21
-77.5999
  0
LINE
  8
0
  6
CENTER
 62
     2
 10
273.5611
 20
-69.5999
 11
238.1611
 21
-69.5999
  0
LINE
  8
0
  6
CONTINUOUS
 62
     7
 10
243.5611
 20
-95.77612
 11
243.5611
 21
-89.2999
  0
LINE
  8
0
  6
CONTINUOUS
 62
     7
 10
266.5611
 20
-62.19989
 11
244.0611
 21
-62.19989
  0
LINE
  8
0
  6
CONTINUOUS
 62
     7
 10
266.5611
 20
-76.99991
 11
244.0611
 21
-76.99991
  0
LINE
  8
0
  6
CONTINUOUS
 62
     7
 10
258.3611
 20
-95.77614
 11
258.3611
 21
-89.2999
  0
LINE
  8
0
  6
CONTINUOUS
 62
     7
 10
256.7611
 20
-96.69989
 11
245.1611
 21
-96.69989
  0
LINE
  8
0
  6
CONTINUOUS
 62
     7
 10
242.3893
 20
-66.79993
 11
243.0611
 21
-66.79993
  0
LINE
  8
0
  6
CONTINUOUS
 62
     7
 10
242.3893
 20
-72.39992
 11
243.0611
 21
-72.39992
  0
LINE
  8
0
  6
CONTINUOUS
 62
     7
 10
243.0611
 20
-66.3499
 11
243.0611
 21
-72.8499
  0
LINE
  8
0
  6
CONTINUOUS
 62
     7
 10
243.0611
 20
-66.34991
 11
243.5611
 21
-66.34991
  0
LINE
  8
0
  6
CONTINUOUS
 62
     7
 10
243.0611
 20
-72.84991
 11
243.5611
 21
-72.84991
  0
LINE
  8
0
  6
CONTINUOUS
 62
     7
 10
258.3611
 20
-89.2999
 11
243.5611
 21
-89.2999
  0
LINE
  8
0
  6
CONTINUOUS
 62
     7
 10
258.3611
 20
-90.2999
 11
243.5611
 21
-90.2999
  0
LINE
  8
0
  6
CONTINUOUS
 62
     7
 10
255.9611
 20
-74.5999
 11
245.9611
 21
-74.5999
  0
LINE
  8
0
  6
CONTINUOUS
 62
     7
 10
255.9611
 20
-64.5999
 11
245.9611
 21
-64.5999
  0
LINE
  8
0
  6
CONTINUOUS
 62
     7
 10
255.9611
 20
-74.5999
 11
255.9611
 21
-64.5999
  0
LINE
  8
0
  6
CONTINUOUS
 62
     7
 10
245.9611
 20
-74.5999
 11
245.9611
 21
-64.5999
  0
LINE
  8
0
  6
CONTINUOUS
 62
     7
 10
254.9611
 20
-74.5999
 11
254.9611
 21
-64.5999
  0
LINE
  8
0
  6
CONTINUOUS
 62
     7
 10
253.9611
 20
-74.5999
 11
253.9611
 21
-64.5999
  0
LINE
  8
0
  6
CONTINUOUS
 62
     7
 10
252.9611
 20
-74.5999
 11
252.9611
 21
-64.5999
  0
LINE
  8
0
  6
CONTINUOUS
 62
     7
 10
251.9611
 20
-74.5999
 11
251.9611
 21
-64.5999
  0
LINE
  8
0
  6
CONTINUOUS
 62
     7
 10
250.9611
 20
-74.5999
 11
250.9611
 21
-64.5999
  0
LINE
  8
0
  6
CONTINUOUS
 62
     7
 10
249.9611
 20
-74.5999
 11
249.9611
 21
-64.5999
  0
LINE
  8
0
  6
CONTINUOUS
 62
     7
 10
248.9611
 20
-74.5999
 11
248.9611
 21
-64.5999
  0
LINE
  8
0
  6
CONTINUOUS
 62
     7
 10
247.9611
 20
-74.5999
 11
247.9611
 21
-64.5999
  0
LINE
  8
0
  6
CONTINUOUS
 62
     7
 10
246.9611
 20
-74.5999
 11
246.9611
 21
-64.5999
  0
LINE
  8
0
  6
CONTINUOUS
 62
     7
 10
245.161
 20
-96.69995
 11
243.561
 21
-95.77618
  0
LINE
  8
0
  6
CONTINUOUS
 62
     7
 10
256.7612
 20
-96.69997
 11
258.3612
 21
-95.7762
  0
LINE
  8
0
  6
CONTINUOUS
 62
     7
 10
254.8218
 20
-95.77614
 11
254.8218
 21
-90.2999
  0
LINE
  8
0
  6
CONTINUOUS
 62
     7
 10
254.4981
 20
-95.77614
 11
254.4981
 21
-90.2999
  0
LINE
  8
0
  6
CONTINUOUS
 62
     7
 10
247.4241
 20
-95.77614
 11
247.4241
 21
-90.2999
  0
LINE
  8
0
  6
CONTINUOUS
 62
     7
 10
247.1004
 20
-95.77614
 11
247.1004
 21
-90.2999
  0
LINE
  8
0
  6
CONTINUOUS
 62
     7
 10
254.8218
 20
-95.77614
 11
254.4981
 21
-95.77614
  0
LINE
  8
0
  6
CONTINUOUS
 62
     7
 10
247.4241
 20
-95.77614
 11
247.1004
 21
-95.77614
  0
LINE
  8
0
  6
CENTER
 62
     2
 10
250.9611
 20
-99.69989
 11
250.9611
 21
-59.19989
  0
LINE
  8
0
  6
CONTINUOUS
 62
     7
 10
266.5611
 20
-77.5999
 11
266.5611
 21
-52.5999
  0
LINE
  8
0
  6
CONTINUOUS
 62
     7
 10
258.3611
 20
-87.2999
 11
243.5611
 21
-87.2999
  0
LINE
  8
0
  6
CONTINUOUS
 62
     7
 10
258.3611
 20
-87.2999
 11
258.3611
 21
-76.99991
  0
LINE
  8
0
  6
CONTINUOUS
 62
     7
 10
243.5611
 20
-87.2999
 11
243.5611
 21
-62.69989
  0
LINE
  8
0
  6
CONTINUOUS
 62
     7
 10
244.9611
 20
-89.2999
 11
244.9611
 21
-87.2999
  0
LINE
  8
0
  6
CONTINUOUS
 62
     7
 10
256.9611
 20
-89.2999
 11
256.9611
 21
-87.2999
  0
LINE
  8
0
  6
CONTINUOUS
 62
     7
 10
245.6376
 20
-89.2999
 11
245.6376
 21
-87.2999
  0
LINE
  8
0
  6
CONTINUOUS
 62
     7
 10
256.2846
 20
-89.2999
 11
256.2846
 21
-87.2999
  0
LINE
  8
0
  6
CONTINUOUS
 62
     7
 10
266.0611
 20
-62.19991
 11
266.0611
 21
-76.99991
  0
LINE
  8
0
  6
CONTINUOUS
 62
     7
 10
176.437
 20
-159.6791
 11
176.937
 21
-159.6791
  0
LINE
  8
0
  6
CONTINUOUS
 62
     7
 10
161.437
 20
-158.6791
 11
160.437
 21
-158.6791
  0
LINE
  8
0
  6
CONTINUOUS
 62
     7
 10
159.937
 20
-185.1791
 11
159.937
 21
-159.1791
  0
LINE
  8
0
  6
CONTINUOUS
 62
     7
 10
177.937
 20
-185.1791
 11
177.937
 21
-159.1791
  0
LINE
  8
0
  6
CONTINUOUS
 62
     7
 10
177.437
 20
-158.6791
 11
176.437
 21
-158.6791
  0
LINE
  8
0
  6
CONTINUOUS
 62
     7
 10
177.437
 20
-185.6791
 11
160.437
 21
-185.6791
  0
LINE
  8
0
  6
CONTINUOUS
 62
     7
 10
160.937
 20
-184.6791
 11
160.937
 21
-159.6791
  0
LINE
  8
0
  6
CONTINUOUS
 62
     7
 10
176.937
 20
-184.6791
 11
176.937
 21
-159.6791
  0
LINE
  8
0
  6
CONTINUOUS
 62
     7
 10
160.937
 20
-184.6791
 11
176.937
 21
-184.6791
  0
LINE
  8
0
  6
CONTINUOUS
 62
     7
 10
160.937
 20
-159.6791
 11
161.437
 21
-159.6791
  0
LINE
  8
0
  6
CONTINUOUS
 62
     7
 10
176.9368
 20
-159.679
 11
177.7904
 21
-158.8254
  0
LINE
  8
0
  6
CONTINUOUS
 62
     7
 10
176.9369
 20
-184.6791
 11
177.7905
 21
-185.5327
  0
LINE
  8
0
  6
CONTINUOUS
 62
     7
 10
160.9369
 20
-159.6791
 11
160.0834
 21
-158.8256
  0
LINE
  8
0
  6
CONTINUOUS
 62
     7
 10
160.937
 20
-184.6792
 11
160.0835
 21
-185.5327
  0
LINE
  8
0
  6
CONTINUOUS
 62
     7
 10
161.437
 20
-160.1791
 11
176.437
 21
-160.1791
  0
LINE
  8
0
  6
CONTINUOUS
 62
     7
 10
170.437
 20
-163.1791
 11
170.437
 21
-160.1791
  0
LINE
  8
0
  6
CONTINUOUS
 62
     7
 10
167.437
 20
-181.1791
 11
167.437
 21
-184.1791
  0
LINE
  8
0
  6
CONTINUOUS
 62
     7
 10
164.437
 20
-178.1791
 11
161.437
 21
-178.1791
  0
LINE
  8
0
  6
CONTINUOUS
 62
     7
 10
173.437
 20
-166.1791
 11
176.437
 21
-166.1791
  0
LINE
  8
0
  6
CONTINUOUS
 62
     7
 10
167.437
 20
-183.1791
 11
175.437
 21
-183.1791
  0
LINE
  8
0
  6
CONTINUOUS
 62
     7
 10
162.437
 20
-161.1791
 11
170.437
 21
-161.1791
  0
LINE
  8
0
  6
CONTINUOUS
 62
     7
 10
162.437
 20
-178.1791
 11
162.437
 21
-161.1791
  0
LINE
  8
0
  6
CONTINUOUS
 62
     7
 10
175.437
 20
-183.1791
 11
175.437
 21
-166.1791
  0
LINE
  8
0
  6
CONTINUOUS
 62
     7
 10
175.6669
 20
-162.8791
 11
175.9693
 21
-162.8791
  0
LINE
  8
0
  6
CONTINUOUS
 62
     7
 10
175.6669
 20
-163.4791
 11
175.9693
 21
-163.4791
  0
LINE
  8
0
  6
CONTINUOUS
 62
     7
 10
175.945
 20
-163.6399
 11
175.6393
 21
-163.6399
  0
LINE
  8
0
  6
CONTINUOUS
 62
     7
 10
162.207
 20
-181.4791
 11
161.9047
 21
-181.4791
  0
LINE
  8
0
  6
CONTINUOUS
 62
     7
 10
162.207
 20
-180.8791
 11
161.9047
 21
-180.8791
  0
LINE
  8
0
  6
CONTINUOUS
 62
     7
 10
161.9289
 20
-180.7184
 11
162.2347
 21
-180.7184
  0
LINE
  8
0
  6
CONTINUOUS
 62
     7
 10
174.1724
 20
-164.2822
 11
173.8047
 21
-163.9145
  0
LINE
  8
0
  6
CONTINUOUS
 62
     7
 10
174.5401
 20
-163.9144
 11
174.1724
 21
-163.5468
  0
LINE
  8
0
  6
CONTINUOUS
 62
     7
 10
174.1725
 20
-164.2823
 11
174.5402
 21
-163.9146
  0
LINE
  8
0
  6
CONTINUOUS
 62
     7
 10
172.3339
 20
-162.4438
 11
172.7016
 21
-162.0761
  0
LINE
  8
0
  6
CONTINUOUS
 62
     7
 10
172.0405
 20
-164.9434
 11
173.0693
 21
-163.9146
  0
LINE
  8
0
  6
CONTINUOUS
 62
     7
 10
171.6729
 20
-164.5756
 11
172.7017
 21
-163.5468
  0
LINE
  8
0
  6
CONTINUOUS
 62
     7
 10
172.7016
 20
-162.8114
 11
172.3339
 21
-162.4437
  0
LINE
  8
0
  6
CONTINUOUS
 62
     7
 10
173.0694
 20
-162.4437
 11
172.7016
 21
-162.076
  0
LINE
  8
0
  6
CONTINUOUS
 62
     7
 10
174.1724
 20
-162.8115
 11
175.2012
 21
-161.7827
  0
LINE
  8
0
  6
CONTINUOUS
 62
     7
 10
173.8048
 20
-162.4437
 11
174.8336
 21
-161.4149
  0
LINE
  8
0
  6
CONTINUOUS
 62
     7
 10
165.1724
 20
-182.2822
 11
164.8047
 21
-181.9145
  0
LINE
  8
0
  6
CONTINUOUS
 62
     7
 10
165.5401
 20
-181.9145
 11
165.1724
 21
-181.5468
  0
LINE
  8
0
  6
CONTINUOUS
 62
     7
 10
165.1724
 20
-182.2822
 11
165.5401
 21
-181.9146
  0
LINE
  8
0
  6
CONTINUOUS
 62
     7
 10
163.3339
 20
-180.4438
 11
163.7016
 21
-180.0761
  0
LINE
  8
0
  6
CONTINUOUS
 62
     7
 10
163.0406
 20
-182.9434
 11
164.0694
 21
-181.9146
  0
LINE
  8
0
  6
CONTINUOUS
 62
     7
 10
162.6729
 20
-182.5757
 11
163.7017
 21
-181.5469
  0
LINE
  8
0
  6
CONTINUOUS
 62
     7
 10
163.7016
 20
-180.8114
 11
163.3339
 21
-180.4437
  0
LINE
  8
0
  6
CONTINUOUS
 62
     7
 10
164.0693
 20
-180.4437
 11
163.7016
 21
-180.076
  0
LINE
  8
0
  6
CONTINUOUS
 62
     7
 10
165.1725
 20
-180.8115
 11
166.2012
 21
-179.7827
  0
LINE
  8
0
  6
CONTINUOUS
 62
     7
 10
164.8047
 20
-180.4438
 11
165.8335
 21
-179.415
  0
LINE
  8
0
  6
CENTER
 62
     2
 10
169.437
 20
-163.1791
 11
177.437
 21
-163.1791
  0
LINE
  8
0
  6
CENTER
 62
     2
 10
160.437
 20
-181.1791
 11
168.437
 21
-181.1791
  0
LINE
  8
0
  6
CENTER
 62
     2
 10
164.437
 20
-185.1791
 11
164.437
 21
-177.1791
  0
LINE
  8
0
  6
CENTER
 62
     2
 10
173.437
 20
-167.1791
 11
173.437
 21
-159.1791
  0
LINE
  8
0
  6
CONTINUOUS
 62
     7
 10
161.437
 20
-183.6791
 11
161.437
 21
-153.1791
  0
LINE
  8
0
  6
CONTINUOUS
 62
     7
 10
161.937
 20
-184.1791
 11
175.937
 21
-184.1791
  0
LINE
  8
0
  6
CONTINUOUS
 62
     7
 10
176.437
 20
-183.6791
 11
176.437
 21
-153.1791
  0
LINE
  8
0
  6
CONTINUOUS
 62
     7
 10
161.437
 20
-157.1791
 11
176.437
 21
-157.1791
  0
LINE
  8
0
  6
CONTINUOUS
 62
     7
 10
161.437
 20
-153.1791
 11
176.437
 21
-153.1791
  0
LINE
  8
0
  6
CENTER
 62
     2
 10
158.537
 20
-137.5791
 11
179.337
 21
-137.5791
  0
LINE
  8
0
  6
CONTINUOUS
 62
     7
 10
162.437
 20
-141.1161
 11
162.437
 21
-134.0422
  0
LINE
  8
0
  6
CONTINUOUS
 62
     7
 10
175.437
 20
-141.1161
 11
175.437
 21
-134.0422
  0
LINE
  8
0
  6
CONTINUOUS
 62
     7
 10
162.6239
 20
-133.7184
 11
168.7501
 21
-130.1815
  0
LINE
  8
0
  6
CONTINUOUS
 62
     7
 10
169.1239
 20
-144.9768
 11
175.2501
 21
-141.4398
  0
LINE
  8
0
  6
CONTINUOUS
 62
     7
 10
169.1239
 20
-130.1815
 11
175.25
 21
-133.7184
  0
LINE
  8
0
  6
CONTINUOUS
 62
     7
 10
162.6239
 20
-141.4398
 11
168.7501
 21
-144.9768
  0
LINE
  8
0
  6
CONTINUOUS
 62
     7
 10
162.037
 20
-130.1791
 11
175.837
 21
-130.1791
  0
LINE
  8
0
  6
CONTINUOUS
 62
     7
 10
171.737
 20
-129.0073
 11
171.737
 21
-129.6791
  0
LINE
  8
0
  6
CONTINUOUS
 62
     7
 10
166.1369
 20
-129.0073
 11
166.1369
 21
-129.6791
  0
LINE
  8
0
  6
CONTINUOUS
 62
     7
 10
165.687
 20
-129.6791
 11
165.687
 21
-130.1791
  0
LINE
  8
0
  6
CONTINUOUS
 62
     7
 10
172.187
 20
-129.6791
 11
165.687
 21
-129.6791
  0
LINE
  8
0
  6
CONTINUOUS
 62
     7
 10
172.1869
 20
-129.6791
 11
172.1869
 21
-130.1791
  0
LINE
  8
0
  6
CONTINUOUS
 62
     7
 10
176.337
 20
-153.1791
 11
176.337
 21
-130.6791
  0
LINE
  8
0
  6
CONTINUOUS
 62
     7
 10
161.537
 20
-153.1791
 11
161.537
 21
-130.6791
  0
LINE
  8
0
  6
CONTINUOUS
 62
     7
 10
161.537
 20
-152.6791
 11
176.337
 21
-152.6791
  0
LINE
  8
0
  6
CENTER
 62
     2
 10
168.937
 20
-188.0754
 11
168.937
 21
-125.2278
  0
LINE
  8
0
  6
CENTER
 62
     2
 10
180.687
 20
-172.1791
 11
156.7095
 21
-172.1791
  0
ARC
  8
0
  6
CONTINUOUS
 62
     7
 10
273.0354
 20
-235.0457
 40
2.21188
 50
0.0
 51
89.99999
  0
ARC
  8
0
  6
CONTINUOUS
 62
     7
 10
291.2836
 20
-246.9346
 40
2.2119
 50
270.0
 51
0.0
  0
ARC
  8
0
  6
CONTINUOUS
 62
     7
 10
290.1776
 20
-236.1516
 40
3.31784
 50
0.0
 51
89.99999
  0
ARC
  8
0
  6
CONTINUOUS
 62
     7
 10
310.3611
 20
-236.8128
 40
2.21189
 50
295.0
 51
0.0
  0
ARC
  8
0
  6
CONTINUOUS
 62
     7
 10
310.3611
 20
-235.0457
 40
2.21188
 50
0.0
 51
89.99999
  0
ARC
  8
0
  6
CONTINUOUS
 62
     7
 10
327.5034
 20
-232.8338
 40
3.31784
 50
291.6884
 51
0.0
  0
ARC
  8
0
  6
CONTINUOUS
 62
     7
 10
326.3973
 20
-232.0834
 40
1.10595
 50
291.689
 51
0.0
  0
ARC
  8
0
  6
CONTINUOUS
 62
     7
 10
-194.9367
 20
135.2774
 40
0.5
 50
180.0
 51
270.0
  0
ARC
  8
0
  6
CONTINUOUS
 62
     7
 10
-168.9367
 20
135.2774
 40
0.5
 50
270.0
 51
0.0
  0
ARC
  8
0
  6
CONTINUOUS
 62
     7
 10
-168.9367
 20
152.2774
 40
0.5
 50
0.0
 51
89.99999
  0
ARC
  8
0
  6
CONTINUOUS
 62
     7
 10
-194.9367
 20
152.2774
 40
0.5
 50
89.99999
 51
180.0
  0
ARC
  8
0
  6
CONTINUOUS
 62
     7
 10
-172.9367
 20
139.2774
 40
3.0
 50
89.99999
 51
180.0
  0
ARC
  8
0
  6
CONTINUOUS
 62
     7
 10
-190.9367
 20
148.2774
 40
3.0
 50
270.0
 51
0.0
  0
ARC
  8
0
  6
CONTINUOUS
 62
     7
 10
-172.9367
 20
139.2774
 40
2.55
 50
276.7564
 51
263.2436
  0
ARC
  8
0
  6
CONTINUOUS
 62
     7
 10
-190.9367
 20
148.2774
 40
2.55
 50
96.7564
 51
83.24359
  0
CIRCLE
  8
0
  6
CONTINUOUS
 62
     7
 10
-172.9367
 20
139.2774
 40
2.25
  0
ARC
  8
0
  6
CONTINUOUS
 62
     7
 10
-172.9367
 20
140.3805
 40
0.51999
 50
225.0
 51
315.0
  0
ARC
  8
0
  6
CONTINUOUS
 62
     7
 10
-174.0398
 20
139.2774
 40
0.51999
 50
315.0
 51
45.0
  0
ARC
  8
0
  6
CONTINUOUS
 62
     7
 10
-171.8336
 20
139.2774
 40
0.51999
 50
135.0
 51
225.0
  0
ARC
  8
0
  6
CONTINUOUS
 62
     7
 10
-172.9367
 20
138.1743
 40
0.51999
 50
45.0
 51
135.0
  0
CIRCLE
  8
0
  6
CONTINUOUS
 62
     7
 10
-190.9367
 20
148.2774
 40
2.25
  0
ARC
  8
0
  6
CONTINUOUS
 62
     7
 10
-190.9367
 20
149.3805
 40
0.51999
 50
225.0
 51
315.0
  0
ARC
  8
0
  6
CONTINUOUS
 62
     7
 10
-192.0398
 20
148.2774
 40
0.51999
 50
315.0
 51
45.0
  0
ARC
  8
0
  6
CONTINUOUS
 62
     7
 10
-189.8336
 20
148.2774
 40
0.51999
 50
135.0
 51
225.0
  0
ARC
  8
0
  6
CONTINUOUS
 62
     7
 10
-190.9367
 20
147.1743
 40
0.51999
 50
45.0
 51
135.0
  0
ARC
  8
0
  6
CONTINUOUS
 62
     7
 10
-193.4367
 20
150.7774
 40
0.5
 50
89.99999
 51
180.0
  0
ARC
  8
0
  6
CONTINUOUS
 62
     7
 10
-193.4367
 20
136.7774
 40
0.5
 50
180.0
 51
270.0
  0
CIRCLE
  8
0
  6
CONTINUOUS
 62
     7
 10
-147.3367
 20
143.7774
 40
7.4
  0
CIRCLE
  8
0
  6
CONTINUOUS
 62
     7
 10
-147.3367
 20
143.7774
 40
3.8
  0
CIRCLE
  8
0
  6
CONTINUOUS
 62
     7
 10
-147.3367
 20
143.7774
 40
5.8
  0
ARC
  8
0
  6
CONTINUOUS
 62
     7
 10
-140.4367
 20
136.8774
 40
0.5
 50
270.0
 51
0.0
  0
ARC
  8
0
  6
CONTINUOUS
 62
     7
 10
-142.5367
 20
143.7774
 40
5.0
 50
330.5077
 51
29.49228
  0
ARC
  8
0
  6
CONTINUOUS
 62
     7
 10
-138.7649
 20
145.9108
 40
0.66666
 50
29.49227
 51
89.99999
  0
ARC
  8
0
  6
CONTINUOUS
 62
     7
 10
-138.7649
 20
141.6441
 40
0.66667
 50
270.0
 51
330.5077
  0
ARC
  8
0
  6
CONTINUOUS
 62
     7
 10
-140.4367
 20
150.6774
 40
0.5
 50
0.0
 51
89.99999
  0
CIRCLE
  8
0
  6
CONTINUOUS
 62
     7
 10
-174.4368
 20
1.60001
 40
1.6
  0
CIRCLE
  8
0
  6
CONTINUOUS
 62
     7
 10
-174.4368
 20
-28.39999
 40
1.6
  0
ARC
  8
0
  6
CONTINUOUS
 62
     7
 10
-172.9368
 20
48.3
 40
6.0
 50
73.80862
 51
106.1914
  0
ARC
  8
0
  6
CONTINUOUS
 62
     7
 10
-171.4868
 20
53.29376
 40
0.8
 50
0.0
 51
73.8082
  0
ARC
  8
0
  6
CONTINUOUS
 62
     7
 10
-174.3868
 20
53.29376
 40
0.8
 50
106.1918
 51
180.0
  0
ARC
  8
0
  6
CONTINUOUS
 62
     7
 10
-190.9368
 20
48.29999
 40
6.0
 50
73.80862
 51
106.1914
  0
ARC
  8
0
  6
CONTINUOUS
 62
     7
 10
-192.3868
 20
53.29373
 40
0.8
 50
106.1918
 51
118.0138
  0
ARC
  8
0
  6
CONTINUOUS
 62
     7
 10
-189.4868
 20
53.29373
 40
0.8
 50
61.98621
 51
73.8082
  0
ARC
  8
0
  6
CONTINUOUS
 62
     7
 10
-140.4368
 20
35.90001
 40
0.5
 50
270.0
 51
0.0
  0
ARC
  8
0
  6
CONTINUOUS
 62
     7
 10
-140.4368
 20
49.70001
 40
0.5
 50
0.0
 51
89.99999
  0
ARC
  8
0
  6
CONTINUOUS
 62
     7
 10
-142.5368
 20
42.8
 40
5.0
 50
330.5077
 51
29.49232
  0
ARC
  8
0
  6
CONTINUOUS
 62
     7
 10
-138.765
 20
40.66667
 40
0.66667
 50
270.0
 51
330.5074
  0
ARC
  8
0
  6
CONTINUOUS
 62
     7
 10
-138.765
 20
44.93335
 40
0.66666
 50
29.49256
 51
89.99999
  0
ARC
  8
0
  6
CONTINUOUS
 62
     7
 10
-141.7064
 20
66.22261
 40
3.27324
 50
62.72894
 51
122.7273
  0
ARC
  8
0
  6
CONTINUOUS
 62
     7
 10
-147.3368
 20
57.19838
 40
12.29748
 50
73.28477
 51
106.7153
  0
ARC
  8
0
  6
CONTINUOUS
 62
     7
 10
-152.9671
 20
66.2226
 40
3.27326
 50
57.27284
 51
117.273
  0
ARC
  8
0
  6
CONTINUOUS
 62
     7
 10
-190.9368
 20
-75.09998
 40
6.0
 50
253.8086
 51
286.1914
  0
ARC
  8
0
  6
CONTINUOUS
 62
     7
 10
-192.3868
 20
-80.09375
 40
0.8
 50
180.0
 51
253.8083
  0
ARC
  8
0
  6
CONTINUOUS
 62
     7
 10
-189.4868
 20
-80.09375
 40
0.80001
 50
286.1917
 51
0.0
  0
ARC
  8
0
  6
CONTINUOUS
 62
     7
 10
-172.9368
 20
-75.09998
 40
6.0
 50
253.8086
 51
286.1914
  0
ARC
  8
0
  6
CONTINUOUS
 62
     7
 10
-171.4868
 20
-80.09372
 40
0.80001
 50
286.1917
 51
298.0138
  0
ARC
  8
0
  6
CONTINUOUS
 62
     7
 10
-174.3868
 20
-80.09372
 40
0.8
 50
241.9862
 51
253.8083
  0
ARC
  8
0
  6
CONTINUOUS
 62
     7
 10
-140.4368
 20
-62.70001
 40
0.5
 50
0.0
 51
89.99999
  0
ARC
  8
0
  6
CONTINUOUS
 62
     7
 10
-140.4368
 20
-76.5
 40
0.5
 50
270.0
 51
0.0
  0
ARC
  8
0
  6
CONTINUOUS
 62
     7
 10
-140.4368
 20
-62.70001
 40
0.5
 50
0.0
 51
89.99999
  0
ARC
  8
0
  6
CONTINUOUS
 62
     7
 10
-140.4368
 20
-76.5
 40
0.5
 50
270.0
 51
0.0
  0
ARC
  8
0
  6
CONTINUOUS
 62
     7
 10
-142.5368
 20
-69.59998
 40
4.99999
 50
330.5075
 51
29.49228
  0
ARC
  8
0
  6
CONTINUOUS
 62
     7
 10
-138.765
 20
-67.46667
 40
0.66666
 50
29.49227
 51
89.99999
  0
ARC
  8
0
  6
CONTINUOUS
 62
     7
 10
-138.765
 20
-71.73334
 40
0.66666
 50
270.0
 51
330.5071
  0
ARC
  8
0
  6
CONTINUOUS
 62
     7
 10
-141.7064
 20
-93.02258
 40
3.27324
 50
237.2726
 51
297.271
  0
ARC
  8
0
  6
CONTINUOUS
 62
     7
 10
-147.3368
 20
-83.99835
 40
12.29748
 50
253.2847
 51
286.7152
  0
ARC
  8
0
  6
CONTINUOUS
 62
     7
 10
-152.9671
 20
-93.02258
 40
3.27326
 50
242.727
 51
302.7271
  0
CIRCLE
  8
0
  6
CONTINUOUS
 62
     7
 10
-300.5613
 20
-28.39987
 40
1.6
  0
CIRCLE
  8
0
  6
CONTINUOUS
 62
     7
 10
-313.5613
 20
1.60013
 40
1.6
  0
CIRCLE
  8
0
  6
CONTINUOUS
 62
     7
 10
-307.0613
 20
17.50012
 40
2.65
  0
CIRCLE
  8
0
  6
CONTINUOUS
 62
     7
 10
-306.5613
 20
-0.19986
 40
4.86435
  0
CIRCLE
  8
0
  6
CONTINUOUS
 62
     7
 10
-306.5613
 20
-0.19986
 40
4.28325
  0
CIRCLE
  8
0
  6
CONTINUOUS
 62
     7
 10
-307.5613
 20
-26.59988
 40
4.86435
  0
CIRCLE
  8
0
  6
CONTINUOUS
 62
     7
 10
-307.5613
 20
-26.59988
 40
4.28325
  0
CIRCLE
  8
0
  6
CONTINUOUS
 62
     7
 10
-307.0613
 20
-13.39987
 40
4.86435
  0
CIRCLE
  8
0
  6
CONTINUOUS
 62
     7
 10
-307.0613
 20
-13.39987
 40
4.28325
  0
CIRCLE
  8
0
  6
CONTINUOUS
 62
     7
 10
-307.0613
 20
17.50012
 40
2.0
  0
CIRCLE
  8
0
  6
CONTINUOUS
 62
     7
 10
-307.0613
 20
-44.29987
 40
2.65
  0
CIRCLE
  8
0
  6
CONTINUOUS
 62
     7
 10
-307.0613
 20
-44.29987
 40
2.0
  0
ARC
  8
0
  6
CONTINUOUS
 62
     7
 10
-310.5076
 20
46.75345
 40
0.35345
 50
0.0
 51
89.99999
  0
ARC
  8
0
  6
CONTINUOUS
 62
     7
 10
-307.5916
 20
44.85358
 40
0.35346
 50
270.0
 51
0.0
  0
ARC
  8
0
  6
CONTINUOUS
 62
     7
 10
-307.7682
 20
46.57672
 40
0.53018
 50
0.0
 51
89.99999
  0
ARC
  8
0
  6
CONTINUOUS
 62
     7
 10
-304.5429
 20
46.75345
 40
0.35345
 50
0.0
 51
89.99999
  0
ARC
  8
0
  6
CONTINUOUS
 62
     7
 10
-304.5429
 20
46.47105
 40
0.35347
 50
295.0005
 51
0.0
  0
ARC
  8
0
  6
CONTINUOUS
 62
     7
 10
-301.8036
 20
47.1069
 40
0.53019
 50
291.6869
 51
0.0
  0
ARC
  8
0
  6
CONTINUOUS
 62
     7
 10
-301.9803
 20
47.22681
 40
0.17673
 50
291.687
 51
0.0
  0
ARC
  8
0
  6
CONTINUOUS
 62
     7
 10
-313.0114
 20
53.29385
 40
0.8
 50
106.1918
 51
180.0
  0
ARC
  8
0
  6
CONTINUOUS
 62
     7
 10
-311.5613
 20
48.30011
 40
6.0
 50
73.80876
 51
106.1912
  0
ARC
  8
0
  6
CONTINUOUS
 62
     7
 10
-310.1113
 20
53.29385
 40
0.79999
 50
0.0
 51
73.8082
  0
ARC
  8
0
  6
CONTINUOUS
 62
     7
 10
-302.5613
 20
48.30011
 40
6.0
 50
73.80876
 51
106.1912
  0
ARC
  8
0
  6
CONTINUOUS
 62
     7
 10
-304.0114
 20
53.29385
 40
0.8
 50
106.1918
 51
118.0148
  0
ARC
  8
0
  6
CONTINUOUS
 62
     7
 10
-301.1113
 20
53.29385
 40
0.80001
 50
61.98524
 51
73.8082
  0
ARC
  8
0
  6
CONTINUOUS
 62
     7
 10
-303.7179
 20
59.64861
 40
9.84738
 50
71.30395
 51
108.696
  0
ARC
  8
0
  6
CONTINUOUS
 62
     7
 10
-310.4048
 20
59.64861
 40
9.84738
 50
71.30395
 51
108.696
  0
ARC
  8
0
  6
CONTINUOUS
 62
     7
 10
-303.6151
 20
-73.55319
 40
0.35345
 50
180.0
 51
270.0
  0
ARC
  8
0
  6
CONTINUOUS
 62
     7
 10
-306.5311
 20
-71.65332
 40
0.35346
 50
89.99999
 51
180.0
  0
ARC
  8
0
  6
CONTINUOUS
 62
     7
 10
-306.3544
 20
-73.37646
 40
0.53018
 50
180.0
 51
270.0
  0
ARC
  8
0
  6
CONTINUOUS
 62
     7
 10
-309.5798
 20
-73.55319
 40
0.35345
 50
180.0
 51
270.0
  0
ARC
  8
0
  6
CONTINUOUS
 62
     7
 10
-309.5798
 20
-73.27081
 40
0.35346
 50
115.0008
 51
180.0
  0
ARC
  8
0
  6
CONTINUOUS
 62
     7
 10
-312.3191
 20
-73.90665
 40
0.53019
 50
111.6869
 51
180.0
  0
ARC
  8
0
  6
CONTINUOUS
 62
     7
 10
-312.1423
 20
-74.02655
 40
0.17673
 50
111.6866
 51
180.0
  0
ARC
  8
0
  6
CONTINUOUS
 62
     7
 10
-301.1113
 20
-80.0936
 40
0.80001
 50
286.1917
 51
0.0
  0
ARC
  8
0
  6
CONTINUOUS
 62
     7
 10
-302.5613
 20
-75.09985
 40
6.0
 50
253.8088
 51
286.1912
  0
ARC
  8
0
  6
CONTINUOUS
 62
     7
 10
-304.0114
 20
-80.0936
 40
0.79999
 50
180.0
 51
253.8083
  0
ARC
  8
0
  6
CONTINUOUS
 62
     7
 10
-311.5613
 20
-75.09985
 40
6.0
 50
253.8088
 51
286.1912
  0
ARC
  8
0
  6
CONTINUOUS
 62
     7
 10
-310.1113
 20
-80.0936
 40
0.80001
 50
286.1917
 51
298.0128
  0
ARC
  8
0
  6
CONTINUOUS
 62
     7
 10
-313.0114
 20
-80.0936
 40
0.80001
 50
241.9852
 51
253.8083
  0
ARC
  8
0
  6
CONTINUOUS
 62
     7
 10
-310.4048
 20
-86.44836
 40
9.84738
 50
251.3039
 51
288.696
  0
ARC
  8
0
  6
CONTINUOUS
 62
     7
 10
-303.7179
 20
-86.44836
 40
9.84738
 50
251.3039
 51
288.696
  0
CIRCLE
  8
0
  6
CONTINUOUS
 62
     7
 10
-49.31221
 20
-28.3999
 40
1.6
  0
CIRCLE
  8
0
  6
CONTINUOUS
 62
     7
 10
-36.31221
 20
1.60011
 40
1.6
  0
ARC
  8
0
  6
CONTINUOUS
 62
     7
 10
-36.31221
 20
1.60011
 40
3.0
 50
33.55732
 51
326.4427
  0
ARC
  8
0
  6
CONTINUOUS
 62
     7
 10
-49.31221
 20
-28.3999
 40
3.0
 50
0.0
 51
146.4427
  0
ARC
  8
0
  6
CONTINUOUS
 62
     7
 10
-49.31221
 20
-28.3999
 40
3.0
 50
213.5573
 51
0.0
  0
CIRCLE
  8
0
  6
CONTINUOUS
 62
     7
 10
-42.81221
 20
22.30011
 40
1.65
  0
CIRCLE
  8
0
  6
CONTINUOUS
 62
     7
 10
-43.31221
 20
-21.3999
 40
4.86435
  0
CIRCLE
  8
0
  6
CONTINUOUS
 62
     7
 10
-43.31221
 20
-21.3999
 40
4.28325
  0
CIRCLE
  8
0
  6
CONTINUOUS
 62
     7
 10
-42.31221
 20
-5.3999
 40
4.86435
  0
CIRCLE
  8
0
  6
CONTINUOUS
 62
     7
 10
-42.31221
 20
-5.3999
 40
4.28325
  0
CIRCLE
  8
0
  6
CONTINUOUS
 62
     7
 10
-42.81221
 20
-49.09988
 40
1.65
  0
ARC
  8
0
  6
CONTINUOUS
 62
     7
 10
-49.7122
 20
35.90012
 40
0.5
 50
180.0
 51
270.0
  0
ARC
  8
0
  6
CONTINUOUS
 62
     7
 10
-35.91222
 20
35.90012
 40
0.5
 50
270.0
 51
0.0
  0
ARC
  8
0
  6
CONTINUOUS
 62
     7
 10
-49.7122
 20
49.7001
 40
0.5
 50
89.99999
 51
180.0
  0
ARC
  8
0
  6
CONTINUOUS
 62
     7
 10
-35.91222
 20
49.7001
 40
0.5
 50
0.0
 51
89.99999
  0
CIRCLE
  8
0
  6
CONTINUOUS
 62
     7
 10
-42.81221
 20
42.80011
 40
2.8
  0
ARC
  8
0
  6
CONTINUOUS
 62
     7
 10
-42.81221
 20
44.07291
 40
0.6
 50
225.0
 51
315.0
  0
ARC
  8
0
  6
CONTINUOUS
 62
     7
 10
-44.08501
 20
42.80011
 40
0.6
 50
315.0
 51
45.0
  0
ARC
  8
0
  6
CONTINUOUS
 62
     7
 10
-41.53941
 20
42.80011
 40
0.6
 50
135.0
 51
225.0
  0
ARC
  8
0
  6
CONTINUOUS
 62
     7
 10
-42.81221
 20
41.52731
 40
0.6
 50
45.0
 51
135.0
  0
CIRCLE
  8
0
  6
CONTINUOUS
 62
     7
 10
-42.81221
 20
42.80011
 40
3.25
  0
ARC
  8
0
  6
CONTINUOUS
 62
     7
 10
-39.46873
 20
59.64859
 40
9.84738
 50
71.30401
 51
108.696
  0
ARC
  8
0
  6
CONTINUOUS
 62
     7
 10
-46.15569
 20
59.64859
 40
9.84738
 50
71.30401
 51
108.696
  0
ARC
  8
0
  6
CONTINUOUS
 62
     7
 10
-35.91222
 20
-62.69989
 40
0.5
 50
0.0
 51
89.99999
  0
ARC
  8
0
  6
CONTINUOUS
 62
     7
 10
-49.7122
 20
-62.69989
 40
0.5
 50
89.99999
 51
180.0
  0
ARC
  8
0
  6
CONTINUOUS
 62
     7
 10
-35.91222
 20
-76.49988
 40
0.5
 50
270.0
 51
0.0
  0
ARC
  8
0
  6
CONTINUOUS
 62
     7
 10
-49.7122
 20
-76.49988
 40
0.5
 50
180.0
 51
270.0
  0
CIRCLE
  8
0
  6
CONTINUOUS
 62
     7
 10
-42.81221
 20
-69.59988
 40
2.8
  0
ARC
  8
0
  6
CONTINUOUS
 62
     7
 10
-42.81221
 20
-70.87268
 40
0.6
 50
45.0
 51
135.0
  0
ARC
  8
0
  6
CONTINUOUS
 62
     7
 10
-41.53941
 20
-69.59988
 40
0.6
 50
135.0
 51
225.0
  0
ARC
  8
0
  6
CONTINUOUS
 62
     7
 10
-44.08501
 20
-69.59988
 40
0.6
 50
315.0
 51
45.0
  0
ARC
  8
0
  6
CONTINUOUS
 62
     7
 10
-42.81221
 20
-68.32709
 40
0.6
 50
225.0
 51
315.0
  0
CIRCLE
  8
0
  6
CONTINUOUS
 62
     7
 10
-42.81221
 20
-69.59988
 40
3.25
  0
ARC
  8
0
  6
CONTINUOUS
 62
     7
 10
-46.15569
 20
-86.44836
 40
9.84738
 50
251.304
 51
288.696
  0
ARC
  8
0
  6
CONTINUOUS
 62
     7
 10
-39.46873
 20
-86.44836
 40
9.84738
 50
251.304
 51
288.696
  0
ARC
  8
0
  6
CONTINUOUS
 62
     7
 10
-194.9367
 20
-187.679
 40
0.5
 50
180.0
 51
270.0
  0
ARC
  8
0
  6
CONTINUOUS
 62
     7
 10
-168.9367
 20
-187.679
 40
0.5
 50
270.0
 51
0.0
  0
ARC
  8
0
  6
CONTINUOUS
 62
     7
 10
-168.9367
 20
-170.679
 40
0.5
 50
0.0
 51
89.99999
  0
ARC
  8
0
  6
CONTINUOUS
 62
     7
 10
-194.9367
 20
-170.679
 40
0.5
 50
89.99999
 51
180.0
  0
ARC
  8
0
  6
CONTINUOUS
 62
     7
 10
-172.9367
 20
-183.679
 40
3.0
 50
89.99999
 51
180.0
  0
ARC
  8
0
  6
CONTINUOUS
 62
     7
 10
-190.9367
 20
-174.679
 40
3.0
 50
270.0
 51
0.0
  0
ARC
  8
0
  6
CONTINUOUS
 62
     7
 10
-172.9367
 20
-183.679
 40
2.55
 50
276.7564
 51
263.2436
  0
ARC
  8
0
  6
CONTINUOUS
 62
     7
 10
-190.9367
 20
-174.679
 40
2.55
 50
96.7564
 51
83.24359
  0
CIRCLE
  8
0
  6
CONTINUOUS
 62
     7
 10
-172.9367
 20
-183.679
 40
2.25
  0
ARC
  8
0
  6
CONTINUOUS
 62
     7
 10
-172.9367
 20
-182.576
 40
0.51999
 50
225.0
 51
315.0
  0
ARC
  8
0
  6
CONTINUOUS
 62
     7
 10
-174.0398
 20
-183.679
 40
0.51999
 50
315.0
 51
45.0
  0
ARC
  8
0
  6
CONTINUOUS
 62
     7
 10
-171.8336
 20
-183.679
 40
0.51999
 50
135.0
 51
225.0
  0
ARC
  8
0
  6
CONTINUOUS
 62
     7
 10
-172.9367
 20
-184.7821
 40
0.51999
 50
45.0
 51
135.0
  0
CIRCLE
  8
0
  6
CONTINUOUS
 62
     7
 10
-190.9367
 20
-174.679
 40
2.25
  0
ARC
  8
0
  6
CONTINUOUS
 62
     7
 10
-190.9367
 20
-173.576
 40
0.51999
 50
225.0
 51
315.0
  0
ARC
  8
0
  6
CONTINUOUS
 62
     7
 10
-192.0398
 20
-174.679
 40
0.51999
 50
315.0
 51
45.0
  0
ARC
  8
0
  6
CONTINUOUS
 62
     7
 10
-189.8336
 20
-174.679
 40
0.51999
 50
135.0
 51
225.0
  0
ARC
  8
0
  6
CONTINUOUS
 62
     7
 10
-190.9367
 20
-175.7821
 40
0.51999
 50
45.0
 51
135.0
  0
ARC
  8
0
  6
CONTINUOUS
 62
     7
 10
-193.4367
 20
-172.179
 40
0.5
 50
89.99999
 51
180.0
  0
ARC
  8
0
  6
CONTINUOUS
 62
     7
 10
-193.4367
 20
-186.179
 40
0.5
 50
180.0
 51
270.0
  0
CIRCLE
  8
0
  6
CONTINUOUS
 62
     7
 10
-147.3367
 20
-179.179
 40
7.4
  0
CIRCLE
  8
0
  6
CONTINUOUS
 62
     7
 10
-147.3367
 20
-179.179
 40
3.8
  0
CIRCLE
  8
0
  6
CONTINUOUS
 62
     7
 10
-147.3367
 20
-179.179
 40
5.8
  0
ARC
  8
0
  6
CONTINUOUS
 62
     7
 10
-140.4367
 20
-186.079
 40
0.5
 50
270.0
 51
0.0
  0
ARC
  8
0
  6
CONTINUOUS
 62
     7
 10
-142.5367
 20
-179.179
 40
5.0
 50
330.5077
 51
29.49228
  0
ARC
  8
0
  6
CONTINUOUS
 62
     7
 10
-138.7649
 20
-177.0457
 40
0.66666
 50
29.49227
 51
89.99999
  0
ARC
  8
0
  6
CONTINUOUS
 62
     7
 10
-138.7649
 20
-181.3124
 40
0.66667
 50
270.0
 51
330.5077
  0
ARC
  8
0
  6
CONTINUOUS
 62
     7
 10
-140.4367
 20
-172.2791
 40
0.5
 50
0.0
 51
89.99999
  0
ARC
  8
0
  6
CONTINUOUS
 62
     7
 10
160.4371
 20
149.7773
 40
0.5
 50
89.99999
 51
180.0
  0
ARC
  8
0
  6
CONTINUOUS
 62
     7
 10
160.4371
 20
123.7773
 40
0.5
 50
180.0
 51
270.0
  0
ARC
  8
0
  6
CONTINUOUS
 62
     7
 10
177.4371
 20
123.7773
 40
0.5
 50
270.0
 51
0.0
  0
ARC
  8
0
  6
CONTINUOUS
 62
     7
 10
177.4371
 20
149.7773
 40
0.5
 50
0.0
 51
89.99999
  0
ARC
  8
0
  6
CONTINUOUS
 62
     7
 10
164.4371
 20
127.7773
 40
3.0
 50
0.0
 51
89.99999
  0
ARC
  8
0
  6
CONTINUOUS
 62
     7
 10
173.4371
 20
145.7773
 40
3.0
 50
180.0
 51
270.0
  0
ARC
  8
0
  6
CONTINUOUS
 62
     7
 10
164.4371
 20
127.7773
 40
2.55
 50
186.7562
 51
173.2436
  0
ARC
  8
0
  6
CONTINUOUS
 62
     7
 10
173.4371
 20
145.7773
 40
2.55
 50
6.75641
 51
353.2436
  0
CIRCLE
  8
0
  6
CONTINUOUS
 62
     7
 10
164.4371
 20
127.7773
 40
2.25
  0
ARC
  8
0
  6
CONTINUOUS
 62
     7
 10
165.5402
 20
127.7773
 40
0.51999
 50
135.0
 51
225.0006
  0
ARC
  8
0
  6
CONTINUOUS
 62
     7
 10
164.4371
 20
128.8804
 40
0.51999
 50
225.0
 51
315.0
  0
ARC
  8
0
  6
CONTINUOUS
 62
     7
 10
164.4371
 20
126.6742
 40
0.52
 50
45.0006
 51
134.9994
  0
ARC
  8
0
  6
CONTINUOUS
 62
     7
 10
163.334
 20
127.7773
 40
0.52
 50
314.9994
 51
45.0
  0
CIRCLE
  8
0
  6
CONTINUOUS
 62
     7
 10
173.4371
 20
145.7773
 40
2.25
  0
ARC
  8
0
  6
CONTINUOUS
 62
     7
 10
174.5402
 20
145.7773
 40
0.51999
 50
135.0
 51
225.0
  0
ARC
  8
0
  6
CONTINUOUS
 62
     7
 10
173.4371
 20
146.8804
 40
0.51999
 50
225.0
 51
315.0
  0
ARC
  8
0
  6
CONTINUOUS
 62
     7
 10
173.4371
 20
144.6742
 40
0.51999
 50
45.0
 51
135.0
  0
ARC
  8
0
  6
CONTINUOUS
 62
     7
 10
172.334
 20
145.7773
 40
0.51999
 50
315.0
 51
45.0
  0
ARC
  8
0
  6
CONTINUOUS
 62
     7
 10
175.9371
 20
148.2773
 40
0.5
 50
0.0
 51
89.99999
  0
ARC
  8
0
  6
CONTINUOUS
 62
     7
 10
161.9371
 20
148.2773
 40
0.5
 50
89.99999
 51
180.0
  0
CIRCLE
  8
0
  6
CONTINUOUS
 62
     7
 10
168.9371
 20
102.1773
 40
7.4
  0
CIRCLE
  8
0
  6
CONTINUOUS
 62
     7
 10
168.9371
 20
102.1773
 40
3.8
  0
CIRCLE
  8
0
  6
CONTINUOUS
 62
     7
 10
168.9371
 20
102.1773
 40
5.8
  0
ARC
  8
0
  6
CONTINUOUS
 62
     7
 10
162.0371
 20
95.27728
 40
0.5
 50
180.0
 51
270.0
  0
ARC
  8
0
  6
CONTINUOUS
 62
     7
 10
168.9371
 20
97.37729
 40
5.0
 50
240.5077
 51
299.4923
  0
ARC
  8
0
  6
CONTINUOUS
 62
     7
 10
171.0704
 20
93.60544
 40
0.66667
 50
299.4919
 51
0.0
  0
ARC
  8
0
  6
CONTINUOUS
 62
     7
 10
166.8038
 20
93.60544
 40
0.66667
 50
180.0
 51
240.508
  0
ARC
  8
0
  6
CONTINUOUS
 62
     7
 10
175.8371
 20
95.27728
 40
0.5
 50
270.0
 51
0.0
  0
CIRCLE
  8
0
  6
CONTINUOUS
 62
     7
 10
162.4368
 20
-28.39998
 40
1.6
  0
CIRCLE
  8
0
  6
CONTINUOUS
 62
     7
 10
175.4368
 20
1.60002
 40
1.6
  0
ARC
  8
0
  6
CONTINUOUS
 62
     7
 10
175.4368
 20
1.60002
 40
3.0
 50
33.55732
 51
326.4427
  0
ARC
  8
0
  6
CONTINUOUS
 62
     7
 10
162.4368
 20
-28.39998
 40
3.0
 50
0.0
 51
146.4427
  0
ARC
  8
0
  6
CONTINUOUS
 62
     7
 10
162.4368
 20
-28.39998
 40
3.0
 50
213.5573
 51
0.0
  0
CIRCLE
  8
0
  6
CONTINUOUS
 62
     7
 10
168.9368
 20
22.30002
 40
1.65
  0
CIRCLE
  8
0
  6
CONTINUOUS
 62
     7
 10
168.9368
 20
-49.09998
 40
1.65
  0
ARC
  8
0
  6
CONTINUOUS
 62
     7
 10
162.0368
 20
35.90002
 40
0.5
 50
180.0
 51
270.0
  0
ARC
  8
0
  6
CONTINUOUS
 62
     7
 10
175.8368
 20
35.90002
 40
0.5
 50
270.0
 51
0.0
  0
ARC
  8
0
  6
CONTINUOUS
 62
     7
 10
162.0368
 20
49.70001
 40
0.5
 50
89.99999
 51
180.0
  0
ARC
  8
0
  6
CONTINUOUS
 62
     7
 10
175.8368
 20
49.70001
 40
0.5
 50
0.0
 51
89.99999
  0
CIRCLE
  8
0
  6
CONTINUOUS
 62
     7
 10
168.9368
 20
42.80002
 40
2.8
  0
ARC
  8
0
  6
CONTINUOUS
 62
     7
 10
168.9368
 20
44.07281
 40
0.6
 50
224.9995
 51
315.0005
  0
ARC
  8
0
  6
CONTINUOUS
 62
     7
 10
167.664
 20
42.80002
 40
0.6
 50
315.0005
 51
44.99949
  0
ARC
  8
0
  6
CONTINUOUS
 62
     7
 10
170.2096
 20
42.80002
 40
0.6
 50
135.0005
 51
224.9995
  0
ARC
  8
0
  6
CONTINUOUS
 62
     7
 10
168.9368
 20
41.52722
 40
0.6
 50
44.99949
 51
135.0005
  0
CIRCLE
  8
0
  6
CONTINUOUS
 62
     7
 10
168.9368
 20
42.80002
 40
3.25
  0
ARC
  8
0
  6
CONTINUOUS
 62
     7
 10
172.2802
 20
59.6485
 40
9.84738
 50
71.30403
 51
108.696
  0
ARC
  8
0
  6
CONTINUOUS
 62
     7
 10
165.5933
 20
59.6485
 40
9.84738
 50
71.30403
 51
108.696
  0
ARC
  8
0
  6
CONTINUOUS
 62
     7
 10
175.8368
 20
-62.69998
 40
0.5
 50
0.0
 51
89.99999
  0
ARC
  8
0
  6
CONTINUOUS
 62
     7
 10
162.0368
 20
-62.69998
 40
0.5
 50
89.99999
 51
180.0
  0
ARC
  8
0
  6
CONTINUOUS
 62
     7
 10
175.8368
 20
-76.49997
 40
0.5
 50
270.0
 51
0.0
  0
ARC
  8
0
  6
CONTINUOUS
 62
     7
 10
162.0368
 20
-76.49997
 40
0.5
 50
180.0
 51
270.0
  0
CIRCLE
  8
0
  6
CONTINUOUS
 62
     7
 10
168.9368
 20
-69.59998
 40
2.8
  0
ARC
  8
0
  6
CONTINUOUS
 62
     7
 10
168.9368
 20
-70.87277
 40
0.6
 50
44.99949
 51
135.0005
  0
ARC
  8
0
  6
CONTINUOUS
 62
     7
 10
170.2096
 20
-69.59998
 40
0.6
 50
135.0005
 51
224.9995
  0
ARC
  8
0
  6
CONTINUOUS
 62
     7
 10
167.664
 20
-69.59998
 40
0.6
 50
315.0005
 51
44.99949
  0
ARC
  8
0
  6
CONTINUOUS
 62
     7
 10
168.9368
 20
-68.32718
 40
0.6
 50
224.9995
 51
315.0005
  0
CIRCLE
  8
0
  6
CONTINUOUS
 62
     7
 10
168.9368
 20
-69.59998
 40
3.25
  0
ARC
  8
0
  6
CONTINUOUS
 62
     7
 10
165.5933
 20
-86.44846
 40
9.84738
 50
251.304
 51
288.696
  0
ARC
  8
0
  6
CONTINUOUS
 62
     7
 10
172.2802
 20
-86.44846
 40
9.84738
 50
251.304
 51
288.696
  0
ARC
  8
0
  6
CONTINUOUS
 62
     7
 10
64.31197
 20
48.3002
 40
6.0
 50
73.80869
 51
106.1913
  0
ARC
  8
0
  6
CONTINUOUS
 62
     7
 10
65.76198
 20
53.29395
 40
0.8
 50
0.0
 51
73.80872
  0
ARC
  8
0
  6
CONTINUOUS
 62
     7
 10
62.86198
 20
53.29395
 40
0.8
 50
106.1913
 51
180.0
  0
ARC
  8
0
  6
CONTINUOUS
 62
     7
 10
46.31197
 20
48.3002
 40
6.0
 50
73.80865
 51
106.1913
  0
ARC
  8
0
  6
CONTINUOUS
 62
     7
 10
44.86198
 20
53.29395
 40
0.8
 50
106.1913
 51
118.0138
  0
ARC
  8
0
  6
CONTINUOUS
 62
     7
 10
47.76198
 20
53.29395
 40
0.8
 50
61.98621
 51
73.80872
  0
ARC
  8
0
  6
CONTINUOUS
 62
     7
 10
96.81197
 20
35.90021
 40
0.5
 50
270.0
 51
0.0
  0
ARC
  8
0
  6
CONTINUOUS
 62
     7
 10
96.81197
 20
49.7002
 40
0.5
 50
0.0
 51
89.99999
  0
ARC
  8
0
  6
CONTINUOUS
 62
     7
 10
94.71199
 20
42.8002
 40
5.0
 50
330.5077
 51
29.4924
  0
ARC
  8
0
  6
CONTINUOUS
 62
     7
 10
98.48381
 20
40.66687
 40
0.66667
 50
270.0
 51
330.5078
  0
ARC
  8
0
  6
CONTINUOUS
 62
     7
 10
98.48381
 20
44.93353
 40
0.66667
 50
29.49223
 51
89.99999
  0
ARC
  8
0
  6
CONTINUOUS
 62
     7
 10
95.54231
 20
66.22281
 40
3.27324
 50
62.72881
 51
122.7273
  0
ARC
  8
0
  6
CONTINUOUS
 62
     7
 10
89.91197
 20
57.19858
 40
12.29748
 50
73.28473
 51
106.7153
  0
ARC
  8
0
  6
CONTINUOUS
 62
     7
 10
84.28163
 20
66.22281
 40
3.27327
 50
57.27274
 51
117.273
  0
ARC
  8
0
  6
CONTINUOUS
 62
     7
 10
46.31197
 20
-75.09979
 40
6.0
 50
253.8087
 51
286.1913
  0
ARC
  8
0
  6
CONTINUOUS
 62
     7
 10
44.86198
 20
-80.09354
 40
0.8
 50
180.0
 51
253.8088
  0
ARC
  8
0
  6
CONTINUOUS
 62
     7
 10
47.76198
 20
-80.09354
 40
0.8
 50
286.1912
 51
0.0
  0
ARC
  8
0
  6
CONTINUOUS
 62
     7
 10
64.31197
 20
-75.09979
 40
6.0
 50
253.8086
 51
286.1913
  0
ARC
  8
0
  6
CONTINUOUS
 62
     7
 10
65.76198
 20
-80.09354
 40
0.8
 50
286.1912
 51
298.0138
  0
ARC
  8
0
  6
CONTINUOUS
 62
     7
 10
62.86198
 20
-80.09354
 40
0.8
 50
241.9862
 51
253.8088
  0
ARC
  8
0
  6
CONTINUOUS
 62
     7
 10
96.81197
 20
-62.6998
 40
0.5
 50
0.0
 51
89.99999
  0
ARC
  8
0
  6
CONTINUOUS
 62
     7
 10
96.81197
 20
-76.49979
 40
0.5
 50
270.0
 51
0.0
  0
ARC
  8
0
  6
CONTINUOUS
 62
     7
 10
96.81197
 20
-62.6998
 40
0.5
 50
0.0
 51
89.99999
  0
ARC
  8
0
  6
CONTINUOUS
 62
     7
 10
96.81197
 20
-76.49979
 40
0.5
 50
270.0
 51
0.0
  0
ARC
  8
0
  6
CONTINUOUS
 62
     7
 10
94.71199
 20
-69.59979
 40
5.0
 50
330.5076
 51
29.49228
  0
ARC
  8
0
  6
CONTINUOUS
 62
     7
 10
98.48381
 20
-67.46646
 40
0.66667
 50
29.49195
 51
89.99999
  0
ARC
  8
0
  6
CONTINUOUS
 62
     7
 10
98.48381
 20
-71.73312
 40
0.66666
 50
270.0
 51
330.5075
  0
ARC
  8
0
  6
CONTINUOUS
 62
     7
 10
95.54231
 20
-93.0224
 40
3.27325
 50
237.2725
 51
297.2711
  0
ARC
  8
0
  6
CONTINUOUS
 62
     7
 10
89.91197
 20
-83.99817
 40
12.29749
 50
253.2847
 51
286.7152
  0
ARC
  8
0
  6
CONTINUOUS
 62
     7
 10
84.28163
 20
-93.02238
 40
3.27326
 50
242.727
 51
302.7273
  0
ARC
  8
0
  6
CONTINUOUS
 62
     7
 10
294.5611
 20
48.30011
 40
6.0
 50
73.80876
 51
106.1912
  0
ARC
  8
0
  6
CONTINUOUS
 62
     7
 10
296.0111
 20
53.29385
 40
0.79999
 50
0.0
 51
73.8082
  0
ARC
  8
0
  6
CONTINUOUS
 62
     7
 10
293.1111
 20
53.29385
 40
0.8
 50
106.1918
 51
180.0
  0
ARC
  8
0
  6
CONTINUOUS
 62
     7
 10
276.5611
 20
48.30008
 40
6.0
 50
73.80876
 51
106.1912
  0
ARC
  8
0
  6
CONTINUOUS
 62
     7
 10
275.1111
 20
53.29382
 40
0.8
 50
106.1918
 51
118.0148
  0
ARC
  8
0
  6
CONTINUOUS
 62
     7
 10
278.0111
 20
53.29382
 40
0.80001
 50
61.98524
 51
73.8082
  0
ARC
  8
0
  6
CONTINUOUS
 62
     7
 10
244.0611
 20
35.90012
 40
0.5
 50
180.0
 51
270.0
  0
ARC
  8
0
  6
CONTINUOUS
 62
     7
 10
244.0611
 20
49.7001
 40
0.5
 50
89.99999
 51
180.0
  0
ARC
  8
0
  6
CONTINUOUS
 62
     7
 10
244.0611
 20
35.90012
 40
0.5
 50
180.0
 51
270.0
  0
ARC
  8
0
  6
CONTINUOUS
 62
     7
 10
244.0611
 20
49.7001
 40
0.5
 50
89.99999
 51
180.0
  0
ARC
  8
0
  6
CONTINUOUS
 62
     7
 10
246.1611
 20
42.80011
 40
5.00001
 50
150.5076
 51
209.4923
  0
ARC
  8
0
  6
CONTINUOUS
 62
     7
 10
242.3893
 20
40.66678
 40
0.66666
 50
209.4926
 51
270.0
  0
ARC
  8
0
  6
CONTINUOUS
 62
     7
 10
242.3893
 20
44.93344
 40
0.66667
 50
89.99999
 51
150.5074
  0
ARC
  8
0
  6
CONTINUOUS
 62
     7
 10
245.3308
 20
66.22269
 40
3.27324
 50
57.27263
 51
117.271
  0
ARC
  8
0
  6
CONTINUOUS
 62
     7
 10
250.9611
 20
57.19846
 40
12.29748
 50
73.2847
 51
106.7152
  0
ARC
  8
0
  6
CONTINUOUS
 62
     7
 10
256.5914
 20
66.22269
 40
3.27326
 50
62.72702
 51
122.7271
  0
ARC
  8
0
  6
CONTINUOUS
 62
     7
 10
276.5611
 20
-75.0999
 40
6.0
 50
253.8088
 51
286.1912
  0
ARC
  8
0
  6
CONTINUOUS
 62
     7
 10
275.1111
 20
-80.09364
 40
0.79999
 50
180.0
 51
253.8083
  0
ARC
  8
0
  6
CONTINUOUS
 62
     7
 10
278.0111
 20
-80.09364
 40
0.80001
 50
286.1917
 51
0.0
  0
ARC
  8
0
  6
CONTINUOUS
 62
     7
 10
294.5611
 20
-75.09988
 40
6.0
 50
253.8088
 51
286.1912
  0
ARC
  8
0
  6
CONTINUOUS
 62
     7
 10
296.0111
 20
-80.09363
 40
0.80001
 50
286.1917
 51
298.0128
  0
ARC
  8
0
  6
CONTINUOUS
 62
     7
 10
293.1111
 20
-80.09363
 40
0.80001
 50
241.9852
 51
253.8083
  0
ARC
  8
0
  6
CONTINUOUS
 62
     7
 10
244.0611
 20
-62.69989
 40
0.5
 50
89.99999
 51
180.0
  0
ARC
  8
0
  6
CONTINUOUS
 62
     7
 10
244.0611
 20
-76.49991
 40
0.5
 50
180.0
 51
270.0
  0
ARC
  8
0
  6
CONTINUOUS
 62
     7
 10
246.1611
 20
-69.5999
 40
5.00001
 50
150.5076
 51
209.4923
  0
ARC
  8
0
  6
CONTINUOUS
 62
     7
 10
242.3893
 20
-67.46657
 40
0.66666
 50
89.99999
 51
150.5077
  0
ARC
  8
0
  6
CONTINUOUS
 62
     7
 10
242.3893
 20
-71.73323
 40
0.66666
 50
209.4923
 51
270.0
  0
ARC
  8
0
  6
CONTINUOUS
 62
     7
 10
245.3308
 20
-93.02251
 40
3.27325
 50
242.7287
 51
302.7273
  0
ARC
  8
0
  6
CONTINUOUS
 62
     7
 10
250.9611
 20
-83.99826
 40
12.29748
 50
253.2847
 51
286.7152
  0
ARC
  8
0
  6
CONTINUOUS
 62
     7
 10
256.5914
 20
-93.02249
 40
3.27327
 50
237.2726
 51
297.2729
  0
ARC
  8
0
  6
CONTINUOUS
 62
     7
 10
177.437
 20
-185.1791
 40
0.5
 50
270.0
 51
0.0
  0
ARC
  8
0
  6
CONTINUOUS
 62
     7
 10
177.437
 20
-159.1791
 40
0.5
 50
0.0
 51
89.99999
  0
ARC
  8
0
  6
CONTINUOUS
 62
     7
 10
160.437
 20
-159.1791
 40
0.5
 50
89.99999
 51
180.0
  0
ARC
  8
0
  6
CONTINUOUS
 62
     7
 10
160.437
 20
-185.1791
 40
0.5
 50
180.0
 51
270.0
  0
ARC
  8
0
  6
CONTINUOUS
 62
     7
 10
173.437
 20
-163.1791
 40
3.0
 50
180.0
 51
270.0
  0
ARC
  8
0
  6
CONTINUOUS
 62
     7
 10
164.437
 20
-181.1791
 40
3.0
 50
0.0
 51
89.99999
  0
ARC
  8
0
  6
CONTINUOUS
 62
     7
 10
173.437
 20
-163.1791
 40
2.55
 50
6.75641
 51
353.2436
  0
ARC
  8
0
  6
CONTINUOUS
 62
     7
 10
164.437
 20
-181.1791
 40
2.55
 50
186.7564
 51
173.2436
  0
CIRCLE
  8
0
  6
CONTINUOUS
 62
     7
 10
173.437
 20
-163.1791
 40
2.25
  0
ARC
  8
0
  6
CONTINUOUS
 62
     7
 10
172.3339
 20
-163.1791
 40
0.51999
 50
315.0
 51
45.0
  0
ARC
  8
0
  6
CONTINUOUS
 62
     7
 10
173.437
 20
-164.2822
 40
0.51999
 50
45.0
 51
135.0
  0
ARC
  8
0
  6
CONTINUOUS
 62
     7
 10
173.437
 20
-162.076
 40
0.51999
 50
225.0
 51
315.0
  0
ARC
  8
0
  6
CONTINUOUS
 62
     7
 10
174.5401
 20
-163.1791
 40
0.51999
 50
135.0
 51
225.0
  0
CIRCLE
  8
0
  6
CONTINUOUS
 62
     7
 10
164.437
 20
-181.1791
 40
2.25
  0
ARC
  8
0
  6
CONTINUOUS
 62
     7
 10
163.3339
 20
-181.1791
 40
0.51999
 50
315.0
 51
45.0
  0
ARC
  8
0
  6
CONTINUOUS
 62
     7
 10
164.437
 20
-182.2822
 40
0.51999
 50
45.0
 51
135.0
  0
ARC
  8
0
  6
CONTINUOUS
 62
     7
 10
164.437
 20
-180.076
 40
0.51999
 50
225.0
 51
315.0
  0
ARC
  8
0
  6
CONTINUOUS
 62
     7
 10
165.5401
 20
-181.1791
 40
0.51999
 50
135.0
 51
225.0
  0
ARC
  8
0
  6
CONTINUOUS
 62
     7
 10
161.937
 20
-183.6791
 40
0.5
 50
180.0
 51
270.0
  0
ARC
  8
0
  6
CONTINUOUS
 62
     7
 10
175.937
 20
-183.6791
 40
0.5
 50
270.0
 51
0.0
  0
CIRCLE
  8
0
  6
CONTINUOUS
 62
     7
 10
168.937
 20
-137.5791
 40
7.4
  0
CIRCLE
  8
0
  6
CONTINUOUS
 62
     7
 10
168.937
 20
-137.5791
 40
3.8
  0
CIRCLE
  8
0
  6
CONTINUOUS
 62
     7
 10
168.937
 20
-137.5791
 40
5.8
  0
ARC
  8
0
  6
CONTINUOUS
 62
     7
 10
175.837
 20
-130.6791
 40
0.5
 50
0.0
 51
89.99999
  0
ARC
  8
0
  6
CONTINUOUS
 62
     7
 10
168.937
 20
-132.7791
 40
5.0
 50
60.50772
 51
119.4923
  0
ARC
  8
0
  6
CONTINUOUS
 62
     7
 10
166.8036
 20
-129.0073
 40
0.66666
 50
119.4923
 51
180.0
  0
ARC
  8
0
  6
CONTINUOUS
 62
     7
 10
171.0703
 20
-129.0073
 40
0.66667
 50
0.0
 51
60.50773
  0
ARC
  8
0
  6
CONTINUOUS
 62
     7
 10
162.037
 20
-130.6791
 40
0.5
 50
89.99999
 51
180.0
  0
TEXT
  8
0
  6
CONTINUOUS
 62
     7
 10
-350.9787
 20
200.5946
 40
8.5
  1
MODEL : 180-4E2-39
 41
0.8
  7
STANDARD
  0
TEXT
  8
0
  6
CONTINUOUS
 62
     7
 10
229.0661
 20
236.2625
 40
8.5
  1
DATE : NOV ,1989
 41
0.8
  7
STANDARD
  0
TEXT
  8
0
  6
CONTINUOUS
 62
     7
 10
-366.8907
 20
235.5575
 40
10.0
  1
180 CONNECTOR,-39
 41
0.69402
  7
STANDARD
  0
TEXT
  8
0
  6
CONTINUOUS
 62
     7
 10
19.88928
 20
200.5946
 40
8.5
  1
MODEL : A180-4E2-39
 41
0.8
  7
STANDARD
  0
TEXT
  8
0
  6
CONTINUOUS
 62
     7
 10
-304.8928
 20
-33.33987
 40
2.0
  1
R2
 41
0.8
  7
STANDARD
  0
TEXT
  8
0
  6
CONTINUOUS
 62
     7
 10
-302.8928
 20
-20.33987
 40
2.0
  1
P
 41
0.8
  7
STANDARD
  0
TEXT
  8
0
  6
CONTINUOUS
 62
     7
 10
-312.8928
 20
4.66013
 40
2.0
  1
R1
 41
0.8
  7
STANDARD
  0
TEXT
  8
0
  6
CONTINUOUS
 62
     7
 10
-39.14364
 20
-28.3399
 40
2.0
  1
B
 41
0.8
  7
STANDARD
  0
TEXT
  8
0
  6
CONTINUOUS
 62
     7
 10
-49.08935
 20
-0.3399
 40
2.0
  1
A
 41
0.8
  7
STANDARD
  0
ENDSEC
  0
EOF
