  0
SECTION
  2
HEADER
  9
$ACADVER
  1
AC1002
  9
$INSBASE
 10
0.0
 20
0.0
  9
$EXTMIN
 10
-370.8736
 20
-254.5585
  9
$EXTMAX
 10
370.8736
 20
254.5585
  9
$LIMMIN
 10
0.0
 20
0.0
  9
$LIMMAX
 10
12.0
 20
9.0
  9
$VIEWCTR
 10
28.6093211
 20
0.0
  9
$VIEWSIZE
 40
509.117
  9
$SNAPMODE
 70
     0
  9
$SNAPUNIT
 10
1.0
 20
1.0
  9
$SNAPBASE
 10
0.0
 20
0.0
  9
$SNAPANG
 50
0.0
  9
$SNAPSTYLE
 70
     0
  9
$SNAPISOPAIR
 70
     0
  9
$GRIDMODE
 70
     0
  9
$GRIDUNIT
 10
0.0
 20
0.0
  9
$ORTHOMODE
 70
     0
  9
$REGENMODE
 70
     1
  9
$FILLMODE
 70
     1
  9
$QTEXTMODE
 70
     0
  9
$DRAGMODE
 70
     2
  9
$LTSCALE
 40
1.0
  9
$OSMODE
 70
     0
  9
$ATTMODE
 70
     1
  9
$TEXTSIZE
 40
0.2
  9
$TRACEWID
 40
0.05
  9
$TEXTSTYLE
  7
AAA
  9
$CLAYER
  8
0
  9
$CELTYPE
  6
BYLAYER
  9
$CECOLOR
 62
   256
  9
$DIMSCALE
 40
1.0
  9
$DIMASZ
 40
0.18
  9
$DIMEXO
 40
0.0625
  9
$DIMDLI
 40
0.38
  9
$DIMRND
 40
0.0
  9
$DIMDLE
 40
0.0
  9
$DIMEXE
 40
0.18
  9
$DIMTP
 40
0.0
  9
$DIMTM
 40
0.0
  9
$DIMTXT
 40
0.18
  9
$DIMCEN
 40
0.09
  9
$DIMTSZ
 40
0.0
  9
$DIMTOL
 70
     0
  9
$DIMLIM
 70
     0
  9
$DIMTIH
 70
     1
  9
$DIMTOH
 70
     1
  9
$DIMSE1
 70
     0
  9
$DIMSE2
 70
     0
  9
$DIMTAD
 70
     0
  9
$DIMZIN
 70
     0
  9
$DIMBLK
  1

  9
$LUNITS
 70
     2
  9
$LUPREC
 70
     4
  9
$AXISMODE
 70
     0
  9
$AXISUNIT
 10
0.0
 20
0.0
  9
$SKETCHINC
 40
0.1
  9
$FILLETRAD
 40
0.0
  9
$AUNITS
 70
     0
  9
$AUPREC
 70
     0
  9
$MENU
  1
ACAD
  9
$ELEVATION
 40
0.0
  9
$THICKNESS
 40
0.0
  9
$VIEWDIR
 10
0.0
 20
0.0
 30
1.0
  9
$LIMCHECK
 70
     0
  9
$BLIPMODE
 70
     1
  9
$CHAMFERA
 40
0.0
  9
$CHAMFERB
 40
0.0
  9
$FASTZOOM
 70
     1
  9
$SKPOLY
 70
     0
  9
$TDCREATE
 40
2447881.8123958827
  9
$TDUPDATE
 40
2447881.8123958827
  9
$TDINDWG
 40
0.0064583333
  9
$TDUSRTIMER
 40
0.0064583333
  9
$USRTIMER
 70
     1
  9
$ANGBASE
 50
0.0
  9
$ANGDIR
 70
     0
  9
$PDMODE
 70
     0
  9
$PDSIZE
 40
0.0
  9
$PLINEWID
 40
0.0
  9
$COORDS
 70
     0
  9
$USERI1
 70
     0
  9
$USERI2
 70
     0
  9
$USERI3
 70
     0
  9
$USERI4
 70
     0
  9
$USERI5
 70
     0
  9
$USERR1
 40
0.0
  9
$USERR2
 40
0.0
  9
$USERR3
 40
0.0
  9
$USERR4
 40
0.0
  9
$USERR5
 40
0.0
  0
ENDSEC
  0
SECTION
  2
TABLES
  0
TABLE
  2
LTYPE
 70
     3
  0
LTYPE
  2
CONTINUOUS
 70
    64
  3
SOLID
 72
    65
 73
     0
 40
0.0
  0
LTYPE
  2
CENTER
 70
    64
  3
CENTER
 72
    65
 73
     4
 40
2.0
 49
1.25
 49
-0.25
 49
0.25
 49
-0.25
  0
LTYPE
  2
PHANTOM
 70
    64
  3
PHANTOM
 72
    65
 73
     6
 40
2.5
 49
1.25
 49
-0.25
 49
0.25
 49
-0.25
 49
0.25
 49
-0.25
  0
ENDTAB
  0
TABLE
  2
LAYER
 70
     1
  0
LAYER
  2
0
 70
    64
 62
     7
  6
CONTINUOUS
  0
ENDTAB
  0
TABLE
  2
STYLE
 70
     2
  0
STYLE
  2
AAA
 70
     0
 40
0.0
 41
1.0
 50
0.0
 71
     0
 42
0.2
  3
TXT
  4

  0
STYLE
  2
STANDARD
 70
    64
 40
0.0
 41
1.0
 50
0.0
 71
     0
 42
0.2
  3
TXT
  4
BIGFONT
  0
ENDTAB
  0
TABLE
  2
VIEW
 70
     0
  0
ENDTAB
  0
ENDSEC
  0
SECTION
  2
BLOCKS
  0
ENDSEC
  0
SECTION
  2
ENTITIES
  0
POINT
  8
0
  6
CONTINUOUS
 62
     7
 10
-298.0613
 20
0.00017
  0
POINT
  8
0
  6
CONTINUOUS
 62
     7
 10
-313.5613
 20
0.00017
  0
POINT
  8
0
  6
CONTINUOUS
 62
     7
 10
-312.0613
 20
-44.39983
  0
POINT
  8
0
  6
CONTINUOUS
 62
     7
 10
-307.5613
 20
-28.19983
  0
POINT
  8
0
  6
CONTINUOUS
 62
     7
 10
-307.0613
 20
-14.99983
  0
POINT
  8
0
  6
CONTINUOUS
 62
     7
 10
-306.5613
 20
-1.79984
  0
POINT
  8
0
  6
CONTINUOUS
 62
     7
 10
-195.4368
 20
0.0
  0
POINT
  8
0
  6
CONTINUOUS
 62
     7
 10
-168.4368
 20
0.0
  0
POINT
  8
0
  6
CONTINUOUS
 62
     7
 10
-168.4368
 20
20.7
  0
POINT
  8
0
  6
CONTINUOUS
 62
     7
 10
-172.4368
 20
-44.39999
  0
POINT
  8
0
  6
CONTINUOUS
 62
     7
 10
-168.4367
 20
148.6775
  0
POINT
  8
0
  6
CONTINUOUS
 62
     7
 10
-195.4367
 20
148.6775
  0
POINT
  8
0
  6
CONTINUOUS
 62
     7
 10
-172.4367
 20
147.1775
  0
POINT
  8
0
  6
CONTINUOUS
 62
     7
 10
-36.3123
 20
0.00005
  0
POINT
  8
0
  6
CONTINUOUS
 62
     7
 10
-47.8123
 20
-44.39995
  0
POINT
  8
0
  6
CONTINUOUS
 62
     7
 10
-43.3123
 20
-22.99995
  0
POINT
  8
0
  6
CONTINUOUS
 62
     7
 10
-42.3123
 20
-6.99995
  0
POINT
  8
0
  6
CONTINUOUS
 62
     7
 10
-42.8123
 20
20.70006
  0
POINT
  8
0
  6
CONTINUOUS
 62
     7
 10
-168.4368
 20
-187.279
  0
POINT
  8
0
  6
CONTINUOUS
 62
     7
 10
-195.4368
 20
-187.279
  0
POINT
  8
0
  6
CONTINUOUS
 62
     7
 10
-172.4368
 20
-185.779
  0
POINT
  8
0
  6
CONTINUOUS
 62
     7
 10
68.81204
 20
0.00021
  0
POINT
  8
0
  6
CONTINUOUS
 62
     7
 10
41.81204
 20
0.00021
  0
POINT
  8
0
  6
CONTINUOUS
 62
     7
 10
68.812
 20
20.70021
  0
POINT
  8
0
  6
CONTINUOUS
 62
     7
 10
175.4372
 20
148.6773
  0
POINT
  8
0
  6
CONTINUOUS
 62
     7
 10
175.4368
 20
0.0
  0
POINT
  8
0
  6
CONTINUOUS
 62
     7
 10
168.9368
 20
20.7
  0
POINT
  8
0
  6
CONTINUOUS
 62
     7
 10
299.0612
 20
0.00012
  0
POINT
  8
0
  6
CONTINUOUS
 62
     7
 10
272.0612
 20
20.70012
  0
POINT
  8
0
  6
CONTINUOUS
 62
     7
 10
175.437
 20
-187.2791
  0
LINE
  8
0
  6
CONTINUOUS
 62
     7
 10
218.3292
 20
-225.9564
 11
370.8736
 21
-225.9564
  0
LINE
  8
0
  6
CONTINUOUS
 62
     7
 10
-218.3292
 20
225.9564
 11
-218.3292
 21
254.5585
  0
LINE
  8
0
  6
CONTINUOUS
 62
     7
 10
-370.8736
 20
225.9564
 11
-218.3292
 21
225.9564
  0
LINE
  8
0
  6
CONTINUOUS
 62
     7
 10
-370.8736
 20
254.5585
 11
370.8736
 21
254.5585
  0
LINE
  8
0
  6
CONTINUOUS
 62
     7
 10
-370.8736
 20
-254.5585
 11
370.8736
 21
-254.5585
  0
LINE
  8
0
  6
CONTINUOUS
 62
     7
 10
370.8736
 20
254.5585
 11
370.8736
 21
-254.5585
  0
LINE
  8
0
  6
CONTINUOUS
 62
     7
 10
-370.8736
 20
-254.5585
 11
-370.8736
 21
254.5585
  0
LINE
  8
0
  6
CONTINUOUS
 62
     7
 10
218.3292
 20
-225.9564
 11
218.3292
 21
-254.5585
  0
LINE
  8
0
  6
CONTINUOUS
 62
     7
 10
218.3292
 20
254.5585
 11
218.3292
 21
225.9564
  0
LINE
  8
0
  6
CONTINUOUS
 62
     7
 10
218.3292
 20
225.9564
 11
370.8736
 21
225.9564
  0
LINE
  8
0
  6
CONTINUOUS
 62
     7
 10
258.3816
 20
-232.8337
 11
258.3816
 21
-236.1516
  0
LINE
  8
0
  6
CONTINUOUS
 62
     7
 10
258.3816
 20
-236.1516
 11
270.8235
 21
-236.1516
  0
LINE
  8
0
  6
CONTINUOUS
 62
     7
 10
258.3816
 20
-249.1465
 11
275.2473
 21
-249.1465
  0
LINE
  8
0
  6
CONTINUOUS
 62
     7
 10
258.3816
 20
-245.8286
 11
270.8235
 21
-245.8286
  0
LINE
  8
0
  6
CONTINUOUS
 62
     7
 10
258.3816
 20
-232.8337
 11
273.0354
 21
-232.8337
  0
LINE
  8
0
  6
CONTINUOUS
 62
     7
 10
270.8235
 20
-236.1516
 11
270.8235
 21
-245.8286
  0
LINE
  8
0
  6
CONTINUOUS
 62
     7
 10
275.2473
 20
-235.0457
 11
275.2473
 21
-249.1465
  0
LINE
  8
0
  6
CONTINUOUS
 62
     7
 10
258.3816
 20
-245.8286
 11
258.3816
 21
-249.1465
  0
LINE
  8
0
  6
CONTINUOUS
 62
     7
 10
293.4954
 20
-236.1516
 11
293.4954
 21
-246.9346
  0
LINE
  8
0
  6
CONTINUOUS
 62
     7
 10
277.7357
 20
-232.8337
 11
277.7357
 21
-236.1516
  0
LINE
  8
0
  6
CONTINUOUS
 62
     7
 10
293.9378
 20
-232.585
 11
295.5138
 21
-232.585
  0
LINE
  8
0
  6
CONTINUOUS
 62
     7
 10
293.9378
 20
-230.373
 11
295.5138
 21
-230.373
  0
LINE
  8
0
  6
CONTINUOUS
 62
     7
 10
295.5138
 20
-230.373
 11
295.5138
 21
-232.585
  0
LINE
  8
0
  6
CONTINUOUS
 62
     7
 10
293.9378
 20
-230.373
 11
293.9378
 21
-232.585
  0
LINE
  8
0
  6
CONTINUOUS
 62
     7
 10
293.1083
 20
-230.373
 11
293.1083
 21
-232.585
  0
LINE
  8
0
  6
CONTINUOUS
 62
     7
 10
282.7661
 20
-230.373
 11
286.2009
 21
-230.373
  0
LINE
  8
0
  6
CONTINUOUS
 62
     7
 10
285.5413
 20
-232.8335
 11
286.2006
 21
-230.3727
  0
LINE
  8
0
  6
CONTINUOUS
 62
     7
 10
282.1067
 20
-232.8337
 11
282.766
 21
-230.373
  0
LINE
  8
0
  6
CONTINUOUS
 62
     7
 10
285.5416
 20
-232.8337
 11
290.1776
 21
-232.8337
  0
LINE
  8
0
  6
CONTINUOUS
 62
     7
 10
284.6526
 20
-236.1516
 11
289.0716
 21
-236.1516
  0
LINE
  8
0
  6
CONTINUOUS
 62
     7
 10
286.6429
 20
-249.1465
 11
291.2836
 21
-249.1465
  0
LINE
  8
0
  6
CONTINUOUS
 62
     7
 10
285.7537
 20
-245.8286
 11
286.6427
 21
-249.1463
  0
LINE
  8
0
  6
CONTINUOUS
 62
     7
 10
285.7538
 20
-245.8286
 11
289.0716
 21
-245.8286
  0
LINE
  8
0
  6
CONTINUOUS
 62
     7
 10
281.1707
 20
-249.1466
 11
284.6527
 21
-236.1517
  0
LINE
  8
0
  6
CONTINUOUS
 62
     7
 10
277.7357
 20
-236.1516
 11
281.2177
 21
-236.1516
  0
LINE
  8
0
  6
CONTINUOUS
 62
     7
 10
277.7354
 20
-249.1462
 11
281.2175
 21
-236.1513
  0
LINE
  8
0
  6
CONTINUOUS
 62
     7
 10
277.7357
 20
-249.1465
 11
281.1706
 21
-249.1465
  0
LINE
  8
0
  6
CONTINUOUS
 62
     7
 10
277.7357
 20
-232.8337
 11
282.1067
 21
-232.8337
  0
LINE
  8
0
  6
CONTINUOUS
 62
     7
 10
289.0716
 20
-236.1516
 11
289.0716
 21
-245.8286
  0
LINE
  8
0
  6
CONTINUOUS
 62
     7
 10
291.5323
 20
-230.373
 11
293.1083
 21
-230.373
  0
LINE
  8
0
  6
CONTINUOUS
 62
     7
 10
291.5323
 20
-232.585
 11
293.1083
 21
-232.585
  0
LINE
  8
0
  6
CONTINUOUS
 62
     7
 10
291.5323
 20
-230.373
 11
291.5323
 21
-232.585
  0
LINE
  8
0
  6
CONTINUOUS
 62
     7
 10
301.5135
 20
-230.373
 11
305.9373
 21
-230.373
  0
LINE
  8
0
  6
CONTINUOUS
 62
     7
 10
308.3423
 20
-240.1951
 11
311.2962
 21
-238.8176
  0
LINE
  8
0
  6
CONTINUOUS
 62
     7
 10
305.9373
 20
-242.7344
 11
305.9373
 21
-249.1465
  0
LINE
  8
0
  6
CONTINUOUS
 62
     7
 10
301.5135
 20
-243.379
 11
301.5135
 21
-249.1465
  0
LINE
  8
0
  6
CONTINUOUS
 62
     7
 10
305.9373
 20
-232.8337
 11
310.3611
 21
-232.8337
  0
LINE
  8
0
  6
CONTINUOUS
 62
     7
 10
305.9373
 20
-230.373
 11
305.9373
 21
-232.8337
  0
LINE
  8
0
  6
CONTINUOUS
 62
     7
 10
301.5135
 20
-230.373
 11
301.5135
 21
-232.8337
  0
LINE
  8
0
  6
CONTINUOUS
 62
     7
 10
312.573
 20
-235.0457
 11
312.573
 21
-236.8128
  0
LINE
  8
0
  6
CONTINUOUS
 62
     7
 10
308.3424
 20
-240.195
 11
312.5734
 21
-242.168
  0
LINE
  8
0
  6
CONTINUOUS
 62
     7
 10
305.9373
 20
-242.7343
 11
312.5731
 21
-245.8286
  0
LINE
  8
0
  6
CONTINUOUS
 62
     7
 10
296.2603
 20
-242.1678
 11
296.2603
 21
-245.8286
  0
LINE
  8
0
  6
CONTINUOUS
 62
     7
 10
296.2607
 20
-242.1682
 11
309.1626
 21
-236.1519
  0
LINE
  8
0
  6
CONTINUOUS
 62
     7
 10
296.2603
 20
-245.8286
 11
301.5136
 21
-243.3789
  0
LINE
  8
0
  6
CONTINUOUS
 62
     7
 10
312.573
 20
-242.1678
 11
312.573
 21
-245.8286
  0
LINE
  8
0
  6
CONTINUOUS
 62
     7
 10
296.2603
 20
-232.8337
 11
296.2603
 21
-236.1516
  0
LINE
  8
0
  6
CONTINUOUS
 62
     7
 10
301.5135
 20
-249.1465
 11
305.9373
 21
-249.1465
  0
LINE
  8
0
  6
CONTINUOUS
 62
     7
 10
296.2603
 20
-236.1516
 11
309.1621
 21
-236.1516
  0
LINE
  8
0
  6
CONTINUOUS
 62
     7
 10
296.2603
 20
-232.8337
 11
301.5135
 21
-232.8337
  0
LINE
  8
0
  6
CONTINUOUS
 62
     7
 10
327.504
 20
-236.4047
 11
328.73
 21
-235.9171
  0
LINE
  8
0
  6
CONTINUOUS
 62
     7
 10
327.5034
 20
-236.4044
 11
327.5034
 21
-249.1465
  0
LINE
  8
0
  6
CONTINUOUS
 62
     7
 10
323.0795
 20
-249.1465
 11
327.5034
 21
-249.1465
  0
LINE
  8
0
  6
CONTINUOUS
 62
     7
 10
313.9553
 20
-241.7925
 11
323.0794
 21
-238.1637
  0
LINE
  8
0
  6
CONTINUOUS
 62
     7
 10
313.9555
 20
-238.222
 11
326.8062
 21
-233.1111
  0
LINE
  8
0
  6
CONTINUOUS
 62
     7
 10
323.0795
 20
-238.1638
 11
323.0795
 21
-249.1465
  0
LINE
  8
0
  6
CONTINUOUS
 62
     7
 10
327.5034
 20
-231.3684
 11
327.5034
 21
-232.0834
  0
LINE
  8
0
  6
CONTINUOUS
 62
     7
 10
330.8211
 20
-231.3684
 11
330.8211
 21
-232.8338
  0
LINE
  8
0
  6
CONTINUOUS
 62
     7
 10
313.9554
 20
-238.2219
 11
313.9554
 21
-241.7925
  0
LINE
  8
0
  6
CONTINUOUS
 62
     7
 10
327.5034
 20
-231.3684
 11
330.8211
 21
-231.3684
  0
LINE
  8
0
  6
CONTINUOUS
 62
     7
 10
0.0
 20
254.5585
 11
0.0
 21
-254.5585
  0
LINE
  8
0
  6
CENTER
 62
     2
 10
-181.9368
 20
58.66667
 11
-181.9368
 21
-47.75
  0
LINE
  8
0
  6
CONTINUOUS
 62
     7
 10
-168.4368
 20
23.2
 11
-168.4368
 21
-43.89999
  0
LINE
  8
0
  6
CONTINUOUS
 62
     7
 10
-195.4368
 20
23.2
 11
-195.4368
 21
-43.89999
  0
LINE
  8
0
  6
CONTINUOUS
 62
     7
 10
-194.9368
 20
-44.39999
 11
-168.9368
 21
-44.39999
  0
LINE
  8
0
  6
CONTINUOUS
 62
     7
 10
-195.4368
 20
-36.0
 11
-168.4368
 21
-36.0
  0
LINE
  8
0
  6
CONTINUOUS
 62
     7
 10
-195.4368
 20
6.00002
 11
-168.4368
 21
6.00002
  0
LINE
  8
0
  6
CONTINUOUS
 62
     7
 10
-194.4368
 20
24.19996
 11
-195.4368
 21
23.19996
  0
LINE
  8
0
  6
CONTINUOUS
 62
     7
 10
-169.4368
 20
24.19999
 11
-168.4368
 21
23.19999
  0
LINE
  8
0
  6
CONTINUOUS
 62
     7
 10
-171.4368
 20
-28.34169
 11
-168.4368
 21
-28.34169
  0
LINE
  8
0
  6
CONTINUOUS
 62
     7
 10
-171.4368
 20
-31.65831
 11
-168.4368
 21
-31.65831
  0
LINE
  8
0
  6
CONTINUOUS
 62
     7
 10
-171.4368
 20
-28.34169
 11
-171.4368
 21
-31.65831
  0
LINE
  8
0
  6
CONTINUOUS
 62
     7
 10
-194.4368
 20
24.2
 11
-150.4368
 21
24.2
  0
LINE
  8
0
  6
CENTER
 62
     2
 10
-171.4368
 20
-40.12471
 11
-171.4368
 21
-45.57222
  0
LINE
  8
0
  6
CONTINUOUS
 62
     7
 10
-174.1368
 20
-41.0
 11
-168.9368
 21
-41.0
  0
LINE
  8
0
  6
CONTINUOUS
 62
     7
 10
-174.6368
 20
-41.5
 11
-174.6368
 21
-43.89999
  0
LINE
  8
0
  6
CONTINUOUS
 62
     7
 10
-174.2368
 20
-42.17181
 11
-174.2368
 21
-40.99998
  0
LINE
  8
0
  6
CONTINUOUS
 62
     7
 10
-168.6368
 20
-42.17183
 11
-168.6368
 21
-41.00002
  0
LINE
  8
0
  6
CONTINUOUS
 62
     7
 10
-195.4368
 20
23.2
 11
-168.4368
 21
23.2
  0
LINE
  8
0
  6
CENTER
 62
     2
 10
-177.4368
 20
-30.0
 11
-167.4086
 21
-30.0
  0
LINE
  8
0
  6
CENTER
 62
     2
 10
-177.4368
 20
0.0
 11
-171.1034
 21
0.0
  0
LINE
  8
0
  6
CENTER
 62
     2
 10
-174.4368
 20
3.53334
 11
-174.4368
 21
-3.13333
  0
LINE
  8
0
  6
CENTER
 62
     2
 10
-174.4368
 20
-26.46666
 11
-174.4368
 21
-33.46666
  0
LINE
  8
0
  6
CONTINUOUS
 62
     7
 10
-193.9368
 20
49.40001
 11
-168.9368
 21
49.40001
  0
LINE
  8
0
  6
CONTINUOUS
 62
     7
 10
-193.9368
 20
54.90001
 11
-193.9368
 21
24.2
  0
LINE
  8
0
  6
CONTINUOUS
 62
     7
 10
-169.9368
 20
49.40001
 11
-169.9368
 21
24.2
  0
LINE
  8
0
  6
CONTINUOUS
 62
     7
 10
-175.6368
 20
50.40001
 11
-170.2368
 21
50.40001
  0
LINE
  8
0
  6
CENTER
 62
     2
 10
-172.9368
 20
57.90001
 11
-172.9368
 21
46.40001
  0
LINE
  8
0
  6
CONTINUOUS
 62
     7
 10
-170.3868
 20
51.00002
 11
-175.4868
 21
51.00002
  0
LINE
  8
0
  6
CONTINUOUS
 62
     7
 10
-173.2368
 20
50.39999
 11
-173.3976
 21
51.0
  0
LINE
  8
0
  6
CONTINUOUS
 62
     7
 10
-172.6367
 20
51.0
 11
-172.4759
 21
50.40001
  0
LINE
  8
0
  6
CONTINUOUS
 62
     7
 10
-170.3868
 20
51.00002
 11
-170.3868
 21
50.40001
  0
LINE
  8
0
  6
CONTINUOUS
 62
     7
 10
-175.4868
 20
51.00002
 11
-175.4868
 21
50.40001
  0
LINE
  8
0
  6
CONTINUOUS
 62
     7
 10
-170.6868
 20
51.69374
 11
-170.6868
 21
51.00002
  0
LINE
  8
0
  6
CONTINUOUS
 62
     7
 10
-175.1868
 20
51.69374
 11
-175.1868
 21
51.00002
  0
LINE
  8
0
  6
CENTER
 62
     2
 10
-190.9368
 20
57.90001
 11
-190.9368
 21
46.40001
  0
LINE
  8
0
  6
CONTINUOUS
 62
     7
 10
-149.9368
 20
54.2
 11
-149.9368
 21
24.7
  0
LINE
  8
0
  6
CONTINUOUS
 62
     7
 10
-169.9368
 20
49.2
 11
-168.9368
 21
49.2
  0
LINE
  8
0
  6
CONTINUOUS
 62
     7
 10
-168.9368
 20
49.2
 11
-168.9368
 21
56.7
  0
LINE
  8
0
  6
CONTINUOUS
 62
     7
 10
-193.9368
 20
54.90001
 11
-168.9368
 21
54.90001
  0
LINE
  8
0
  6
CONTINUOUS
 62
     7
 10
-175.6368
 20
54.90001
 11
-175.6368
 21
50.40001
  0
LINE
  8
0
  6
CONTINUOUS
 62
     7
 10
-170.2368
 20
54.90001
 11
-170.2368
 21
50.40001
  0
LINE
  8
0
  6
CENTER
 62
     2
 10
-166.9368
 20
79.7
 11
-166.9368
 21
51.7
  0
LINE
  8
0
  6
CONTINUOUS
 62
     7
 10
-166.0868
 20
66.7
 11
-166.0868
 21
62.2487
  0
LINE
  8
0
  6
CONTINUOUS
 62
     7
 10
-167.7868
 20
66.7
 11
-167.7868
 21
62.70421
  0
LINE
  8
0
  6
CONTINUOUS
 62
     7
 10
-167.2568
 20
76.7
 11
-167.2568
 21
66.7
  0
LINE
  8
0
  6
CONTINUOUS
 62
     7
 10
-166.6168
 20
76.7
 11
-166.6168
 21
66.7
  0
LINE
  8
0
  6
CONTINUOUS
 62
     7
 10
-167.7868
 20
66.7
 11
-166.0868
 21
66.7
  0
LINE
  8
0
  6
CONTINUOUS
 62
     7
 10
-167.2568
 20
76.7
 11
-166.6168
 21
76.7
  0
LINE
  8
0
  6
PHANTOM
 62
     2
 10
-169.7868
 20
61.68716
 11
-164.0867
 21
60.15985
  0
LINE
  8
0
  6
PHANTOM
 62
     2
 10
-169.7868
 20
63.24007
 11
-164.0868
 21
61.71276
  0
LINE
  8
0
  6
CONTINUOUS
 62
     7
 10
-167.7868
 20
61.15129
 11
-167.7868
 21
56.7
  0
LINE
  8
0
  6
CONTINUOUS
 62
     7
 10
-166.0868
 20
60.69579
 11
-166.0868
 21
56.7
  0
LINE
  8
0
  6
CONTINUOUS
 62
     7
 10
-168.9368
 20
54.7
 11
-150.4368
 21
54.7
  0
LINE
  8
0
  6
CONTINUOUS
 62
     7
 10
-163.9368
 20
54.7
 11
-163.9368
 21
56.2
  0
LINE
  8
0
  6
CONTINUOUS
 62
     7
 10
-168.9368
 20
56.7
 11
-164.4368
 21
56.7
  0
LINE
  8
0
  6
CONTINUOUS
 62
     7
 10
-169.4367
 20
134.6775
 11
-169.4367
 21
134.1775
  0
LINE
  8
0
  6
CONTINUOUS
 62
     7
 10
-168.4367
 20
149.6775
 11
-168.4367
 21
150.6775
  0
LINE
  8
0
  6
CENTER
 62
     2
 10
-197.833
 20
142.1775
 11
-147.4939
 21
142.1775
  0
LINE
  8
0
  6
CONTINUOUS
 62
     7
 10
-194.9367
 20
151.1775
 11
-168.9367
 21
151.1775
  0
LINE
  8
0
  6
CONTINUOUS
 62
     7
 10
-194.9367
 20
133.1775
 11
-168.9367
 21
133.1775
  0
LINE
  8
0
  6
CONTINUOUS
 62
     7
 10
-168.4367
 20
133.6775
 11
-168.4367
 21
134.6775
  0
LINE
  8
0
  6
CONTINUOUS
 62
     7
 10
-195.4367
 20
133.6775
 11
-195.4367
 21
150.6775
  0
LINE
  8
0
  6
CENTER
 62
     2
 10
-181.9367
 20
130.4275
 11
-181.9367
 21
154.405
  0
LINE
  8
0
  6
CONTINUOUS
 62
     7
 10
-194.4367
 20
150.1775
 11
-169.4367
 21
150.1775
  0
LINE
  8
0
  6
CONTINUOUS
 62
     7
 10
-194.4367
 20
134.1775
 11
-169.4367
 21
134.1775
  0
LINE
  8
0
  6
CONTINUOUS
 62
     7
 10
-194.4367
 20
150.1775
 11
-194.4367
 21
134.1775
  0
LINE
  8
0
  6
CONTINUOUS
 62
     7
 10
-169.4367
 20
150.1775
 11
-169.4367
 21
149.6775
  0
LINE
  8
0
  6
CONTINUOUS
 62
     7
 10
-169.4368
 20
134.1774
 11
-168.5833
 21
133.3238
  0
LINE
  8
0
  6
CONTINUOUS
 62
     7
 10
-194.4368
 20
134.1775
 11
-195.2903
 21
133.3239
  0
LINE
  8
0
  6
CONTINUOUS
 62
     7
 10
-169.4367
 20
150.1776
 11
-168.5831
 21
151.0311
  0
LINE
  8
0
  6
CONTINUOUS
 62
     7
 10
-194.4367
 20
150.1776
 11
-195.2902
 21
151.0311
  0
LINE
  8
0
  6
CONTINUOUS
 62
     7
 10
-169.9367
 20
149.6775
 11
-169.9367
 21
134.6775
  0
LINE
  8
0
  6
CONTINUOUS
 62
     7
 10
-172.6367
 20
135.4476
 11
-172.6367
 21
135.1452
  0
LINE
  8
0
  6
CONTINUOUS
 62
     7
 10
-173.2367
 20
135.4476
 11
-173.2367
 21
135.1452
  0
LINE
  8
0
  6
CONTINUOUS
 62
     7
 10
-173.3975
 20
135.1695
 11
-173.3975
 21
135.4752
  0
LINE
  8
0
  6
CONTINUOUS
 62
     7
 10
-191.2367
 20
148.9075
 11
-191.2367
 21
149.2098
  0
LINE
  8
0
  6
CONTINUOUS
 62
     7
 10
-190.6367
 20
148.9075
 11
-190.6367
 21
149.2098
  0
LINE
  8
0
  6
CONTINUOUS
 62
     7
 10
-190.4759
 20
149.1856
 11
-190.4759
 21
148.8798
  0
LINE
  8
0
  6
CONTINUOUS
 62
     7
 10
-174.0398
 20
136.9422
 11
-173.6721
 21
137.3099
  0
LINE
  8
0
  6
CONTINUOUS
 62
     7
 10
-173.6721
 20
136.5745
 11
-173.3044
 21
136.9422
  0
LINE
  8
0
  6
CONTINUOUS
 62
     7
 10
-174.0398
 20
136.9422
 11
-173.6721
 21
136.5745
  0
LINE
  8
0
  6
CONTINUOUS
 62
     7
 10
-172.2013
 20
138.7807
 11
-171.8336
 21
138.413
  0
LINE
  8
0
  6
CONTINUOUS
 62
     7
 10
-174.7009
 20
139.0741
 11
-173.6721
 21
138.0453
  0
LINE
  8
0
  6
CONTINUOUS
 62
     7
 10
-174.3332
 20
139.4418
 11
-173.3044
 21
138.413
  0
LINE
  8
0
  6
CONTINUOUS
 62
     7
 10
-172.569
 20
138.4129
 11
-172.2013
 21
138.7807
  0
LINE
  8
0
  6
CONTINUOUS
 62
     7
 10
-172.2013
 20
138.0453
 11
-171.8336
 21
138.413
  0
LINE
  8
0
  6
CONTINUOUS
 62
     7
 10
-172.569
 20
136.9422
 11
-171.5402
 21
135.9134
  0
LINE
  8
0
  6
CONTINUOUS
 62
     7
 10
-172.2013
 20
137.3099
 11
-171.1725
 21
136.2811
  0
LINE
  8
0
  6
CONTINUOUS
 62
     7
 10
-192.0398
 20
145.9422
 11
-191.6721
 21
146.3099
  0
LINE
  8
0
  6
CONTINUOUS
 62
     7
 10
-191.6721
 20
145.5745
 11
-191.3044
 21
145.9422
  0
LINE
  8
0
  6
CONTINUOUS
 62
     7
 10
-192.0398
 20
145.9422
 11
-191.6721
 21
145.5745
  0
LINE
  8
0
  6
CONTINUOUS
 62
     7
 10
-190.2013
 20
147.7807
 11
-189.8336
 21
147.413
  0
LINE
  8
0
  6
CONTINUOUS
 62
     7
 10
-192.7009
 20
148.0741
 11
-191.6721
 21
147.0453
  0
LINE
  8
0
  6
CONTINUOUS
 62
     7
 10
-192.3332
 20
148.4418
 11
-191.3044
 21
147.413
  0
LINE
  8
0
  6
CONTINUOUS
 62
     7
 10
-190.569
 20
147.413
 11
-190.2014
 21
147.7807
  0
LINE
  8
0
  6
CONTINUOUS
 62
     7
 10
-190.2013
 20
147.0453
 11
-189.8337
 21
147.413
  0
LINE
  8
0
  6
CONTINUOUS
 62
     7
 10
-190.569
 20
145.9422
 11
-189.5402
 21
144.9134
  0
LINE
  8
0
  6
CONTINUOUS
 62
     7
 10
-190.2013
 20
146.3099
 11
-189.1725
 21
145.2811
  0
LINE
  8
0
  6
CENTER
 62
     2
 10
-172.9367
 20
141.6775
 11
-172.9367
 21
133.6775
  0
LINE
  8
0
  6
CENTER
 62
     2
 10
-190.9367
 20
150.6775
 11
-190.9367
 21
142.6775
  0
LINE
  8
0
  6
CENTER
 62
     2
 10
-194.9367
 20
146.6775
 11
-186.9367
 21
146.6775
  0
LINE
  8
0
  6
CENTER
 62
     2
 10
-176.9367
 20
137.6775
 11
-168.9367
 21
137.6775
  0
LINE
  8
0
  6
CONTINUOUS
 62
     7
 10
-193.4367
 20
149.6775
 11
-150.4367
 21
149.6775
  0
LINE
  8
0
  6
CONTINUOUS
 62
     7
 10
-193.9367
 20
149.1775
 11
-193.9367
 21
135.1775
  0
LINE
  8
0
  6
CONTINUOUS
 62
     7
 10
-193.4367
 20
134.6775
 11
-150.4367
 21
134.6775
  0
LINE
  8
0
  6
CONTINUOUS
 62
     7
 10
-149.9367
 20
149.1775
 11
-149.9367
 21
135.1775
  0
LINE
  8
0
  6
CONTINUOUS
 62
     7
 10
-168.9367
 20
149.6775
 11
-168.9367
 21
134.6775
  0
LINE
  8
0
  6
CONTINUOUS
 62
     7
 10
-175.6367
 20
137.6775
 11
-175.6367
 21
134.6775
  0
LINE
  8
0
  6
CONTINUOUS
 62
     7
 10
-170.2367
 20
137.6775
 11
-170.2367
 21
134.6775
  0
LINE
  8
0
  6
CENTER
 62
     2
 10
-168.4367
 20
145.5775
 11
-165.4367
 21
145.5775
  0
LINE
  8
0
  6
CENTER
 62
     2
 10
-168.4367
 20
143.4275
 11
-165.4367
 21
143.4275
  0
LINE
  8
0
  6
CENTER
 62
     2
 10
-168.4367
 20
140.9275
 11
-165.4367
 21
140.9275
  0
LINE
  8
0
  6
CENTER
 62
     2
 10
-168.4367
 20
138.7775
 11
-165.4367
 21
138.7775
  0
LINE
  8
0
  6
CENTER
 62
     2
 10
-166.9367
 20
149.1775
 11
-166.9367
 21
135.1775
  0
LINE
  8
0
  6
CONTINUOUS
 62
     7
 10
-168.9367
 20
148.1775
 11
-165.9367
 21
148.1775
  0
LINE
  8
0
  6
CONTINUOUS
 62
     7
 10
-163.9367
 20
146.1775
 11
-163.9367
 21
138.1775
  0
LINE
  8
0
  6
CONTINUOUS
 62
     7
 10
-168.9367
 20
136.1775
 11
-165.9367
 21
136.1775
  0
LINE
  8
0
  6
CONTINUOUS
 62
     7
 10
-190.9367
 20
143.9775
 11
-193.9367
 21
143.9775
  0
LINE
  8
0
  6
CONTINUOUS
 62
     7
 10
-188.2367
 20
146.6775
 11
-188.2367
 21
149.6775
  0
LINE
  8
0
  6
CENTER
 62
     2
 10
-310.8254
 20
15.90016
 11
-303.257
 21
15.90016
  0
LINE
  8
0
  6
CENTER
 62
     2
 10
-316.0613
 20
0.00017
 11
-311.0656
 21
0.00017
  0
LINE
  8
0
  6
CENTER
 62
     2
 10
-303.1369
 20
-29.99983
 11
-298.0613
 21
-29.99983
  0
LINE
  8
0
  6
CENTER
 62
     2
 10
-300.5613
 20
-27.28154
 11
-300.5613
 21
-32.80765
  0
LINE
  8
0
  6
CENTER
 62
     2
 10
-313.5613
 20
2.75163
 11
-313.5613
 21
-2.41406
  0
LINE
  8
0
  6
CENTER
 62
     2
 10
-312.7822
 20
-1.79984
 11
-300.7258
 21
-1.79984
  0
LINE
  8
0
  6
CENTER
 62
     2
 10
-313.2701
 20
-14.99983
 11
-300.7258
 21
-14.99983
  0
LINE
  8
0
  6
CENTER
 62
     2
 10
-313.4094
 20
-28.19983
 11
-301.144
 21
-28.19983
  0
LINE
  8
0
  6
CONTINUOUS
 62
     7
 10
-299.0613
 20
24.20014
 11
-298.0613
 21
23.20014
  0
LINE
  8
0
  6
CONTINUOUS
 62
     7
 10
-315.0613
 20
24.20013
 11
-316.0613
 21
23.20013
  0
LINE
  8
0
  6
CONTINUOUS
 62
     7
 10
-315.5613
 20
-44.39983
 11
-298.5613
 21
-44.39983
  0
LINE
  8
0
  6
CONTINUOUS
 62
     7
 10
-316.0613
 20
-35.99983
 11
-298.0613
 21
-35.99983
  0
LINE
  8
0
  6
CONTINUOUS
 62
     7
 10
-316.0613
 20
23.20018
 11
-316.0613
 21
-43.89983
  0
LINE
  8
0
  6
CONTINUOUS
 62
     7
 10
-298.0613
 20
23.20018
 11
-298.0613
 21
-43.89983
  0
LINE
  8
0
  6
CENTER
 62
     2
 10
-307.0613
 20
59.90184
 11
-307.0613
 21
-48.76649
  0
LINE
  8
0
  6
CONTINUOUS
 62
     7
 10
-316.0613
 20
6.00017
 11
-298.0613
 21
6.00017
  0
LINE
  8
0
  6
CONTINUOUS
 62
     7
 10
-309.8613
 20
-41.49983
 11
-309.8613
 21
-43.89983
  0
LINE
  8
0
  6
CONTINUOUS
 62
     7
 10
-315.5613
 20
-40.99983
 11
-310.3613
 21
-40.99983
  0
LINE
  8
0
  6
CENTER
 62
     2
 10
-313.0613
 20
-39.83391
 11
-313.0613
 21
-45.64009
  0
LINE
  8
0
  6
CONTINUOUS
 62
     7
 10
-310.2613
 20
-42.17166
 11
-310.2613
 21
-40.99983
  0
LINE
  8
0
  6
CONTINUOUS
 62
     7
 10
-315.8613
 20
-42.17165
 11
-315.8613
 21
-40.99983
  0
LINE
  8
0
  6
CONTINUOUS
 62
     7
 10
-316.0613
 20
23.20018
 11
-298.0613
 21
23.20018
  0
LINE
  8
0
  6
CENTER
 62
     2
 10
-307.5613
 20
-22.03877
 11
-307.5613
 21
-34.23346
  0
LINE
  8
0
  6
CENTER
 62
     2
 10
-306.5613
 20
4.53941
 11
-306.5613
 21
-8.04614
  0
LINE
  8
0
  6
CONTINUOUS
 62
     7
 10
-307.579
 20
13.96831
 11
-305.1295
 21
16.4178
  0
LINE
  8
0
  6
CONTINUOUS
 62
     7
 10
-308.9932
 20
15.38252
 11
-306.5437
 21
17.832
  0
LINE
  8
0
  6
CONTINUOUS
 62
     7
 10
-307.5789
 20
17.83206
 11
-305.1295
 21
15.38256
  0
LINE
  8
0
  6
CONTINUOUS
 62
     7
 10
-315.0613
 20
24.20018
 11
-299.0613
 21
24.20018
  0
LINE
  8
0
  6
CONTINUOUS
 62
     7
 10
-308.4756
 20
14.48596
 11
-305.6472
 21
17.31439
  0
LINE
  8
0
  6
CONTINUOUS
 62
     7
 10
-308.4756
 20
17.31437
 11
-305.6472
 21
14.48594
  0
LINE
  8
0
  6
CONTINUOUS
 62
     7
 10
-308.9932
 20
16.41783
 11
-306.5437
 21
13.96835
  0
LINE
  8
0
  6
CONTINUOUS
 62
     7
 10
-314.5613
 20
54.90016
 11
-314.5613
 21
24.20015
  0
LINE
  8
0
  6
CONTINUOUS
 62
     7
 10
-299.5613
 20
54.90016
 11
-299.5613
 21
24.20018
  0
LINE
  8
0
  6
CONTINUOUS
 62
     7
 10
-313.5613
 20
46.40016
 11
-300.5613
 21
46.40016
  0
LINE
  8
0
  6
CONTINUOUS
 62
     7
 10
-313.5613
 20
42.40016
 11
-300.5613
 21
42.40016
  0
LINE
  8
0
  6
CONTINUOUS
 62
     7
 10
-300.5613
 20
46.40016
 11
-300.5613
 21
42.40016
  0
LINE
  8
0
  6
CONTINUOUS
 62
     7
 10
-313.5613
 20
46.40016
 11
-313.5613
 21
42.40016
  0
LINE
  8
0
  6
CONTINUOUS
 62
     7
 10
-312.8492
 20
45.50694
 11
-310.5076
 21
45.50694
  0
LINE
  8
0
  6
CONTINUOUS
 62
     7
 10
-312.8492
 20
43.43034
 11
-310.861
 21
43.43034
  0
LINE
  8
0
  6
CONTINUOUS
 62
     7
 10
-312.8492
 20
42.90016
 11
-310.1541
 21
42.90016
  0
LINE
  8
0
  6
CONTINUOUS
 62
     7
 10
-312.8492
 20
44.97676
 11
-310.861
 21
44.97676
  0
LINE
  8
0
  6
CONTINUOUS
 62
     7
 10
-312.8492
 20
45.50694
 11
-312.8492
 21
44.97676
  0
LINE
  8
0
  6
CONTINUOUS
 62
     7
 10
-310.1541
 20
45.15349
 11
-310.1541
 21
42.90016
  0
LINE
  8
0
  6
CONTINUOUS
 62
     7
 10
-310.861
 20
44.97676
 11
-310.861
 21
43.43037
  0
LINE
  8
0
  6
CONTINUOUS
 62
     7
 10
-309.7565
 20
45.50694
 11
-309.7565
 21
44.97676
  0
LINE
  8
0
  6
CONTINUOUS
 62
     7
 10
-307.2381
 20
44.97676
 11
-307.2381
 21
43.25362
  0
LINE
  8
0
  6
CONTINUOUS
 62
     7
 10
-307.945
 20
44.97676
 11
-307.945
 21
43.43037
  0
LINE
  8
0
  6
CONTINUOUS
 62
     7
 10
-312.8492
 20
43.43037
 11
-312.8492
 21
42.90016
  0
LINE
  8
0
  6
CONTINUOUS
 62
     7
 10
-309.7565
 20
45.50694
 11
-309.058
 21
45.50694
  0
LINE
  8
0
  6
CONTINUOUS
 62
     7
 10
-309.7565
 20
42.90016
 11
-309.2076
 21
42.90016
  0
LINE
  8
0
  6
CONTINUOUS
 62
     7
 10
-309.7565
 20
42.90017
 11
-309.2
 21
44.97675
  0
LINE
  8
0
  6
CONTINUOUS
 62
     7
 10
-309.7565
 20
44.97676
 11
-309.2001
 21
44.97676
  0
LINE
  8
0
  6
CONTINUOUS
 62
     7
 10
-309.2075
 20
42.90009
 11
-308.6511
 21
44.97668
  0
LINE
  8
0
  6
CONTINUOUS
 62
     7
 10
-308.4752
 20
43.43034
 11
-307.945
 21
43.43034
  0
LINE
  8
0
  6
CONTINUOUS
 62
     7
 10
-308.4751
 20
43.43036
 11
-308.3331
 21
42.90017
  0
LINE
  8
0
  6
CONTINUOUS
 62
     7
 10
-308.3331
 20
42.90016
 11
-307.5915
 21
42.90016
  0
LINE
  8
0
  6
CONTINUOUS
 62
     7
 10
-308.6512
 20
44.97676
 11
-307.945
 21
44.97676
  0
LINE
  8
0
  6
CONTINUOUS
 62
     7
 10
-308.5091
 20
45.50694
 11
-307.7682
 21
45.50694
  0
LINE
  8
0
  6
CONTINUOUS
 62
     7
 10
-309.058
 20
45.50694
 11
-308.9526
 21
45.90014
  0
LINE
  8
0
  6
CONTINUOUS
 62
     7
 10
-308.5091
 20
45.50698
 11
-308.4037
 21
45.90019
  0
LINE
  8
0
  6
CONTINUOUS
 62
     7
 10
-306.7962
 20
45.50694
 11
-305.9568
 21
45.50694
  0
LINE
  8
0
  6
CONTINUOUS
 62
     7
 10
-306.7962
 20
44.97676
 11
-304.7345
 21
44.97676
  0
LINE
  8
0
  6
CONTINUOUS
 62
     7
 10
-305.9568
 20
42.90016
 11
-305.2498
 21
42.90016
  0
LINE
  8
0
  6
CONTINUOUS
 62
     7
 10
-306.7962
 20
45.50694
 11
-306.7962
 21
44.97676
  0
LINE
  8
0
  6
CONTINUOUS
 62
     7
 10
-304.1895
 20
44.01537
 11
-304.1895
 21
43.43037
  0
LINE
  8
0
  6
CONTINUOUS
 62
     7
 10
-306.7963
 20
43.43038
 11
-305.9568
 21
43.82184
  0
LINE
  8
0
  6
CONTINUOUS
 62
     7
 10
-306.7963
 20
44.0154
 11
-304.7345
 21
44.97682
  0
LINE
  8
0
  6
CONTINUOUS
 62
     7
 10
-306.7962
 20
44.01537
 11
-306.7962
 21
43.43037
  0
LINE
  8
0
  6
CONTINUOUS
 62
     7
 10
-305.2499
 20
43.9247
 11
-304.1895
 21
43.43024
  0
LINE
  8
0
  6
CONTINUOUS
 62
     7
 10
-304.8656
 20
44.3305
 11
-304.1894
 21
44.01521
  0
LINE
  8
0
  6
CONTINUOUS
 62
     7
 10
-304.1895
 20
45.15349
 11
-304.1895
 21
44.87111
  0
LINE
  8
0
  6
CONTINUOUS
 62
     7
 10
-305.9568
 20
45.90016
 11
-305.9568
 21
45.50694
  0
LINE
  8
0
  6
CONTINUOUS
 62
     7
 10
-305.2498
 20
45.90016
 11
-305.2498
 21
45.50694
  0
LINE
  8
0
  6
CONTINUOUS
 62
     7
 10
-305.2498
 20
45.50694
 11
-304.5429
 21
45.50694
  0
LINE
  8
0
  6
CONTINUOUS
 62
     7
 10
-305.9568
 20
43.82179
 11
-305.9568
 21
42.90016
  0
LINE
  8
0
  6
CONTINUOUS
 62
     7
 10
-305.2498
 20
43.92482
 11
-305.2498
 21
42.90016
  0
LINE
  8
0
  6
CONTINUOUS
 62
     7
 10
-304.8655
 20
44.33061
 11
-304.3935
 21
44.55071
  0
LINE
  8
0
  6
CONTINUOUS
 62
     7
 10
-301.8036
 20
45.7411
 11
-301.2734
 21
45.7411
  0
LINE
  8
0
  6
CONTINUOUS
 62
     7
 10
-303.9685
 20
44.64592
 11
-303.9685
 21
44.07533
  0
LINE
  8
0
  6
CONTINUOUS
 62
     7
 10
-301.2734
 20
45.7411
 11
-301.2734
 21
45.50694
  0
LINE
  8
0
  6
CONTINUOUS
 62
     7
 10
-301.8036
 20
45.7411
 11
-301.8036
 21
45.62685
  0
LINE
  8
0
  6
CONTINUOUS
 62
     7
 10
-302.5105
 20
44.6552
 11
-302.5105
 21
42.90016
  0
LINE
  8
0
  6
CONTINUOUS
 62
     7
 10
-303.9684
 20
44.64585
 11
-301.9149
 21
45.46259
  0
LINE
  8
0
  6
CONTINUOUS
 62
     7
 10
-303.9686
 20
44.07533
 11
-302.5106
 21
44.65521
  0
LINE
  8
0
  6
CONTINUOUS
 62
     7
 10
-302.5105
 20
42.90016
 11
-301.8036
 21
42.90016
  0
LINE
  8
0
  6
CONTINUOUS
 62
     7
 10
-301.8036
 20
44.93636
 11
-301.8036
 21
42.90016
  0
LINE
  8
0
  6
CONTINUOUS
 62
     7
 10
-301.8034
 20
44.93621
 11
-301.6075
 21
45.01413
  0
LINE
  8
0
  6
CONTINUOUS
 62
     7
 10
-308.9526
 20
45.90016
 11
-308.4037
 21
45.90016
  0
LINE
  8
0
  6
CONTINUOUS
 62
     7
 10
-307.5253
 20
45.90016
 11
-307.2993
 21
45.90016
  0
LINE
  8
0
  6
CONTINUOUS
 62
     7
 10
-305.9568
 20
45.90016
 11
-305.2498
 21
45.90016
  0
LINE
  8
0
  6
CONTINUOUS
 62
     7
 10
-307.5253
 20
45.54671
 11
-307.2993
 21
45.54671
  0
LINE
  8
0
  6
CONTINUOUS
 62
     7
 10
-307.5252
 20
45.90016
 11
-307.5252
 21
45.54671
  0
LINE
  8
0
  6
CONTINUOUS
 62
     7
 10
-307.2993
 20
45.90016
 11
-307.2993
 21
45.54671
  0
LINE
  8
0
  6
CONTINUOUS
 62
     7
 10
-307.1415
 20
45.90016
 11
-307.1415
 21
45.54671
  0
LINE
  8
0
  6
CONTINUOUS
 62
     7
 10
-306.9155
 20
45.90016
 11
-306.9155
 21
45.54671
  0
LINE
  8
0
  6
CONTINUOUS
 62
     7
 10
-307.1415
 20
45.90016
 11
-306.9155
 21
45.90016
  0
LINE
  8
0
  6
CONTINUOUS
 62
     7
 10
-307.1415
 20
45.54671
 11
-306.9155
 21
45.54671
  0
LINE
  8
0
  6
CONTINUOUS
 62
     7
 10
-313.8113
 20
51.69389
 11
-313.8113
 21
51.00017
  0
LINE
  8
0
  6
CENTER
 62
     2
 10
-311.5613
 20
57.90016
 11
-311.5613
 21
47.40016
  0
LINE
  8
0
  6
CONTINUOUS
 62
     7
 10
-309.3113
 20
51.69389
 11
-309.3113
 21
51.00017
  0
LINE
  8
0
  6
CONTINUOUS
 62
     7
 10
-314.5613
 20
49.40016
 11
-299.5613
 21
49.40016
  0
LINE
  8
0
  6
CONTINUOUS
 62
     7
 10
-309.0114
 20
51.00017
 11
-314.1113
 21
51.00017
  0
LINE
  8
0
  6
CONTINUOUS
 62
     7
 10
-309.0113
 20
51.00017
 11
-309.0113
 21
50.40016
  0
LINE
  8
0
  6
CONTINUOUS
 62
     7
 10
-314.1113
 20
51.00014
 11
-314.1113
 21
50.40016
  0
LINE
  8
0
  6
CENTER
 62
     2
 10
-303.6613
 20
79.70015
 11
-303.6613
 21
51.90016
  0
LINE
  8
0
  6
CONTINUOUS
 62
     7
 10
-302.8113
 20
66.70015
 11
-302.8113
 21
61.33784
  0
LINE
  8
0
  6
CONTINUOUS
 62
     7
 10
-304.5113
 20
66.70015
 11
-304.5113
 21
61.79335
  0
LINE
  8
0
  6
CONTINUOUS
 62
     7
 10
-303.9813
 20
76.70015
 11
-303.9813
 21
66.70015
  0
LINE
  8
0
  6
CONTINUOUS
 62
     7
 10
-303.3413
 20
76.70015
 11
-303.3413
 21
66.70015
  0
LINE
  8
0
  6
CONTINUOUS
 62
     7
 10
-304.5113
 20
66.70015
 11
-302.8113
 21
66.70015
  0
LINE
  8
0
  6
CONTINUOUS
 62
     7
 10
-303.9813
 20
76.70015
 11
-303.3413
 21
76.70015
  0
LINE
  8
0
  6
CENTER
 62
     2
 10
-310.4613
 20
79.70015
 11
-310.4613
 21
51.90016
  0
LINE
  8
0
  6
CONTINUOUS
 62
     7
 10
-309.6113
 20
66.70015
 11
-309.6113
 21
63.1599
  0
LINE
  8
0
  6
CONTINUOUS
 62
     7
 10
-311.3113
 20
66.70015
 11
-311.3113
 21
63.6154
  0
LINE
  8
0
  6
CONTINUOUS
 62
     7
 10
-310.7813
 20
76.70015
 11
-310.7813
 21
66.70015
  0
LINE
  8
0
  6
CONTINUOUS
 62
     7
 10
-310.1413
 20
76.70015
 11
-310.1413
 21
66.70015
  0
LINE
  8
0
  6
CONTINUOUS
 62
     7
 10
-311.3113
 20
66.70015
 11
-309.6113
 21
66.70015
  0
LINE
  8
0
  6
CONTINUOUS
 62
     7
 10
-310.7813
 20
76.70015
 11
-310.1414
 21
76.70015
  0
LINE
  8
0
  6
CENTER
 62
     2
 10
-308.3113
 20
79.70015
 11
-308.3113
 21
51.90016
  0
LINE
  8
0
  6
CONTINUOUS
 62
     7
 10
-307.4613
 20
66.70015
 11
-307.4613
 21
62.58382
  0
LINE
  8
0
  6
CONTINUOUS
 62
     7
 10
-309.1613
 20
66.70015
 11
-309.1613
 21
63.03932
  0
LINE
  8
0
  6
CONTINUOUS
 62
     7
 10
-308.6313
 20
76.70015
 11
-308.6313
 21
66.70015
  0
LINE
  8
0
  6
CONTINUOUS
 62
     7
 10
-307.9913
 20
76.70015
 11
-307.9913
 21
66.70015
  0
LINE
  8
0
  6
CONTINUOUS
 62
     7
 10
-309.1613
 20
66.70015
 11
-307.4613
 21
66.70015
  0
LINE
  8
0
  6
CONTINUOUS
 62
     7
 10
-308.6313
 20
76.70015
 11
-307.9913
 21
76.70015
  0
LINE
  8
0
  6
CENTER
 62
     2
 10
-305.8113
 20
79.70015
 11
-305.8113
 21
51.90016
  0
LINE
  8
0
  6
CONTINUOUS
 62
     7
 10
-304.9613
 20
66.70015
 11
-304.9613
 21
61.91393
  0
LINE
  8
0
  6
CONTINUOUS
 62
     7
 10
-306.6613
 20
66.70015
 11
-306.6613
 21
62.36943
  0
LINE
  8
0
  6
CONTINUOUS
 62
     7
 10
-306.1313
 20
76.70015
 11
-306.1313
 21
66.70015
  0
LINE
  8
0
  6
CONTINUOUS
 62
     7
 10
-305.4913
 20
76.70015
 11
-305.4913
 21
66.70015
  0
LINE
  8
0
  6
CONTINUOUS
 62
     7
 10
-306.6613
 20
66.70015
 11
-304.9613
 21
66.70015
  0
LINE
  8
0
  6
CONTINUOUS
 62
     7
 10
-306.1313
 20
76.70015
 11
-305.4913
 21
76.70015
  0
LINE
  8
0
  6
CONTINUOUS
 62
     7
 10
-308.8613
 20
54.90016
 11
-308.8613
 21
50.40016
  0
LINE
  8
0
  6
CONTINUOUS
 62
     7
 10
-314.5613
 20
50.40016
 11
-308.8613
 21
50.40016
  0
LINE
  8
0
  6
PHANTOM
 62
     2
 10
-313.3113
 20
64.15119
 11
-300.8114
 21
60.80184
  0
LINE
  8
0
  6
PHANTOM
 62
     2
 10
-313.3113
 20
62.59835
 11
-300.8113
 21
59.24898
  0
LINE
  8
0
  6
CONTINUOUS
 62
     7
 10
-311.3113
 20
62.06248
 11
-311.3113
 21
56.70018
  0
LINE
  8
0
  6
CONTINUOUS
 62
     7
 10
-309.1613
 20
61.4864
 11
-309.1613
 21
56.70018
  0
LINE
  8
0
  6
CONTINUOUS
 62
     7
 10
-309.6113
 20
61.60698
 11
-309.6113
 21
56.70018
  0
LINE
  8
0
  6
CONTINUOUS
 62
     7
 10
-307.4613
 20
61.0309
 11
-307.4613
 21
56.70018
  0
LINE
  8
0
  6
CONTINUOUS
 62
     7
 10
-306.6613
 20
60.81654
 11
-306.6613
 21
56.70018
  0
LINE
  8
0
  6
CONTINUOUS
 62
     7
 10
-304.9613
 20
60.36101
 11
-304.9613
 21
56.70018
  0
LINE
  8
0
  6
CONTINUOUS
 62
     7
 10
-304.5113
 20
60.24043
 11
-304.5113
 21
56.70018
  0
LINE
  8
0
  6
CONTINUOUS
 62
     7
 10
-302.8113
 20
59.78493
 11
-302.8113
 21
56.70018
  0
LINE
  8
0
  6
CONTINUOUS
 62
     7
 10
-314.5613
 20
54.90016
 11
-299.5613
 21
54.90016
  0
LINE
  8
0
  6
CONTINUOUS
 62
     7
 10
-312.5613
 20
56.70018
 11
-301.5613
 21
56.70018
  0
LINE
  8
0
  6
CONTINUOUS
 62
     7
 10
-313.0613
 20
56.20018
 11
-313.0613
 21
54.90016
  0
LINE
  8
0
  6
CONTINUOUS
 62
     7
 10
-301.0613
 20
56.20018
 11
-301.0613
 21
54.90016
  0
LINE
  8
0
  6
CENTER
 62
     2
 10
-45.73399
 20
20.70006
 11
-39.9026
 21
20.70006
  0
LINE
  8
0
  6
CENTER
 62
     2
 10
-40.65892
 20
0.00005
 11
-33.22795
 21
0.00005
  0
LINE
  8
0
  6
CENTER
 62
     2
 10
-52.2245
 20
-29.99995
 11
-45.15392
 21
-29.99995
  0
LINE
  8
0
  6
CENTER
 62
     2
 10
-49.3123
 20
-25.88719
 11
-49.3123
 21
-34.29184
  0
LINE
  8
0
  6
CENTER
 62
     2
 10
-36.3123
 20
4.59135
 11
-36.3123
 21
-4.41663
  0
LINE
  8
0
  6
CENTER
 62
     2
 10
-48.45976
 20
-6.99995
 11
-36.83141
 21
-6.99995
  0
LINE
  8
0
  6
CENTER
 62
     2
 10
-48.8958
 20
-22.99995
 11
-36.73454
 21
-22.99995
  0
LINE
  8
0
  6
CONTINUOUS
 62
     7
 10
-34.81238
 20
24.20006
 11
-33.81238
 21
23.20006
  0
LINE
  8
0
  6
CONTINUOUS
 62
     7
 10
-50.81232
 20
24.20009
 11
-51.81229
 21
23.20011
  0
LINE
  8
0
  6
CONTINUOUS
 62
     7
 10
-51.3123
 20
-44.39995
 11
-34.3123
 21
-44.39995
  0
LINE
  8
0
  6
CONTINUOUS
 62
     7
 10
-51.8123
 20
-35.99995
 11
-33.8123
 21
-35.99995
  0
LINE
  8
0
  6
CONTINUOUS
 62
     7
 10
-51.8123
 20
6.00005
 11
-33.8123
 21
6.00005
  0
LINE
  8
0
  6
CONTINUOUS
 62
     7
 10
-51.8123
 20
23.20006
 11
-51.8123
 21
-43.89995
  0
LINE
  8
0
  6
CONTINUOUS
 62
     7
 10
-51.8123
 20
23.20006
 11
-33.8123
 21
23.20006
  0
LINE
  8
0
  6
CENTER
 62
     2
 10
-42.3123
 20
-0.86853
 11
-42.3123
 21
-13.44199
  0
LINE
  8
0
  6
CENTER
 62
     2
 10
-43.3123
 20
-16.41544
 11
-43.3123
 21
-29.1588
  0
LINE
  8
0
  6
CENTER
 62
     2
 10
-42.8123
 20
59.79552
 11
-42.8123
 21
-49.21663
  0
LINE
  8
0
  6
CONTINUOUS
 62
     7
 10
-33.8123
 20
23.20003
 11
-33.8123
 21
-43.89995
  0
LINE
  8
0
  6
CENTER
 62
     2
 10
-48.8123
 20
-39.9057
 11
-48.8123
 21
-45.85527
  0
LINE
  8
0
  6
CONTINUOUS
 62
     7
 10
-45.61229
 20
-41.49995
 11
-45.61229
 21
-43.89995
  0
LINE
  8
0
  6
CONTINUOUS
 62
     7
 10
-51.3123
 20
-40.99995
 11
-46.11229
 21
-40.99995
  0
LINE
  8
0
  6
CONTINUOUS
 62
     7
 10
-51.61229
 20
-42.17178
 11
-51.61229
 21
-40.99995
  0
LINE
  8
0
  6
CONTINUOUS
 62
     7
 10
-46.01228
 20
-42.17178
 11
-46.01228
 21
-40.99995
  0
LINE
  8
0
  6
CONTINUOUS
 62
     7
 10
-50.3123
 20
54.90004
 11
-50.3123
 21
24.20006
  0
LINE
  8
0
  6
CONTINUOUS
 62
     7
 10
-35.3123
 20
54.90004
 11
-35.3123
 21
24.20006
  0
LINE
  8
0
  6
CONTINUOUS
 62
     7
 10
-50.81233
 20
24.20006
 11
-34.8123
 21
24.20006
  0
LINE
  8
0
  6
CONTINUOUS
 62
     7
 10
-44.8123
 20
35.00005
 11
-40.8123
 21
35.00005
  0
LINE
  8
0
  6
CONTINUOUS
 62
     7
 10
-44.8123
 20
33.00005
 11
-40.8123
 21
33.00005
  0
LINE
  8
0
  6
CONTINUOUS
 62
     7
 10
-40.8123
 20
35.00005
 11
-40.8123
 21
33.00005
  0
LINE
  8
0
  6
CONTINUOUS
 62
     7
 10
-44.8123
 20
35.00005
 11
-44.8123
 21
33.00005
  0
LINE
  8
0
  6
CONTINUOUS
 62
     7
 10
-45.3123
 20
35.50005
 11
-40.3123
 21
35.50005
  0
LINE
  8
0
  6
CONTINUOUS
 62
     7
 10
-45.3123
 20
35.50005
 11
-45.3123
 21
32.50005
  0
LINE
  8
0
  6
CONTINUOUS
 62
     7
 10
-45.3123
 20
32.50005
 11
-40.3123
 21
32.50005
  0
LINE
  8
0
  6
CONTINUOUS
 62
     7
 10
-40.3123
 20
35.50005
 11
-40.3123
 21
32.50005
  0
LINE
  8
0
  6
CONTINUOUS
 62
     7
 10
-44.81232
 20
35.00002
 11
-45.31232
 21
35.50002
  0
LINE
  8
0
  6
CONTINUOUS
 62
     7
 10
-44.81234
 20
33.00002
 11
-45.31232
 21
32.50003
  0
LINE
  8
0
  6
CONTINUOUS
 62
     7
 10
-40.81229
 20
33.00005
 11
-40.31228
 21
32.50004
  0
LINE
  8
0
  6
CONTINUOUS
 62
     7
 10
-40.81231
 20
35.00004
 11
-40.31232
 21
35.50003
  0
LINE
  8
0
  6
CONTINUOUS
 62
     7
 10
-48.3123
 20
53.70003
 11
-37.3123
 21
53.70003
  0
LINE
  8
0
  6
CONTINUOUS
 62
     7
 10
-48.3123
 20
43.70003
 11
-37.3123
 21
43.70003
  0
LINE
  8
0
  6
CONTINUOUS
 62
     7
 10
-48.3123
 20
53.70003
 11
-48.3123
 21
43.70003
  0
LINE
  8
0
  6
CONTINUOUS
 62
     7
 10
-37.3123
 20
53.70003
 11
-37.3123
 21
43.70003
  0
LINE
  8
0
  6
CONTINUOUS
 62
     7
 10
-44.33967
 20
39.71826
 11
-43.83054
 21
40.2274
  0
LINE
  8
0
  6
CONTINUOUS
 62
     7
 10
-41.79406
 20
37.17268
 11
-41.28492
 21
37.68182
  0
LINE
  8
0
  6
CONTINUOUS
 62
     7
 10
-44.33961
 20
37.68179
 11
-43.83047
 21
38.19093
  0
LINE
  8
0
  6
CONTINUOUS
 62
     7
 10
-43.83054
 20
37.17265
 11
-43.3214
 21
37.68179
  0
LINE
  8
0
  6
CONTINUOUS
 62
     7
 10
-41.79401
 20
40.22749
 11
-41.28489
 21
39.71837
  0
LINE
  8
0
  6
CONTINUOUS
 62
     7
 10
-44.33966
 20
37.68182
 11
-43.83054
 21
37.1727
  0
LINE
  8
0
  6
CONTINUOUS
 62
     7
 10
-43.83053
 20
40.22744
 11
-43.32141
 21
39.71832
  0
LINE
  8
0
  6
CONTINUOUS
 62
     7
 10
-44.3396
 20
39.71833
 11
-43.83048
 21
39.20921
  0
LINE
  8
0
  6
CONTINUOUS
 62
     7
 10
-42.30314
 20
37.68187
 11
-41.79402
 21
37.17275
  0
LINE
  8
0
  6
CONTINUOUS
 62
     7
 10
-41.79406
 20
38.19097
 11
-41.28494
 21
37.68185
  0
LINE
  8
0
  6
CONTINUOUS
 62
     7
 10
-41.79406
 20
39.20912
 11
-41.28492
 21
39.71826
  0
LINE
  8
0
  6
CONTINUOUS
 62
     7
 10
-42.30314
 20
39.71826
 11
-41.794
 21
40.2274
  0
LINE
  8
0
  6
CENTER
 62
     2
 10
-39.41231
 20
79.70003
 11
-39.41231
 21
51.70003
  0
LINE
  8
0
  6
CONTINUOUS
 62
     7
 10
-38.5623
 20
66.70003
 11
-38.5623
 21
61.33772
  0
LINE
  8
0
  6
CONTINUOUS
 62
     7
 10
-40.26231
 20
66.70003
 11
-40.26231
 21
61.79323
  0
LINE
  8
0
  6
CONTINUOUS
 62
     7
 10
-39.73228
 20
76.70003
 11
-39.73228
 21
66.70003
  0
LINE
  8
0
  6
CONTINUOUS
 62
     7
 10
-39.0923
 20
76.70003
 11
-39.0923
 21
66.70003
  0
LINE
  8
0
  6
CONTINUOUS
 62
     7
 10
-40.26231
 20
66.70003
 11
-38.5623
 21
66.70003
  0
LINE
  8
0
  6
CONTINUOUS
 62
     7
 10
-39.73228
 20
76.70003
 11
-39.0923
 21
76.70003
  0
LINE
  8
0
  6
CENTER
 62
     2
 10
-46.2123
 20
79.70003
 11
-46.2123
 21
51.70003
  0
LINE
  8
0
  6
CONTINUOUS
 62
     7
 10
-45.36229
 20
66.70003
 11
-45.36229
 21
63.15977
  0
LINE
  8
0
  6
CONTINUOUS
 62
     7
 10
-47.0623
 20
66.70003
 11
-47.0623
 21
63.61528
  0
LINE
  8
0
  6
CONTINUOUS
 62
     7
 10
-46.5323
 20
76.70003
 11
-46.5323
 21
66.70003
  0
LINE
  8
0
  6
CONTINUOUS
 62
     7
 10
-45.89232
 20
76.70003
 11
-45.89232
 21
66.70003
  0
LINE
  8
0
  6
CONTINUOUS
 62
     7
 10
-47.0623
 20
66.70003
 11
-45.36229
 21
66.70003
  0
LINE
  8
0
  6
CONTINUOUS
 62
     7
 10
-46.5323
 20
76.70003
 11
-45.89232
 21
76.70003
  0
LINE
  8
0
  6
CENTER
 62
     2
 10
-44.0623
 20
79.70003
 11
-44.0623
 21
51.70003
  0
LINE
  8
0
  6
CONTINUOUS
 62
     7
 10
-43.2123
 20
66.70003
 11
-43.2123
 21
62.58369
  0
LINE
  8
0
  6
CONTINUOUS
 62
     7
 10
-44.91231
 20
66.70003
 11
-44.91231
 21
63.0392
  0
LINE
  8
0
  6
CONTINUOUS
 62
     7
 10
-44.38231
 20
76.70003
 11
-44.38231
 21
66.70003
  0
LINE
  8
0
  6
CONTINUOUS
 62
     7
 10
-43.74229
 20
76.70003
 11
-43.74229
 21
66.70003
  0
LINE
  8
0
  6
CONTINUOUS
 62
     7
 10
-44.91231
 20
66.70003
 11
-43.2123
 21
66.70003
  0
LINE
  8
0
  6
CONTINUOUS
 62
     7
 10
-44.38231
 20
76.70003
 11
-43.74229
 21
76.70003
  0
LINE
  8
0
  6
CENTER
 62
     2
 10
-41.5623
 20
79.70003
 11
-41.5623
 21
51.70003
  0
LINE
  8
0
  6
CONTINUOUS
 62
     7
 10
-40.7123
 20
66.70003
 11
-40.7123
 21
61.9138
  0
LINE
  8
0
  6
CONTINUOUS
 62
     7
 10
-42.41231
 20
66.70003
 11
-42.41231
 21
62.36934
  0
LINE
  8
0
  6
CONTINUOUS
 62
     7
 10
-41.88231
 20
76.70003
 11
-41.88231
 21
66.70003
  0
LINE
  8
0
  6
CONTINUOUS
 62
     7
 10
-41.24229
 20
76.70003
 11
-41.24229
 21
66.70003
  0
LINE
  8
0
  6
CONTINUOUS
 62
     7
 10
-42.41231
 20
66.70003
 11
-40.7123
 21
66.70003
  0
LINE
  8
0
  6
CONTINUOUS
 62
     7
 10
-41.88231
 20
76.70003
 11
-41.24229
 21
76.70003
  0
LINE
  8
0
  6
CONTINUOUS
 62
     7
 10
-36.8123
 20
54.90004
 11
-35.3123
 21
54.90004
  0
LINE
  8
0
  6
CONTINUOUS
 62
     7
 10
-50.3123
 20
54.90004
 11
-48.8123
 21
54.90004
  0
LINE
  8
0
  6
CENTER
 62
     2
 10
-46.8123
 20
34.00005
 11
-38.8123
 21
34.00005
  0
LINE
  8
0
  6
CENTER
 62
     2
 10
-47.8123
 20
38.70006
 11
-37.8123
 21
38.70006
  0
LINE
  8
0
  6
PHANTOM
 62
     2
 10
-49.06231
 20
64.15115
 11
-36.56231
 21
60.80178
  0
LINE
  8
0
  6
PHANTOM
 62
     2
 10
-49.06229
 20
62.59823
 11
-36.56229
 21
59.24887
  0
LINE
  8
0
  6
CONTINUOUS
 62
     7
 10
-47.0623
 20
62.06236
 11
-47.0623
 21
56.70006
  0
LINE
  8
0
  6
CONTINUOUS
 62
     7
 10
-45.36229
 20
61.60686
 11
-45.36229
 21
56.70006
  0
LINE
  8
0
  6
CONTINUOUS
 62
     7
 10
-44.91231
 20
61.48628
 11
-44.91231
 21
56.70006
  0
LINE
  8
0
  6
CONTINUOUS
 62
     7
 10
-43.2123
 20
61.03078
 11
-43.2123
 21
56.70006
  0
LINE
  8
0
  6
CONTINUOUS
 62
     7
 10
-42.41231
 20
60.81642
 11
-42.41231
 21
56.70006
  0
LINE
  8
0
  6
CONTINUOUS
 62
     7
 10
-40.7123
 20
60.36089
 11
-40.7123
 21
56.70006
  0
LINE
  8
0
  6
CONTINUOUS
 62
     7
 10
-40.26231
 20
60.24031
 11
-40.26231
 21
56.70006
  0
LINE
  8
0
  6
CONTINUOUS
 62
     7
 10
-38.5623
 20
59.78481
 11
-38.5623
 21
56.70006
  0
LINE
  8
0
  6
CONTINUOUS
 62
     7
 10
-49.8123
 20
54.70003
 11
-35.8123
 21
54.70003
  0
LINE
  8
0
  6
CONTINUOUS
 62
     7
 10
-48.3123
 20
56.70006
 11
-37.3123
 21
56.70006
  0
LINE
  8
0
  6
CONTINUOUS
 62
     7
 10
-48.8123
 20
56.20003
 11
-48.8123
 21
54.70003
  0
LINE
  8
0
  6
CONTINUOUS
 62
     7
 10
-36.8123
 20
56.20003
 11
-36.8123
 21
54.70003
  0
LINE
  8
0
  6
CENTER
 62
     2
 10
-175.9642
 20
-185.779
 11
-169.1067
 21
-185.779
  0
LINE
  8
0
  6
CENTER
 62
     2
 10
-194.5854
 20
-175.779
 11
-188.0624
 21
-175.779
  0
LINE
  8
0
  6
CENTER
 62
     2
 10
-172.4368
 20
-182.3817
 11
-172.4368
 21
-188.9604
  0
LINE
  8
0
  6
CENTER
 62
     2
 10
-191.4368
 20
-172.4578
 11
-191.4368
 21
-179.2038
  0
LINE
  8
0
  6
CONTINUOUS
 62
     7
 10
-171.0125
 20
-175.6276
 11
-170.5882
 21
-176.0518
  0
LINE
  8
0
  6
CONTINUOUS
 62
     7
 10
-170.5882
 20
-174.3548
 11
-170.1639
 21
-173.9306
  0
LINE
  8
0
  6
CONTINUOUS
 62
     7
 10
-171.0125
 20
-173.9306
 11
-170.5882
 21
-173.5063
  0
LINE
  8
0
  6
CONTINUOUS
 62
     7
 10
-172.2853
 20
-173.5062
 11
-171.861
 21
-173.9305
  0
LINE
  8
0
  6
CONTINUOUS
 62
     7
 10
-172.7096
 20
-173.9305
 11
-172.2853
 21
-174.3548
  0
LINE
  8
0
  6
CONTINUOUS
 62
     7
 10
-170.5882
 20
-173.5063
 11
-170.1639
 21
-173.9305
  0
LINE
  8
0
  6
CONTINUOUS
 62
     7
 10
-172.7095
 20
-175.6276
 11
-172.2853
 21
-176.0519
  0
LINE
  8
0
  6
CONTINUOUS
 62
     7
 10
-170.5882
 20
-175.2033
 11
-170.164
 21
-175.6276
  0
LINE
  8
0
  6
CENTER
 62
     2
 10
-181.9368
 20
-169.029
 11
-181.9368
 21
-193.0065
  0
LINE
  8
0
  6
CENTER
 62
     2
 10
-197.833
 20
-180.779
 11
-147.597
 21
-180.779
  0
LINE
  8
0
  6
CONTINUOUS
 62
     7
 10
-194.9368
 20
-189.779
 11
-168.9368
 21
-189.779
  0
LINE
  8
0
  6
CONTINUOUS
 62
     7
 10
-194.9368
 20
-171.779
 11
-168.9368
 21
-171.779
  0
LINE
  8
0
  6
CONTINUOUS
 62
     7
 10
-168.4368
 20
-172.279
 11
-168.4368
 21
-189.279
  0
LINE
  8
0
  6
CONTINUOUS
 62
     7
 10
-195.4368
 20
-172.279
 11
-195.4368
 21
-189.279
  0
LINE
  8
0
  6
CENTER
 62
     2
 10
-175.5746
 20
-174.779
 11
-167.2668
 21
-174.779
  0
LINE
  8
0
  6
CENTER
 62
     2
 10
-196.6157
 20
-186.779
 11
-188.2688
 21
-186.779
  0
LINE
  8
0
  6
CENTER
 62
     2
 10
-192.4368
 20
-182.7467
 11
-192.4368
 21
-190.6888
  0
LINE
  8
0
  6
CENTER
 62
     2
 10
-171.4368
 20
-170.922
 11
-171.4368
 21
-178.6463
  0
LINE
  8
0
  6
CONTINUOUS
 62
     7
 10
-189.2367
 20
-186.779
 11
-189.2367
 21
-189.279
  0
LINE
  8
0
  6
CONTINUOUS
 62
     7
 10
-194.9368
 20
-183.579
 11
-192.4368
 21
-183.579
  0
LINE
  8
0
  6
CONTINUOUS
 62
     7
 10
-171.4368
 20
-177.979
 11
-168.9368
 21
-177.979
  0
LINE
  8
0
  6
CONTINUOUS
 62
     7
 10
-174.6368
 20
-172.279
 11
-174.6368
 21
-174.779
  0
LINE
  8
0
  6
CONTINUOUS
 62
     7
 10
-193.7095
 20
-185.9306
 11
-193.2853
 21
-185.5063
  0
LINE
  8
0
  6
CONTINUOUS
 62
     7
 10
-191.5882
 20
-188.0519
 11
-191.1639
 21
-187.6276
  0
LINE
  8
0
  6
CONTINUOUS
 62
     7
 10
-193.7095
 20
-187.6276
 11
-193.2852
 21
-187.2034
  0
LINE
  8
0
  6
CONTINUOUS
 62
     7
 10
-193.2852
 20
-188.0519
 11
-192.861
 21
-187.6276
  0
LINE
  8
0
  6
CONTINUOUS
 62
     7
 10
-193.7096
 20
-187.6276
 11
-193.2853
 21
-188.0518
  0
LINE
  8
0
  6
CONTINUOUS
 62
     7
 10
-191.5882
 20
-185.5063
 11
-191.164
 21
-185.9305
  0
LINE
  8
0
  6
CONTINUOUS
 62
     7
 10
-193.7095
 20
-185.9305
 11
-193.2853
 21
-186.3548
  0
LINE
  8
0
  6
CONTINUOUS
 62
     7
 10
-193.2853
 20
-185.5063
 11
-192.861
 21
-185.9306
  0
LINE
  8
0
  6
CONTINUOUS
 62
     7
 10
-192.0125
 20
-185.9306
 11
-191.5882
 21
-185.5063
  0
LINE
  8
0
  6
CONTINUOUS
 62
     7
 10
-191.5882
 20
-186.3549
 11
-191.1639
 21
-185.9306
  0
LINE
  8
0
  6
CONTINUOUS
 62
     7
 10
-192.0125
 20
-187.6276
 11
-191.5882
 21
-188.0518
  0
LINE
  8
0
  6
CONTINUOUS
 62
     7
 10
-191.5882
 20
-187.2034
 11
-191.164
 21
-187.6276
  0
LINE
  8
0
  6
CONTINUOUS
 62
     7
 10
-172.7095
 20
-173.9305
 11
-172.2852
 21
-173.5063
  0
LINE
  8
0
  6
CONTINUOUS
 62
     7
 10
-170.5882
 20
-176.0519
 11
-170.1639
 21
-175.6276
  0
LINE
  8
0
  6
CONTINUOUS
 62
     7
 10
-172.7095
 20
-175.6276
 11
-172.2853
 21
-175.2034
  0
LINE
  8
0
  6
CONTINUOUS
 62
     7
 10
-172.2852
 20
-176.0519
 11
-171.861
 21
-175.6276
  0
LINE
  8
0
  6
CONTINUOUS
 62
     7
 10
-168.4368
 20
-188.279
 11
-150.4368
 21
-188.279
  0
LINE
  8
0
  6
CONTINUOUS
 62
     7
 10
-168.4368
 20
-173.279
 11
-150.4368
 21
-173.279
  0
LINE
  8
0
  6
CONTINUOUS
 62
     7
 10
-149.9368
 20
-173.779
 11
-149.9368
 21
-187.779
  0
LINE
  8
0
  6
CONTINUOUS
 62
     7
 10
63.01199
 20
-42.17162
 11
63.01199
 21
-40.99979
  0
LINE
  8
0
  6
CONTINUOUS
 62
     7
 10
68.612
 20
-42.17162
 11
68.612
 21
-40.99979
  0
LINE
  8
0
  6
CONTINUOUS
 62
     7
 10
41.812
 20
23.20021
 11
68.812
 21
23.20021
  0
LINE
  8
0
  6
CENTER
 62
     2
 10
55.312
 20
55.75021
 11
55.312
 21
-47.74979
  0
LINE
  8
0
  6
CONTINUOUS
 62
     7
 10
68.812
 20
23.20021
 11
68.812
 21
-43.89978
  0
LINE
  8
0
  6
CONTINUOUS
 62
     7
 10
42.312
 20
-44.39978
 11
68.312
 21
-44.39978
  0
LINE
  8
0
  6
CONTINUOUS
 62
     7
 10
42.81202
 20
24.20012
 11
41.81202
 21
23.20011
  0
LINE
  8
0
  6
CONTINUOUS
 62
     7
 10
67.81199
 20
24.20023
 11
68.81199
 21
23.20023
  0
LINE
  8
0
  6
CONTINUOUS
 62
     7
 10
65.812
 20
-28.34148
 11
68.812
 21
-28.34148
  0
LINE
  8
0
  6
CONTINUOUS
 62
     7
 10
65.812
 20
-31.65811
 11
68.812
 21
-31.65811
  0
LINE
  8
0
  6
CONTINUOUS
 62
     7
 10
65.812
 20
-28.34148
 11
65.812
 21
-31.65811
  0
LINE
  8
0
  6
CONTINUOUS
 62
     7
 10
42.81201
 20
24.20021
 11
86.812
 21
24.20021
  0
LINE
  8
0
  6
CENTER
 62
     2
 10
65.812
 20
-40.1245
 11
65.812
 21
-45.57201
  0
LINE
  8
0
  6
CONTINUOUS
 62
     7
 10
63.112
 20
-40.99979
 11
68.312
 21
-40.99979
  0
LINE
  8
0
  6
CONTINUOUS
 62
     7
 10
62.612
 20
-41.49979
 11
62.612
 21
-43.89978
  0
LINE
  8
0
  6
CONTINUOUS
 62
     7
 10
41.81204
 20
-35.99979
 11
68.812
 21
-35.99979
  0
LINE
  8
0
  6
CONTINUOUS
 62
     7
 10
41.81204
 20
6.00021
 11
68.812
 21
6.00021
  0
LINE
  8
0
  6
CONTINUOUS
 62
     7
 10
41.81204
 20
23.20021
 11
41.81204
 21
-43.89978
  0
LINE
  8
0
  6
CONTINUOUS
 62
     7
 10
43.312
 20
49.40021
 11
68.312
 21
49.40021
  0
LINE
  8
0
  6
CONTINUOUS
 62
     7
 10
43.312
 20
54.90021
 11
43.312
 21
24.20021
  0
LINE
  8
0
  6
CONTINUOUS
 62
     7
 10
67.312
 20
49.40021
 11
67.312
 21
24.20021
  0
LINE
  8
0
  6
CONTINUOUS
 62
     7
 10
61.612
 20
50.40021
 11
67.01199
 21
50.40021
  0
LINE
  8
0
  6
CENTER
 62
     2
 10
64.312
 20
57.90021
 11
64.312
 21
46.40021
  0
LINE
  8
0
  6
CONTINUOUS
 62
     7
 10
66.862
 20
51.00021
 11
61.76199
 21
51.00021
  0
LINE
  8
0
  6
CONTINUOUS
 62
     7
 10
64.01199
 20
50.40022
 11
63.85122
 21
51.0002
  0
LINE
  8
0
  6
CONTINUOUS
 62
     7
 10
64.61201
 20
51.00019
 11
64.77278
 21
50.4002
  0
LINE
  8
0
  6
CONTINUOUS
 62
     7
 10
66.862
 20
51.00021
 11
66.862
 21
50.40021
  0
LINE
  8
0
  6
CONTINUOUS
 62
     7
 10
61.76199
 20
51.00021
 11
61.76199
 21
50.40021
  0
LINE
  8
0
  6
CONTINUOUS
 62
     7
 10
66.56201
 20
51.69397
 11
66.56201
 21
51.00021
  0
LINE
  8
0
  6
CONTINUOUS
 62
     7
 10
62.06201
 20
51.69397
 11
62.06201
 21
51.00021
  0
LINE
  8
0
  6
CENTER
 62
     2
 10
46.312
 20
57.90021
 11
46.312
 21
46.40021
  0
LINE
  8
0
  6
CONTINUOUS
 62
     7
 10
87.312
 20
54.2002
 11
87.312
 21
24.70021
  0
LINE
  8
0
  6
CONTINUOUS
 62
     7
 10
67.312
 20
49.2002
 11
68.312
 21
49.2002
  0
LINE
  8
0
  6
CONTINUOUS
 62
     7
 10
68.312
 20
49.2002
 11
68.312
 21
56.7002
  0
LINE
  8
0
  6
CONTINUOUS
 62
     7
 10
43.312
 20
54.90021
 11
68.312
 21
54.90021
  0
LINE
  8
0
  6
CONTINUOUS
 62
     7
 10
61.612
 20
54.90021
 11
61.612
 21
50.40021
  0
LINE
  8
0
  6
CONTINUOUS
 62
     7
 10
67.01199
 20
54.90021
 11
67.01199
 21
50.40021
  0
LINE
  8
0
  6
CENTER
 62
     2
 10
70.312
 20
79.7002
 11
70.312
 21
51.7002
  0
LINE
  8
0
  6
CONTINUOUS
 62
     7
 10
71.162
 20
66.7002
 11
71.162
 21
62.2489
  0
LINE
  8
0
  6
CONTINUOUS
 62
     7
 10
69.46199
 20
66.7002
 11
69.46199
 21
62.70441
  0
LINE
  8
0
  6
CONTINUOUS
 62
     7
 10
69.992
 20
76.7002
 11
69.992
 21
66.7002
  0
LINE
  8
0
  6
CONTINUOUS
 62
     7
 10
70.63199
 20
76.7002
 11
70.63199
 21
66.7002
  0
LINE
  8
0
  6
CONTINUOUS
 62
     7
 10
69.46199
 20
66.7002
 11
71.162
 21
66.7002
  0
LINE
  8
0
  6
CONTINUOUS
 62
     7
 10
69.992
 20
76.7002
 11
70.63199
 21
76.7002
  0
LINE
  8
0
  6
PHANTOM
 62
     2
 10
67.46198
 20
61.68738
 11
73.16199
 21
60.16007
  0
LINE
  8
0
  6
PHANTOM
 62
     2
 10
67.462
 20
63.24026
 11
73.16199
 21
61.71295
  0
LINE
  8
0
  6
CONTINUOUS
 62
     7
 10
69.46199
 20
61.15149
 11
69.46199
 21
56.7002
  0
LINE
  8
0
  6
CONTINUOUS
 62
     7
 10
71.162
 20
60.69598
 11
71.162
 21
56.7002
  0
LINE
  8
0
  6
CONTINUOUS
 62
     7
 10
68.312
 20
54.7002
 11
86.812
 21
54.7002
  0
LINE
  8
0
  6
CONTINUOUS
 62
     7
 10
73.312
 20
54.7002
 11
73.312
 21
56.2002
  0
LINE
  8
0
  6
CONTINUOUS
 62
     7
 10
68.312
 20
56.7002
 11
72.812
 21
56.7002
  0
LINE
  8
0
  6
CONTINUOUS
 62
     7
 10
161.4372
 20
122.6773
 11
160.9372
 21
122.6773
  0
LINE
  8
0
  6
CONTINUOUS
 62
     7
 10
176.4372
 20
121.6773
 11
177.4372
 21
121.6773
  0
LINE
  8
0
  6
CENTER
 62
     2
 10
168.9372
 20
151.0735
 11
168.9372
 21
100.7345
  0
LINE
  8
0
  6
CONTINUOUS
 62
     7
 10
177.9372
 20
148.1773
 11
177.9372
 21
122.1773
  0
LINE
  8
0
  6
CONTINUOUS
 62
     7
 10
159.9372
 20
148.1773
 11
159.9372
 21
122.1773
  0
LINE
  8
0
  6
CONTINUOUS
 62
     7
 10
160.4372
 20
121.6773
 11
161.4372
 21
121.6773
  0
LINE
  8
0
  6
CONTINUOUS
 62
     7
 10
160.4372
 20
148.6773
 11
177.4372
 21
148.6773
  0
LINE
  8
0
  6
CENTER
 62
     2
 10
157.1872
 20
135.1773
 11
181.1646
 21
135.1773
  0
LINE
  8
0
  6
CONTINUOUS
 62
     7
 10
176.9372
 20
147.6772
 11
176.9372
 21
122.6773
  0
LINE
  8
0
  6
CONTINUOUS
 62
     7
 10
160.9372
 20
147.6772
 11
160.9372
 21
122.6773
  0
LINE
  8
0
  6
CONTINUOUS
 62
     7
 10
176.9372
 20
147.6772
 11
160.9372
 21
147.6772
  0
LINE
  8
0
  6
CONTINUOUS
 62
     7
 10
176.9372
 20
122.6773
 11
176.4372
 21
122.6773
  0
LINE
  8
0
  6
CONTINUOUS
 62
     7
 10
160.9372
 20
122.6772
 11
160.0836
 21
121.8237
  0
LINE
  8
0
  6
CONTINUOUS
 62
     7
 10
160.9371
 20
147.6773
 11
160.0836
 21
148.5308
  0
LINE
  8
0
  6
CONTINUOUS
 62
     7
 10
176.9371
 20
122.6773
 11
177.7907
 21
121.8237
  0
LINE
  8
0
  6
CONTINUOUS
 62
     7
 10
176.9372
 20
147.6773
 11
177.7907
 21
148.5308
  0
LINE
  8
0
  6
CONTINUOUS
 62
     7
 10
176.4372
 20
123.1773
 11
161.4372
 21
123.1773
  0
LINE
  8
0
  6
CONTINUOUS
 62
     7
 10
162.2073
 20
125.8773
 11
161.9049
 21
125.8773
  0
LINE
  8
0
  6
CONTINUOUS
 62
     7
 10
162.2073
 20
126.4773
 11
161.9049
 21
126.4773
  0
LINE
  8
0
  6
CONTINUOUS
 62
     7
 10
161.9292
 20
126.6381
 11
162.2349
 21
126.6381
  0
LINE
  8
0
  6
CONTINUOUS
 62
     7
 10
175.6671
 20
144.4773
 11
175.9695
 21
144.4773
  0
LINE
  8
0
  6
CONTINUOUS
 62
     7
 10
175.6671
 20
143.8773
 11
175.9695
 21
143.8773
  0
LINE
  8
0
  6
CONTINUOUS
 62
     7
 10
175.9452
 20
143.7165
 11
175.6395
 21
143.7165
  0
LINE
  8
0
  6
CONTINUOUS
 62
     7
 10
163.7018
 20
127.2804
 11
164.0695
 21
126.9127
  0
LINE
  8
0
  6
CONTINUOUS
 62
     7
 10
163.3341
 20
126.9127
 11
163.7018
 21
126.545
  0
LINE
  8
0
  6
CONTINUOUS
 62
     7
 10
163.7018
 20
127.2804
 11
163.3341
 21
126.9127
  0
LINE
  8
0
  6
CONTINUOUS
 62
     7
 10
165.5403
 20
125.4419
 11
165.1726
 21
125.0742
  0
LINE
  8
0
  6
CONTINUOUS
 62
     7
 10
165.8336
 20
127.9415
 11
164.8049
 21
126.9127
  0
LINE
  8
0
  6
CONTINUOUS
 62
     7
 10
166.2014
 20
127.5738
 11
165.1726
 21
126.545
  0
LINE
  8
0
  6
CONTINUOUS
 62
     7
 10
165.1726
 20
125.8096
 11
165.5403
 21
125.4419
  0
LINE
  8
0
  6
CONTINUOUS
 62
     7
 10
164.8049
 20
125.4419
 11
165.1726
 21
125.0742
  0
LINE
  8
0
  6
CONTINUOUS
 62
     7
 10
163.7018
 20
125.8096
 11
162.673
 21
124.7808
  0
LINE
  8
0
  6
CONTINUOUS
 62
     7
 10
164.0695
 20
125.4419
 11
163.0407
 21
124.4131
  0
LINE
  8
0
  6
CONTINUOUS
 62
     7
 10
172.7018
 20
145.2804
 11
173.0695
 21
144.9127
  0
LINE
  8
0
  6
CONTINUOUS
 62
     7
 10
172.3341
 20
144.9127
 11
172.7018
 21
144.545
  0
LINE
  8
0
  6
CONTINUOUS
 62
     7
 10
172.7018
 20
145.2803
 11
172.3341
 21
144.9127
  0
LINE
  8
0
  6
CONTINUOUS
 62
     7
 10
174.5403
 20
143.4419
 11
174.1725
 21
143.0742
  0
LINE
  8
0
  6
CONTINUOUS
 62
     7
 10
174.8336
 20
145.9415
 11
173.8049
 21
144.9127
  0
LINE
  8
0
  6
CONTINUOUS
 62
     7
 10
175.2014
 20
145.5738
 11
174.1726
 21
144.545
  0
LINE
  8
0
  6
CONTINUOUS
 62
     7
 10
174.1726
 20
143.8096
 11
174.5403
 21
143.4419
  0
LINE
  8
0
  6
CONTINUOUS
 62
     7
 10
173.8049
 20
143.4419
 11
174.1726
 21
143.0742
  0
LINE
  8
0
  6
CONTINUOUS
 62
     7
 10
172.7018
 20
143.8096
 11
171.673
 21
142.7808
  0
LINE
  8
0
  6
CONTINUOUS
 62
     7
 10
173.0695
 20
143.4419
 11
172.0407
 21
142.4131
  0
LINE
  8
0
  6
CENTER
 62
     2
 10
168.4372
 20
126.1773
 11
160.4372
 21
126.1773
  0
LINE
  8
0
  6
CENTER
 62
     2
 10
177.4372
 20
144.1773
 11
169.4372
 21
144.1773
  0
LINE
  8
0
  6
CENTER
 62
     2
 10
173.4372
 20
148.1773
 11
173.4372
 21
140.1773
  0
LINE
  8
0
  6
CENTER
 62
     2
 10
164.4372
 20
130.1773
 11
164.4372
 21
122.1773
  0
LINE
  8
0
  6
CONTINUOUS
 62
     7
 10
176.4372
 20
146.6773
 11
176.4372
 21
103.6773
  0
LINE
  8
0
  6
CONTINUOUS
 62
     7
 10
175.9372
 20
147.1773
 11
161.9372
 21
147.1773
  0
LINE
  8
0
  6
CONTINUOUS
 62
     7
 10
161.4372
 20
146.6773
 11
161.4372
 21
103.6773
  0
LINE
  8
0
  6
CONTINUOUS
 62
     7
 10
175.9372
 20
103.1773
 11
161.9372
 21
103.1773
  0
LINE
  8
0
  6
CONTINUOUS
 62
     7
 10
176.4372
 20
122.1773
 11
161.4372
 21
122.1773
  0
LINE
  8
0
  6
CONTINUOUS
 62
     7
 10
164.4372
 20
128.8773
 11
161.4372
 21
128.8773
  0
LINE
  8
0
  6
CONTINUOUS
 62
     7
 10
164.4372
 20
123.4773
 11
161.4372
 21
123.4773
  0
LINE
  8
0
  6
CENTER
 62
     2
 10
172.3372
 20
121.6773
 11
172.3372
 21
118.6773
  0
LINE
  8
0
  6
CENTER
 62
     2
 10
170.1872
 20
121.6773
 11
170.1872
 21
118.6773
  0
LINE
  8
0
  6
CENTER
 62
     2
 10
167.6872
 20
121.6773
 11
167.6872
 21
118.6773
  0
LINE
  8
0
  6
CENTER
 62
     2
 10
165.5372
 20
121.6773
 11
165.5372
 21
118.6773
  0
LINE
  8
0
  6
CENTER
 62
     2
 10
175.9372
 20
120.1773
 11
161.9372
 21
120.1773
  0
LINE
  8
0
  6
CONTINUOUS
 62
     7
 10
174.9372
 20
122.1773
 11
174.9372
 21
119.1773
  0
LINE
  8
0
  6
CONTINUOUS
 62
     7
 10
172.9372
 20
117.1773
 11
164.9372
 21
117.1773
  0
LINE
  8
0
  6
CONTINUOUS
 62
     7
 10
162.9372
 20
122.1773
 11
162.9372
 21
119.1773
  0
LINE
  8
0
  6
CONTINUOUS
 62
     7
 10
170.7372
 20
144.1773
 11
170.7372
 21
147.1773
  0
LINE
  8
0
  6
CONTINUOUS
 62
     7
 10
173.4372
 20
141.4773
 11
176.4372
 21
141.4773
  0
LINE
  8
0
  6
CENTER
 62
     2
 10
168.9368
 20
59.94101
 11
168.9368
 21
-49.21667
  0
LINE
  8
0
  6
CONTINUOUS
 62
     7
 10
177.9368
 20
23.2
 11
177.9368
 21
-43.89999
  0
LINE
  8
0
  6
CONTINUOUS
 62
     7
 10
159.9368
 20
23.2
 11
159.9368
 21
-43.89999
  0
LINE
  8
0
  6
CONTINUOUS
 62
     7
 10
159.9368
 20
6.0
 11
177.9368
 21
6.0
  0
LINE
  8
0
  6
CONTINUOUS
 62
     7
 10
159.9368
 20
-36.0
 11
177.9368
 21
-36.0
  0
LINE
  8
0
  6
CONTINUOUS
 62
     7
 10
160.4368
 20
-44.39999
 11
177.4368
 21
-44.39999
  0
LINE
  8
0
  6
CONTINUOUS
 62
     7
 10
160.9368
 20
24.2
 11
159.9368
 21
23.19999
  0
LINE
  8
0
  6
CONTINUOUS
 62
     7
 10
176.9368
 20
24.19998
 11
177.9368
 21
23.19998
  0
LINE
  8
0
  6
CENTER
 62
     2
 10
175.4368
 20
4.59129
 11
175.4368
 21
-4.41667
  0
LINE
  8
0
  6
CENTER
 62
     2
 10
162.4368
 20
-25.88725
 11
162.4368
 21
-34.29189
  0
LINE
  8
0
  6
CENTER
 62
     2
 10
159.5246
 20
-30.0
 11
166.5951
 21
-30.0
  0
LINE
  8
0
  6
CENTER
 62
     2
 10
171.0902
 20
0.0
 11
178.5211
 21
0.0
  0
LINE
  8
0
  6
CENTER
 62
     2
 10
166.0151
 20
20.7
 11
171.8465
 21
20.7
  0
LINE
  8
0
  6
CONTINUOUS
 62
     7
 10
160.9368
 20
24.2
 11
176.9368
 21
24.2
  0
LINE
  8
0
  6
CENTER
 62
     2
 10
162.9368
 20
-39.90575
 11
162.9368
 21
-45.85532
  0
LINE
  8
0
  6
CONTINUOUS
 62
     7
 10
166.1368
 20
-41.5
 11
166.1368
 21
-43.89999
  0
LINE
  8
0
  6
CONTINUOUS
 62
     7
 10
160.4368
 20
-41.0
 11
165.6368
 21
-41.0
  0
LINE
  8
0
  6
CONTINUOUS
 62
     7
 10
160.1368
 20
-42.17183
 11
160.1368
 21
-41.0
  0
LINE
  8
0
  6
CONTINUOUS
 62
     7
 10
165.7368
 20
-42.17183
 11
165.7368
 21
-41.0
  0
LINE
  8
0
  6
CONTINUOUS
 62
     7
 10
159.9368
 20
23.2
 11
177.9368
 21
23.2
  0
LINE
  8
0
  6
CONTINUOUS
 62
     7
 10
161.4368
 20
54.89999
 11
161.4368
 21
24.2
  0
LINE
  8
0
  6
CONTINUOUS
 62
     7
 10
176.4368
 20
54.89999
 11
176.4368
 21
24.2
  0
LINE
  8
0
  6
CONTINUOUS
 62
     7
 10
166.9368
 20
35.0
 11
170.9368
 21
35.0
  0
LINE
  8
0
  6
CONTINUOUS
 62
     7
 10
166.9368
 20
33.0
 11
170.9368
 21
33.0
  0
LINE
  8
0
  6
CONTINUOUS
 62
     7
 10
170.9368
 20
35.0
 11
170.9368
 21
33.0
  0
LINE
  8
0
  6
CONTINUOUS
 62
     7
 10
166.9368
 20
35.0
 11
166.9368
 21
33.0
  0
LINE
  8
0
  6
CONTINUOUS
 62
     7
 10
166.4368
 20
35.5
 11
171.4368
 21
35.5
  0
LINE
  8
0
  6
CONTINUOUS
 62
     7
 10
166.4368
 20
35.5
 11
166.4368
 21
32.5
  0
LINE
  8
0
  6
CONTINUOUS
 62
     7
 10
166.4368
 20
32.5
 11
171.4368
 21
32.5
  0
LINE
  8
0
  6
CONTINUOUS
 62
     7
 10
171.4368
 20
35.5
 11
171.4368
 21
32.5
  0
LINE
  8
0
  6
CONTINUOUS
 62
     7
 10
166.9368
 20
34.99999
 11
166.4368
 21
35.49999
  0
LINE
  8
0
  6
CONTINUOUS
 62
     7
 10
166.9368
 20
32.99998
 11
166.4368
 21
32.49999
  0
LINE
  8
0
  6
CONTINUOUS
 62
     7
 10
170.9368
 20
33.0
 11
171.4368
 21
32.5
  0
LINE
  8
0
  6
CONTINUOUS
 62
     7
 10
170.9368
 20
34.99999
 11
171.4368
 21
35.5
  0
LINE
  8
0
  6
CONTINUOUS
 62
     7
 10
163.4368
 20
53.70001
 11
174.4368
 21
53.70001
  0
LINE
  8
0
  6
CONTINUOUS
 62
     7
 10
163.4368
 20
43.70001
 11
174.4368
 21
43.70001
  0
LINE
  8
0
  6
CONTINUOUS
 62
     7
 10
163.4368
 20
53.70001
 11
163.4368
 21
43.70001
  0
LINE
  8
0
  6
CONTINUOUS
 62
     7
 10
174.4368
 20
53.70001
 11
174.4368
 21
43.70001
  0
LINE
  8
0
  6
CONTINUOUS
 62
     7
 10
167.4094
 20
39.71827
 11
167.9185
 21
40.22739
  0
LINE
  8
0
  6
CONTINUOUS
 62
     7
 10
169.955
 20
37.17267
 11
170.4641
 21
37.68179
  0
LINE
  8
0
  6
CONTINUOUS
 62
     7
 10
167.4094
 20
37.68177
 11
167.9185
 21
38.19089
  0
LINE
  8
0
  6
CONTINUOUS
 62
     7
 10
167.9185
 20
37.17263
 11
168.4277
 21
37.68175
  0
LINE
  8
0
  6
CONTINUOUS
 62
     7
 10
169.9551
 20
40.22738
 11
170.4642
 21
39.71826
  0
LINE
  8
0
  6
CONTINUOUS
 62
     7
 10
167.4095
 20
37.6818
 11
167.9186
 21
37.17268
  0
LINE
  8
0
  6
CONTINUOUS
 62
     7
 10
167.9186
 20
40.22739
 11
168.4277
 21
39.71827
  0
LINE
  8
0
  6
CONTINUOUS
 62
     7
 10
167.4095
 20
39.71824
 11
167.9186
 21
39.20912
  0
LINE
  8
0
  6
CONTINUOUS
 62
     7
 10
169.4459
 20
37.68178
 11
169.955
 21
37.17266
  0
LINE
  8
0
  6
CONTINUOUS
 62
     7
 10
169.955
 20
38.19092
 11
170.4642
 21
37.6818
  0
LINE
  8
0
  6
CONTINUOUS
 62
     7
 10
169.955
 20
39.20911
 11
170.4641
 21
39.71822
  0
LINE
  8
0
  6
CONTINUOUS
 62
     7
 10
169.4459
 20
39.71825
 11
169.955
 21
40.22736
  0
LINE
  8
0
  6
CENTER
 62
     2
 10
172.3368
 20
79.70001
 11
172.3368
 21
51.70001
  0
LINE
  8
0
  6
CONTINUOUS
 62
     7
 10
173.1868
 20
66.70001
 11
173.1868
 21
61.33768
  0
LINE
  8
0
  6
CONTINUOUS
 62
     7
 10
171.4868
 20
66.70001
 11
171.4868
 21
61.79318
  0
LINE
  8
0
  6
CONTINUOUS
 62
     7
 10
172.0168
 20
76.70001
 11
172.0168
 21
66.70001
  0
LINE
  8
0
  6
CONTINUOUS
 62
     7
 10
172.6568
 20
76.70001
 11
172.6568
 21
66.70001
  0
LINE
  8
0
  6
CONTINUOUS
 62
     7
 10
171.4868
 20
66.70001
 11
173.1868
 21
66.70001
  0
LINE
  8
0
  6
CONTINUOUS
 62
     7
 10
172.0168
 20
76.70001
 11
172.6568
 21
76.70001
  0
LINE
  8
0
  6
CENTER
 62
     2
 10
165.5368
 20
79.70001
 11
165.5368
 21
51.70001
  0
LINE
  8
0
  6
CONTINUOUS
 62
     7
 10
166.3868
 20
66.70001
 11
166.3868
 21
63.15973
  0
LINE
  8
0
  6
CONTINUOUS
 62
     7
 10
164.6868
 20
66.70001
 11
164.6868
 21
63.61523
  0
LINE
  8
0
  6
CONTINUOUS
 62
     7
 10
165.2168
 20
76.70001
 11
165.2168
 21
66.70001
  0
LINE
  8
0
  6
CONTINUOUS
 62
     7
 10
165.8568
 20
76.70001
 11
165.8568
 21
66.70001
  0
LINE
  8
0
  6
CONTINUOUS
 62
     7
 10
164.6868
 20
66.70001
 11
166.3868
 21
66.70001
  0
LINE
  8
0
  6
CONTINUOUS
 62
     7
 10
165.2168
 20
76.70001
 11
165.8568
 21
76.70001
  0
LINE
  8
0
  6
CENTER
 62
     2
 10
167.6868
 20
79.70001
 11
167.6868
 21
51.70001
  0
LINE
  8
0
  6
CONTINUOUS
 62
     7
 10
168.5368
 20
66.70001
 11
168.5368
 21
62.58362
  0
LINE
  8
0
  6
CONTINUOUS
 62
     7
 10
166.8368
 20
66.70001
 11
166.8368
 21
63.03915
  0
LINE
  8
0
  6
CONTINUOUS
 62
     7
 10
167.3668
 20
76.70001
 11
167.3668
 21
66.70001
  0
LINE
  8
0
  6
CONTINUOUS
 62
     7
 10
168.0068
 20
76.70001
 11
168.0068
 21
66.70001
  0
LINE
  8
0
  6
CONTINUOUS
 62
     7
 10
166.8368
 20
66.70001
 11
168.5368
 21
66.70001
  0
LINE
  8
0
  6
CONTINUOUS
 62
     7
 10
167.3668
 20
76.70001
 11
168.0068
 21
76.70001
  0
LINE
  8
0
  6
CENTER
 62
     2
 10
170.1868
 20
79.70001
 11
170.1868
 21
51.70001
  0
LINE
  8
0
  6
CONTINUOUS
 62
     7
 10
171.0368
 20
66.70001
 11
171.0368
 21
61.91376
  0
LINE
  8
0
  6
CONTINUOUS
 62
     7
 10
169.3368
 20
66.70001
 11
169.3368
 21
62.36926
  0
LINE
  8
0
  6
CONTINUOUS
 62
     7
 10
169.8668
 20
76.70001
 11
169.8668
 21
66.70001
  0
LINE
  8
0
  6
CONTINUOUS
 62
     7
 10
170.5068
 20
76.70001
 11
170.5068
 21
66.70001
  0
LINE
  8
0
  6
CONTINUOUS
 62
     7
 10
169.3368
 20
66.70001
 11
171.0368
 21
66.70001
  0
LINE
  8
0
  6
CONTINUOUS
 62
     7
 10
169.8668
 20
76.70001
 11
170.5068
 21
76.70001
  0
LINE
  8
0
  6
CONTINUOUS
 62
     7
 10
174.9368
 20
54.89999
 11
176.4368
 21
54.89999
  0
LINE
  8
0
  6
CONTINUOUS
 62
     7
 10
161.4368
 20
54.89999
 11
162.9368
 21
54.89999
  0
LINE
  8
0
  6
CENTER
 62
     2
 10
164.9368
 20
34.0
 11
172.9368
 21
34.0
  0
LINE
  8
0
  6
CENTER
 62
     2
 10
163.9368
 20
38.70001
 11
173.9368
 21
38.70001
  0
LINE
  8
0
  6
PHANTOM
 62
     2
 10
162.6868
 20
64.15109
 11
175.1868
 21
60.80173
  0
LINE
  8
0
  6
PHANTOM
 62
     2
 10
162.6868
 20
62.59822
 11
175.1868
 21
59.24886
  0
LINE
  8
0
  6
CONTINUOUS
 62
     7
 10
164.6868
 20
62.06232
 11
164.6868
 21
56.70001
  0
LINE
  8
0
  6
CONTINUOUS
 62
     7
 10
166.3868
 20
61.60681
 11
166.3868
 21
56.70001
  0
LINE
  8
0
  6
CONTINUOUS
 62
     7
 10
166.8368
 20
61.48624
 11
166.8368
 21
56.70001
  0
LINE
  8
0
  6
CONTINUOUS
 62
     7
 10
168.5368
 20
61.0307
 11
168.5368
 21
56.70001
  0
LINE
  8
0
  6
CONTINUOUS
 62
     7
 10
169.3368
 20
60.81635
 11
169.3368
 21
56.70001
  0
LINE
  8
0
  6
CONTINUOUS
 62
     7
 10
171.0368
 20
60.36084
 11
171.0368
 21
56.70001
  0
LINE
  8
0
  6
CONTINUOUS
 62
     7
 10
171.4868
 20
60.24026
 11
171.4868
 21
56.70001
  0
LINE
  8
0
  6
CONTINUOUS
 62
     7
 10
173.1868
 20
59.78476
 11
173.1868
 21
56.70001
  0
LINE
  8
0
  6
CONTINUOUS
 62
     7
 10
161.9368
 20
54.70001
 11
175.9368
 21
54.70001
  0
LINE
  8
0
  6
CONTINUOUS
 62
     7
 10
163.4368
 20
56.70001
 11
174.4368
 21
56.70001
  0
LINE
  8
0
  6
CONTINUOUS
 62
     7
 10
162.9368
 20
56.20001
 11
162.9368
 21
54.70001
  0
LINE
  8
0
  6
CONTINUOUS
 62
     7
 10
174.9368
 20
56.20001
 11
174.9368
 21
54.70001
  0
LINE
  8
0
  6
CENTER
 62
     2
 10
285.5612
 20
55.75012
 11
285.5612
 21
-47.74988
  0
LINE
  8
0
  6
CONTINUOUS
 62
     7
 10
272.0612
 20
23.20012
 11
272.0612
 21
-43.89987
  0
LINE
  8
0
  6
CONTINUOUS
 62
     7
 10
298.5612
 20
-44.39987
 11
272.5612
 21
-44.39987
  0
LINE
  8
0
  6
CONTINUOUS
 62
     7
 10
298.061
 20
24.20005
 11
299.061
 21
23.20004
  0
LINE
  8
0
  6
CONTINUOUS
 62
     7
 10
273.0611
 20
24.20009
 11
272.0611
 21
23.20008
  0
LINE
  8
0
  6
CONTINUOUS
 62
     7
 10
275.0612
 20
-1.65819
 11
272.0612
 21
-1.65819
  0
LINE
  8
0
  6
CONTINUOUS
 62
     7
 10
275.0612
 20
1.65845
 11
272.0612
 21
1.65845
  0
LINE
  8
0
  6
CONTINUOUS
 62
     7
 10
275.0612
 20
-1.65819
 11
275.0612
 21
1.65843
  0
LINE
  8
0
  6
CONTINUOUS
 62
     7
 10
298.0611
 20
24.20012
 11
254.0612
 21
24.20012
  0
LINE
  8
0
  6
CENTER
 62
     2
 10
296.0612
 20
-40.12459
 11
296.0612
 21
-45.5721
  0
LINE
  8
0
  6
CONTINUOUS
 62
     7
 10
293.3611
 20
-40.99988
 11
298.5612
 21
-40.99988
  0
LINE
  8
0
  6
CONTINUOUS
 62
     7
 10
292.8611
 20
-41.49988
 11
292.8611
 21
-43.89987
  0
LINE
  8
0
  6
CONTINUOUS
 62
     7
 10
293.2611
 20
-42.17171
 11
293.2611
 21
-40.99988
  0
LINE
  8
0
  6
CONTINUOUS
 62
     7
 10
298.8611
 20
-42.17171
 11
298.8611
 21
-40.99988
  0
LINE
  8
0
  6
CONTINUOUS
 62
     7
 10
299.0612
 20
23.20012
 11
272.0612
 21
23.20012
  0
LINE
  8
0
  6
CONTINUOUS
 62
     7
 10
299.0612
 20
-35.99988
 11
272.0612
 21
-35.99988
  0
LINE
  8
0
  6
CONTINUOUS
 62
     7
 10
299.0612
 20
23.20012
 11
299.0612
 21
-43.89987
  0
LINE
  8
0
  6
CONTINUOUS
 62
     7
 10
299.0612
 20
6.00012
 11
272.0612
 21
6.00012
  0
LINE
  8
0
  6
CONTINUOUS
 62
     7
 10
297.5612
 20
49.40012
 11
272.5612
 21
49.40012
  0
LINE
  8
0
  6
CONTINUOUS
 62
     7
 10
297.5612
 20
54.90012
 11
297.5612
 21
24.20012
  0
LINE
  8
0
  6
CONTINUOUS
 62
     7
 10
273.5612
 20
49.40012
 11
273.5612
 21
24.20012
  0
LINE
  8
0
  6
CENTER
 62
     2
 10
294.5612
 20
57.90012
 11
294.5612
 21
46.40012
  0
LINE
  8
0
  6
CONTINUOUS
 62
     7
 10
297.1111
 20
51.00012
 11
292.0112
 21
51.00012
  0
LINE
  8
0
  6
CONTINUOUS
 62
     7
 10
294.2612
 20
50.40013
 11
294.1004
 21
51.00012
  0
LINE
  8
0
  6
CONTINUOUS
 62
     7
 10
294.8611
 20
51.00011
 11
295.0219
 21
50.40011
  0
LINE
  8
0
  6
CONTINUOUS
 62
     7
 10
297.1111
 20
51.00012
 11
297.1111
 21
50.40012
  0
LINE
  8
0
  6
CONTINUOUS
 62
     7
 10
292.0111
 20
51.00012
 11
292.0111
 21
50.40012
  0
LINE
  8
0
  6
CONTINUOUS
 62
     7
 10
296.8111
 20
51.69385
 11
296.8111
 21
51.00012
  0
LINE
  8
0
  6
CONTINUOUS
 62
     7
 10
292.3112
 20
51.69385
 11
292.3112
 21
51.00012
  0
LINE
  8
0
  6
CENTER
 62
     2
 10
276.5612
 20
57.90012
 11
276.5612
 21
46.40012
  0
LINE
  8
0
  6
CONTINUOUS
 62
     7
 10
253.5612
 20
54.20013
 11
253.5612
 21
24.70013
  0
LINE
  8
0
  6
CONTINUOUS
 62
     7
 10
272.5612
 20
54.7001
 11
254.0612
 21
54.7001
  0
LINE
  8
0
  6
CONTINUOUS
 62
     7
 10
272.5612
 20
49.20013
 11
272.5612
 21
56.70013
  0
LINE
  8
0
  6
CONTINUOUS
 62
     7
 10
297.5612
 20
54.90012
 11
272.5612
 21
54.90012
  0
LINE
  8
0
  6
CONTINUOUS
 62
     7
 10
291.8611
 20
54.90012
 11
291.8611
 21
50.40012
  0
LINE
  8
0
  6
CENTER
 62
     2
 10
270.5612
 20
79.70013
 11
270.5612
 21
51.70013
  0
LINE
  8
0
  6
CONTINUOUS
 62
     7
 10
269.7112
 20
66.70013
 11
269.7112
 21
62.70435
  0
LINE
  8
0
  6
CONTINUOUS
 62
     7
 10
271.4111
 20
66.70013
 11
271.4111
 21
62.24884
  0
LINE
  8
0
  6
CONTINUOUS
 62
     7
 10
270.8811
 20
76.70013
 11
270.8811
 21
66.70013
  0
LINE
  8
0
  6
CONTINUOUS
 62
     7
 10
270.2411
 20
76.70013
 11
270.2411
 21
66.70013
  0
LINE
  8
0
  6
CONTINUOUS
 62
     7
 10
271.4112
 20
66.70013
 11
269.7112
 21
66.70013
  0
LINE
  8
0
  6
CONTINUOUS
 62
     7
 10
270.8812
 20
76.70013
 11
270.2411
 21
76.70013
  0
LINE
  8
0
  6
CONTINUOUS
 62
     7
 10
291.8611
 20
50.40012
 11
297.5612
 21
50.40012
  0
LINE
  8
0
  6
CONTINUOUS
 62
     7
 10
272.5612
 20
49.2001
 11
273.5612
 21
49.2001
  0
LINE
  8
0
  6
PHANTOM
 62
     2
 10
267.7111
 20
63.24007
 11
273.4111
 21
61.71276
  0
LINE
  8
0
  6
PHANTOM
 62
     2
 10
267.7111
 20
61.68716
 11
273.4111
 21
60.15984
  0
LINE
  8
0
  6
CONTINUOUS
 62
     7
 10
269.7112
 20
61.15143
 11
269.7112
 21
56.70013
  0
LINE
  8
0
  6
CONTINUOUS
 62
     7
 10
271.4111
 20
60.69592
 11
271.4111
 21
56.70013
  0
LINE
  8
0
  6
CONTINUOUS
 62
     7
 10
267.5612
 20
54.70013
 11
267.5612
 21
56.20013
  0
LINE
  8
0
  6
CONTINUOUS
 62
     7
 10
272.5612
 20
56.7001
 11
268.0612
 21
56.7001
  0
LINE
  8
0
  6
CENTER
 62
     2
 10
173.937
 20
-167.8066
 11
173.937
 21
-160.9491
  0
LINE
  8
0
  6
CENTER
 62
     2
 10
163.937
 20
-186.4278
 11
163.937
 21
-179.9048
  0
LINE
  8
0
  6
CENTER
 62
     2
 10
170.5396
 20
-164.2791
 11
177.1184
 21
-164.2791
  0
LINE
  8
0
  6
CENTER
 62
     2
 10
160.6157
 20
-183.2791
 11
167.3617
 21
-183.2791
  0
LINE
  8
0
  6
CONTINUOUS
 62
     7
 10
163.7855
 20
-162.8549
 11
164.2098
 21
-162.4306
  0
LINE
  8
0
  6
CONTINUOUS
 62
     7
 10
162.5127
 20
-162.4306
 11
162.0885
 21
-162.0063
  0
LINE
  8
0
  6
CONTINUOUS
 62
     7
 10
162.0885
 20
-162.8549
 11
161.6642
 21
-162.4306
  0
LINE
  8
0
  6
CONTINUOUS
 62
     7
 10
161.6642
 20
-164.1277
 11
162.0885
 21
-163.7034
  0
LINE
  8
0
  6
CONTINUOUS
 62
     7
 10
162.0885
 20
-164.552
 11
162.5127
 21
-164.1277
  0
LINE
  8
0
  6
CONTINUOUS
 62
     7
 10
161.6642
 20
-162.4306
 11
162.0884
 21
-162.0063
  0
LINE
  8
0
  6
CONTINUOUS
 62
     7
 10
163.7855
 20
-164.552
 11
164.2098
 21
-164.1277
  0
LINE
  8
0
  6
CONTINUOUS
 62
     7
 10
163.3613
 20
-162.4306
 11
163.7855
 21
-162.0064
  0
LINE
  8
0
  6
CENTER
 62
     2
 10
157.187
 20
-173.7791
 11
181.1644
 21
-173.7791
  0
LINE
  8
0
  6
CENTER
 62
     2
 10
168.937
 20
-189.6754
 11
168.937
 21
-139.4394
  0
LINE
  8
0
  6
CONTINUOUS
 62
     7
 10
177.937
 20
-186.7791
 11
177.937
 21
-160.7791
  0
LINE
  8
0
  6
CONTINUOUS
 62
     7
 10
159.937
 20
-186.7791
 11
159.937
 21
-160.7791
  0
LINE
  8
0
  6
CONTINUOUS
 62
     7
 10
160.437
 20
-160.2791
 11
177.437
 21
-160.2791
  0
LINE
  8
0
  6
CONTINUOUS
 62
     7
 10
160.437
 20
-187.2791
 11
177.437
 21
-187.2791
  0
LINE
  8
0
  6
CENTER
 62
     2
 10
162.937
 20
-167.417
 11
162.937
 21
-159.1092
  0
LINE
  8
0
  6
CENTER
 62
     2
 10
174.937
 20
-188.4581
 11
174.937
 21
-180.1112
  0
LINE
  8
0
  6
CENTER
 62
     2
 10
170.9047
 20
-184.2791
 11
178.8467
 21
-184.2791
  0
LINE
  8
0
  6
CENTER
 62
     2
 10
159.0799
 20
-163.2791
 11
166.8042
 21
-163.2791
  0
LINE
  8
0
  6
CONTINUOUS
 62
     7
 10
174.937
 20
-181.0791
 11
177.437
 21
-181.0791
  0
LINE
  8
0
  6
CONTINUOUS
 62
     7
 10
171.737
 20
-186.7791
 11
171.737
 21
-184.2791
  0
LINE
  8
0
  6
CONTINUOUS
 62
     7
 10
166.137
 20
-163.2791
 11
166.137
 21
-160.7791
  0
LINE
  8
0
  6
CONTINUOUS
 62
     7
 10
160.437
 20
-166.4791
 11
162.937
 21
-166.4791
  0
LINE
  8
0
  6
CONTINUOUS
 62
     7
 10
174.0885
 20
-185.552
 11
173.6642
 21
-185.1277
  0
LINE
  8
0
  6
CONTINUOUS
 62
     7
 10
176.2098
 20
-183.4306
 11
175.7855
 21
-183.0064
  0
LINE
  8
0
  6
CONTINUOUS
 62
     7
 10
175.7855
 20
-185.5519
 11
175.3612
 21
-185.1277
  0
LINE
  8
0
  6
CONTINUOUS
 62
     7
 10
176.2098
 20
-185.1277
 11
175.7855
 21
-184.7034
  0
LINE
  8
0
  6
CONTINUOUS
 62
     7
 10
175.7855
 20
-185.5519
 11
176.2098
 21
-185.1277
  0
LINE
  8
0
  6
CONTINUOUS
 62
     7
 10
173.6642
 20
-183.4306
 11
174.0885
 21
-183.0064
  0
LINE
  8
0
  6
CONTINUOUS
 62
     7
 10
174.0884
 20
-185.552
 11
174.5127
 21
-185.1277
  0
LINE
  8
0
  6
CONTINUOUS
 62
     7
 10
173.6643
 20
-185.1277
 11
174.0885
 21
-184.7035
  0
LINE
  8
0
  6
CONTINUOUS
 62
     7
 10
174.0885
 20
-183.8549
 11
173.6642
 21
-183.4306
  0
LINE
  8
0
  6
CONTINUOUS
 62
     7
 10
174.5127
 20
-183.4306
 11
174.0885
 21
-183.0063
  0
LINE
  8
0
  6
CONTINUOUS
 62
     7
 10
175.7855
 20
-183.8549
 11
176.2097
 21
-183.4306
  0
LINE
  8
0
  6
CONTINUOUS
 62
     7
 10
175.3613
 20
-183.4307
 11
175.7856
 21
-183.0064
  0
LINE
  8
0
  6
CONTINUOUS
 62
     7
 10
162.0885
 20
-164.5519
 11
161.6642
 21
-164.1277
  0
LINE
  8
0
  6
CONTINUOUS
 62
     7
 10
164.2098
 20
-162.4306
 11
163.7855
 21
-162.0063
  0
LINE
  8
0
  6
CONTINUOUS
 62
     7
 10
163.7855
 20
-164.5519
 11
163.3613
 21
-164.1277
  0
LINE
  8
0
  6
CONTINUOUS
 62
     7
 10
164.2098
 20
-164.1277
 11
163.7855
 21
-163.7034
  0
LINE
  8
0
  6
CONTINUOUS
 62
     7
 10
176.437
 20
-160.2791
 11
176.437
 21
-142.2791
  0
LINE
  8
0
  6
CONTINUOUS
 62
     7
 10
161.437
 20
-160.2791
 11
161.437
 21
-142.2791
  0
LINE
  8
0
  6
CONTINUOUS
 62
     7
 10
161.937
 20
-141.7791
 11
175.937
 21
-141.7791
  0
ARC
  8
0
  6
CONTINUOUS
 62
     7
 10
273.0354
 20
-235.0457
 40
2.21188
 50
0.0
 51
89.99999
  0
ARC
  8
0
  6
CONTINUOUS
 62
     7
 10
291.2836
 20
-246.9346
 40
2.2119
 50
270.0
 51
0.0
  0
ARC
  8
0
  6
CONTINUOUS
 62
     7
 10
290.1776
 20
-236.1516
 40
3.31784
 50
0.0
 51
89.99999
  0
ARC
  8
0
  6
CONTINUOUS
 62
     7
 10
310.3611
 20
-236.8128
 40
2.21189
 50
295.0
 51
0.0
  0
ARC
  8
0
  6
CONTINUOUS
 62
     7
 10
310.3611
 20
-235.0457
 40
2.21188
 50
0.0
 51
89.99999
  0
ARC
  8
0
  6
CONTINUOUS
 62
     7
 10
327.5034
 20
-232.8338
 40
3.31784
 50
291.6884
 51
0.0
  0
ARC
  8
0
  6
CONTINUOUS
 62
     7
 10
326.3973
 20
-232.0834
 40
1.10595
 50
291.689
 51
0.0
  0
ARC
  8
0
  6
CONTINUOUS
 62
     7
 10
-194.9368
 20
-43.89999
 40
0.5
 50
180.0
 51
270.0
  0
ARC
  8
0
  6
CONTINUOUS
 62
     7
 10
-168.9368
 20
-43.89999
 40
0.5
 50
270.0
 51
0.0
  0
ARC
  8
0
  6
CONTINUOUS
 62
     7
 10
-174.1368
 20
-41.5
 40
0.5
 50
89.99999
 51
180.0
  0
ARC
  8
0
  6
CONTINUOUS
 62
     7
 10
-168.9368
 20
-40.5
 40
0.5
 50
270.0
 51
0.0
  0
ARC
  8
0
  6
CONTINUOUS
 62
     7
 10
-175.1368
 20
-43.89999
 40
0.5
 50
270.0
 51
0.0
  0
ARC
  8
0
  6
CONTINUOUS
 62
     7
 10
-171.4368
 20
-38.40001
 40
5.0
 50
240.5077
 51
299.4923
  0
ARC
  8
0
  6
CONTINUOUS
 62
     7
 10
-173.5701
 20
-42.17183
 40
0.66667
 50
180.0
 51
240.5079
  0
ARC
  8
0
  6
CONTINUOUS
 62
     7
 10
-169.3035
 20
-42.17183
 40
0.66666
 50
299.4921
 51
0.0
  0
CIRCLE
  8
0
  6
CONTINUOUS
 62
     7
 10
-174.4368
 20
0.0
 40
1.6
  0
CIRCLE
  8
0
  6
CONTINUOUS
 62
     7
 10
-174.4368
 20
-30.0
 40
1.6
  0
ARC
  8
0
  6
CONTINUOUS
 62
     7
 10
-172.9368
 20
46.7
 40
6.0
 50
73.80862
 51
106.1914
  0
ARC
  8
0
  6
CONTINUOUS
 62
     7
 10
-171.4868
 20
51.69374
 40
0.8
 50
0.0
 51
73.8082
  0
ARC
  8
0
  6
CONTINUOUS
 62
     7
 10
-174.3868
 20
51.69374
 40
0.8
 50
106.1918
 51
180.0
  0
ARC
  8
0
  6
CONTINUOUS
 62
     7
 10
-150.4368
 20
54.2
 40
0.5
 50
0.0
 51
89.99999
  0
ARC
  8
0
  6
CONTINUOUS
 62
     7
 10
-150.4368
 20
24.7
 40
0.5
 50
270.0
 51
0.0
  0
ARC
  8
0
  6
CONTINUOUS
 62
     7
 10
-164.4368
 20
56.2
 40
0.5
 50
0.0
 51
89.99999
  0
ARC
  8
0
  6
CONTINUOUS
 62
     7
 10
-194.9367
 20
133.6775
 40
0.5
 50
180.0
 51
270.0
  0
ARC
  8
0
  6
CONTINUOUS
 62
     7
 10
-168.9367
 20
133.6775
 40
0.5
 50
270.0
 51
0.0
  0
ARC
  8
0
  6
CONTINUOUS
 62
     7
 10
-168.9367
 20
150.6775
 40
0.5
 50
0.0
 51
89.99999
  0
ARC
  8
0
  6
CONTINUOUS
 62
     7
 10
-194.9367
 20
150.6775
 40
0.5
 50
89.99999
 51
180.0
  0
ARC
  8
0
  6
CONTINUOUS
 62
     7
 10
-172.9367
 20
137.6775
 40
2.55
 50
276.7564
 51
263.2436
  0
ARC
  8
0
  6
CONTINUOUS
 62
     7
 10
-190.9367
 20
146.6775
 40
2.55
 50
96.7564
 51
83.24359
  0
CIRCLE
  8
0
  6
CONTINUOUS
 62
     7
 10
-172.9367
 20
137.6775
 40
2.25
  0
ARC
  8
0
  6
CONTINUOUS
 62
     7
 10
-172.9367
 20
138.7806
 40
0.51999
 50
225.0
 51
315.0
  0
ARC
  8
0
  6
CONTINUOUS
 62
     7
 10
-174.0398
 20
137.6775
 40
0.51999
 50
315.0
 51
45.0
  0
ARC
  8
0
  6
CONTINUOUS
 62
     7
 10
-171.8336
 20
137.6775
 40
0.51999
 50
135.0
 51
225.0
  0
ARC
  8
0
  6
CONTINUOUS
 62
     7
 10
-172.9367
 20
136.5744
 40
0.51999
 50
45.0
 51
135.0
  0
CIRCLE
  8
0
  6
CONTINUOUS
 62
     7
 10
-190.9367
 20
146.6775
 40
2.25
  0
ARC
  8
0
  6
CONTINUOUS
 62
     7
 10
-190.9367
 20
147.7806
 40
0.51999
 50
225.0
 51
315.0
  0
ARC
  8
0
  6
CONTINUOUS
 62
     7
 10
-192.0398
 20
146.6775
 40
0.51999
 50
315.0
 51
45.0
  0
ARC
  8
0
  6
CONTINUOUS
 62
     7
 10
-189.8336
 20
146.6775
 40
0.51999
 50
135.0
 51
225.0
  0
ARC
  8
0
  6
CONTINUOUS
 62
     7
 10
-190.9367
 20
145.5744
 40
0.51999
 50
45.0
 51
135.0
  0
ARC
  8
0
  6
CONTINUOUS
 62
     7
 10
-193.4367
 20
149.1775
 40
0.5
 50
89.99999
 51
180.0
  0
ARC
  8
0
  6
CONTINUOUS
 62
     7
 10
-193.4367
 20
135.1775
 40
0.5
 50
180.0
 51
270.0
  0
ARC
  8
0
  6
CONTINUOUS
 62
     7
 10
-172.9367
 20
137.6775
 40
2.7
 50
0.0
 51
180.0
  0
ARC
  8
0
  6
CONTINUOUS
 62
     7
 10
-150.4367
 20
135.1775
 40
0.5
 50
270.0
 51
0.0
  0
ARC
  8
0
  6
CONTINUOUS
 62
     7
 10
-150.4367
 20
149.1775
 40
0.5
 50
0.0
 51
89.99999
  0
ARC
  8
0
  6
CONTINUOUS
 62
     7
 10
-165.9367
 20
146.1775
 40
2.0
 50
0.0
 51
89.99999
  0
ARC
  8
0
  6
CONTINUOUS
 62
     7
 10
-165.9367
 20
138.1775
 40
2.0
 50
270.0
 51
0.0
  0
CIRCLE
  8
0
  6
CONTINUOUS
 62
     7
 10
-166.9367
 20
138.7775
 40
0.85
  0
CIRCLE
  8
0
  6
CONTINUOUS
 62
     7
 10
-166.9367
 20
140.9275
 40
0.85
  0
CIRCLE
  8
0
  6
CONTINUOUS
 62
     7
 10
-166.9367
 20
143.4275
 40
0.85
  0
CIRCLE
  8
0
  6
CONTINUOUS
 62
     7
 10
-166.9367
 20
145.5775
 40
0.85
  0
ARC
  8
0
  6
CONTINUOUS
 62
     7
 10
-190.9367
 20
146.6775
 40
2.7
 50
270.0
 51
0.0
  0
CIRCLE
  8
0
  6
CONTINUOUS
 62
     7
 10
-307.0613
 20
15.90016
 40
2.0
  0
ARC
  8
0
  6
CONTINUOUS
 62
     7
 10
-313.0613
 20
-38.39983
 40
5.00001
 50
240.5075
 51
299.4925
  0
ARC
  8
0
  6
CONTINUOUS
 62
     7
 10
-315.1946
 20
-42.17166
 40
0.66666
 50
180.0
 51
240.5067
  0
ARC
  8
0
  6
CONTINUOUS
 62
     7
 10
-310.928
 20
-42.17166
 40
0.66667
 50
299.4933
 51
0.0
  0
ARC
  8
0
  6
CONTINUOUS
 62
     7
 10
-315.5613
 20
-40.49983
 40
0.5
 50
180.0
 51
270.0
  0
ARC
  8
0
  6
CONTINUOUS
 62
     7
 10
-310.3613
 20
-41.49983
 40
0.5
 50
0.0
 51
89.99999
  0
CIRCLE
  8
0
  6
CONTINUOUS
 62
     7
 10
-307.0613
 20
15.90016
 40
2.65
  0
CIRCLE
  8
0
  6
CONTINUOUS
 62
     7
 10
-313.5613
 20
0.00017
 40
1.6
  0
CIRCLE
  8
0
  6
CONTINUOUS
 62
     7
 10
-300.5613
 20
-29.99983
 40
1.6
  0
ARC
  8
0
  6
CONTINUOUS
 62
     7
 10
-298.5613
 20
-43.89983
 40
0.5
 50
270.0
 51
0.0
  0
ARC
  8
0
  6
CONTINUOUS
 62
     7
 10
-315.5613
 20
-43.89983
 40
0.5
 50
180.0
 51
270.0
  0
ARC
  8
0
  6
CONTINUOUS
 62
     7
 10
-309.3613
 20
-43.89983
 40
0.5
 50
180.0
 51
270.0
  0
CIRCLE
  8
0
  6
CONTINUOUS
 62
     7
 10
-306.5613
 20
-1.79984
 40
4.86435
  0
CIRCLE
  8
0
  6
CONTINUOUS
 62
     7
 10
-306.5613
 20
-1.79984
 40
4.28325
  0
CIRCLE
  8
0
  6
CONTINUOUS
 62
     7
 10
-307.5613
 20
-28.19983
 40
4.86435
  0
CIRCLE
  8
0
  6
CONTINUOUS
 62
     7
 10
-307.5613
 20
-28.19983
 40
4.28325
  0
CIRCLE
  8
0
  6
CONTINUOUS
 62
     7
 10
-307.0613
 20
-14.99983
 40
4.86435
  0
CIRCLE
  8
0
  6
CONTINUOUS
 62
     7
 10
-307.0613
 20
-14.99983
 40
4.28325
  0
ARC
  8
0
  6
CONTINUOUS
 62
     7
 10
-310.5076
 20
45.15349
 40
0.35345
 50
0.0
 51
89.99999
  0
ARC
  8
0
  6
CONTINUOUS
 62
     7
 10
-307.5915
 20
43.25362
 40
0.35346
 50
270.0
 51
0.0
  0
ARC
  8
0
  6
CONTINUOUS
 62
     7
 10
-307.7682
 20
44.97676
 40
0.53018
 50
0.0
 51
89.99999
  0
ARC
  8
0
  6
CONTINUOUS
 62
     7
 10
-304.5429
 20
45.15349
 40
0.35345
 50
0.0
 51
89.99999
  0
ARC
  8
0
  6
CONTINUOUS
 62
     7
 10
-304.5429
 20
44.87111
 40
0.35347
 50
295.0005
 51
0.0
  0
ARC
  8
0
  6
CONTINUOUS
 62
     7
 10
-301.8036
 20
45.50694
 40
0.53019
 50
291.6869
 51
0.0
  0
ARC
  8
0
  6
CONTINUOUS
 62
     7
 10
-301.9803
 20
45.62685
 40
0.17673
 50
291.687
 51
0.0
  0
ARC
  8
0
  6
CONTINUOUS
 62
     7
 10
-313.0114
 20
51.69389
 40
0.8
 50
106.1918
 51
180.0
  0
ARC
  8
0
  6
CONTINUOUS
 62
     7
 10
-311.5613
 20
46.70015
 40
6.0
 50
73.80876
 51
106.1912
  0
ARC
  8
0
  6
CONTINUOUS
 62
     7
 10
-310.1113
 20
51.69389
 40
0.79999
 50
0.0
 51
73.8082
  0
ARC
  8
0
  6
CONTINUOUS
 62
     7
 10
-312.5613
 20
56.20015
 40
0.5
 50
89.99999
 51
180.0
  0
ARC
  8
0
  6
CONTINUOUS
 62
     7
 10
-301.5613
 20
56.20018
 40
0.5
 50
0.0
 51
89.99999
  0
ARC
  8
0
  6
CONTINUOUS
 62
     7
 10
-48.8123
 20
-38.39995
 40
5.0
 50
240.5076
 51
299.4923
  0
ARC
  8
0
  6
CONTINUOUS
 62
     7
 10
-50.94563
 20
-42.17178
 40
0.66667
 50
180.0
 51
240.5076
  0
ARC
  8
0
  6
CONTINUOUS
 62
     7
 10
-46.67897
 20
-42.17178
 40
0.66667
 50
299.4924
 51
0.0
  0
CIRCLE
  8
0
  6
CONTINUOUS
 62
     7
 10
-42.8123
 20
20.70006
 40
1.65
  0
ARC
  8
0
  6
CONTINUOUS
 62
     7
 10
-51.3123
 20
-43.89995
 40
0.5
 50
180.0
 51
270.0
  0
ARC
  8
0
  6
CONTINUOUS
 62
     7
 10
-34.3123
 20
-43.89995
 40
0.5
 50
270.0
 51
0.0
  0
CIRCLE
  8
0
  6
CONTINUOUS
 62
     7
 10
-49.3123
 20
-29.99995
 40
1.6
  0
CIRCLE
  8
0
  6
CONTINUOUS
 62
     7
 10
-36.3123
 20
0.00005
 40
1.6
  0
ARC
  8
0
  6
CONTINUOUS
 62
     7
 10
-36.3123
 20
0.00005
 40
3.0
 50
33.55732
 51
326.4427
  0
ARC
  8
0
  6
CONTINUOUS
 62
     7
 10
-49.3123
 20
-29.99995
 40
3.0
 50
0.0
 51
146.4427
  0
ARC
  8
0
  6
CONTINUOUS
 62
     7
 10
-49.3123
 20
-29.99995
 40
3.0
 50
213.5573
 51
0.0
  0
ARC
  8
0
  6
CONTINUOUS
 62
     7
 10
-46.11229
 20
-41.49995
 40
0.5
 50
0.0
 51
89.99999
  0
ARC
  8
0
  6
CONTINUOUS
 62
     7
 10
-51.3123
 20
-40.49995
 40
0.5
 50
180.0
 51
270.0
  0
ARC
  8
0
  6
CONTINUOUS
 62
     7
 10
-45.11229
 20
-43.89995
 40
0.5
 50
180.0
 51
270.0
  0
CIRCLE
  8
0
  6
CONTINUOUS
 62
     7
 10
-43.3123
 20
-22.99995
 40
4.86435
  0
CIRCLE
  8
0
  6
CONTINUOUS
 62
     7
 10
-43.3123
 20
-22.99995
 40
4.28325
  0
CIRCLE
  8
0
  6
CONTINUOUS
 62
     7
 10
-42.3123
 20
-6.99995
 40
4.86435
  0
CIRCLE
  8
0
  6
CONTINUOUS
 62
     7
 10
-42.3123
 20
-6.99995
 40
4.28325
  0
ARC
  8
0
  6
CONTINUOUS
 62
     7
 10
-42.8123
 20
38.70006
 40
3.25
 50
280.0633
 51
259.9366
  0
ARC
  8
0
  6
CONTINUOUS
 62
     7
 10
-49.8123
 20
54.20003
 40
0.5
 50
89.99999
 51
180.0
  0
ARC
  8
0
  6
CONTINUOUS
 62
     7
 10
-35.8123
 20
54.20003
 40
0.5
 50
0.0
 51
89.99999
  0
CIRCLE
  8
0
  6
CONTINUOUS
 62
     7
 10
-42.8123
 20
38.70006
 40
3.0
  0
ARC
  8
0
  6
CONTINUOUS
 62
     7
 10
-42.8123
 20
40.2274
 40
0.72
 50
225.0
 51
315.0
  0
ARC
  8
0
  6
CONTINUOUS
 62
     7
 10
-44.33965
 20
38.70006
 40
0.72
 50
315.0
 51
45.0
  0
ARC
  8
0
  6
CONTINUOUS
 62
     7
 10
-42.8123
 20
37.17268
 40
0.72
 50
45.0
 51
135.0
  0
ARC
  8
0
  6
CONTINUOUS
 62
     7
 10
-41.28496
 20
38.70006
 40
0.72
 50
135.0
 51
225.0
  0
ARC
  8
0
  6
CONTINUOUS
 62
     7
 10
-48.3123
 20
56.20003
 40
0.5
 50
89.99999
 51
180.0
  0
ARC
  8
0
  6
CONTINUOUS
 62
     7
 10
-37.3123
 20
56.20003
 40
0.5
 50
0.0
 51
89.99999
  0
CIRCLE
  8
0
  6
CONTINUOUS
 62
     7
 10
-172.4368
 20
-185.779
 40
1.5
  0
CIRCLE
  8
0
  6
CONTINUOUS
 62
     7
 10
-191.4368
 20
-175.779
 40
1.5
  0
CIRCLE
  8
0
  6
CONTINUOUS
 62
     7
 10
-191.4368
 20
-175.779
 40
1.0
  0
ARC
  8
0
  6
CONTINUOUS
 62
     7
 10
-194.9368
 20
-172.279
 40
0.5
 50
89.99999
 51
180.0
  0
ARC
  8
0
  6
CONTINUOUS
 62
     7
 10
-168.9368
 20
-172.279
 40
0.5
 50
0.0
 51
89.99999
  0
ARC
  8
0
  6
CONTINUOUS
 62
     7
 10
-168.9368
 20
-189.279
 40
0.5
 50
270.0
 51
0.0
  0
ARC
  8
0
  6
CONTINUOUS
 62
     7
 10
-194.9368
 20
-189.279
 40
0.5
 50
180.0
 51
270.0
  0
ARC
  8
0
  6
CONTINUOUS
 62
     7
 10
-171.4368
 20
-174.779
 40
3.2
 50
180.0
 51
270.0
  0
ARC
  8
0
  6
CONTINUOUS
 62
     7
 10
-192.4368
 20
-186.779
 40
3.2
 50
0.0
 51
89.99999
  0
ARC
  8
0
  6
CONTINUOUS
 62
     7
 10
-194.9368
 20
-183.079
 40
0.5
 50
180.0
 51
270.0
  0
ARC
  8
0
  6
CONTINUOUS
 62
     7
 10
-188.7367
 20
-189.279
 40
0.5
 50
180.0
 51
270.0
  0
ARC
  8
0
  6
CONTINUOUS
 62
     7
 10
-175.1368
 20
-172.279
 40
0.5
 50
0.0
 51
89.99999
  0
ARC
  8
0
  6
CONTINUOUS
 62
     7
 10
-168.9368
 20
-178.479
 40
0.5
 50
0.0
 51
89.99999
  0
CIRCLE
  8
0
  6
CONTINUOUS
 62
     7
 10
-192.4368
 20
-186.779
 40
2.8
  0
ARC
  8
0
  6
CONTINUOUS
 62
     7
 10
-192.4368
 20
-185.5062
 40
0.60001
 50
225.0
 51
315.0
  0
ARC
  8
0
  6
CONTINUOUS
 62
     7
 10
-193.7095
 20
-186.779
 40
0.60001
 50
315.0
 51
45.0
  0
ARC
  8
0
  6
CONTINUOUS
 62
     7
 10
-191.164
 20
-186.779
 40
0.60001
 50
135.0
 51
225.0
  0
ARC
  8
0
  6
CONTINUOUS
 62
     7
 10
-192.4368
 20
-188.0518
 40
0.60001
 50
45.0
 51
135.0
  0
CIRCLE
  8
0
  6
CONTINUOUS
 62
     7
 10
-171.4368
 20
-174.779
 40
2.8
  0
ARC
  8
0
  6
CONTINUOUS
 62
     7
 10
-171.4368
 20
-173.5062
 40
0.60001
 50
225.0
 51
315.0
  0
ARC
  8
0
  6
CONTINUOUS
 62
     7
 10
-172.7095
 20
-174.779
 40
0.60001
 50
315.0
 51
45.0
  0
ARC
  8
0
  6
CONTINUOUS
 62
     7
 10
-170.164
 20
-174.779
 40
0.60001
 50
135.0
 51
225.0
  0
ARC
  8
0
  6
CONTINUOUS
 62
     7
 10
-171.4368
 20
-176.0518
 40
0.60001
 50
45.0
 51
135.0
  0
CIRCLE
  8
0
  6
CONTINUOUS
 62
     7
 10
-191.4368
 20
-175.779
 40
2.35
  0
CIRCLE
  8
0
  6
CONTINUOUS
 62
     7
 10
-172.4368
 20
-185.779
 40
2.35
  0
CIRCLE
  8
0
  6
CONTINUOUS
 62
     7
 10
-172.4368
 20
-185.779
 40
1.0
  0
ARC
  8
0
  6
CONTINUOUS
 62
     7
 10
-150.4368
 20
-173.779
 40
0.5
 50
0.0
 51
89.99999
  0
ARC
  8
0
  6
CONTINUOUS
 62
     7
 10
-150.4368
 20
-187.779
 40
0.5
 50
270.0
 51
0.0
  0
ARC
  8
0
  6
CONTINUOUS
 62
     7
 10
42.312
 20
-43.89978
 40
0.5
 50
180.0
 51
270.0
  0
ARC
  8
0
  6
CONTINUOUS
 62
     7
 10
68.312
 20
-43.89978
 40
0.5
 50
270.0
 51
0.0
  0
ARC
  8
0
  6
CONTINUOUS
 62
     7
 10
63.112
 20
-41.49979
 40
0.5
 50
89.99999
 51
180.0
  0
ARC
  8
0
  6
CONTINUOUS
 62
     7
 10
68.312
 20
-40.49979
 40
0.5
 50
270.0
 51
0.0
  0
ARC
  8
0
  6
CONTINUOUS
 62
     7
 10
62.112
 20
-43.89978
 40
0.5
 50
270.0
 51
0.0
  0
ARC
  8
0
  6
CONTINUOUS
 62
     7
 10
65.812
 20
-38.39978
 40
5.0
 50
240.5076
 51
299.4923
  0
ARC
  8
0
  6
CONTINUOUS
 62
     7
 10
63.67867
 20
-42.17162
 40
0.66667
 50
180.0
 51
240.5076
  0
ARC
  8
0
  6
CONTINUOUS
 62
     7
 10
67.94533
 20
-42.17162
 40
0.66666
 50
299.4921
 51
0.0
  0
ARC
  8
0
  6
CONTINUOUS
 62
     7
 10
72.812
 20
56.2002
 40
0.5
 50
0.0
 51
89.99999
  0
ARC
  8
0
  6
CONTINUOUS
 62
     7
 10
64.312
 20
46.7002
 40
6.0
 50
73.80869
 51
106.1913
  0
ARC
  8
0
  6
CONTINUOUS
 62
     7
 10
65.76199
 20
51.69397
 40
0.8
 50
0.0
 51
73.80872
  0
ARC
  8
0
  6
CONTINUOUS
 62
     7
 10
62.862
 20
51.69397
 40
0.8
 50
106.1913
 51
180.0
  0
ARC
  8
0
  6
CONTINUOUS
 62
     7
 10
86.812
 20
54.2002
 40
0.5
 50
0.0
 51
89.99999
  0
ARC
  8
0
  6
CONTINUOUS
 62
     7
 10
86.812
 20
24.70021
 40
0.5
 50
270.0
 51
0.0
  0
ARC
  8
0
  6
CONTINUOUS
 62
     7
 10
160.4372
 20
148.1773
 40
0.5
 50
89.99999
 51
180.0
  0
ARC
  8
0
  6
CONTINUOUS
 62
     7
 10
160.4372
 20
122.1773
 40
0.5
 50
180.0
 51
270.0
  0
ARC
  8
0
  6
CONTINUOUS
 62
     7
 10
177.4372
 20
122.1773
 40
0.5
 50
270.0
 51
0.0
  0
ARC
  8
0
  6
CONTINUOUS
 62
     7
 10
177.4372
 20
148.1773
 40
0.5
 50
0.0
 51
89.99999
  0
ARC
  8
0
  6
CONTINUOUS
 62
     7
 10
164.4372
 20
126.1773
 40
2.55
 50
186.7564
 51
173.2438
  0
ARC
  8
0
  6
CONTINUOUS
 62
     7
 10
173.4372
 20
144.1773
 40
2.55
 50
6.75641
 51
353.2436
  0
CIRCLE
  8
0
  6
CONTINUOUS
 62
     7
 10
164.4372
 20
126.1773
 40
2.25
  0
ARC
  8
0
  6
CONTINUOUS
 62
     7
 10
165.5403
 20
126.1773
 40
0.52
 50
134.9994
 51
225.0006
  0
ARC
  8
0
  6
CONTINUOUS
 62
     7
 10
164.4372
 20
127.2804
 40
0.52
 50
225.0006
 51
314.9994
  0
ARC
  8
0
  6
CONTINUOUS
 62
     7
 10
164.4372
 20
125.0742
 40
0.52
 50
45.0006
 51
134.9994
  0
ARC
  8
0
  6
CONTINUOUS
 62
     7
 10
163.3341
 20
126.1773
 40
0.52
 50
314.9994
 51
45.0006
  0
CIRCLE
  8
0
  6
CONTINUOUS
 62
     7
 10
173.4372
 20
144.1773
 40
2.25
  0
ARC
  8
0
  6
CONTINUOUS
 62
     7
 10
174.5403
 20
144.1773
 40
0.51999
 50
135.0
 51
225.0
  0
ARC
  8
0
  6
CONTINUOUS
 62
     7
 10
173.4372
 20
145.2804
 40
0.51999
 50
225.0
 51
315.0
  0
ARC
  8
0
  6
CONTINUOUS
 62
     7
 10
173.4372
 20
143.0742
 40
0.51999
 50
45.0
 51
135.0
  0
ARC
  8
0
  6
CONTINUOUS
 62
     7
 10
172.3341
 20
144.1773
 40
0.51999
 50
315.0
 51
45.0
  0
ARC
  8
0
  6
CONTINUOUS
 62
     7
 10
175.9372
 20
146.6773
 40
0.5
 50
0.0
 51
89.99999
  0
ARC
  8
0
  6
CONTINUOUS
 62
     7
 10
161.9372
 20
146.6773
 40
0.5
 50
89.99999
 51
180.0
  0
ARC
  8
0
  6
CONTINUOUS
 62
     7
 10
164.4372
 20
126.1773
 40
2.7
 50
270.0
 51
89.99999
  0
ARC
  8
0
  6
CONTINUOUS
 62
     7
 10
161.9372
 20
103.6773
 40
0.5
 50
180.0
 51
270.0
  0
ARC
  8
0
  6
CONTINUOUS
 62
     7
 10
175.9372
 20
103.6773
 40
0.5
 50
270.0
 51
0.0
  0
ARC
  8
0
  6
CONTINUOUS
 62
     7
 10
172.9372
 20
119.1773
 40
2.0
 50
270.0
 51
0.0
  0
ARC
  8
0
  6
CONTINUOUS
 62
     7
 10
164.9372
 20
119.1773
 40
2.0
 50
180.0
 51
270.0
  0
CIRCLE
  8
0
  6
CONTINUOUS
 62
     7
 10
165.5372
 20
120.1773
 40
0.85
  0
CIRCLE
  8
0
  6
CONTINUOUS
 62
     7
 10
167.6872
 20
120.1773
 40
0.85
  0
CIRCLE
  8
0
  6
CONTINUOUS
 62
     7
 10
170.1872
 20
120.1773
 40
0.85
  0
CIRCLE
  8
0
  6
CONTINUOUS
 62
     7
 10
172.3372
 20
120.1773
 40
0.85
  0
ARC
  8
0
  6
CONTINUOUS
 62
     7
 10
173.4372
 20
144.1773
 40
2.7
 50
180.0
 51
270.0
  0
ARC
  8
0
  6
CONTINUOUS
 62
     7
 10
160.4368
 20
-43.89999
 40
0.5
 50
180.0
 51
270.0
  0
ARC
  8
0
  6
CONTINUOUS
 62
     7
 10
177.4368
 20
-43.89999
 40
0.5
 50
270.0
 51
0.0
  0
CIRCLE
  8
0
  6
CONTINUOUS
 62
     7
 10
162.4368
 20
-30.0
 40
1.6
  0
CIRCLE
  8
0
  6
CONTINUOUS
 62
     7
 10
175.4368
 20
0.0
 40
1.6
  0
ARC
  8
0
  6
CONTINUOUS
 62
     7
 10
175.4368
 20
0.0
 40
3.0
 50
33.55732
 51
326.4427
  0
ARC
  8
0
  6
CONTINUOUS
 62
     7
 10
162.4368
 20
-30.0
 40
3.0
 50
0.0
 51
146.4427
  0
ARC
  8
0
  6
CONTINUOUS
 62
     7
 10
162.4368
 20
-30.0
 40
3.0
 50
213.5573
 51
0.0
  0
CIRCLE
  8
0
  6
CONTINUOUS
 62
     7
 10
168.9368
 20
20.7
 40
1.65
  0
ARC
  8
0
  6
CONTINUOUS
 62
     7
 10
165.6368
 20
-41.5
 40
0.5
 50
0.0
 51
89.99999
  0
ARC
  8
0
  6
CONTINUOUS
 62
     7
 10
160.4368
 20
-40.5
 40
0.5
 50
180.0
 51
270.0
  0
ARC
  8
0
  6
CONTINUOUS
 62
     7
 10
166.6368
 20
-43.89999
 40
0.5
 50
180.0
 51
270.0
  0
ARC
  8
0
  6
CONTINUOUS
 62
     7
 10
162.9368
 20
-38.39999
 40
5.0
 50
240.5077
 51
299.4923
  0
ARC
  8
0
  6
CONTINUOUS
 62
     7
 10
160.8034
 20
-42.17183
 40
0.66667
 50
180.0
 51
240.5079
  0
ARC
  8
0
  6
CONTINUOUS
 62
     7
 10
165.0701
 20
-42.17183
 40
0.66666
 50
299.4921
 51
0.0
  0
ARC
  8
0
  6
CONTINUOUS
 62
     7
 10
168.9368
 20
38.70001
 40
3.25
 50
280.0635
 51
259.9365
  0
ARC
  8
0
  6
CONTINUOUS
 62
     7
 10
161.9368
 20
54.20001
 40
0.5
 50
89.99999
 51
180.0
  0
ARC
  8
0
  6
CONTINUOUS
 62
     7
 10
175.9368
 20
54.20001
 40
0.5
 50
0.0
 51
89.99999
  0
CIRCLE
  8
0
  6
CONTINUOUS
 62
     7
 10
168.9368
 20
38.70001
 40
3.0
  0
ARC
  8
0
  6
CONTINUOUS
 62
     7
 10
168.9368
 20
40.22736
 40
0.71999
 50
225.0004
 51
314.9995
  0
ARC
  8
0
  6
CONTINUOUS
 62
     7
 10
167.4094
 20
38.70001
 40
0.71999
 50
314.9995
 51
45.00043
  0
ARC
  8
0
  6
CONTINUOUS
 62
     7
 10
168.9368
 20
37.17264
 40
0.71999
 50
45.00043
 51
134.9996
  0
ARC
  8
0
  6
CONTINUOUS
 62
     7
 10
170.4641
 20
38.70001
 40
0.71999
 50
134.9996
 51
224.9996
  0
ARC
  8
0
  6
CONTINUOUS
 62
     7
 10
163.4368
 20
56.20001
 40
0.5
 50
89.99999
 51
180.0
  0
ARC
  8
0
  6
CONTINUOUS
 62
     7
 10
174.4368
 20
56.20001
 40
0.5
 50
0.0
 51
89.99999
  0
ARC
  8
0
  6
CONTINUOUS
 62
     7
 10
298.5612
 20
-43.89987
 40
0.5
 50
270.0
 51
0.0
  0
ARC
  8
0
  6
CONTINUOUS
 62
     7
 10
272.5612
 20
-43.89987
 40
0.5
 50
180.0
 51
270.0
  0
ARC
  8
0
  6
CONTINUOUS
 62
     7
 10
293.3611
 20
-41.49988
 40
0.5
 50
89.99999
 51
180.0
  0
ARC
  8
0
  6
CONTINUOUS
 62
     7
 10
298.5612
 20
-40.49988
 40
0.5
 50
270.0
 51
0.0
  0
ARC
  8
0
  6
CONTINUOUS
 62
     7
 10
292.3611
 20
-43.89987
 40
0.5
 50
270.0
 51
0.0
  0
ARC
  8
0
  6
CONTINUOUS
 62
     7
 10
296.0612
 20
-38.39987
 40
5.00001
 50
240.5075
 51
299.4925
  0
ARC
  8
0
  6
CONTINUOUS
 62
     7
 10
293.9278
 20
-42.17171
 40
0.66666
 50
180.0
 51
240.5067
  0
ARC
  8
0
  6
CONTINUOUS
 62
     7
 10
298.1945
 20
-42.17171
 40
0.66667
 50
299.4933
 51
0.0
  0
ARC
  8
0
  6
CONTINUOUS
 62
     7
 10
268.0612
 20
56.20013
 40
0.5
 50
89.99999
 51
180.0
  0
ARC
  8
0
  6
CONTINUOUS
 62
     7
 10
293.1111
 20
51.69385
 40
0.8
 50
106.1918
 51
180.0
  0
ARC
  8
0
  6
CONTINUOUS
 62
     7
 10
254.0612
 20
24.70013
 40
0.5
 50
180.0
 51
270.0
  0
ARC
  8
0
  6
CONTINUOUS
 62
     7
 10
254.0612
 20
54.20013
 40
0.5
 50
89.99999
 51
180.0
  0
ARC
  8
0
  6
CONTINUOUS
 62
     7
 10
294.5612
 20
46.7001
 40
6.0
 50
73.80876
 51
106.1912
  0
ARC
  8
0
  6
CONTINUOUS
 62
     7
 10
296.0112
 20
51.69385
 40
0.79999
 50
0.0
 51
73.8082
  0
CIRCLE
  8
0
  6
CONTINUOUS
 62
     7
 10
173.937
 20
-164.2791
 40
1.5
  0
CIRCLE
  8
0
  6
CONTINUOUS
 62
     7
 10
163.937
 20
-183.2791
 40
1.5
  0
CIRCLE
  8
0
  6
CONTINUOUS
 62
     7
 10
163.937
 20
-183.2791
 40
1.0
  0
ARC
  8
0
  6
CONTINUOUS
 62
     7
 10
160.437
 20
-186.7791
 40
0.5
 50
180.0
 51
270.0
  0
ARC
  8
0
  6
CONTINUOUS
 62
     7
 10
160.437
 20
-160.7791
 40
0.5
 50
89.99999
 51
180.0
  0
ARC
  8
0
  6
CONTINUOUS
 62
     7
 10
177.437
 20
-160.7791
 40
0.5
 50
0.0
 51
89.99999
  0
ARC
  8
0
  6
CONTINUOUS
 62
     7
 10
177.437
 20
-186.7791
 40
0.5
 50
270.0
 51
0.0
  0
ARC
  8
0
  6
CONTINUOUS
 62
     7
 10
162.937
 20
-163.2791
 40
3.2
 50
270.0
 51
0.0
  0
ARC
  8
0
  6
CONTINUOUS
 62
     7
 10
174.937
 20
-184.2791
 40
3.2
 50
89.99999
 51
180.0
  0
ARC
  8
0
  6
CONTINUOUS
 62
     7
 10
171.237
 20
-186.7791
 40
0.5
 50
270.0
 51
0.0
  0
ARC
  8
0
  6
CONTINUOUS
 62
     7
 10
177.437
 20
-180.5791
 40
0.5
 50
270.0
 51
0.0
  0
ARC
  8
0
  6
CONTINUOUS
 62
     7
 10
160.437
 20
-166.9791
 40
0.5
 50
89.99999
 51
180.0
  0
ARC
  8
0
  6
CONTINUOUS
 62
     7
 10
166.637
 20
-160.7791
 40
0.5
 50
89.99999
 51
180.0
  0
CIRCLE
  8
0
  6
CONTINUOUS
 62
     7
 10
174.937
 20
-184.2791
 40
2.8
  0
ARC
  8
0
  6
CONTINUOUS
 62
     7
 10
173.6642
 20
-184.2791
 40
0.60001
 50
315.0
 51
45.0
  0
ARC
  8
0
  6
CONTINUOUS
 62
     7
 10
174.937
 20
-185.5519
 40
0.60001
 50
45.0
 51
135.0
  0
ARC
  8
0
  6
CONTINUOUS
 62
     7
 10
174.937
 20
-183.0063
 40
0.60001
 50
225.0
 51
315.0
  0
ARC
  8
0
  6
CONTINUOUS
 62
     7
 10
176.2098
 20
-184.2791
 40
0.60001
 50
135.0
 51
225.0
  0
CIRCLE
  8
0
  6
CONTINUOUS
 62
     7
 10
162.937
 20
-163.2791
 40
2.8
  0
ARC
  8
0
  6
CONTINUOUS
 62
     7
 10
161.6642
 20
-163.2791
 40
0.60001
 50
315.0
 51
45.0
  0
ARC
  8
0
  6
CONTINUOUS
 62
     7
 10
162.937
 20
-164.5519
 40
0.60001
 50
45.0
 51
135.0
  0
ARC
  8
0
  6
CONTINUOUS
 62
     7
 10
162.937
 20
-162.0063
 40
0.60001
 50
225.0
 51
315.0
  0
ARC
  8
0
  6
CONTINUOUS
 62
     7
 10
164.2098
 20
-163.2791
 40
0.60001
 50
135.0
 51
225.0
  0
CIRCLE
  8
0
  6
CONTINUOUS
 62
     7
 10
163.937
 20
-183.2791
 40
2.35
  0
CIRCLE
  8
0
  6
CONTINUOUS
 62
     7
 10
173.937
 20
-164.2791
 40
2.35
  0
CIRCLE
  8
0
  6
CONTINUOUS
 62
     7
 10
173.937
 20
-164.2791
 40
1.0
  0
ARC
  8
0
  6
CONTINUOUS
 62
     7
 10
161.937
 20
-142.2791
 40
0.5
 50
89.99999
 51
180.0
  0
ARC
  8
0
  6
CONTINUOUS
 62
     7
 10
175.937
 20
-142.2791
 40
0.5
 50
0.0
 51
89.99999
  0
TEXT
  8
0
  6
CONTINUOUS
 62
     7
 10
-350.9787
 20
200.5946
 40
8.5
  1
MODEL : 180-4E1-FA
 41
0.8
  7
STANDARD
  0
TEXT
  8
0
  6
CONTINUOUS
 62
     7
 10
229.0661
 20
236.2625
 40
8.5
  1
DATE : NOV ,1989
 41
0.8
  7
STANDARD
  0
TEXT
  8
0
  6
CONTINUOUS
 62
     7
 10
-366.8907
 20
235.5575
 40
10.0
  1
180 CONNECTOR,-FA
 41
0.69402
  7
STANDARD
  0
TEXT
  8
0
  6
CONTINUOUS
 62
     7
 10
19.88928
 20
200.5946
 40
8.5
  1
MODEL : A180-4E1-FA
 41
0.8
  7
STANDARD
  0
TEXT
  8
0
  6
CONTINUOUS
 62
     7
 10
-312.8928
 20
3.06017
 40
2.0
  1
R1
 41
0.8
  7
STANDARD
  0
TEXT
  8
0
  6
CONTINUOUS
 62
     7
 10
-302.8928
 20
-21.93983
 40
2.0
  1
P
 41
0.8
  7
STANDARD
  0
TEXT
  8
0
  6
CONTINUOUS
 62
     7
 10
-304.8928
 20
-34.93983
 40
2.0
  1
R2
 41
0.8
  7
STANDARD
  0
TEXT
  8
0
  6
CONTINUOUS
 62
     7
 10
-39.14373
 20
-29.93995
 40
2.0
  1
B
 41
0.8
  7
STANDARD
  0
TEXT
  8
0
  6
CONTINUOUS
 62
     7
 10
-47.64373
 20
-1.93995
 40
2.0
  1
A
 41
0.8
  7
STANDARD
  0
ENDSEC
  0
EOF
