  0
SECTION
  2
HEADER
  9
$ACADVER
  1
AC1002
  9
$INSBASE
 10
0.0
 20
0.0
  9
$EXTMIN
 10
-370.8736
 20
-254.5585
  9
$EXTMAX
 10
370.8736
 20
254.5585
  9
$LIMMIN
 10
0.0
 20
0.0
  9
$LIMMAX
 10
12.0
 20
9.0
  9
$VIEWCTR
 10
28.6093211
 20
0.0
  9
$VIEWSIZE
 40
509.117
  9
$SNAPMODE
 70
     0
  9
$SNAPUNIT
 10
1.0
 20
1.0
  9
$SNAPBASE
 10
0.0
 20
0.0
  9
$SNAPANG
 50
0.0
  9
$SNAPSTYLE
 70
     0
  9
$SNAPISOPAIR
 70
     0
  9
$GRIDMODE
 70
     0
  9
$GRIDUNIT
 10
0.0
 20
0.0
  9
$ORTHOMODE
 70
     0
  9
$REGENMODE
 70
     1
  9
$FILLMODE
 70
     1
  9
$QTEXTMODE
 70
     0
  9
$DRAGMODE
 70
     2
  9
$LTSCALE
 40
1.0
  9
$OSMODE
 70
     0
  9
$ATTMODE
 70
     1
  9
$TEXTSIZE
 40
0.2
  9
$TRACEWID
 40
0.05
  9
$TEXTSTYLE
  7
AAA
  9
$CLAYER
  8
0
  9
$CELTYPE
  6
BYLAYER
  9
$CECOLOR
 62
   256
  9
$DIMSCALE
 40
1.0
  9
$DIMASZ
 40
0.18
  9
$DIMEXO
 40
0.0625
  9
$DIMDLI
 40
0.38
  9
$DIMRND
 40
0.0
  9
$DIMDLE
 40
0.0
  9
$DIMEXE
 40
0.18
  9
$DIMTP
 40
0.0
  9
$DIMTM
 40
0.0
  9
$DIMTXT
 40
0.18
  9
$DIMCEN
 40
0.09
  9
$DIMTSZ
 40
0.0
  9
$DIMTOL
 70
     0
  9
$DIMLIM
 70
     0
  9
$DIMTIH
 70
     1
  9
$DIMTOH
 70
     1
  9
$DIMSE1
 70
     0
  9
$DIMSE2
 70
     0
  9
$DIMTAD
 70
     0
  9
$DIMZIN
 70
     0
  9
$DIMBLK
  1

  9
$LUNITS
 70
     2
  9
$LUPREC
 70
     4
  9
$AXISMODE
 70
     0
  9
$AXISUNIT
 10
0.0
 20
0.0
  9
$SKETCHINC
 40
0.1
  9
$FILLETRAD
 40
0.0
  9
$AUNITS
 70
     0
  9
$AUPREC
 70
     0
  9
$MENU
  1
ACAD
  9
$ELEVATION
 40
0.0
  9
$THICKNESS
 40
0.0
  9
$VIEWDIR
 10
0.0
 20
0.0
 30
1.0
  9
$LIMCHECK
 70
     0
  9
$BLIPMODE
 70
     1
  9
$CHAMFERA
 40
0.0
  9
$CHAMFERB
 40
0.0
  9
$FASTZOOM
 70
     1
  9
$SKPOLY
 70
     0
  9
$TDCREATE
 40
2447881.6100694942
  9
$TDUPDATE
 40
2447881.6100694942
  9
$TDINDWG
 40
0.0050578704
  9
$TDUSRTIMER
 40
0.0050578704
  9
$USRTIMER
 70
     1
  9
$ANGBASE
 50
0.0
  9
$ANGDIR
 70
     0
  9
$PDMODE
 70
     0
  9
$PDSIZE
 40
0.0
  9
$PLINEWID
 40
0.0
  9
$COORDS
 70
     0
  9
$USERI1
 70
     0
  9
$USERI2
 70
     0
  9
$USERI3
 70
     0
  9
$USERI4
 70
     0
  9
$USERI5
 70
     0
  9
$USERR1
 40
0.0
  9
$USERR2
 40
0.0
  9
$USERR3
 40
0.0
  9
$USERR4
 40
0.0
  9
$USERR5
 40
0.0
  0
ENDSEC
  0
SECTION
  2
TABLES
  0
TABLE
  2
LTYPE
 70
     3
  0
LTYPE
  2
CONTINUOUS
 70
    64
  3
SOLID
 72
    65
 73
     0
 40
0.0
  0
LTYPE
  2
CENTER
 70
    64
  3
CENTER
 72
    65
 73
     4
 40
2.0
 49
1.25
 49
-0.25
 49
0.25
 49
-0.25
  0
LTYPE
  2
PHANTOM
 70
    64
  3
PHANTOM
 72
    65
 73
     6
 40
2.5
 49
1.25
 49
-0.25
 49
0.25
 49
-0.25
 49
0.25
 49
-0.25
  0
ENDTAB
  0
TABLE
  2
LAYER
 70
     1
  0
LAYER
  2
0
 70
    64
 62
     7
  6
CONTINUOUS
  0
ENDTAB
  0
TABLE
  2
STYLE
 70
     2
  0
STYLE
  2
AAA
 70
     0
 40
0.0
 41
1.0
 50
0.0
 71
     0
 42
0.2
  3
TXT
  4

  0
STYLE
  2
STANDARD
 70
    64
 40
0.0
 41
1.0
 50
0.0
 71
     0
 42
0.2
  3
TXT
  4
BIGFONT
  0
ENDTAB
  0
TABLE
  2
VIEW
 70
     0
  0
ENDTAB
  0
ENDSEC
  0
SECTION
  2
BLOCKS
  0
ENDSEC
  0
SECTION
  2
ENTITIES
  0
POINT
  8
0
  6
CONTINUOUS
 62
     7
 10
-168.4367
 20
148.6774
  0
POINT
  8
0
  6
CONTINUOUS
 62
     7
 10
-195.4367
 20
148.6774
  0
POINT
  8
0
  6
CONTINUOUS
 62
     7
 10
-195.4368
 20
0.0
  0
POINT
  8
0
  6
CONTINUOUS
 62
     7
 10
-168.4368
 20
0.0
  0
POINT
  8
0
  6
CONTINUOUS
 62
     7
 10
-168.4368
 20
-50.70001
  0
POINT
  8
0
  6
CONTINUOUS
 62
     7
 10
-168.4368
 20
20.7
  0
POINT
  8
0
  6
CONTINUOUS
 62
     7
 10
-36.31221
 20
0.00011
  0
POINT
  8
0
  6
CONTINUOUS
 62
     7
 10
-42.81221
 20
-50.69989
  0
POINT
  8
0
  6
CONTINUOUS
 62
     7
 10
-42.81221
 20
20.7001
  0
POINT
  8
0
  6
CONTINUOUS
 62
     7
 10
-42.31221
 20
-6.99991
  0
POINT
  8
0
  6
CONTINUOUS
 62
     7
 10
-43.31221
 20
-22.99991
  0
POINT
  8
0
  6
CONTINUOUS
 62
     7
 10
-298.0613
 20
0.00012
  0
POINT
  8
0
  6
CONTINUOUS
 62
     7
 10
-313.5613
 20
0.00012
  0
POINT
  8
0
  6
CONTINUOUS
 62
     7
 10
-307.5613
 20
-28.19989
  0
POINT
  8
0
  6
CONTINUOUS
 62
     7
 10
-307.0613
 20
-14.99988
  0
POINT
  8
0
  6
CONTINUOUS
 62
     7
 10
-306.5613
 20
-1.79987
  0
POINT
  8
0
  6
CONTINUOUS
 62
     7
 10
-195.4367
 20
-187.2791
  0
POINT
  8
0
  6
CONTINUOUS
 62
     7
 10
-168.4367
 20
-187.2791
  0
POINT
  8
0
  6
CONTINUOUS
 62
     7
 10
-195.4367
 20
-174.2791
  0
POINT
  8
0
  6
CONTINUOUS
 62
     7
 10
-168.4367
 20
-174.2791
  0
POINT
  8
0
  6
CONTINUOUS
 62
     7
 10
68.81203
 20
0.00018
  0
POINT
  8
0
  6
CONTINUOUS
 62
     7
 10
41.81203
 20
0.00018
  0
POINT
  8
0
  6
CONTINUOUS
 62
     7
 10
68.81197
 20
-50.69981
  0
POINT
  8
0
  6
CONTINUOUS
 62
     7
 10
68.81197
 20
20.70018
  0
POINT
  8
0
  6
CONTINUOUS
 62
     7
 10
175.4368
 20
0.0
  0
POINT
  8
0
  6
CONTINUOUS
 62
     7
 10
168.9368
 20
-50.7
  0
POINT
  8
0
  6
CONTINUOUS
 62
     7
 10
168.9368
 20
20.7
  0
POINT
  8
0
  6
CONTINUOUS
 62
     7
 10
299.0611
 20
0.00008
  0
POINT
  8
0
  6
CONTINUOUS
 62
     7
 10
272.0611
 20
-50.69992
  0
POINT
  8
0
  6
CONTINUOUS
 62
     7
 10
272.0611
 20
20.70007
  0
POINT
  8
0
  6
CONTINUOUS
 62
     7
 10
175.4371
 20
148.6773
  0
POINT
  8
0
  6
CONTINUOUS
 62
     7
 10
175.437
 20
-187.2791
  0
LINE
  8
0
  6
CONTINUOUS
 62
     7
 10
218.3292
 20
-225.9564
 11
370.8736
 21
-225.9564
  0
LINE
  8
0
  6
CONTINUOUS
 62
     7
 10
-218.3292
 20
225.9564
 11
-218.3292
 21
254.5585
  0
LINE
  8
0
  6
CONTINUOUS
 62
     7
 10
-370.8736
 20
225.9564
 11
-218.3292
 21
225.9564
  0
LINE
  8
0
  6
CONTINUOUS
 62
     7
 10
-370.8736
 20
254.5585
 11
370.8736
 21
254.5585
  0
LINE
  8
0
  6
CONTINUOUS
 62
     7
 10
-370.8736
 20
-254.5585
 11
370.8736
 21
-254.5585
  0
LINE
  8
0
  6
CONTINUOUS
 62
     7
 10
370.8736
 20
254.5585
 11
370.8736
 21
-254.5585
  0
LINE
  8
0
  6
CONTINUOUS
 62
     7
 10
-370.8736
 20
-254.5585
 11
-370.8736
 21
254.5585
  0
LINE
  8
0
  6
CONTINUOUS
 62
     7
 10
218.3292
 20
-225.9564
 11
218.3292
 21
-254.5585
  0
LINE
  8
0
  6
CONTINUOUS
 62
     7
 10
218.3292
 20
254.5585
 11
218.3292
 21
225.9564
  0
LINE
  8
0
  6
CONTINUOUS
 62
     7
 10
218.3292
 20
225.9564
 11
370.8736
 21
225.9564
  0
LINE
  8
0
  6
CONTINUOUS
 62
     7
 10
258.3816
 20
-232.8337
 11
258.3816
 21
-236.1516
  0
LINE
  8
0
  6
CONTINUOUS
 62
     7
 10
258.3816
 20
-236.1516
 11
270.8235
 21
-236.1516
  0
LINE
  8
0
  6
CONTINUOUS
 62
     7
 10
258.3816
 20
-249.1465
 11
275.2473
 21
-249.1465
  0
LINE
  8
0
  6
CONTINUOUS
 62
     7
 10
258.3816
 20
-245.8286
 11
270.8235
 21
-245.8286
  0
LINE
  8
0
  6
CONTINUOUS
 62
     7
 10
258.3816
 20
-232.8337
 11
273.0354
 21
-232.8337
  0
LINE
  8
0
  6
CONTINUOUS
 62
     7
 10
270.8235
 20
-236.1516
 11
270.8235
 21
-245.8286
  0
LINE
  8
0
  6
CONTINUOUS
 62
     7
 10
275.2473
 20
-235.0457
 11
275.2473
 21
-249.1465
  0
LINE
  8
0
  6
CONTINUOUS
 62
     7
 10
258.3816
 20
-245.8286
 11
258.3816
 21
-249.1465
  0
LINE
  8
0
  6
CONTINUOUS
 62
     7
 10
293.4954
 20
-236.1516
 11
293.4954
 21
-246.9346
  0
LINE
  8
0
  6
CONTINUOUS
 62
     7
 10
277.7357
 20
-232.8337
 11
277.7357
 21
-236.1516
  0
LINE
  8
0
  6
CONTINUOUS
 62
     7
 10
293.9378
 20
-232.585
 11
295.5138
 21
-232.585
  0
LINE
  8
0
  6
CONTINUOUS
 62
     7
 10
293.9378
 20
-230.373
 11
295.5138
 21
-230.373
  0
LINE
  8
0
  6
CONTINUOUS
 62
     7
 10
295.5138
 20
-230.373
 11
295.5138
 21
-232.585
  0
LINE
  8
0
  6
CONTINUOUS
 62
     7
 10
293.9378
 20
-230.373
 11
293.9378
 21
-232.585
  0
LINE
  8
0
  6
CONTINUOUS
 62
     7
 10
293.1083
 20
-230.373
 11
293.1083
 21
-232.585
  0
LINE
  8
0
  6
CONTINUOUS
 62
     7
 10
282.7661
 20
-230.373
 11
286.2009
 21
-230.373
  0
LINE
  8
0
  6
CONTINUOUS
 62
     7
 10
285.5413
 20
-232.8335
 11
286.2006
 21
-230.3727
  0
LINE
  8
0
  6
CONTINUOUS
 62
     7
 10
282.1067
 20
-232.8337
 11
282.766
 21
-230.373
  0
LINE
  8
0
  6
CONTINUOUS
 62
     7
 10
285.5416
 20
-232.8337
 11
290.1776
 21
-232.8337
  0
LINE
  8
0
  6
CONTINUOUS
 62
     7
 10
284.6526
 20
-236.1516
 11
289.0716
 21
-236.1516
  0
LINE
  8
0
  6
CONTINUOUS
 62
     7
 10
286.6429
 20
-249.1465
 11
291.2836
 21
-249.1465
  0
LINE
  8
0
  6
CONTINUOUS
 62
     7
 10
285.7537
 20
-245.8286
 11
286.6427
 21
-249.1463
  0
LINE
  8
0
  6
CONTINUOUS
 62
     7
 10
285.7538
 20
-245.8286
 11
289.0716
 21
-245.8286
  0
LINE
  8
0
  6
CONTINUOUS
 62
     7
 10
281.1707
 20
-249.1466
 11
284.6527
 21
-236.1517
  0
LINE
  8
0
  6
CONTINUOUS
 62
     7
 10
277.7357
 20
-236.1516
 11
281.2177
 21
-236.1516
  0
LINE
  8
0
  6
CONTINUOUS
 62
     7
 10
277.7354
 20
-249.1462
 11
281.2175
 21
-236.1513
  0
LINE
  8
0
  6
CONTINUOUS
 62
     7
 10
277.7357
 20
-249.1465
 11
281.1706
 21
-249.1465
  0
LINE
  8
0
  6
CONTINUOUS
 62
     7
 10
277.7357
 20
-232.8337
 11
282.1067
 21
-232.8337
  0
LINE
  8
0
  6
CONTINUOUS
 62
     7
 10
289.0716
 20
-236.1516
 11
289.0716
 21
-245.8286
  0
LINE
  8
0
  6
CONTINUOUS
 62
     7
 10
291.5323
 20
-230.373
 11
293.1083
 21
-230.373
  0
LINE
  8
0
  6
CONTINUOUS
 62
     7
 10
291.5323
 20
-232.585
 11
293.1083
 21
-232.585
  0
LINE
  8
0
  6
CONTINUOUS
 62
     7
 10
291.5323
 20
-230.373
 11
291.5323
 21
-232.585
  0
LINE
  8
0
  6
CONTINUOUS
 62
     7
 10
301.5135
 20
-230.373
 11
305.9373
 21
-230.373
  0
LINE
  8
0
  6
CONTINUOUS
 62
     7
 10
308.3423
 20
-240.1951
 11
311.2962
 21
-238.8176
  0
LINE
  8
0
  6
CONTINUOUS
 62
     7
 10
305.9373
 20
-242.7344
 11
305.9373
 21
-249.1465
  0
LINE
  8
0
  6
CONTINUOUS
 62
     7
 10
301.5135
 20
-243.379
 11
301.5135
 21
-249.1465
  0
LINE
  8
0
  6
CONTINUOUS
 62
     7
 10
305.9373
 20
-232.8337
 11
310.3611
 21
-232.8337
  0
LINE
  8
0
  6
CONTINUOUS
 62
     7
 10
305.9373
 20
-230.373
 11
305.9373
 21
-232.8337
  0
LINE
  8
0
  6
CONTINUOUS
 62
     7
 10
301.5135
 20
-230.373
 11
301.5135
 21
-232.8337
  0
LINE
  8
0
  6
CONTINUOUS
 62
     7
 10
312.573
 20
-235.0457
 11
312.573
 21
-236.8128
  0
LINE
  8
0
  6
CONTINUOUS
 62
     7
 10
308.3424
 20
-240.195
 11
312.5734
 21
-242.168
  0
LINE
  8
0
  6
CONTINUOUS
 62
     7
 10
305.9373
 20
-242.7343
 11
312.5731
 21
-245.8286
  0
LINE
  8
0
  6
CONTINUOUS
 62
     7
 10
296.2603
 20
-242.1678
 11
296.2603
 21
-245.8286
  0
LINE
  8
0
  6
CONTINUOUS
 62
     7
 10
296.2607
 20
-242.1682
 11
309.1626
 21
-236.1519
  0
LINE
  8
0
  6
CONTINUOUS
 62
     7
 10
296.2603
 20
-245.8286
 11
301.5136
 21
-243.3789
  0
LINE
  8
0
  6
CONTINUOUS
 62
     7
 10
312.573
 20
-242.1678
 11
312.573
 21
-245.8286
  0
LINE
  8
0
  6
CONTINUOUS
 62
     7
 10
296.2603
 20
-232.8337
 11
296.2603
 21
-236.1516
  0
LINE
  8
0
  6
CONTINUOUS
 62
     7
 10
301.5135
 20
-249.1465
 11
305.9373
 21
-249.1465
  0
LINE
  8
0
  6
CONTINUOUS
 62
     7
 10
296.2603
 20
-236.1516
 11
309.1621
 21
-236.1516
  0
LINE
  8
0
  6
CONTINUOUS
 62
     7
 10
296.2603
 20
-232.8337
 11
301.5135
 21
-232.8337
  0
LINE
  8
0
  6
CONTINUOUS
 62
     7
 10
327.504
 20
-236.4047
 11
328.73
 21
-235.9171
  0
LINE
  8
0
  6
CONTINUOUS
 62
     7
 10
327.5034
 20
-236.4044
 11
327.5034
 21
-249.1465
  0
LINE
  8
0
  6
CONTINUOUS
 62
     7
 10
323.0795
 20
-249.1465
 11
327.5034
 21
-249.1465
  0
LINE
  8
0
  6
CONTINUOUS
 62
     7
 10
313.9553
 20
-241.7925
 11
323.0794
 21
-238.1637
  0
LINE
  8
0
  6
CONTINUOUS
 62
     7
 10
313.9555
 20
-238.222
 11
326.8062
 21
-233.1111
  0
LINE
  8
0
  6
CONTINUOUS
 62
     7
 10
323.0795
 20
-238.1638
 11
323.0795
 21
-249.1465
  0
LINE
  8
0
  6
CONTINUOUS
 62
     7
 10
327.5034
 20
-231.3684
 11
327.5034
 21
-232.0834
  0
LINE
  8
0
  6
CONTINUOUS
 62
     7
 10
330.8211
 20
-231.3684
 11
330.8211
 21
-232.8338
  0
LINE
  8
0
  6
CONTINUOUS
 62
     7
 10
313.9554
 20
-238.2219
 11
313.9554
 21
-241.7925
  0
LINE
  8
0
  6
CONTINUOUS
 62
     7
 10
327.5034
 20
-231.3684
 11
330.8211
 21
-231.3684
  0
LINE
  8
0
  6
CONTINUOUS
 62
     7
 10
0.0
 20
254.5585
 11
0.0
 21
-254.5585
  0
LINE
  8
0
  6
CENTER
 62
     2
 10
-181.9368
 20
55.55
 11
-181.9368
 21
-85.75
  0
LINE
  8
0
  6
CONTINUOUS
 62
     7
 10
-168.4368
 20
23.2
 11
-168.4368
 21
-53.20001
  0
LINE
  8
0
  6
CONTINUOUS
 62
     7
 10
-195.4368
 20
23.2
 11
-195.4368
 21
-53.20001
  0
LINE
  8
0
  6
CONTINUOUS
 62
     7
 10
-195.4368
 20
-36.0
 11
-168.4368
 21
-36.0
  0
LINE
  8
0
  6
CONTINUOUS
 62
     7
 10
-195.4368
 20
6.0
 11
-168.4368
 21
6.0
  0
LINE
  8
0
  6
CONTINUOUS
 62
     7
 10
-194.4367
 20
24.19995
 11
-195.4367
 21
23.19997
  0
LINE
  8
0
  6
CONTINUOUS
 62
     7
 10
-169.4368
 20
24.2
 11
-168.4368
 21
23.2
  0
LINE
  8
0
  6
CONTINUOUS
 62
     7
 10
-171.4368
 20
-28.34167
 11
-168.4368
 21
-28.34167
  0
LINE
  8
0
  6
CONTINUOUS
 62
     7
 10
-171.4368
 20
-31.65833
 11
-168.4368
 21
-31.65833
  0
LINE
  8
0
  6
CONTINUOUS
 62
     7
 10
-171.4368
 20
-28.34167
 11
-171.4368
 21
-31.65833
  0
LINE
  8
0
  6
CONTINUOUS
 62
     7
 10
-194.4368
 20
24.2
 11
-160.7368
 21
24.2
  0
LINE
  8
0
  6
CONTINUOUS
 62
     7
 10
-195.4368
 20
23.2
 11
-168.4368
 21
23.2
  0
LINE
  8
0
  6
CONTINUOUS
 62
     7
 10
-195.4368
 20
-53.2
 11
-194.4368
 21
-54.2
  0
LINE
  8
0
  6
CONTINUOUS
 62
     7
 10
-168.4368
 20
-53.19999
 11
-169.4368
 21
-54.19999
  0
LINE
  8
0
  6
CONTINUOUS
 62
     7
 10
-195.4368
 20
-53.20001
 11
-168.4368
 21
-53.20001
  0
LINE
  8
0
  6
CONTINUOUS
 62
     7
 10
-194.4368
 20
-54.20001
 11
-160.7368
 21
-54.20001
  0
LINE
  8
0
  6
CENTER
 62
     2
 10
-174.4368
 20
3.20863
 11
-174.4368
 21
-3.15509
  0
LINE
  8
0
  6
CENTER
 62
     2
 10
-177.4665
 20
-30.0
 11
-167.453
 21
-30.0
  0
LINE
  8
0
  6
CENTER
 62
     2
 10
-177.4665
 20
0.0
 11
-171.3836
 21
0.0
  0
LINE
  8
0
  6
CENTER
 62
     2
 10
-174.4368
 20
-27.11261
 11
-174.4368
 21
-33.10199
  0
LINE
  8
0
  6
CONTINUOUS
 62
     7
 10
-193.9368
 20
49.39999
 11
-169.9368
 21
49.39999
  0
LINE
  8
0
  6
CONTINUOUS
 62
     7
 10
-193.9368
 20
50.39999
 11
-193.9368
 21
24.2
  0
LINE
  8
0
  6
CONTINUOUS
 62
     7
 10
-169.9368
 20
50.39999
 11
-169.9368
 21
24.2
  0
LINE
  8
0
  6
CONTINUOUS
 62
     7
 10
-159.9368
 20
47.89999
 11
-159.9368
 21
25.0
  0
LINE
  8
0
  6
CONTINUOUS
 62
     7
 10
-192.9368
 20
52.39999
 11
-174.7626
 21
52.39999
  0
LINE
  8
0
  6
CONTINUOUS
 62
     7
 10
-193.9368
 20
50.39999
 11
-169.9368
 21
50.39999
  0
LINE
  8
0
  6
CONTINUOUS
 62
     7
 10
-193.9368
 20
50.39997
 11
-192.9368
 21
52.39999
  0
LINE
  8
0
  6
CONTINUOUS
 62
     7
 10
-169.9368
 20
50.4
 11
-170.9368
 21
52.4
  0
LINE
  8
0
  6
CONTINUOUS
 62
     7
 10
-175.9368
 20
52.39999
 11
-175.9368
 21
50.39999
  0
LINE
  8
0
  6
CENTER
 62
     2
 10
-172.9368
 20
55.39999
 11
-172.9368
 21
46.39999
  0
LINE
  8
0
  6
CONTINUOUS
 62
     7
 10
-170.3868
 20
51.0
 11
-175.4868
 21
51.0
  0
LINE
  8
0
  6
CONTINUOUS
 62
     7
 10
-173.2367
 20
50.40001
 11
-173.3975
 21
51.00001
  0
LINE
  8
0
  6
CONTINUOUS
 62
     7
 10
-172.6369
 20
50.99998
 11
-172.4761
 21
50.4
  0
LINE
  8
0
  6
CONTINUOUS
 62
     7
 10
-170.3868
 20
51.0
 11
-170.3868
 21
50.39999
  0
LINE
  8
0
  6
CONTINUOUS
 62
     7
 10
-175.4868
 20
51.0
 11
-175.4868
 21
50.39999
  0
LINE
  8
0
  6
CONTINUOUS
 62
     7
 10
-170.6868
 20
51.69376
 11
-170.6868
 21
51.0
  0
LINE
  8
0
  6
CONTINUOUS
 62
     7
 10
-175.1868
 20
51.69374
 11
-175.1868
 21
51.0
  0
LINE
  8
0
  6
CONTINUOUS
 62
     7
 10
-171.111
 20
52.39999
 11
-170.9368
 21
52.39999
  0
LINE
  8
0
  6
CENTER
 62
     2
 10
-190.9368
 20
55.39999
 11
-190.9368
 21
46.39999
  0
LINE
  8
0
  6
CENTER
 62
     2
 10
-165.4368
 20
73.2
 11
-165.4368
 21
45.7
  0
LINE
  8
0
  6
CONTINUOUS
 62
     7
 10
-166.2868
 20
60.2
 11
-166.2868
 21
56.20421
  0
LINE
  8
0
  6
CONTINUOUS
 62
     7
 10
-164.5868
 20
60.2
 11
-164.5868
 21
55.7487
  0
LINE
  8
0
  6
CONTINUOUS
 62
     7
 10
-165.7568
 20
70.2
 11
-165.7568
 21
60.2
  0
LINE
  8
0
  6
CONTINUOUS
 62
     7
 10
-165.1168
 20
70.2
 11
-165.1168
 21
60.2
  0
LINE
  8
0
  6
CONTINUOUS
 62
     7
 10
-164.5868
 20
60.2
 11
-166.2868
 21
60.2
  0
LINE
  8
0
  6
CONTINUOUS
 62
     7
 10
-165.1168
 20
70.2
 11
-165.7568
 21
70.2
  0
LINE
  8
0
  6
PHANTOM
 62
     2
 10
-168.2868
 20
55.18718
 11
-162.5868
 21
53.65987
  0
LINE
  8
0
  6
PHANTOM
 62
     2
 10
-168.2868
 20
56.74008
 11
-162.5868
 21
55.21278
  0
LINE
  8
0
  6
CONTINUOUS
 62
     7
 10
-164.5868
 20
54.19579
 11
-164.5868
 21
50.2
  0
LINE
  8
0
  6
CONTINUOUS
 62
     7
 10
-166.2868
 20
54.65131
 11
-166.2868
 21
50.2
  0
LINE
  8
0
  6
CONTINUOUS
 62
     7
 10
-168.9368
 20
49.7
 11
-168.9368
 21
48.7
  0
LINE
  8
0
  6
CONTINUOUS
 62
     7
 10
-162.4368
 20
50.2
 11
-168.4368
 21
50.2
  0
LINE
  8
0
  6
CONTINUOUS
 62
     7
 10
-161.9368
 20
49.7
 11
-161.9368
 21
48.7
  0
LINE
  8
0
  6
CONTINUOUS
 62
     7
 10
-169.9368
 20
48.7
 11
-160.7368
 21
48.7
  0
LINE
  8
0
  6
CONTINUOUS
 62
     7
 10
-193.9368
 20
-79.39999
 11
-169.9368
 21
-79.39999
  0
LINE
  8
0
  6
CONTINUOUS
 62
     7
 10
-193.9368
 20
-80.39999
 11
-193.9368
 21
-54.20001
  0
LINE
  8
0
  6
CONTINUOUS
 62
     7
 10
-169.9368
 20
-80.39999
 11
-169.9368
 21
-54.20001
  0
LINE
  8
0
  6
CONTINUOUS
 62
     7
 10
-159.9368
 20
-77.89999
 11
-159.9368
 21
-55.0
  0
LINE
  8
0
  6
CONTINUOUS
 62
     7
 10
-170.9368
 20
-82.39999
 11
-189.111
 21
-82.39999
  0
LINE
  8
0
  6
CONTINUOUS
 62
     7
 10
-193.9368
 20
-80.39999
 11
-169.9368
 21
-80.39999
  0
LINE
  8
0
  6
CONTINUOUS
 62
     7
 10
-169.9368
 20
-80.39997
 11
-170.9368
 21
-82.39999
  0
LINE
  8
0
  6
CONTINUOUS
 62
     7
 10
-193.9367
 20
-80.39998
 11
-192.9367
 21
-82.39996
  0
LINE
  8
0
  6
CONTINUOUS
 62
     7
 10
-187.9368
 20
-82.39999
 11
-187.9368
 21
-80.39999
  0
LINE
  8
0
  6
CENTER
 62
     2
 10
-190.9368
 20
-85.39999
 11
-190.9368
 21
-76.39999
  0
LINE
  8
0
  6
CONTINUOUS
 62
     7
 10
-193.4868
 20
-81.0
 11
-188.3868
 21
-81.0
  0
LINE
  8
0
  6
CONTINUOUS
 62
     7
 10
-190.6367
 20
-80.39996
 11
-190.4759
 21
-80.99997
  0
LINE
  8
0
  6
CONTINUOUS
 62
     7
 10
-191.2367
 20
-80.99994
 11
-191.3974
 21
-80.39996
  0
LINE
  8
0
  6
CONTINUOUS
 62
     7
 10
-193.4868
 20
-81.0
 11
-193.4868
 21
-80.39999
  0
LINE
  8
0
  6
CONTINUOUS
 62
     7
 10
-188.3868
 20
-81.0
 11
-188.3868
 21
-80.39999
  0
LINE
  8
0
  6
CONTINUOUS
 62
     7
 10
-193.1868
 20
-81.69376
 11
-193.1868
 21
-81.0
  0
LINE
  8
0
  6
CONTINUOUS
 62
     7
 10
-188.6868
 20
-81.69376
 11
-188.6868
 21
-81.0
  0
LINE
  8
0
  6
CONTINUOUS
 62
     7
 10
-192.7626
 20
-82.39999
 11
-192.9368
 21
-82.39999
  0
LINE
  8
0
  6
CENTER
 62
     2
 10
-172.9368
 20
-85.39999
 11
-172.9368
 21
-76.39999
  0
LINE
  8
0
  6
CONTINUOUS
 62
     7
 10
-169.9368
 20
-78.69998
 11
-160.7368
 21
-78.69998
  0
LINE
  8
0
  6
CENTER
 62
     2
 10
-165.4368
 20
-103.2
 11
-165.4368
 21
-75.69998
  0
LINE
  8
0
  6
CONTINUOUS
 62
     7
 10
-164.5868
 20
-90.19998
 11
-164.5868
 21
-86.20419
  0
LINE
  8
0
  6
CONTINUOUS
 62
     7
 10
-166.2868
 20
-90.19998
 11
-166.2868
 21
-85.74869
  0
LINE
  8
0
  6
CONTINUOUS
 62
     7
 10
-165.1168
 20
-100.2
 11
-165.1168
 21
-90.19998
  0
LINE
  8
0
  6
CONTINUOUS
 62
     7
 10
-165.7568
 20
-100.2
 11
-165.7568
 21
-90.19998
  0
LINE
  8
0
  6
CONTINUOUS
 62
     7
 10
-166.2868
 20
-90.19998
 11
-164.5868
 21
-90.19998
  0
LINE
  8
0
  6
CONTINUOUS
 62
     7
 10
-165.7568
 20
-100.2
 11
-165.1168
 21
-100.2
  0
LINE
  8
0
  6
PHANTOM
 62
     2
 10
-162.5868
 20
-85.18717
 11
-168.2868
 21
-83.65986
  0
LINE
  8
0
  6
PHANTOM
 62
     2
 10
-162.5867
 20
-86.74005
 11
-168.2867
 21
-85.21275
  0
LINE
  8
0
  6
CONTINUOUS
 62
     7
 10
-166.2868
 20
-84.19577
 11
-166.2868
 21
-80.19998
  0
LINE
  8
0
  6
CONTINUOUS
 62
     7
 10
-164.5868
 20
-84.65131
 11
-164.5868
 21
-80.19998
  0
LINE
  8
0
  6
CONTINUOUS
 62
     7
 10
-161.9368
 20
-79.69998
 11
-161.9368
 21
-78.69998
  0
LINE
  8
0
  6
CONTINUOUS
 62
     7
 10
-168.4368
 20
-80.19998
 11
-162.4368
 21
-80.19998
  0
LINE
  8
0
  6
CONTINUOUS
 62
     7
 10
-168.9368
 20
-79.69998
 11
-168.9368
 21
-78.69998
  0
LINE
  8
0
  6
CONTINUOUS
 62
     7
 10
-169.4367
 20
135.1774
 11
-169.4367
 21
134.1774
  0
LINE
  8
0
  6
CONTINUOUS
 62
     7
 10
-168.4367
 20
149.1774
 11
-168.4367
 21
150.6774
  0
LINE
  8
0
  6
CENTER
 62
     2
 10
-197.833
 20
142.1774
 11
-157.6356
 21
142.1774
  0
LINE
  8
0
  6
CONTINUOUS
 62
     7
 10
-194.9367
 20
151.1774
 11
-168.9367
 21
151.1774
  0
LINE
  8
0
  6
CONTINUOUS
 62
     7
 10
-194.9367
 20
133.1774
 11
-168.9367
 21
133.1774
  0
LINE
  8
0
  6
CONTINUOUS
 62
     7
 10
-168.4367
 20
133.6774
 11
-168.4367
 21
135.1774
  0
LINE
  8
0
  6
CONTINUOUS
 62
     7
 10
-195.4367
 20
133.6774
 11
-195.4367
 21
150.6774
  0
LINE
  8
0
  6
CENTER
 62
     2
 10
-181.9367
 20
130.4274
 11
-181.9367
 21
154.4049
  0
LINE
  8
0
  6
CONTINUOUS
 62
     7
 10
-194.4367
 20
150.1774
 11
-169.4367
 21
150.1774
  0
LINE
  8
0
  6
CONTINUOUS
 62
     7
 10
-194.4367
 20
134.1774
 11
-169.4367
 21
134.1774
  0
LINE
  8
0
  6
CONTINUOUS
 62
     7
 10
-194.4367
 20
150.1774
 11
-194.4367
 21
134.1774
  0
LINE
  8
0
  6
CONTINUOUS
 62
     7
 10
-169.4367
 20
150.1774
 11
-169.4367
 21
149.1774
  0
LINE
  8
0
  6
CONTINUOUS
 62
     7
 10
-169.4367
 20
134.1774
 11
-168.5831
 21
133.3239
  0
LINE
  8
0
  6
CONTINUOUS
 62
     7
 10
-194.4367
 20
134.1774
 11
-195.2903
 21
133.3239
  0
LINE
  8
0
  6
CONTINUOUS
 62
     7
 10
-169.4367
 20
150.1774
 11
-168.5832
 21
151.031
  0
LINE
  8
0
  6
CONTINUOUS
 62
     7
 10
-194.4367
 20
150.1775
 11
-195.2903
 21
151.031
  0
LINE
  8
0
  6
CONTINUOUS
 62
     7
 10
-169.9367
 20
149.6774
 11
-169.9367
 21
134.6774
  0
LINE
  8
0
  6
CONTINUOUS
 62
     7
 10
-172.9367
 20
140.6774
 11
-169.9367
 21
140.6774
  0
LINE
  8
0
  6
CONTINUOUS
 62
     7
 10
-190.9367
 20
143.6774
 11
-193.9367
 21
143.6774
  0
LINE
  8
0
  6
CONTINUOUS
 62
     7
 10
-187.9367
 20
146.6774
 11
-187.9367
 21
149.6774
  0
LINE
  8
0
  6
CONTINUOUS
 62
     7
 10
-175.9367
 20
137.6774
 11
-175.9367
 21
134.6774
  0
LINE
  8
0
  6
CONTINUOUS
 62
     7
 10
-192.9367
 20
143.6774
 11
-192.9367
 21
135.6774
  0
LINE
  8
0
  6
CONTINUOUS
 62
     7
 10
-170.9367
 20
148.6774
 11
-170.9367
 21
140.6774
  0
LINE
  8
0
  6
CONTINUOUS
 62
     7
 10
-187.9367
 20
148.6774
 11
-170.9367
 21
148.6774
  0
LINE
  8
0
  6
CONTINUOUS
 62
     7
 10
-192.9367
 20
135.6774
 11
-175.9367
 21
135.6774
  0
LINE
  8
0
  6
CONTINUOUS
 62
     7
 10
-172.6367
 20
135.4475
 11
-172.6367
 21
135.1451
  0
LINE
  8
0
  6
CONTINUOUS
 62
     7
 10
-173.2367
 20
135.4475
 11
-173.2367
 21
135.1451
  0
LINE
  8
0
  6
CONTINUOUS
 62
     7
 10
-173.3975
 20
135.1694
 11
-173.3975
 21
135.4751
  0
LINE
  8
0
  6
CONTINUOUS
 62
     7
 10
-191.2367
 20
148.9073
 11
-191.2367
 21
149.2097
  0
LINE
  8
0
  6
CONTINUOUS
 62
     7
 10
-190.6367
 20
148.9073
 11
-190.6367
 21
149.2097
  0
LINE
  8
0
  6
CONTINUOUS
 62
     7
 10
-190.4759
 20
149.1855
 11
-190.4759
 21
148.8798
  0
LINE
  8
0
  6
CONTINUOUS
 62
     7
 10
-174.0398
 20
136.9421
 11
-173.6721
 21
137.3098
  0
LINE
  8
0
  6
CONTINUOUS
 62
     7
 10
-173.6721
 20
136.5744
 11
-173.3045
 21
136.9421
  0
LINE
  8
0
  6
CONTINUOUS
 62
     7
 10
-174.0398
 20
136.9421
 11
-173.6721
 21
136.5744
  0
LINE
  8
0
  6
CONTINUOUS
 62
     7
 10
-172.2014
 20
138.7805
 11
-171.8337
 21
138.4128
  0
LINE
  8
0
  6
CONTINUOUS
 62
     7
 10
-174.7009
 20
139.0739
 11
-173.6721
 21
138.0451
  0
LINE
  8
0
  6
CONTINUOUS
 62
     7
 10
-174.3332
 20
139.4416
 11
-173.3044
 21
138.4128
  0
LINE
  8
0
  6
CONTINUOUS
 62
     7
 10
-172.569
 20
138.4129
 11
-172.2013
 21
138.7806
  0
LINE
  8
0
  6
CONTINUOUS
 62
     7
 10
-172.2014
 20
138.0452
 11
-171.8337
 21
138.4129
  0
LINE
  8
0
  6
CONTINUOUS
 62
     7
 10
-172.5691
 20
136.942
 11
-171.5403
 21
135.9132
  0
LINE
  8
0
  6
CONTINUOUS
 62
     7
 10
-172.2013
 20
137.3098
 11
-171.1725
 21
136.281
  0
LINE
  8
0
  6
CONTINUOUS
 62
     7
 10
-192.0398
 20
145.9421
 11
-191.6721
 21
146.3098
  0
LINE
  8
0
  6
CONTINUOUS
 62
     7
 10
-191.6721
 20
145.5744
 11
-191.3045
 21
145.9421
  0
LINE
  8
0
  6
CONTINUOUS
 62
     7
 10
-192.0398
 20
145.942
 11
-191.6721
 21
145.5743
  0
LINE
  8
0
  6
CONTINUOUS
 62
     7
 10
-190.2014
 20
147.7805
 11
-189.8337
 21
147.4128
  0
LINE
  8
0
  6
CONTINUOUS
 62
     7
 10
-192.7009
 20
148.0739
 11
-191.6721
 21
147.0451
  0
LINE
  8
0
  6
CONTINUOUS
 62
     7
 10
-192.3332
 20
148.4416
 11
-191.3044
 21
147.4128
  0
LINE
  8
0
  6
CONTINUOUS
 62
     7
 10
-190.569
 20
147.4129
 11
-190.2013
 21
147.7806
  0
LINE
  8
0
  6
CONTINUOUS
 62
     7
 10
-190.2014
 20
147.0452
 11
-189.8337
 21
147.4129
  0
LINE
  8
0
  6
CONTINUOUS
 62
     7
 10
-190.569
 20
145.942
 11
-189.5402
 21
144.9133
  0
LINE
  8
0
  6
CONTINUOUS
 62
     7
 10
-190.2014
 20
146.3097
 11
-189.1726
 21
145.2809
  0
LINE
  8
0
  6
CENTER
 62
     2
 10
-172.9367
 20
141.6774
 11
-172.9367
 21
133.6774
  0
LINE
  8
0
  6
CENTER
 62
     2
 10
-190.9367
 20
150.6774
 11
-190.9367
 21
142.6774
  0
LINE
  8
0
  6
CENTER
 62
     2
 10
-194.9367
 20
146.6774
 11
-186.9367
 21
146.6774
  0
LINE
  8
0
  6
CENTER
 62
     2
 10
-176.9367
 20
137.6774
 11
-168.9367
 21
137.6774
  0
LINE
  8
0
  6
CONTINUOUS
 62
     7
 10
-193.4367
 20
149.6774
 11
-169.9367
 21
149.6774
  0
LINE
  8
0
  6
CONTINUOUS
 62
     7
 10
-193.9367
 20
149.1774
 11
-193.9367
 21
135.1774
  0
LINE
  8
0
  6
CONTINUOUS
 62
     7
 10
-193.4367
 20
134.6774
 11
-169.9367
 21
134.6774
  0
LINE
  8
0
  6
CONTINUOUS
 62
     7
 10
-169.9367
 20
149.1774
 11
-160.7367
 21
149.1774
  0
LINE
  8
0
  6
CONTINUOUS
 62
     7
 10
-159.9367
 20
148.3774
 11
-159.9367
 21
135.9774
  0
LINE
  8
0
  6
CONTINUOUS
 62
     7
 10
-169.9367
 20
135.1774
 11
-160.7367
 21
135.1774
  0
LINE
  8
0
  6
CENTER
 62
     2
 10
-165.4367
 20
148.3774
 11
-165.4367
 21
135.9774
  0
LINE
  8
0
  6
CENTER
 62
     2
 10
-169.4367
 20
143.6774
 11
-161.4367
 21
143.6774
  0
LINE
  8
0
  6
CENTER
 62
     2
 10
-169.4367
 20
140.6774
 11
-161.4367
 21
140.6774
  0
LINE
  8
0
  6
CONTINUOUS
 62
     7
 10
-168.9367
 20
143.1774
 11
-168.9367
 21
141.1774
  0
LINE
  8
0
  6
CONTINUOUS
 62
     7
 10
-161.9367
 20
143.1774
 11
-161.9367
 21
141.1774
  0
LINE
  8
0
  6
CONTINUOUS
 62
     7
 10
-316.0613
 20
6.00012
 11
-298.0613
 21
6.00012
  0
LINE
  8
0
  6
CENTER
 62
     2
 10
-307.0613
 20
55.06502
 11
-307.0613
 21
-84.93793
  0
LINE
  8
0
  6
CONTINUOUS
 62
     7
 10
-298.0613
 20
23.20012
 11
-298.0613
 21
-53.19989
  0
LINE
  8
0
  6
CONTINUOUS
 62
     7
 10
-316.0613
 20
23.20012
 11
-316.0613
 21
-53.19989
  0
LINE
  8
0
  6
CONTINUOUS
 62
     7
 10
-316.0613
 20
-35.99988
 11
-298.0613
 21
-35.99988
  0
LINE
  8
0
  6
CONTINUOUS
 62
     7
 10
-315.0613
 20
24.2001
 11
-316.0613
 21
23.20008
  0
LINE
  8
0
  6
CONTINUOUS
 62
     7
 10
-299.0613
 20
24.20011
 11
-298.0613
 21
23.20012
  0
LINE
  8
0
  6
CENTER
 62
     2
 10
-313.4095
 20
-28.19989
 11
-301.144
 21
-28.19989
  0
LINE
  8
0
  6
CENTER
 62
     2
 10
-313.2701
 20
-14.99988
 11
-300.7258
 21
-14.99988
  0
LINE
  8
0
  6
CENTER
 62
     2
 10
-312.7822
 20
-1.79987
 11
-300.7258
 21
-1.79987
  0
LINE
  8
0
  6
CENTER
 62
     2
 10
-313.5613
 20
2.7516
 11
-313.5613
 21
-2.41412
  0
LINE
  8
0
  6
CENTER
 62
     2
 10
-300.5613
 20
-27.28159
 11
-300.5613
 21
-32.80771
  0
LINE
  8
0
  6
CENTER
 62
     2
 10
-303.1369
 20
-29.99988
 11
-298.0613
 21
-29.99988
  0
LINE
  8
0
  6
CENTER
 62
     2
 10
-316.0613
 20
0.00012
 11
-311.0657
 21
0.00012
  0
LINE
  8
0
  6
CENTER
 62
     2
 10
-310.8254
 20
15.90012
 11
-303.257
 21
15.90012
  0
LINE
  8
0
  6
CONTINUOUS
 62
     7
 10
-315.0613
 20
24.20012
 11
-299.0613
 21
24.20012
  0
LINE
  8
0
  6
CONTINUOUS
 62
     7
 10
-316.0613
 20
23.20012
 11
-298.0613
 21
23.20012
  0
LINE
  8
0
  6
CONTINUOUS
 62
     7
 10
-308.4756
 20
14.48588
 11
-305.6472
 21
17.31431
  0
LINE
  8
0
  6
CONTINUOUS
 62
     7
 10
-308.4756
 20
17.31427
 11
-305.6472
 21
14.48585
  0
LINE
  8
0
  6
CONTINUOUS
 62
     7
 10
-308.9932
 20
16.41776
 11
-306.5437
 21
13.96826
  0
LINE
  8
0
  6
CONTINUOUS
 62
     7
 10
-307.579
 20
17.83197
 11
-305.1295
 21
15.38247
  0
LINE
  8
0
  6
CONTINUOUS
 62
     7
 10
-308.9933
 20
15.38248
 11
-306.5438
 21
17.83197
  0
LINE
  8
0
  6
CONTINUOUS
 62
     7
 10
-307.5791
 20
13.9683
 11
-305.1296
 21
16.41779
  0
LINE
  8
0
  6
CONTINUOUS
 62
     7
 10
-316.0613
 20
-53.19988
 11
-315.0613
 21
-54.19988
  0
LINE
  8
0
  6
CONTINUOUS
 62
     7
 10
-298.0612
 20
-53.19986
 11
-299.0613
 21
-54.19988
  0
LINE
  8
0
  6
CONTINUOUS
 62
     7
 10
-316.0613
 20
-53.19989
 11
-298.0613
 21
-53.19989
  0
LINE
  8
0
  6
CONTINUOUS
 62
     7
 10
-299.0613
 20
-54.19989
 11
-315.0613
 21
-54.19989
  0
LINE
  8
0
  6
CENTER
 62
     2
 10
-302.8947
 20
-45.89987
 11
-311.228
 21
-45.89987
  0
LINE
  8
0
  6
CONTINUOUS
 62
     7
 10
-308.4756
 20
-47.31407
 11
-305.6471
 21
-44.48564
  0
LINE
  8
0
  6
CONTINUOUS
 62
     7
 10
-308.4756
 20
-44.48569
 11
-305.6471
 21
-47.31412
  0
LINE
  8
0
  6
CONTINUOUS
 62
     7
 10
-307.5791
 20
-43.96807
 11
-305.1296
 21
-46.41755
  0
LINE
  8
0
  6
CONTINUOUS
 62
     7
 10
-308.9933
 20
-45.38228
 11
-306.5438
 21
-47.83178
  0
LINE
  8
0
  6
CONTINUOUS
 62
     7
 10
-308.9932
 20
-46.41752
 11
-306.5437
 21
-43.96802
  0
LINE
  8
0
  6
CONTINUOUS
 62
     7
 10
-307.579
 20
-47.83173
 11
-305.1295
 21
-45.38224
  0
LINE
  8
0
  6
CENTER
 62
     2
 10
-307.5613
 20
-21.99988
 11
-307.5613
 21
-34.16449
  0
LINE
  8
0
  6
CENTER
 62
     2
 10
-306.5613
 20
4.02313
 11
-306.5613
 21
-7.8335
  0
LINE
  8
0
  6
CONTINUOUS
 62
     7
 10
-314.5613
 20
50.40012
 11
-314.5613
 21
24.20012
  0
LINE
  8
0
  6
CONTINUOUS
 62
     7
 10
-299.5613
 20
50.40012
 11
-299.5613
 21
24.20012
  0
LINE
  8
0
  6
CONTINUOUS
 62
     7
 10
-308.5613
 20
52.40012
 11
-308.5613
 21
50.40012
  0
LINE
  8
0
  6
CONTINUOUS
 62
     7
 10
-313.5613
 20
46.40012
 11
-300.5613
 21
46.40012
  0
LINE
  8
0
  6
CONTINUOUS
 62
     7
 10
-313.5613
 20
42.40012
 11
-300.5613
 21
42.40012
  0
LINE
  8
0
  6
CONTINUOUS
 62
     7
 10
-300.5613
 20
46.40012
 11
-300.5613
 21
42.40012
  0
LINE
  8
0
  6
CONTINUOUS
 62
     7
 10
-313.5613
 20
46.40012
 11
-313.5613
 21
42.40012
  0
LINE
  8
0
  6
CONTINUOUS
 62
     7
 10
-312.8492
 20
45.5069
 11
-310.5076
 21
45.5069
  0
LINE
  8
0
  6
CONTINUOUS
 62
     7
 10
-312.8492
 20
43.43031
 11
-310.861
 21
43.43031
  0
LINE
  8
0
  6
CONTINUOUS
 62
     7
 10
-312.8492
 20
42.90012
 11
-310.1541
 21
42.90012
  0
LINE
  8
0
  6
CONTINUOUS
 62
     7
 10
-312.8492
 20
44.97672
 11
-310.861
 21
44.97672
  0
LINE
  8
0
  6
CONTINUOUS
 62
     7
 10
-312.8492
 20
45.5069
 11
-312.8492
 21
44.97672
  0
LINE
  8
0
  6
CONTINUOUS
 62
     7
 10
-310.1541
 20
45.15344
 11
-310.1541
 21
42.90012
  0
LINE
  8
0
  6
CONTINUOUS
 62
     7
 10
-310.861
 20
44.97672
 11
-310.861
 21
43.43031
  0
LINE
  8
0
  6
CONTINUOUS
 62
     7
 10
-309.7565
 20
45.5069
 11
-309.7565
 21
44.97672
  0
LINE
  8
0
  6
CONTINUOUS
 62
     7
 10
-307.2381
 20
44.97672
 11
-307.2381
 21
43.25357
  0
LINE
  8
0
  6
CONTINUOUS
 62
     7
 10
-307.945
 20
44.97672
 11
-307.945
 21
43.43031
  0
LINE
  8
0
  6
CONTINUOUS
 62
     7
 10
-312.8492
 20
43.43031
 11
-312.8492
 21
42.90012
  0
LINE
  8
0
  6
CONTINUOUS
 62
     7
 10
-309.7565
 20
45.5069
 11
-309.058
 21
45.5069
  0
LINE
  8
0
  6
CONTINUOUS
 62
     7
 10
-309.7565
 20
42.90012
 11
-309.2076
 21
42.90012
  0
LINE
  8
0
  6
CONTINUOUS
 62
     7
 10
-309.7564
 20
42.90011
 11
-309.1999
 21
44.97673
  0
LINE
  8
0
  6
CONTINUOUS
 62
     7
 10
-309.7565
 20
44.97672
 11
-309.2001
 21
44.97672
  0
LINE
  8
0
  6
CONTINUOUS
 62
     7
 10
-309.2076
 20
42.90012
 11
-308.6512
 21
44.97671
  0
LINE
  8
0
  6
CONTINUOUS
 62
     7
 10
-308.4752
 20
43.43031
 11
-307.945
 21
43.43031
  0
LINE
  8
0
  6
CONTINUOUS
 62
     7
 10
-308.4753
 20
43.43029
 11
-308.3332
 21
42.9001
  0
LINE
  8
0
  6
CONTINUOUS
 62
     7
 10
-308.3331
 20
42.90012
 11
-307.5916
 21
42.90012
  0
LINE
  8
0
  6
CONTINUOUS
 62
     7
 10
-308.6512
 20
44.97672
 11
-307.945
 21
44.97672
  0
LINE
  8
0
  6
CONTINUOUS
 62
     7
 10
-308.5091
 20
45.5069
 11
-307.7682
 21
45.5069
  0
LINE
  8
0
  6
CONTINUOUS
 62
     7
 10
-309.058
 20
45.50691
 11
-308.9526
 21
45.90011
  0
LINE
  8
0
  6
CONTINUOUS
 62
     7
 10
-308.509
 20
45.50689
 11
-308.4036
 21
45.90009
  0
LINE
  8
0
  6
CONTINUOUS
 62
     7
 10
-306.7963
 20
45.5069
 11
-305.9568
 21
45.5069
  0
LINE
  8
0
  6
CONTINUOUS
 62
     7
 10
-306.7963
 20
44.97672
 11
-304.7346
 21
44.97672
  0
LINE
  8
0
  6
CONTINUOUS
 62
     7
 10
-305.9568
 20
42.90012
 11
-305.2499
 21
42.90012
  0
LINE
  8
0
  6
CONTINUOUS
 62
     7
 10
-306.7963
 20
45.5069
 11
-306.7963
 21
44.97672
  0
LINE
  8
0
  6
CONTINUOUS
 62
     7
 10
-304.1895
 20
44.01532
 11
-304.1895
 21
43.43031
  0
LINE
  8
0
  6
CONTINUOUS
 62
     7
 10
-306.7963
 20
43.43031
 11
-305.9568
 21
43.82178
  0
LINE
  8
0
  6
CONTINUOUS
 62
     7
 10
-306.7962
 20
44.01528
 11
-304.7345
 21
44.97667
  0
LINE
  8
0
  6
CONTINUOUS
 62
     7
 10
-306.7963
 20
44.01532
 11
-306.7963
 21
43.43031
  0
LINE
  8
0
  6
CONTINUOUS
 62
     7
 10
-305.2498
 20
43.9248
 11
-304.1895
 21
43.43034
  0
LINE
  8
0
  6
CONTINUOUS
 62
     7
 10
-304.8655
 20
44.33054
 11
-304.1894
 21
44.01527
  0
LINE
  8
0
  6
CONTINUOUS
 62
     7
 10
-304.1895
 20
45.15344
 11
-304.1895
 21
44.87105
  0
LINE
  8
0
  6
CONTINUOUS
 62
     7
 10
-305.9568
 20
45.90012
 11
-305.9568
 21
45.5069
  0
LINE
  8
0
  6
CONTINUOUS
 62
     7
 10
-305.2499
 20
45.90012
 11
-305.2499
 21
45.5069
  0
LINE
  8
0
  6
CONTINUOUS
 62
     7
 10
-305.2499
 20
45.5069
 11
-304.5429
 21
45.5069
  0
LINE
  8
0
  6
CONTINUOUS
 62
     7
 10
-305.9568
 20
43.82176
 11
-305.9568
 21
42.90012
  0
LINE
  8
0
  6
CONTINUOUS
 62
     7
 10
-305.2499
 20
43.92477
 11
-305.2499
 21
42.90012
  0
LINE
  8
0
  6
CONTINUOUS
 62
     7
 10
-304.8655
 20
44.33049
 11
-304.3935
 21
44.55059
  0
LINE
  8
0
  6
CONTINUOUS
 62
     7
 10
-301.8036
 20
45.74106
 11
-301.2734
 21
45.74106
  0
LINE
  8
0
  6
CONTINUOUS
 62
     7
 10
-303.9686
 20
44.64587
 11
-303.9686
 21
44.07529
  0
LINE
  8
0
  6
CONTINUOUS
 62
     7
 10
-301.2734
 20
45.74106
 11
-301.2734
 21
45.5069
  0
LINE
  8
0
  6
CONTINUOUS
 62
     7
 10
-301.8036
 20
45.74106
 11
-301.8036
 21
45.6268
  0
LINE
  8
0
  6
CONTINUOUS
 62
     7
 10
-302.5105
 20
44.65515
 11
-302.5105
 21
42.90012
  0
LINE
  8
0
  6
CONTINUOUS
 62
     7
 10
-303.9685
 20
44.64586
 11
-301.915
 21
45.46257
  0
LINE
  8
0
  6
CONTINUOUS
 62
     7
 10
-303.9685
 20
44.07528
 11
-302.5105
 21
44.65515
  0
LINE
  8
0
  6
CONTINUOUS
 62
     7
 10
-302.5105
 20
42.90012
 11
-301.8036
 21
42.90012
  0
LINE
  8
0
  6
CONTINUOUS
 62
     7
 10
-301.8036
 20
44.93631
 11
-301.8036
 21
42.90012
  0
LINE
  8
0
  6
CONTINUOUS
 62
     7
 10
-301.8035
 20
44.93628
 11
-301.6075
 21
45.01422
  0
LINE
  8
0
  6
CONTINUOUS
 62
     7
 10
-308.9526
 20
45.90012
 11
-308.4037
 21
45.90012
  0
LINE
  8
0
  6
CONTINUOUS
 62
     7
 10
-307.5253
 20
45.90012
 11
-307.2993
 21
45.90012
  0
LINE
  8
0
  6
CONTINUOUS
 62
     7
 10
-305.9568
 20
45.90012
 11
-305.2499
 21
45.90012
  0
LINE
  8
0
  6
CONTINUOUS
 62
     7
 10
-307.5253
 20
45.54666
 11
-307.2993
 21
45.54666
  0
LINE
  8
0
  6
CONTINUOUS
 62
     7
 10
-307.5253
 20
45.90012
 11
-307.5253
 21
45.54666
  0
LINE
  8
0
  6
CONTINUOUS
 62
     7
 10
-307.2993
 20
45.90012
 11
-307.2993
 21
45.54666
  0
LINE
  8
0
  6
CONTINUOUS
 62
     7
 10
-307.1415
 20
45.90012
 11
-307.1415
 21
45.54666
  0
LINE
  8
0
  6
CONTINUOUS
 62
     7
 10
-306.9155
 20
45.90012
 11
-306.9155
 21
45.54666
  0
LINE
  8
0
  6
CONTINUOUS
 62
     7
 10
-307.1415
 20
45.90012
 11
-306.9155
 21
45.90012
  0
LINE
  8
0
  6
CONTINUOUS
 62
     7
 10
-307.1415
 20
45.54666
 11
-306.9155
 21
45.54666
  0
LINE
  8
0
  6
CENTER
 62
     2
 10
-305.5613
 20
73.20012
 11
-305.5613
 21
47.40012
  0
LINE
  8
0
  6
CENTER
 62
     2
 10
-308.5613
 20
73.20012
 11
-308.5613
 21
47.40012
  0
LINE
  8
0
  6
CONTINUOUS
 62
     7
 10
-307.7114
 20
60.20012
 11
-307.7114
 21
57.25075
  0
LINE
  8
0
  6
CONTINUOUS
 62
     7
 10
-309.4113
 20
60.20012
 11
-309.4113
 21
57.70625
  0
LINE
  8
0
  6
CONTINUOUS
 62
     7
 10
-308.2413
 20
70.20012
 11
-308.2413
 21
60.20012
  0
LINE
  8
0
  6
CONTINUOUS
 62
     7
 10
-308.8813
 20
70.20012
 11
-308.8813
 21
60.20012
  0
LINE
  8
0
  6
CONTINUOUS
 62
     7
 10
-305.2413
 20
70.20012
 11
-305.2413
 21
60.20012
  0
LINE
  8
0
  6
CONTINUOUS
 62
     7
 10
-305.8813
 20
70.20012
 11
-305.8813
 21
60.20012
  0
LINE
  8
0
  6
CONTINUOUS
 62
     7
 10
-304.7114
 20
60.20012
 11
-304.7114
 21
56.4469
  0
LINE
  8
0
  6
CONTINUOUS
 62
     7
 10
-306.4113
 20
60.20012
 11
-306.4113
 21
56.90242
  0
LINE
  8
0
  6
CONTINUOUS
 62
     7
 10
-308.8813
 20
70.20012
 11
-308.2413
 21
70.20012
  0
LINE
  8
0
  6
CONTINUOUS
 62
     7
 10
-305.8813
 20
70.20012
 11
-305.2413
 21
70.20012
  0
LINE
  8
0
  6
CONTINUOUS
 62
     7
 10
-309.4113
 20
60.20012
 11
-307.7114
 21
60.20012
  0
LINE
  8
0
  6
CONTINUOUS
 62
     7
 10
-306.4113
 20
60.20012
 11
-304.7114
 21
60.20012
  0
LINE
  8
0
  6
CONTINUOUS
 62
     7
 10
-314.5612
 20
50.40012
 11
-313.5612
 21
52.4001
  0
LINE
  8
0
  6
CONTINUOUS
 62
     7
 10
-313.8113
 20
51.69385
 11
-313.8113
 21
51.00011
  0
LINE
  8
0
  6
CENTER
 62
     2
 10
-311.5613
 20
55.40012
 11
-311.5613
 21
47.40012
  0
LINE
  8
0
  6
CONTINUOUS
 62
     7
 10
-313.5613
 20
52.40012
 11
-313.3871
 21
52.40012
  0
LINE
  8
0
  6
CONTINUOUS
 62
     7
 10
-309.3113
 20
51.69385
 11
-309.3113
 21
51.00011
  0
LINE
  8
0
  6
CONTINUOUS
 62
     7
 10
-309.7356
 20
52.40012
 11
-300.5613
 21
52.40012
  0
LINE
  8
0
  6
CENTER
 62
     2
 10
-302.5613
 20
55.40012
 11
-302.5613
 21
47.40012
  0
LINE
  8
0
  6
CONTINUOUS
 62
     7
 10
-299.5612
 20
50.40014
 11
-300.5612
 21
52.40016
  0
LINE
  8
0
  6
CONTINUOUS
 62
     7
 10
-314.5613
 20
50.40012
 11
-299.5613
 21
50.40012
  0
LINE
  8
0
  6
CONTINUOUS
 62
     7
 10
-314.5613
 20
49.40012
 11
-299.5613
 21
49.40012
  0
LINE
  8
0
  6
CONTINUOUS
 62
     7
 10
-309.0114
 20
51.00011
 11
-314.1113
 21
51.00011
  0
LINE
  8
0
  6
CONTINUOUS
 62
     7
 10
-309.0114
 20
51.00011
 11
-309.0114
 21
50.40012
  0
LINE
  8
0
  6
CONTINUOUS
 62
     7
 10
-314.1113
 20
51.00011
 11
-314.1113
 21
50.40012
  0
LINE
  8
0
  6
PHANTOM
 62
     2
 10
-311.4113
 20
58.24219
 11
-302.7113
 21
55.91103
  0
LINE
  8
0
  6
PHANTOM
 62
     2
 10
-311.4113
 20
56.68931
 11
-302.7113
 21
54.35816
  0
LINE
  8
0
  6
CONTINUOUS
 62
     7
 10
-309.4113
 20
56.15335
 11
-309.4113
 21
52.40012
  0
LINE
  8
0
  6
CONTINUOUS
 62
     7
 10
-307.7114
 20
55.69783
 11
-307.7114
 21
52.40012
  0
LINE
  8
0
  6
CONTINUOUS
 62
     7
 10
-306.4113
 20
55.3495
 11
-306.4113
 21
52.40012
  0
LINE
  8
0
  6
CONTINUOUS
 62
     7
 10
-304.7114
 20
54.89398
 11
-304.7114
 21
52.40012
  0
LINE
  8
0
  6
CONTINUOUS
 62
     7
 10
-299.5613
 20
-80.39987
 11
-299.5613
 21
-54.19989
  0
LINE
  8
0
  6
CONTINUOUS
 62
     7
 10
-314.5613
 20
-80.39987
 11
-314.5613
 21
-54.19989
  0
LINE
  8
0
  6
CONTINUOUS
 62
     7
 10
-305.5613
 20
-82.39987
 11
-305.5613
 21
-80.39987
  0
LINE
  8
0
  6
CONTINUOUS
 62
     7
 10
-300.5613
 20
-76.39987
 11
-313.5613
 21
-76.39987
  0
LINE
  8
0
  6
CONTINUOUS
 62
     7
 10
-300.5613
 20
-72.39987
 11
-313.5613
 21
-72.39987
  0
LINE
  8
0
  6
CONTINUOUS
 62
     7
 10
-313.5613
 20
-76.39987
 11
-313.5613
 21
-72.39987
  0
LINE
  8
0
  6
CONTINUOUS
 62
     7
 10
-300.5613
 20
-76.39987
 11
-300.5613
 21
-72.39987
  0
LINE
  8
0
  6
CONTINUOUS
 62
     7
 10
-301.2734
 20
-75.50665
 11
-303.6151
 21
-75.50665
  0
LINE
  8
0
  6
CONTINUOUS
 62
     7
 10
-301.2734
 20
-73.43008
 11
-303.2617
 21
-73.43008
  0
LINE
  8
0
  6
CONTINUOUS
 62
     7
 10
-301.2734
 20
-72.89987
 11
-303.9686
 21
-72.89987
  0
LINE
  8
0
  6
CONTINUOUS
 62
     7
 10
-301.2734
 20
-74.97647
 11
-303.2617
 21
-74.97647
  0
LINE
  8
0
  6
CONTINUOUS
 62
     7
 10
-301.2734
 20
-75.50665
 11
-301.2734
 21
-74.97647
  0
LINE
  8
0
  6
CONTINUOUS
 62
     7
 10
-303.9686
 20
-75.1532
 11
-303.9686
 21
-72.89987
  0
LINE
  8
0
  6
CONTINUOUS
 62
     7
 10
-303.2617
 20
-74.97647
 11
-303.2617
 21
-73.43008
  0
LINE
  8
0
  6
CONTINUOUS
 62
     7
 10
-304.3662
 20
-75.50665
 11
-304.3662
 21
-74.97647
  0
LINE
  8
0
  6
CONTINUOUS
 62
     7
 10
-306.8846
 20
-74.97647
 11
-306.8846
 21
-73.25333
  0
LINE
  8
0
  6
CONTINUOUS
 62
     7
 10
-306.1777
 20
-74.97647
 11
-306.1777
 21
-73.43008
  0
LINE
  8
0
  6
CONTINUOUS
 62
     7
 10
-301.2734
 20
-73.43008
 11
-301.2734
 21
-72.89987
  0
LINE
  8
0
  6
CONTINUOUS
 62
     7
 10
-304.3662
 20
-75.50665
 11
-305.0647
 21
-75.50665
  0
LINE
  8
0
  6
CONTINUOUS
 62
     7
 10
-304.3662
 20
-72.89987
 11
-304.9151
 21
-72.89987
  0
LINE
  8
0
  6
CONTINUOUS
 62
     7
 10
-304.3661
 20
-72.89992
 11
-304.9225
 21
-74.9765
  0
LINE
  8
0
  6
CONTINUOUS
 62
     7
 10
-304.3662
 20
-74.97647
 11
-304.9226
 21
-74.97647
  0
LINE
  8
0
  6
CONTINUOUS
 62
     7
 10
-304.9152
 20
-72.89979
 11
-305.4716
 21
-74.97638
  0
LINE
  8
0
  6
CONTINUOUS
 62
     7
 10
-305.6475
 20
-73.43008
 11
-306.1777
 21
-73.43008
  0
LINE
  8
0
  6
CONTINUOUS
 62
     7
 10
-305.6476
 20
-73.43014
 11
-305.7897
 21
-72.89995
  0
LINE
  8
0
  6
CONTINUOUS
 62
     7
 10
-305.7896
 20
-72.89987
 11
-306.5311
 21
-72.89987
  0
LINE
  8
0
  6
CONTINUOUS
 62
     7
 10
-305.4715
 20
-74.97647
 11
-306.1777
 21
-74.97647
  0
LINE
  8
0
  6
CONTINUOUS
 62
     7
 10
-305.6136
 20
-75.50665
 11
-306.3544
 21
-75.50665
  0
LINE
  8
0
  6
CONTINUOUS
 62
     7
 10
-305.0647
 20
-75.50662
 11
-305.17
 21
-75.89986
  0
LINE
  8
0
  6
CONTINUOUS
 62
     7
 10
-305.6134
 20
-75.50668
 11
-305.7188
 21
-75.89992
  0
LINE
  8
0
  6
CONTINUOUS
 62
     7
 10
-307.3264
 20
-75.50665
 11
-308.1659
 21
-75.50665
  0
LINE
  8
0
  6
CONTINUOUS
 62
     7
 10
-307.3264
 20
-74.97647
 11
-309.3881
 21
-74.97647
  0
LINE
  8
0
  6
CONTINUOUS
 62
     7
 10
-308.1659
 20
-72.89987
 11
-308.8728
 21
-72.89987
  0
LINE
  8
0
  6
CONTINUOUS
 62
     7
 10
-307.3264
 20
-75.50665
 11
-307.3264
 21
-74.97647
  0
LINE
  8
0
  6
CONTINUOUS
 62
     7
 10
-309.9332
 20
-74.01508
 11
-309.9332
 21
-73.43008
  0
LINE
  8
0
  6
CONTINUOUS
 62
     7
 10
-307.3263
 20
-73.43004
 11
-308.1658
 21
-73.8215
  0
LINE
  8
0
  6
CONTINUOUS
 62
     7
 10
-307.3264
 20
-74.01501
 11
-309.3881
 21
-74.97641
  0
LINE
  8
0
  6
CONTINUOUS
 62
     7
 10
-307.3264
 20
-74.01508
 11
-307.3264
 21
-73.43008
  0
LINE
  8
0
  6
CONTINUOUS
 62
     7
 10
-308.8727
 20
-73.92451
 11
-309.9331
 21
-73.43005
  0
LINE
  8
0
  6
CONTINUOUS
 62
     7
 10
-309.2572
 20
-74.33037
 11
-309.9333
 21
-74.01509
  0
LINE
  8
0
  6
CONTINUOUS
 62
     7
 10
-309.9332
 20
-75.1532
 11
-309.9332
 21
-74.87082
  0
LINE
  8
0
  6
CONTINUOUS
 62
     7
 10
-308.1659
 20
-75.89987
 11
-308.1659
 21
-75.50665
  0
LINE
  8
0
  6
CONTINUOUS
 62
     7
 10
-308.8728
 20
-75.89987
 11
-308.8728
 21
-75.50665
  0
LINE
  8
0
  6
CONTINUOUS
 62
     7
 10
-308.8728
 20
-75.50665
 11
-309.5798
 21
-75.50665
  0
LINE
  8
0
  6
CONTINUOUS
 62
     7
 10
-308.1659
 20
-73.8215
 11
-308.1659
 21
-72.89987
  0
LINE
  8
0
  6
CONTINUOUS
 62
     7
 10
-308.8728
 20
-73.92453
 11
-308.8728
 21
-72.89987
  0
LINE
  8
0
  6
CONTINUOUS
 62
     7
 10
-309.2571
 20
-74.33033
 11
-309.7292
 21
-74.55043
  0
LINE
  8
0
  6
CONTINUOUS
 62
     7
 10
-312.3191
 20
-75.74081
 11
-312.8492
 21
-75.74081
  0
LINE
  8
0
  6
CONTINUOUS
 62
     7
 10
-310.1541
 20
-74.64563
 11
-310.1541
 21
-74.07504
  0
LINE
  8
0
  6
CONTINUOUS
 62
     7
 10
-312.8492
 20
-75.74081
 11
-312.8492
 21
-75.50665
  0
LINE
  8
0
  6
CONTINUOUS
 62
     7
 10
-312.3191
 20
-75.74081
 11
-312.3191
 21
-75.62656
  0
LINE
  8
0
  6
CONTINUOUS
 62
     7
 10
-311.6122
 20
-74.65491
 11
-311.6122
 21
-72.89987
  0
LINE
  8
0
  6
CONTINUOUS
 62
     7
 10
-310.1541
 20
-74.64559
 11
-312.2077
 21
-75.46233
  0
LINE
  8
0
  6
CONTINUOUS
 62
     7
 10
-310.1541
 20
-74.07505
 11
-311.6121
 21
-74.65492
  0
LINE
  8
0
  6
CONTINUOUS
 62
     7
 10
-311.6122
 20
-72.89987
 11
-312.3191
 21
-72.89987
  0
LINE
  8
0
  6
CONTINUOUS
 62
     7
 10
-312.3191
 20
-74.93607
 11
-312.3191
 21
-72.89987
  0
LINE
  8
0
  6
CONTINUOUS
 62
     7
 10
-312.3191
 20
-74.93598
 11
-312.515
 21
-75.01392
  0
LINE
  8
0
  6
CONTINUOUS
 62
     7
 10
-305.17
 20
-75.89987
 11
-305.7189
 21
-75.89987
  0
LINE
  8
0
  6
CONTINUOUS
 62
     7
 10
-306.5974
 20
-75.89987
 11
-306.8234
 21
-75.89987
  0
LINE
  8
0
  6
CONTINUOUS
 62
     7
 10
-308.1659
 20
-75.89987
 11
-308.8728
 21
-75.89987
  0
LINE
  8
0
  6
CONTINUOUS
 62
     7
 10
-306.5974
 20
-75.54642
 11
-306.8234
 21
-75.54642
  0
LINE
  8
0
  6
CONTINUOUS
 62
     7
 10
-306.5974
 20
-75.89987
 11
-306.5974
 21
-75.54642
  0
LINE
  8
0
  6
CONTINUOUS
 62
     7
 10
-306.8234
 20
-75.89987
 11
-306.8234
 21
-75.54642
  0
LINE
  8
0
  6
CONTINUOUS
 62
     7
 10
-306.9811
 20
-75.89987
 11
-306.9811
 21
-75.54642
  0
LINE
  8
0
  6
CONTINUOUS
 62
     7
 10
-307.2072
 20
-75.89987
 11
-307.2072
 21
-75.54642
  0
LINE
  8
0
  6
CONTINUOUS
 62
     7
 10
-306.9811
 20
-75.89987
 11
-307.2072
 21
-75.89987
  0
LINE
  8
0
  6
CONTINUOUS
 62
     7
 10
-306.9811
 20
-75.54642
 11
-307.2072
 21
-75.54642
  0
LINE
  8
0
  6
CENTER
 62
     2
 10
-308.5613
 20
-103.1999
 11
-308.5613
 21
-77.39987
  0
LINE
  8
0
  6
CENTER
 62
     2
 10
-305.5613
 20
-103.1999
 11
-305.5613
 21
-77.39987
  0
LINE
  8
0
  6
CONTINUOUS
 62
     7
 10
-306.4113
 20
-90.19986
 11
-306.4113
 21
-87.25052
  0
LINE
  8
0
  6
CONTINUOUS
 62
     7
 10
-304.7114
 20
-90.19986
 11
-304.7114
 21
-87.70602
  0
LINE
  8
0
  6
CONTINUOUS
 62
     7
 10
-305.8813
 20
-100.1999
 11
-305.8813
 21
-90.19986
  0
LINE
  8
0
  6
CONTINUOUS
 62
     7
 10
-305.2413
 20
-100.1999
 11
-305.2413
 21
-90.19986
  0
LINE
  8
0
  6
CONTINUOUS
 62
     7
 10
-308.8813
 20
-100.1999
 11
-308.8813
 21
-90.19986
  0
LINE
  8
0
  6
CONTINUOUS
 62
     7
 10
-308.2413
 20
-100.1999
 11
-308.2413
 21
-90.19986
  0
LINE
  8
0
  6
CONTINUOUS
 62
     7
 10
-309.4113
 20
-90.19986
 11
-309.4113
 21
-86.44666
  0
LINE
  8
0
  6
CONTINUOUS
 62
     7
 10
-307.7114
 20
-90.19986
 11
-307.7114
 21
-86.90219
  0
LINE
  8
0
  6
CONTINUOUS
 62
     7
 10
-305.2413
 20
-100.1999
 11
-305.8813
 21
-100.1999
  0
LINE
  8
0
  6
CONTINUOUS
 62
     7
 10
-308.2413
 20
-100.1999
 11
-308.8813
 21
-100.1999
  0
LINE
  8
0
  6
CONTINUOUS
 62
     7
 10
-304.7114
 20
-90.19986
 11
-306.4113
 21
-90.19986
  0
LINE
  8
0
  6
CONTINUOUS
 62
     7
 10
-307.7114
 20
-90.19986
 11
-309.4113
 21
-90.19986
  0
LINE
  8
0
  6
CONTINUOUS
 62
     7
 10
-299.5613
 20
-80.39988
 11
-300.5613
 21
-82.39989
  0
LINE
  8
0
  6
CONTINUOUS
 62
     7
 10
-300.3113
 20
-81.6936
 11
-300.3113
 21
-80.99988
  0
LINE
  8
0
  6
CENTER
 62
     2
 10
-302.5613
 20
-85.39987
 11
-302.5613
 21
-77.39987
  0
LINE
  8
0
  6
CONTINUOUS
 62
     7
 10
-300.5613
 20
-82.39987
 11
-300.7356
 21
-82.39987
  0
LINE
  8
0
  6
CONTINUOUS
 62
     7
 10
-304.8113
 20
-81.69363
 11
-304.8113
 21
-80.99988
  0
LINE
  8
0
  6
CONTINUOUS
 62
     7
 10
-304.3871
 20
-82.39987
 11
-313.5613
 21
-82.39987
  0
LINE
  8
0
  6
CENTER
 62
     2
 10
-311.5613
 20
-85.39987
 11
-311.5613
 21
-77.39987
  0
LINE
  8
0
  6
CONTINUOUS
 62
     7
 10
-314.5613
 20
-80.39986
 11
-313.5613
 21
-82.39986
  0
LINE
  8
0
  6
CONTINUOUS
 62
     7
 10
-299.5613
 20
-80.39987
 11
-314.5613
 21
-80.39987
  0
LINE
  8
0
  6
CONTINUOUS
 62
     7
 10
-299.5613
 20
-79.39987
 11
-314.5613
 21
-79.39987
  0
LINE
  8
0
  6
CONTINUOUS
 62
     7
 10
-305.1113
 20
-80.99985
 11
-300.0114
 21
-80.99985
  0
LINE
  8
0
  6
CONTINUOUS
 62
     7
 10
-305.1113
 20
-80.99985
 11
-305.1113
 21
-80.39987
  0
LINE
  8
0
  6
CONTINUOUS
 62
     7
 10
-300.0114
 20
-80.99985
 11
-300.0114
 21
-80.39987
  0
LINE
  8
0
  6
PHANTOM
 62
     2
 10
-302.7113
 20
-88.24184
 11
-311.4113
 21
-85.91068
  0
LINE
  8
0
  6
PHANTOM
 62
     2
 10
-302.7112
 20
-86.68898
 11
-311.4113
 21
-84.35782
  0
LINE
  8
0
  6
CONTINUOUS
 62
     7
 10
-304.7114
 20
-86.15311
 11
-304.7114
 21
-82.39987
  0
LINE
  8
0
  6
CONTINUOUS
 62
     7
 10
-306.4113
 20
-85.6976
 11
-306.4113
 21
-82.39987
  0
LINE
  8
0
  6
CONTINUOUS
 62
     7
 10
-307.7114
 20
-85.34927
 11
-307.7114
 21
-82.39987
  0
LINE
  8
0
  6
CONTINUOUS
 62
     7
 10
-309.4113
 20
-84.89374
 11
-309.4113
 21
-82.39987
  0
LINE
  8
0
  6
CENTER
 62
     2
 10
-42.81221
 20
55.05321
 11
-42.81221
 21
-84.69113
  0
LINE
  8
0
  6
CONTINUOUS
 62
     7
 10
-33.81221
 20
23.2001
 11
-33.81221
 21
-53.19989
  0
LINE
  8
0
  6
CONTINUOUS
 62
     7
 10
-51.81221
 20
23.2001
 11
-51.81221
 21
-53.19989
  0
LINE
  8
0
  6
CONTINUOUS
 62
     7
 10
-51.81221
 20
6.00011
 11
-33.81221
 21
6.00011
  0
LINE
  8
0
  6
CONTINUOUS
 62
     7
 10
-51.81221
 20
-35.99991
 11
-33.81221
 21
-35.99991
  0
LINE
  8
0
  6
CONTINUOUS
 62
     7
 10
-50.81219
 20
24.20009
 11
-51.81219
 21
23.20009
  0
LINE
  8
0
  6
CONTINUOUS
 62
     7
 10
-34.81219
 20
24.20014
 11
-33.81219
 21
23.20013
  0
LINE
  8
0
  6
CENTER
 62
     2
 10
-48.89572
 20
-22.99991
 11
-36.73444
 21
-22.99991
  0
LINE
  8
0
  6
CENTER
 62
     2
 10
-48.45966
 20
-6.99991
 11
-36.83134
 21
-6.99991
  0
LINE
  8
0
  6
CENTER
 62
     2
 10
-36.31221
 20
4.5914
 11
-36.31221
 21
-4.41656
  0
LINE
  8
0
  6
CENTER
 62
     2
 10
-49.31221
 20
-25.88715
 11
-49.31221
 21
-34.29178
  0
LINE
  8
0
  6
CENTER
 62
     2
 10
-52.22441
 20
-29.99991
 11
-45.15384
 21
-29.99991
  0
LINE
  8
0
  6
CENTER
 62
     2
 10
-40.65881
 20
0.00011
 11
-33.22784
 21
0.00011
  0
LINE
  8
0
  6
CENTER
 62
     2
 10
-45.73392
 20
20.7001
 11
-39.90251
 21
20.7001
  0
LINE
  8
0
  6
CONTINUOUS
 62
     7
 10
-50.81221
 20
24.2001
 11
-34.81221
 21
24.2001
  0
LINE
  8
0
  6
CONTINUOUS
 62
     7
 10
-51.81221
 20
23.2001
 11
-33.81221
 21
23.2001
  0
LINE
  8
0
  6
CONTINUOUS
 62
     7
 10
-51.81227
 20
-53.19993
 11
-50.81226
 21
-54.19993
  0
LINE
  8
0
  6
CONTINUOUS
 62
     7
 10
-33.81223
 20
-53.19989
 11
-34.81223
 21
-54.19989
  0
LINE
  8
0
  6
CONTINUOUS
 62
     7
 10
-51.81221
 20
-53.19989
 11
-33.81221
 21
-53.19989
  0
LINE
  8
0
  6
CONTINUOUS
 62
     7
 10
-34.81221
 20
-54.19989
 11
-50.81219
 21
-54.19989
  0
LINE
  8
0
  6
CENTER
 62
     2
 10
-39.31221
 20
-50.69989
 11
-45.64555
 21
-50.69989
  0
LINE
  8
0
  6
CENTER
 62
     2
 10
-42.31221
 20
-0.66803
 11
-42.31221
 21
-13.14258
  0
LINE
  8
0
  6
CENTER
 62
     2
 10
-43.31221
 20
-16.69681
 11
-43.31221
 21
-29.03198
  0
LINE
  8
0
  6
CENTER
 62
     2
 10
-53.56841
 20
-14.99991
 11
-32.25645
 21
-14.99991
  0
LINE
  8
0
  6
CONTINUOUS
 62
     7
 10
-50.31221
 20
50.40012
 11
-50.31221
 21
24.2001
  0
LINE
  8
0
  6
CONTINUOUS
 62
     7
 10
-50.31221
 20
49.40012
 11
-47.31221
 21
49.40012
  0
LINE
  8
0
  6
CONTINUOUS
 62
     7
 10
-35.31221
 20
50.40012
 11
-35.31221
 21
24.2001
  0
LINE
  8
0
  6
CONTINUOUS
 62
     7
 10
-49.81221
 20
47.90012
 11
-49.81221
 21
25.00011
  0
LINE
  8
0
  6
CONTINUOUS
 62
     7
 10
-35.81221
 20
47.90012
 11
-35.81221
 21
25.00011
  0
LINE
  8
0
  6
CONTINUOUS
 62
     7
 10
-48.31221
 20
25.7001
 11
-37.31221
 21
25.7001
  0
LINE
  8
0
  6
CONTINUOUS
 62
     7
 10
-48.31221
 20
34.2001
 11
-37.31221
 21
34.2001
  0
LINE
  8
0
  6
CONTINUOUS
 62
     7
 10
-48.31221
 20
34.2001
 11
-48.31221
 21
25.7001
  0
LINE
  8
0
  6
CONTINUOUS
 62
     7
 10
-37.31221
 20
34.2001
 11
-37.31221
 21
25.7001
  0
LINE
  8
0
  6
CONTINUOUS
 62
     7
 10
-44.81221
 20
37.7001
 11
-40.81221
 21
37.7001
  0
LINE
  8
0
  6
CONTINUOUS
 62
     7
 10
-44.81221
 20
35.7001
 11
-40.81221
 21
35.7001
  0
LINE
  8
0
  6
CONTINUOUS
 62
     7
 10
-44.81221
 20
37.7001
 11
-44.81221
 21
35.7001
  0
LINE
  8
0
  6
CONTINUOUS
 62
     7
 10
-40.81221
 20
37.7001
 11
-40.81221
 21
35.7001
  0
LINE
  8
0
  6
CONTINUOUS
 62
     7
 10
-45.31221
 20
38.2001
 11
-40.31221
 21
38.2001
  0
LINE
  8
0
  6
CONTINUOUS
 62
     7
 10
-45.31221
 20
38.2001
 11
-45.31221
 21
35.2001
  0
LINE
  8
0
  6
CONTINUOUS
 62
     7
 10
-45.31221
 20
35.2001
 11
-40.31221
 21
35.2001
  0
LINE
  8
0
  6
CONTINUOUS
 62
     7
 10
-40.31221
 20
38.2001
 11
-40.31221
 21
35.2001
  0
LINE
  8
0
  6
CONTINUOUS
 62
     7
 10
-44.81218
 20
37.70011
 11
-45.31218
 21
38.20011
  0
LINE
  8
0
  6
CONTINUOUS
 62
     7
 10
-40.8122
 20
37.70014
 11
-40.31221
 21
38.20013
  0
LINE
  8
0
  6
CONTINUOUS
 62
     7
 10
-40.81223
 20
35.7001
 11
-40.31223
 21
35.2001
  0
LINE
  8
0
  6
CONTINUOUS
 62
     7
 10
-44.81221
 20
35.70014
 11
-45.31222
 21
35.20013
  0
LINE
  8
0
  6
CONTINUOUS
 62
     7
 10
-50.31221
 20
50.40009
 11
-45.16222
 21
50.40009
  0
LINE
  8
0
  6
CONTINUOUS
 62
     7
 10
-49.31221
 20
52.40012
 11
-49.13795
 21
52.40012
  0
LINE
  8
0
  6
CONTINUOUS
 62
     7
 10
-35.31219
 20
50.40012
 11
-36.31219
 21
52.40012
  0
LINE
  8
0
  6
CONTINUOUS
 62
     7
 10
-50.31219
 20
50.40008
 11
-49.31219
 21
52.40007
  0
LINE
  8
0
  6
CENTER
 62
     2
 10
-47.31221
 20
55.40012
 11
-47.31221
 21
46.40012
  0
LINE
  8
0
  6
CONTINUOUS
 62
     7
 10
-45.16222
 20
51.00009
 11
-49.86221
 21
51.00009
  0
LINE
  8
0
  6
CONTINUOUS
 62
     7
 10
-49.86221
 20
51.00009
 11
-49.86221
 21
50.40009
  0
LINE
  8
0
  6
CONTINUOUS
 62
     7
 10
-49.56219
 20
51.69385
 11
-49.56219
 21
51.00009
  0
LINE
  8
0
  6
CONTINUOUS
 62
     7
 10
-45.48647
 20
52.40012
 11
-45.16222
 21
52.40012
  0
LINE
  8
0
  6
CENTER
 62
     2
 10
-38.31221
 20
55.40012
 11
-38.31221
 21
46.40012
  0
LINE
  8
0
  6
CENTER
 62
     2
 10
-41.31221
 20
73.2001
 11
-41.31221
 21
45.7001
  0
LINE
  8
0
  6
CENTER
 62
     2
 10
-44.31221
 20
73.2001
 11
-44.31221
 21
45.7001
  0
LINE
  8
0
  6
CONTINUOUS
 62
     7
 10
-43.4622
 20
60.2001
 11
-43.4622
 21
57.25073
  0
LINE
  8
0
  6
CONTINUOUS
 62
     7
 10
-45.16222
 20
60.2001
 11
-45.16222
 21
57.70625
  0
LINE
  8
0
  6
CONTINUOUS
 62
     7
 10
-43.9922
 20
70.2001
 11
-43.9922
 21
60.2001
  0
LINE
  8
0
  6
CONTINUOUS
 62
     7
 10
-44.63222
 20
70.2001
 11
-44.63222
 21
60.2001
  0
LINE
  8
0
  6
CONTINUOUS
 62
     7
 10
-40.9922
 20
70.2001
 11
-40.9922
 21
60.2001
  0
LINE
  8
0
  6
CONTINUOUS
 62
     7
 10
-41.63222
 20
70.2001
 11
-41.63222
 21
60.2001
  0
LINE
  8
0
  6
CONTINUOUS
 62
     7
 10
-40.4622
 20
60.2001
 11
-40.4622
 21
56.44688
  0
LINE
  8
0
  6
CONTINUOUS
 62
     7
 10
-42.16222
 20
60.2001
 11
-42.16222
 21
56.9024
  0
LINE
  8
0
  6
CONTINUOUS
 62
     7
 10
-44.63222
 20
70.2001
 11
-43.99222
 21
70.2001
  0
LINE
  8
0
  6
CONTINUOUS
 62
     7
 10
-41.63222
 20
70.2001
 11
-40.99222
 21
70.2001
  0
LINE
  8
0
  6
CONTINUOUS
 62
     7
 10
-45.16222
 20
60.2001
 11
-43.4622
 21
60.2001
  0
LINE
  8
0
  6
CONTINUOUS
 62
     7
 10
-42.16222
 20
60.2001
 11
-40.4622
 21
60.2001
  0
LINE
  8
0
  6
CONTINUOUS
 62
     7
 10
-38.31221
 20
49.40012
 11
-35.31221
 21
49.40012
  0
LINE
  8
0
  6
CONTINUOUS
 62
     7
 10
-43.4622
 20
50.40009
 11
-42.16222
 21
50.40009
  0
LINE
  8
0
  6
CONTINUOUS
 62
     7
 10
-40.4622
 20
50.40009
 11
-35.31221
 21
50.40009
  0
LINE
  8
0
  6
CONTINUOUS
 62
     7
 10
-40.4622
 20
52.40012
 11
-36.31221
 21
52.40012
  0
LINE
  8
0
  6
CONTINUOUS
 62
     7
 10
-43.4622
 20
52.40012
 11
-42.16222
 21
52.40012
  0
LINE
  8
0
  6
PHANTOM
 62
     2
 10
-47.1622
 20
56.68925
 11
-38.46219
 21
54.35809
  0
LINE
  8
0
  6
PHANTOM
 62
     2
 10
-47.16221
 20
58.24214
 11
-38.4622
 21
55.91098
  0
LINE
  8
0
  6
CONTINUOUS
 62
     7
 10
-45.16222
 20
56.15334
 11
-45.16222
 21
50.2001
  0
LINE
  8
0
  6
CONTINUOUS
 62
     7
 10
-43.4622
 20
55.69781
 11
-43.4622
 21
50.2001
  0
LINE
  8
0
  6
CONTINUOUS
 62
     7
 10
-42.16222
 20
55.34949
 11
-42.16222
 21
50.2001
  0
LINE
  8
0
  6
CONTINUOUS
 62
     7
 10
-40.4622
 20
54.89398
 11
-40.4622
 21
50.2001
  0
LINE
  8
0
  6
CENTER
 62
     2
 10
-46.81221
 20
36.7001
 11
-38.81221
 21
36.7001
  0
LINE
  8
0
  6
CONTINUOUS
 62
     7
 10
-49.01221
 20
48.7001
 11
-36.61221
 21
48.7001
  0
LINE
  8
0
  6
CONTINUOUS
 62
     7
 10
-46.81221
 20
50.2001
 11
-38.81221
 21
50.2001
  0
LINE
  8
0
  6
CONTINUOUS
 62
     7
 10
-47.31221
 20
49.7001
 11
-47.31221
 21
48.7001
  0
LINE
  8
0
  6
CONTINUOUS
 62
     7
 10
-38.31221
 20
49.7001
 11
-38.31221
 21
48.7001
  0
LINE
  8
0
  6
CONTINUOUS
 62
     7
 10
-35.31221
 20
-80.39987
 11
-35.31221
 21
-54.19989
  0
LINE
  8
0
  6
CONTINUOUS
 62
     7
 10
-35.31221
 20
-79.39987
 11
-38.31221
 21
-79.39987
  0
LINE
  8
0
  6
CONTINUOUS
 62
     7
 10
-50.31221
 20
-80.39987
 11
-50.31221
 21
-54.19989
  0
LINE
  8
0
  6
CONTINUOUS
 62
     7
 10
-35.81221
 20
-77.89987
 11
-35.81221
 21
-54.99988
  0
LINE
  8
0
  6
CONTINUOUS
 62
     7
 10
-49.81221
 20
-77.89987
 11
-49.81221
 21
-54.99988
  0
LINE
  8
0
  6
CONTINUOUS
 62
     7
 10
-37.31221
 20
-55.69989
 11
-48.31221
 21
-55.69989
  0
LINE
  8
0
  6
CONTINUOUS
 62
     7
 10
-37.31221
 20
-64.19989
 11
-48.31221
 21
-64.19989
  0
LINE
  8
0
  6
CONTINUOUS
 62
     7
 10
-37.31221
 20
-64.19989
 11
-37.31221
 21
-55.69989
  0
LINE
  8
0
  6
CONTINUOUS
 62
     7
 10
-48.31221
 20
-64.19989
 11
-48.31221
 21
-55.69989
  0
LINE
  8
0
  6
CONTINUOUS
 62
     7
 10
-40.81221
 20
-67.69989
 11
-44.81221
 21
-67.69989
  0
LINE
  8
0
  6
CONTINUOUS
 62
     7
 10
-40.81221
 20
-65.69989
 11
-44.81221
 21
-65.69989
  0
LINE
  8
0
  6
CONTINUOUS
 62
     7
 10
-40.81221
 20
-67.69989
 11
-40.81221
 21
-65.69989
  0
LINE
  8
0
  6
CONTINUOUS
 62
     7
 10
-44.81221
 20
-67.69989
 11
-44.81221
 21
-65.69989
  0
LINE
  8
0
  6
CONTINUOUS
 62
     7
 10
-40.31221
 20
-68.19989
 11
-45.31221
 21
-68.19989
  0
LINE
  8
0
  6
CONTINUOUS
 62
     7
 10
-40.31221
 20
-68.19989
 11
-40.31221
 21
-65.19989
  0
LINE
  8
0
  6
CONTINUOUS
 62
     7
 10
-40.31221
 20
-65.19989
 11
-45.31221
 21
-65.19989
  0
LINE
  8
0
  6
CONTINUOUS
 62
     7
 10
-45.31221
 20
-68.19989
 11
-45.31221
 21
-65.19989
  0
LINE
  8
0
  6
CONTINUOUS
 62
     7
 10
-40.81219
 20
-67.69985
 11
-40.31219
 21
-68.19985
  0
LINE
  8
0
  6
CONTINUOUS
 62
     7
 10
-44.81223
 20
-67.69992
 11
-45.31224
 21
-68.19994
  0
LINE
  8
0
  6
CONTINUOUS
 62
     7
 10
-44.81218
 20
-65.69986
 11
-45.31218
 21
-65.19986
  0
LINE
  8
0
  6
CONTINUOUS
 62
     7
 10
-40.81223
 20
-65.69991
 11
-40.31224
 21
-65.19992
  0
LINE
  8
0
  6
CONTINUOUS
 62
     7
 10
-35.31221
 20
-80.39987
 11
-40.4622
 21
-80.39987
  0
LINE
  8
0
  6
CONTINUOUS
 62
     7
 10
-36.31221
 20
-82.39987
 11
-36.48647
 21
-82.39987
  0
LINE
  8
0
  6
CONTINUOUS
 62
     7
 10
-50.31221
 20
-80.39988
 11
-49.3122
 21
-82.39989
  0
LINE
  8
0
  6
CONTINUOUS
 62
     7
 10
-35.3122
 20
-80.39987
 11
-36.31221
 21
-82.39988
  0
LINE
  8
0
  6
CENTER
 62
     2
 10
-38.31221
 20
-85.3999
 11
-38.31221
 21
-76.39987
  0
LINE
  8
0
  6
CONTINUOUS
 62
     7
 10
-40.46222
 20
-80.99988
 11
-35.76221
 21
-80.99988
  0
LINE
  8
0
  6
CONTINUOUS
 62
     7
 10
-35.76221
 20
-80.99988
 11
-35.76221
 21
-80.39987
  0
LINE
  8
0
  6
CONTINUOUS
 62
     7
 10
-36.06224
 20
-81.69363
 11
-36.06224
 21
-80.99988
  0
LINE
  8
0
  6
CONTINUOUS
 62
     7
 10
-40.13795
 20
-82.39987
 11
-40.4622
 21
-82.39987
  0
LINE
  8
0
  6
CENTER
 62
     2
 10
-47.31221
 20
-85.3999
 11
-47.31221
 21
-76.39987
  0
LINE
  8
0
  6
CENTER
 62
     2
 10
-44.31221
 20
-103.1999
 11
-44.31221
 21
-75.69989
  0
LINE
  8
0
  6
CENTER
 62
     2
 10
-41.31221
 20
-103.1999
 11
-41.31221
 21
-75.69989
  0
LINE
  8
0
  6
CONTINUOUS
 62
     7
 10
-42.16222
 20
-90.19989
 11
-42.16222
 21
-87.25052
  0
LINE
  8
0
  6
CONTINUOUS
 62
     7
 10
-40.4622
 20
-90.19989
 11
-40.4622
 21
-87.70602
  0
LINE
  8
0
  6
CONTINUOUS
 62
     7
 10
-41.63222
 20
-100.1999
 11
-41.63222
 21
-90.19989
  0
LINE
  8
0
  6
CONTINUOUS
 62
     7
 10
-40.9922
 20
-100.1999
 11
-40.9922
 21
-90.19989
  0
LINE
  8
0
  6
CONTINUOUS
 62
     7
 10
-44.63222
 20
-100.1999
 11
-44.63222
 21
-90.19989
  0
LINE
  8
0
  6
CONTINUOUS
 62
     7
 10
-43.9922
 20
-100.1999
 11
-43.9922
 21
-90.19989
  0
LINE
  8
0
  6
CONTINUOUS
 62
     7
 10
-45.16222
 20
-90.19989
 11
-45.16222
 21
-86.44669
  0
LINE
  8
0
  6
CONTINUOUS
 62
     7
 10
-43.4622
 20
-90.19989
 11
-43.4622
 21
-86.90219
  0
LINE
  8
0
  6
CONTINUOUS
 62
     7
 10
-40.9922
 20
-100.1999
 11
-41.6322
 21
-100.1999
  0
LINE
  8
0
  6
CONTINUOUS
 62
     7
 10
-43.9922
 20
-100.1999
 11
-44.6322
 21
-100.1999
  0
LINE
  8
0
  6
CONTINUOUS
 62
     7
 10
-40.4622
 20
-90.19989
 11
-42.16222
 21
-90.19989
  0
LINE
  8
0
  6
CONTINUOUS
 62
     7
 10
-43.4622
 20
-90.19989
 11
-45.16222
 21
-90.19989
  0
LINE
  8
0
  6
CONTINUOUS
 62
     7
 10
-47.31221
 20
-79.39987
 11
-50.31221
 21
-79.39987
  0
LINE
  8
0
  6
CONTINUOUS
 62
     7
 10
-42.16222
 20
-80.39987
 11
-43.4622
 21
-80.39987
  0
LINE
  8
0
  6
CONTINUOUS
 62
     7
 10
-45.16222
 20
-80.39987
 11
-50.31221
 21
-80.39987
  0
LINE
  8
0
  6
CONTINUOUS
 62
     7
 10
-45.16222
 20
-82.39987
 11
-49.31221
 21
-82.39987
  0
LINE
  8
0
  6
CONTINUOUS
 62
     7
 10
-42.16222
 20
-82.39987
 11
-43.4622
 21
-82.39987
  0
LINE
  8
0
  6
PHANTOM
 62
     2
 10
-38.46219
 20
-86.68898
 11
-47.16219
 21
-84.35783
  0
LINE
  8
0
  6
PHANTOM
 62
     2
 10
-38.46219
 20
-88.24186
 11
-47.16218
 21
-85.91071
  0
LINE
  8
0
  6
CONTINUOUS
 62
     7
 10
-40.4622
 20
-86.15311
 11
-40.4622
 21
-80.19989
  0
LINE
  8
0
  6
CONTINUOUS
 62
     7
 10
-42.16222
 20
-85.6976
 11
-42.16222
 21
-80.19989
  0
LINE
  8
0
  6
CONTINUOUS
 62
     7
 10
-43.4622
 20
-85.34927
 11
-43.4622
 21
-80.19989
  0
LINE
  8
0
  6
CONTINUOUS
 62
     7
 10
-45.16222
 20
-84.89377
 11
-45.16222
 21
-80.19989
  0
LINE
  8
0
  6
CENTER
 62
     2
 10
-38.81221
 20
-66.69989
 11
-46.81221
 21
-66.69989
  0
LINE
  8
0
  6
CONTINUOUS
 62
     7
 10
-36.61221
 20
-78.69989
 11
-49.01221
 21
-78.69989
  0
LINE
  8
0
  6
CONTINUOUS
 62
     7
 10
-38.81221
 20
-80.19989
 11
-46.81221
 21
-80.19989
  0
LINE
  8
0
  6
CONTINUOUS
 62
     7
 10
-38.31221
 20
-79.69989
 11
-38.31221
 21
-78.69989
  0
LINE
  8
0
  6
CONTINUOUS
 62
     7
 10
-47.31221
 20
-79.69989
 11
-47.31221
 21
-78.69989
  0
LINE
  8
0
  6
CONTINUOUS
 62
     7
 10
-169.4367
 20
-187.7791
 11
-169.4367
 21
-188.7791
  0
LINE
  8
0
  6
CONTINUOUS
 62
     7
 10
-168.4367
 20
-173.7791
 11
-168.4367
 21
-172.2791
  0
LINE
  8
0
  6
CENTER
 62
     2
 10
-197.833
 20
-180.7791
 11
-157.6356
 21
-180.7791
  0
LINE
  8
0
  6
CONTINUOUS
 62
     7
 10
-194.9367
 20
-171.7791
 11
-168.9367
 21
-171.7791
  0
LINE
  8
0
  6
CONTINUOUS
 62
     7
 10
-194.9367
 20
-189.7791
 11
-168.9367
 21
-189.7791
  0
LINE
  8
0
  6
CONTINUOUS
 62
     7
 10
-168.4367
 20
-189.2791
 11
-168.4367
 21
-187.7791
  0
LINE
  8
0
  6
CONTINUOUS
 62
     7
 10
-195.4367
 20
-189.2791
 11
-195.4367
 21
-172.2791
  0
LINE
  8
0
  6
CENTER
 62
     2
 10
-181.9367
 20
-192.5291
 11
-181.9367
 21
-168.5516
  0
LINE
  8
0
  6
CONTINUOUS
 62
     7
 10
-194.4367
 20
-172.7791
 11
-169.4367
 21
-172.7791
  0
LINE
  8
0
  6
CONTINUOUS
 62
     7
 10
-194.4367
 20
-188.7791
 11
-169.4367
 21
-188.7791
  0
LINE
  8
0
  6
CONTINUOUS
 62
     7
 10
-194.4367
 20
-172.7791
 11
-194.4367
 21
-188.7791
  0
LINE
  8
0
  6
CONTINUOUS
 62
     7
 10
-169.4367
 20
-172.7791
 11
-169.4367
 21
-173.7791
  0
LINE
  8
0
  6
CONTINUOUS
 62
     7
 10
-169.4366
 20
-188.779
 11
-168.5831
 21
-189.6325
  0
LINE
  8
0
  6
CONTINUOUS
 62
     7
 10
-194.4368
 20
-188.7791
 11
-195.2903
 21
-189.6326
  0
LINE
  8
0
  6
CONTINUOUS
 62
     7
 10
-169.4368
 20
-172.7791
 11
-168.5832
 21
-171.9255
  0
LINE
  8
0
  6
CONTINUOUS
 62
     7
 10
-194.4368
 20
-172.7791
 11
-195.2903
 21
-171.9256
  0
LINE
  8
0
  6
CONTINUOUS
 62
     7
 10
-169.9367
 20
-173.2791
 11
-169.9367
 21
-188.2791
  0
LINE
  8
0
  6
CONTINUOUS
 62
     7
 10
-172.9367
 20
-182.2791
 11
-169.9367
 21
-182.2791
  0
LINE
  8
0
  6
CONTINUOUS
 62
     7
 10
-190.9367
 20
-179.2791
 11
-193.9367
 21
-179.2791
  0
LINE
  8
0
  6
CONTINUOUS
 62
     7
 10
-187.9367
 20
-176.2791
 11
-187.9367
 21
-173.2791
  0
LINE
  8
0
  6
CONTINUOUS
 62
     7
 10
-175.9367
 20
-185.2791
 11
-175.9367
 21
-188.2791
  0
LINE
  8
0
  6
CONTINUOUS
 62
     7
 10
-192.9367
 20
-179.2791
 11
-192.9367
 21
-187.2791
  0
LINE
  8
0
  6
CONTINUOUS
 62
     7
 10
-170.9367
 20
-174.2791
 11
-170.9367
 21
-182.2791
  0
LINE
  8
0
  6
CONTINUOUS
 62
     7
 10
-187.9367
 20
-174.2791
 11
-170.9367
 21
-174.2791
  0
LINE
  8
0
  6
CONTINUOUS
 62
     7
 10
-192.9367
 20
-187.2791
 11
-175.9367
 21
-187.2791
  0
LINE
  8
0
  6
CONTINUOUS
 62
     7
 10
-172.6367
 20
-187.509
 11
-172.6367
 21
-187.8113
  0
LINE
  8
0
  6
CONTINUOUS
 62
     7
 10
-173.2367
 20
-187.509
 11
-173.2367
 21
-187.8113
  0
LINE
  8
0
  6
CONTINUOUS
 62
     7
 10
-173.3975
 20
-187.7871
 11
-173.3975
 21
-187.4814
  0
LINE
  8
0
  6
CONTINUOUS
 62
     7
 10
-191.2367
 20
-174.0491
 11
-191.2367
 21
-173.7468
  0
LINE
  8
0
  6
CONTINUOUS
 62
     7
 10
-190.6367
 20
-174.0491
 11
-190.6367
 21
-173.7468
  0
LINE
  8
0
  6
CONTINUOUS
 62
     7
 10
-190.476
 20
-173.771
 11
-190.476
 21
-174.0768
  0
LINE
  8
0
  6
CONTINUOUS
 62
     7
 10
-174.0398
 20
-186.0145
 11
-173.6721
 21
-185.6468
  0
LINE
  8
0
  6
CONTINUOUS
 62
     7
 10
-173.6721
 20
-186.3822
 11
-173.3044
 21
-186.0145
  0
LINE
  8
0
  6
CONTINUOUS
 62
     7
 10
-174.0398
 20
-186.0145
 11
-173.6721
 21
-186.3822
  0
LINE
  8
0
  6
CONTINUOUS
 62
     7
 10
-172.2014
 20
-184.176
 11
-171.8336
 21
-184.5437
  0
LINE
  8
0
  6
CONTINUOUS
 62
     7
 10
-174.7009
 20
-183.8826
 11
-173.6721
 21
-184.9114
  0
LINE
  8
0
  6
CONTINUOUS
 62
     7
 10
-174.3332
 20
-183.5149
 11
-173.3044
 21
-184.5437
  0
LINE
  8
0
  6
CONTINUOUS
 62
     7
 10
-172.569
 20
-184.5437
 11
-172.2013
 21
-184.176
  0
LINE
  8
0
  6
CONTINUOUS
 62
     7
 10
-172.2013
 20
-184.9114
 11
-171.8336
 21
-184.5437
  0
LINE
  8
0
  6
CONTINUOUS
 62
     7
 10
-172.569
 20
-186.0145
 11
-171.5403
 21
-187.0432
  0
LINE
  8
0
  6
CONTINUOUS
 62
     7
 10
-172.2013
 20
-185.6468
 11
-171.1725
 21
-186.6755
  0
LINE
  8
0
  6
CONTINUOUS
 62
     7
 10
-192.0398
 20
-177.0144
 11
-191.6721
 21
-176.6467
  0
LINE
  8
0
  6
CONTINUOUS
 62
     7
 10
-191.6721
 20
-177.3821
 11
-191.3044
 21
-177.0144
  0
LINE
  8
0
  6
CONTINUOUS
 62
     7
 10
-192.0398
 20
-177.0145
 11
-191.6721
 21
-177.3822
  0
LINE
  8
0
  6
CONTINUOUS
 62
     7
 10
-190.2013
 20
-175.176
 11
-189.8336
 21
-175.5437
  0
LINE
  8
0
  6
CONTINUOUS
 62
     7
 10
-192.701
 20
-174.8826
 11
-191.6722
 21
-175.9114
  0
LINE
  8
0
  6
CONTINUOUS
 62
     7
 10
-192.3333
 20
-174.5149
 11
-191.3045
 21
-175.5437
  0
LINE
  8
0
  6
CONTINUOUS
 62
     7
 10
-190.569
 20
-175.5436
 11
-190.2014
 21
-175.176
  0
LINE
  8
0
  6
CONTINUOUS
 62
     7
 10
-190.2013
 20
-175.9113
 11
-189.8336
 21
-175.5437
  0
LINE
  8
0
  6
CONTINUOUS
 62
     7
 10
-190.5691
 20
-177.0145
 11
-189.5403
 21
-178.0433
  0
LINE
  8
0
  6
CONTINUOUS
 62
     7
 10
-190.2014
 20
-176.6468
 11
-189.1726
 21
-177.6756
  0
LINE
  8
0
  6
CENTER
 62
     2
 10
-172.9367
 20
-181.2791
 11
-172.9367
 21
-189.2791
  0
LINE
  8
0
  6
CENTER
 62
     2
 10
-190.9367
 20
-172.2791
 11
-190.9367
 21
-180.2791
  0
LINE
  8
0
  6
CENTER
 62
     2
 10
-194.9367
 20
-176.2791
 11
-186.9367
 21
-176.2791
  0
LINE
  8
0
  6
CENTER
 62
     2
 10
-176.9367
 20
-185.2791
 11
-168.9367
 21
-185.2791
  0
LINE
  8
0
  6
CONTINUOUS
 62
     7
 10
-193.4367
 20
-173.2791
 11
-169.9367
 21
-173.2791
  0
LINE
  8
0
  6
CONTINUOUS
 62
     7
 10
-193.9367
 20
-173.7791
 11
-193.9367
 21
-187.7791
  0
LINE
  8
0
  6
CONTINUOUS
 62
     7
 10
-193.4367
 20
-188.2791
 11
-169.9367
 21
-188.2791
  0
LINE
  8
0
  6
CONTINUOUS
 62
     7
 10
-169.9367
 20
-173.7791
 11
-160.7367
 21
-173.7791
  0
LINE
  8
0
  6
CONTINUOUS
 62
     7
 10
-159.9367
 20
-174.579
 11
-159.9367
 21
-186.9791
  0
LINE
  8
0
  6
CONTINUOUS
 62
     7
 10
-169.9367
 20
-187.7791
 11
-160.7367
 21
-187.7791
  0
LINE
  8
0
  6
CENTER
 62
     2
 10
-165.4367
 20
-174.579
 11
-165.4367
 21
-186.9791
  0
LINE
  8
0
  6
CENTER
 62
     2
 10
-169.4367
 20
-179.2791
 11
-161.4367
 21
-179.2791
  0
LINE
  8
0
  6
CENTER
 62
     2
 10
-169.4367
 20
-182.2791
 11
-161.4367
 21
-182.2791
  0
LINE
  8
0
  6
CONTINUOUS
 62
     7
 10
-168.9367
 20
-179.7791
 11
-168.9367
 21
-181.7791
  0
LINE
  8
0
  6
CONTINUOUS
 62
     7
 10
-161.9367
 20
-179.7791
 11
-161.9367
 21
-181.7791
  0
LINE
  8
0
  6
CENTER
 62
     2
 10
168.9371
 20
151.0735
 11
168.9371
 21
110.3764
  0
LINE
  8
0
  6
CENTER
 62
     2
 10
157.1871
 20
135.1773
 11
181.1646
 21
135.1773
  0
LINE
  8
0
  6
CONTINUOUS
 62
     7
 10
161.9371
 20
122.6773
 11
160.9371
 21
122.6773
  0
LINE
  8
0
  6
CONTINUOUS
 62
     7
 10
175.9371
 20
121.6773
 11
177.4371
 21
121.6773
  0
LINE
  8
0
  6
CONTINUOUS
 62
     7
 10
177.9371
 20
148.1773
 11
177.9371
 21
122.1773
  0
LINE
  8
0
  6
CONTINUOUS
 62
     7
 10
159.9371
 20
148.1773
 11
159.9371
 21
122.1773
  0
LINE
  8
0
  6
CONTINUOUS
 62
     7
 10
160.4371
 20
121.6773
 11
161.9371
 21
121.6773
  0
LINE
  8
0
  6
CONTINUOUS
 62
     7
 10
160.4371
 20
148.6773
 11
177.4371
 21
148.6773
  0
LINE
  8
0
  6
CONTINUOUS
 62
     7
 10
176.9371
 20
147.6772
 11
176.9371
 21
122.6773
  0
LINE
  8
0
  6
CONTINUOUS
 62
     7
 10
160.9371
 20
147.6772
 11
160.9371
 21
122.6773
  0
LINE
  8
0
  6
CONTINUOUS
 62
     7
 10
176.9371
 20
147.6772
 11
160.9371
 21
147.6772
  0
LINE
  8
0
  6
CONTINUOUS
 62
     7
 10
176.9371
 20
122.6773
 11
175.9371
 21
122.6773
  0
LINE
  8
0
  6
CONTINUOUS
 62
     7
 10
160.9371
 20
122.6773
 11
160.0835
 21
121.8237
  0
LINE
  8
0
  6
CONTINUOUS
 62
     7
 10
160.9371
 20
147.6772
 11
160.0835
 21
148.5308
  0
LINE
  8
0
  6
CONTINUOUS
 62
     7
 10
176.9371
 20
122.6772
 11
177.7906
 21
121.8236
  0
LINE
  8
0
  6
CONTINUOUS
 62
     7
 10
176.9371
 20
147.6773
 11
177.7907
 21
148.5309
  0
LINE
  8
0
  6
CONTINUOUS
 62
     7
 10
176.4371
 20
123.1773
 11
161.4371
 21
123.1773
  0
LINE
  8
0
  6
CONTINUOUS
 62
     7
 10
167.4371
 20
126.1773
 11
167.4371
 21
123.1773
  0
LINE
  8
0
  6
CONTINUOUS
 62
     7
 10
170.4371
 20
144.1773
 11
170.4371
 21
147.1773
  0
LINE
  8
0
  6
CONTINUOUS
 62
     7
 10
173.4371
 20
141.1773
 11
176.4371
 21
141.1773
  0
LINE
  8
0
  6
CONTINUOUS
 62
     7
 10
164.4371
 20
129.1773
 11
161.4371
 21
129.1773
  0
LINE
  8
0
  6
CONTINUOUS
 62
     7
 10
170.4371
 20
146.1773
 11
162.4371
 21
146.1773
  0
LINE
  8
0
  6
CONTINUOUS
 62
     7
 10
175.4371
 20
124.1773
 11
167.4371
 21
124.1773
  0
LINE
  8
0
  6
CONTINUOUS
 62
     7
 10
175.4371
 20
141.1773
 11
175.4371
 21
124.1773
  0
LINE
  8
0
  6
CONTINUOUS
 62
     7
 10
162.4371
 20
146.1773
 11
162.4371
 21
129.1773
  0
LINE
  8
0
  6
CONTINUOUS
 62
     7
 10
162.2072
 20
125.8773
 11
161.9048
 21
125.8773
  0
LINE
  8
0
  6
CONTINUOUS
 62
     7
 10
162.2072
 20
126.4772
 11
161.9048
 21
126.4772
  0
LINE
  8
0
  6
CONTINUOUS
 62
     7
 10
161.9291
 20
126.638
 11
162.2348
 21
126.638
  0
LINE
  8
0
  6
CONTINUOUS
 62
     7
 10
175.667
 20
144.4772
 11
175.9694
 21
144.4772
  0
LINE
  8
0
  6
CONTINUOUS
 62
     7
 10
175.667
 20
143.8773
 11
175.9694
 21
143.8773
  0
LINE
  8
0
  6
CONTINUOUS
 62
     7
 10
175.9451
 20
143.7165
 11
175.6394
 21
143.7165
  0
LINE
  8
0
  6
CONTINUOUS
 62
     7
 10
163.7018
 20
127.2804
 11
164.0695
 21
126.9127
  0
LINE
  8
0
  6
CONTINUOUS
 62
     7
 10
163.3341
 20
126.9127
 11
163.7018
 21
126.545
  0
LINE
  8
0
  6
CONTINUOUS
 62
     7
 10
163.7017
 20
127.2803
 11
163.3341
 21
126.9126
  0
LINE
  8
0
  6
CONTINUOUS
 62
     7
 10
165.5402
 20
125.4419
 11
165.1725
 21
125.0742
  0
LINE
  8
0
  6
CONTINUOUS
 62
     7
 10
165.8336
 20
127.9414
 11
164.8048
 21
126.9126
  0
LINE
  8
0
  6
CONTINUOUS
 62
     7
 10
166.2013
 20
127.5737
 11
165.1725
 21
126.5449
  0
LINE
  8
0
  6
CONTINUOUS
 62
     7
 10
165.1726
 20
125.8096
 11
165.5403
 21
125.4419
  0
LINE
  8
0
  6
CONTINUOUS
 62
     7
 10
164.8049
 20
125.4419
 11
165.1726
 21
125.0742
  0
LINE
  8
0
  6
CONTINUOUS
 62
     7
 10
163.7017
 20
125.8095
 11
162.6729
 21
124.7807
  0
LINE
  8
0
  6
CONTINUOUS
 62
     7
 10
164.0695
 20
125.4418
 11
163.0406
 21
124.413
  0
LINE
  8
0
  6
CONTINUOUS
 62
     7
 10
172.7018
 20
145.2805
 11
173.0695
 21
144.9128
  0
LINE
  8
0
  6
CONTINUOUS
 62
     7
 10
172.3341
 20
144.9128
 11
172.7018
 21
144.545
  0
LINE
  8
0
  6
CONTINUOUS
 62
     7
 10
172.7018
 20
145.2803
 11
172.3341
 21
144.9126
  0
LINE
  8
0
  6
CONTINUOUS
 62
     7
 10
174.5402
 20
143.4419
 11
174.1725
 21
143.0742
  0
LINE
  8
0
  6
CONTINUOUS
 62
     7
 10
174.8336
 20
145.9414
 11
173.8048
 21
144.9126
  0
LINE
  8
0
  6
CONTINUOUS
 62
     7
 10
175.2013
 20
145.5737
 11
174.1726
 21
144.545
  0
LINE
  8
0
  6
CONTINUOUS
 62
     7
 10
174.1726
 20
143.8097
 11
174.5403
 21
143.442
  0
LINE
  8
0
  6
CONTINUOUS
 62
     7
 10
173.8049
 20
143.442
 11
174.1726
 21
143.0743
  0
LINE
  8
0
  6
CONTINUOUS
 62
     7
 10
172.7017
 20
143.8095
 11
171.6729
 21
142.7808
  0
LINE
  8
0
  6
CONTINUOUS
 62
     7
 10
173.0695
 20
143.4419
 11
172.0407
 21
142.4131
  0
LINE
  8
0
  6
CENTER
 62
     2
 10
168.4371
 20
126.1773
 11
160.4371
 21
126.1773
  0
LINE
  8
0
  6
CENTER
 62
     2
 10
177.4371
 20
144.1773
 11
169.4371
 21
144.1773
  0
LINE
  8
0
  6
CENTER
 62
     2
 10
173.4371
 20
148.1773
 11
173.4371
 21
140.1773
  0
LINE
  8
0
  6
CENTER
 62
     2
 10
164.4371
 20
130.1773
 11
164.4371
 21
122.1773
  0
LINE
  8
0
  6
CONTINUOUS
 62
     7
 10
176.4371
 20
146.6773
 11
176.4371
 21
123.1773
  0
LINE
  8
0
  6
CONTINUOUS
 62
     7
 10
175.9371
 20
147.1773
 11
161.9371
 21
147.1773
  0
LINE
  8
0
  6
CONTINUOUS
 62
     7
 10
161.4371
 20
146.6773
 11
161.4371
 21
123.1773
  0
LINE
  8
0
  6
CONTINUOUS
 62
     7
 10
175.9371
 20
123.1773
 11
175.9371
 21
113.9772
  0
LINE
  8
0
  6
CONTINUOUS
 62
     7
 10
175.1371
 20
113.1773
 11
162.7371
 21
113.1773
  0
LINE
  8
0
  6
CONTINUOUS
 62
     7
 10
161.9371
 20
123.1773
 11
161.9371
 21
113.9772
  0
LINE
  8
0
  6
CENTER
 62
     2
 10
175.1371
 20
118.6773
 11
162.7371
 21
118.6773
  0
LINE
  8
0
  6
CENTER
 62
     2
 10
170.4371
 20
122.6773
 11
170.4371
 21
114.6773
  0
LINE
  8
0
  6
CENTER
 62
     2
 10
167.4371
 20
122.6773
 11
167.4371
 21
114.6773
  0
LINE
  8
0
  6
CONTINUOUS
 62
     7
 10
169.9371
 20
122.1773
 11
167.9371
 21
122.1773
  0
LINE
  8
0
  6
CONTINUOUS
 62
     7
 10
169.9371
 20
115.1773
 11
167.9371
 21
115.1773
  0
LINE
  8
0
  6
CENTER
 62
     2
 10
168.9368
 20
55.1888
 11
168.9368
 21
-85.1357
  0
LINE
  8
0
  6
CONTINUOUS
 62
     7
 10
177.9368
 20
23.2
 11
177.9368
 21
-53.2
  0
LINE
  8
0
  6
CONTINUOUS
 62
     7
 10
159.9368
 20
6.0
 11
177.9368
 21
6.0
  0
LINE
  8
0
  6
CONTINUOUS
 62
     7
 10
159.9368
 20
-36.0
 11
177.9368
 21
-36.0
  0
LINE
  8
0
  6
CONTINUOUS
 62
     7
 10
160.9367
 20
24.19998
 11
159.9367
 21
23.2
  0
LINE
  8
0
  6
CONTINUOUS
 62
     7
 10
176.9367
 20
24.19999
 11
177.9367
 21
23.19999
  0
LINE
  8
0
  6
CENTER
 62
     2
 10
175.4368
 20
4.59129
 11
175.4368
 21
-4.41667
  0
LINE
  8
0
  6
CENTER
 62
     2
 10
162.4368
 20
-25.88725
 11
162.4368
 21
-34.29189
  0
LINE
  8
0
  6
CENTER
 62
     2
 10
159.5246
 20
-30.0
 11
166.6691
 21
-30.0
  0
LINE
  8
0
  6
CENTER
 62
     2
 10
171.0902
 20
0.0
 11
178.5211
 21
0.0
  0
LINE
  8
0
  6
CENTER
 62
     2
 10
166.0151
 20
20.7
 11
171.8465
 21
20.7
  0
LINE
  8
0
  6
CONTINUOUS
 62
     7
 10
160.9368
 20
24.2
 11
176.9368
 21
24.2
  0
LINE
  8
0
  6
CONTINUOUS
 62
     7
 10
159.9368
 20
23.2
 11
177.9368
 21
23.2
  0
LINE
  8
0
  6
CONTINUOUS
 62
     7
 10
159.9368
 20
23.2
 11
159.9368
 21
-53.2
  0
LINE
  8
0
  6
CONTINUOUS
 62
     7
 10
159.9368
 20
-53.20001
 11
160.9368
 21
-54.20001
  0
LINE
  8
0
  6
CONTINUOUS
 62
     7
 10
176.9367
 20
-54.19997
 11
177.9367
 21
-53.19994
  0
LINE
  8
0
  6
CONTINUOUS
 62
     7
 10
159.9368
 20
-53.2
 11
177.9368
 21
-53.2
  0
LINE
  8
0
  6
CONTINUOUS
 62
     7
 10
176.9368
 20
-54.2
 11
160.9368
 21
-54.2
  0
LINE
  8
0
  6
CENTER
 62
     2
 10
171.8812
 20
-50.7
 11
165.9702
 21
-50.7
  0
LINE
  8
0
  6
CENTER
 62
     2
 10
158.836
 20
-15.0
 11
179.6138
 21
-15.0
  0
LINE
  8
0
  6
CONTINUOUS
 62
     7
 10
161.4368
 20
50.40001
 11
161.4368
 21
24.2
  0
LINE
  8
0
  6
CONTINUOUS
 62
     7
 10
161.4368
 20
49.40001
 11
164.4368
 21
49.40001
  0
LINE
  8
0
  6
CONTINUOUS
 62
     7
 10
176.4368
 20
50.40001
 11
176.4368
 21
24.2
  0
LINE
  8
0
  6
CONTINUOUS
 62
     7
 10
161.9368
 20
47.90001
 11
161.9368
 21
25.0
  0
LINE
  8
0
  6
CONTINUOUS
 62
     7
 10
175.9368
 20
47.90001
 11
175.9368
 21
25.0
  0
LINE
  8
0
  6
CONTINUOUS
 62
     7
 10
163.4368
 20
25.7
 11
174.4368
 21
25.7
  0
LINE
  8
0
  6
CONTINUOUS
 62
     7
 10
163.4368
 20
34.2
 11
174.4368
 21
34.2
  0
LINE
  8
0
  6
CONTINUOUS
 62
     7
 10
163.4368
 20
34.2
 11
163.4368
 21
25.7
  0
LINE
  8
0
  6
CONTINUOUS
 62
     7
 10
174.4368
 20
34.2
 11
174.4368
 21
25.7
  0
LINE
  8
0
  6
CONTINUOUS
 62
     7
 10
166.9368
 20
37.7
 11
170.9368
 21
37.7
  0
LINE
  8
0
  6
CONTINUOUS
 62
     7
 10
166.9368
 20
35.7
 11
170.9368
 21
35.7
  0
LINE
  8
0
  6
CONTINUOUS
 62
     7
 10
166.9368
 20
37.7
 11
166.9368
 21
35.7
  0
LINE
  8
0
  6
CONTINUOUS
 62
     7
 10
170.9368
 20
37.7
 11
170.9368
 21
35.7
  0
LINE
  8
0
  6
CONTINUOUS
 62
     7
 10
166.4368
 20
38.2
 11
171.4368
 21
38.2
  0
LINE
  8
0
  6
CONTINUOUS
 62
     7
 10
166.4368
 20
38.2
 11
166.4368
 21
35.2
  0
LINE
  8
0
  6
CONTINUOUS
 62
     7
 10
166.4368
 20
35.2
 11
171.4368
 21
35.2
  0
LINE
  8
0
  6
CONTINUOUS
 62
     7
 10
171.4368
 20
38.2
 11
171.4368
 21
35.2
  0
LINE
  8
0
  6
CONTINUOUS
 62
     7
 10
166.9367
 20
37.69997
 11
166.4367
 21
38.19995
  0
LINE
  8
0
  6
CONTINUOUS
 62
     7
 10
170.9367
 20
37.69998
 11
171.4368
 21
38.20002
  0
LINE
  8
0
  6
CONTINUOUS
 62
     7
 10
170.9368
 20
35.70001
 11
171.4368
 21
35.2
  0
LINE
  8
0
  6
CONTINUOUS
 62
     7
 10
166.9367
 20
35.7
 11
166.4368
 21
35.20001
  0
LINE
  8
0
  6
CONTINUOUS
 62
     7
 10
161.4368
 20
50.39998
 11
166.5868
 21
50.39998
  0
LINE
  8
0
  6
CONTINUOUS
 62
     7
 10
162.4368
 20
52.40001
 11
162.611
 21
52.40001
  0
LINE
  8
0
  6
CONTINUOUS
 62
     7
 10
176.4368
 20
50.39999
 11
175.4368
 21
52.39999
  0
LINE
  8
0
  6
CONTINUOUS
 62
     7
 10
161.4368
 20
50.4
 11
162.4368
 21
52.39999
  0
LINE
  8
0
  6
CENTER
 62
     2
 10
164.4368
 20
55.40001
 11
164.4368
 21
46.40001
  0
LINE
  8
0
  6
CONTINUOUS
 62
     7
 10
166.5868
 20
50.99998
 11
161.8868
 21
50.99998
  0
LINE
  8
0
  6
CONTINUOUS
 62
     7
 10
161.8868
 20
50.99998
 11
161.8868
 21
50.39998
  0
LINE
  8
0
  6
CONTINUOUS
 62
     7
 10
162.1868
 20
51.69374
 11
162.1868
 21
50.99998
  0
LINE
  8
0
  6
CONTINUOUS
 62
     7
 10
166.2625
 20
52.40001
 11
166.5868
 21
52.40001
  0
LINE
  8
0
  6
CENTER
 62
     2
 10
173.4368
 20
55.40001
 11
173.4368
 21
46.40001
  0
LINE
  8
0
  6
CENTER
 62
     2
 10
170.4368
 20
73.2
 11
170.4368
 21
45.7
  0
LINE
  8
0
  6
CENTER
 62
     2
 10
167.4368
 20
73.2
 11
167.4368
 21
45.7
  0
LINE
  8
0
  6
CONTINUOUS
 62
     7
 10
168.2868
 20
60.2
 11
168.2868
 21
57.25063
  0
LINE
  8
0
  6
CONTINUOUS
 62
     7
 10
166.5868
 20
60.2
 11
166.5868
 21
57.70613
  0
LINE
  8
0
  6
CONTINUOUS
 62
     7
 10
167.7568
 20
70.2
 11
167.7568
 21
60.2
  0
LINE
  8
0
  6
CONTINUOUS
 62
     7
 10
167.1168
 20
70.2
 11
167.1168
 21
60.2
  0
LINE
  8
0
  6
CONTINUOUS
 62
     7
 10
170.7568
 20
70.2
 11
170.7568
 21
60.2
  0
LINE
  8
0
  6
CONTINUOUS
 62
     7
 10
170.1168
 20
70.2
 11
170.1168
 21
60.2
  0
LINE
  8
0
  6
CONTINUOUS
 62
     7
 10
171.2868
 20
60.2
 11
171.2868
 21
56.44679
  0
LINE
  8
0
  6
CONTINUOUS
 62
     7
 10
169.5868
 20
60.2
 11
169.5868
 21
56.9023
  0
LINE
  8
0
  6
CONTINUOUS
 62
     7
 10
167.1168
 20
70.2
 11
167.7568
 21
70.2
  0
LINE
  8
0
  6
CONTINUOUS
 62
     7
 10
170.1168
 20
70.2
 11
170.7568
 21
70.2
  0
LINE
  8
0
  6
CONTINUOUS
 62
     7
 10
166.5868
 20
60.2
 11
168.2868
 21
60.2
  0
LINE
  8
0
  6
CONTINUOUS
 62
     7
 10
169.5868
 20
60.2
 11
171.2868
 21
60.2
  0
LINE
  8
0
  6
CONTINUOUS
 62
     7
 10
173.4368
 20
49.40001
 11
176.4368
 21
49.40001
  0
LINE
  8
0
  6
CONTINUOUS
 62
     7
 10
168.2868
 20
50.39998
 11
169.5868
 21
50.39998
  0
LINE
  8
0
  6
CONTINUOUS
 62
     7
 10
171.2868
 20
50.39998
 11
176.4368
 21
50.39998
  0
LINE
  8
0
  6
CONTINUOUS
 62
     7
 10
171.2868
 20
52.40001
 11
175.4368
 21
52.40001
  0
LINE
  8
0
  6
CONTINUOUS
 62
     7
 10
168.2868
 20
52.40001
 11
169.5868
 21
52.40001
  0
LINE
  8
0
  6
PHANTOM
 62
     2
 10
164.5868
 20
56.68911
 11
173.2868
 21
54.35796
  0
LINE
  8
0
  6
PHANTOM
 62
     2
 10
164.5868
 20
58.24197
 11
173.2868
 21
55.91082
  0
LINE
  8
0
  6
CONTINUOUS
 62
     7
 10
166.5868
 20
56.15324
 11
166.5868
 21
50.2
  0
LINE
  8
0
  6
CONTINUOUS
 62
     7
 10
168.2868
 20
55.69771
 11
168.2868
 21
50.2
  0
LINE
  8
0
  6
CONTINUOUS
 62
     7
 10
169.5868
 20
55.34938
 11
169.5868
 21
50.2
  0
LINE
  8
0
  6
CONTINUOUS
 62
     7
 10
171.2868
 20
54.89388
 11
171.2868
 21
50.2
  0
LINE
  8
0
  6
CENTER
 62
     2
 10
164.9368
 20
36.7
 11
172.9368
 21
36.7
  0
LINE
  8
0
  6
CONTINUOUS
 62
     7
 10
162.7368
 20
48.7
 11
175.1368
 21
48.7
  0
LINE
  8
0
  6
CONTINUOUS
 62
     7
 10
164.9368
 20
50.2
 11
172.9368
 21
50.2
  0
LINE
  8
0
  6
CONTINUOUS
 62
     7
 10
164.4368
 20
49.7
 11
164.4368
 21
48.7
  0
LINE
  8
0
  6
CONTINUOUS
 62
     7
 10
173.4368
 20
49.7
 11
173.4368
 21
48.7
  0
LINE
  8
0
  6
CONTINUOUS
 62
     7
 10
176.4368
 20
-80.40001
 11
176.4368
 21
-54.2
  0
LINE
  8
0
  6
CONTINUOUS
 62
     7
 10
176.4368
 20
-79.40001
 11
173.4368
 21
-79.40001
  0
LINE
  8
0
  6
CONTINUOUS
 62
     7
 10
161.4368
 20
-80.40001
 11
161.4368
 21
-54.2
  0
LINE
  8
0
  6
CONTINUOUS
 62
     7
 10
175.9368
 20
-77.90001
 11
175.9368
 21
-55.0
  0
LINE
  8
0
  6
CONTINUOUS
 62
     7
 10
161.9368
 20
-77.90001
 11
161.9368
 21
-55.0
  0
LINE
  8
0
  6
CONTINUOUS
 62
     7
 10
174.4368
 20
-55.7
 11
163.4368
 21
-55.7
  0
LINE
  8
0
  6
CONTINUOUS
 62
     7
 10
174.4368
 20
-64.2
 11
163.4368
 21
-64.2
  0
LINE
  8
0
  6
CONTINUOUS
 62
     7
 10
174.4368
 20
-64.2
 11
174.4368
 21
-55.7
  0
LINE
  8
0
  6
CONTINUOUS
 62
     7
 10
163.4368
 20
-64.2
 11
163.4368
 21
-55.7
  0
LINE
  8
0
  6
CONTINUOUS
 62
     7
 10
170.9368
 20
-67.7
 11
166.9368
 21
-67.7
  0
LINE
  8
0
  6
CONTINUOUS
 62
     7
 10
170.9368
 20
-65.7
 11
166.9368
 21
-65.7
  0
LINE
  8
0
  6
CONTINUOUS
 62
     7
 10
170.9368
 20
-67.7
 11
170.9368
 21
-65.7
  0
LINE
  8
0
  6
CONTINUOUS
 62
     7
 10
166.9368
 20
-67.7
 11
166.9368
 21
-65.7
  0
LINE
  8
0
  6
CONTINUOUS
 62
     7
 10
171.4368
 20
-68.2
 11
166.4368
 21
-68.2
  0
LINE
  8
0
  6
CONTINUOUS
 62
     7
 10
171.4368
 20
-68.2
 11
171.4368
 21
-65.2
  0
LINE
  8
0
  6
CONTINUOUS
 62
     7
 10
171.4368
 20
-65.2
 11
166.4368
 21
-65.2
  0
LINE
  8
0
  6
CONTINUOUS
 62
     7
 10
166.4368
 20
-68.2
 11
166.4368
 21
-65.2
  0
LINE
  8
0
  6
CONTINUOUS
 62
     7
 10
170.9367
 20
-67.70004
 11
171.4367
 21
-68.20003
  0
LINE
  8
0
  6
CONTINUOUS
 62
     7
 10
166.9368
 20
-67.70001
 11
166.4368
 21
-68.20003
  0
LINE
  8
0
  6
CONTINUOUS
 62
     7
 10
166.9367
 20
-65.70004
 11
166.4367
 21
-65.20004
  0
LINE
  8
0
  6
CONTINUOUS
 62
     7
 10
170.9368
 20
-65.70001
 11
171.4368
 21
-65.20002
  0
LINE
  8
0
  6
CONTINUOUS
 62
     7
 10
176.4368
 20
-80.39998
 11
171.2868
 21
-80.39998
  0
LINE
  8
0
  6
CONTINUOUS
 62
     7
 10
175.4368
 20
-82.40001
 11
175.2625
 21
-82.40001
  0
LINE
  8
0
  6
CONTINUOUS
 62
     7
 10
161.4368
 20
-80.40003
 11
162.4368
 21
-82.40003
  0
LINE
  8
0
  6
CONTINUOUS
 62
     7
 10
176.4368
 20
-80.39999
 11
175.4368
 21
-82.39999
  0
LINE
  8
0
  6
CENTER
 62
     2
 10
173.4368
 20
-85.40001
 11
173.4368
 21
-76.40001
  0
LINE
  8
0
  6
CONTINUOUS
 62
     7
 10
171.2868
 20
-80.99998
 11
175.9868
 21
-80.99998
  0
LINE
  8
0
  6
CONTINUOUS
 62
     7
 10
175.9868
 20
-80.99998
 11
175.9868
 21
-80.39998
  0
LINE
  8
0
  6
CONTINUOUS
 62
     7
 10
175.6868
 20
-81.69374
 11
175.6868
 21
-80.99998
  0
LINE
  8
0
  6
CONTINUOUS
 62
     7
 10
171.611
 20
-82.40001
 11
171.2868
 21
-82.40001
  0
LINE
  8
0
  6
CENTER
 62
     2
 10
164.4368
 20
-85.40001
 11
164.4368
 21
-76.40001
  0
LINE
  8
0
  6
CENTER
 62
     2
 10
167.4368
 20
-103.2
 11
167.4368
 21
-75.7
  0
LINE
  8
0
  6
CENTER
 62
     2
 10
170.4368
 20
-103.2
 11
170.4368
 21
-75.7
  0
LINE
  8
0
  6
CONTINUOUS
 62
     7
 10
169.5868
 20
-90.2
 11
169.5868
 21
-87.25063
  0
LINE
  8
0
  6
CONTINUOUS
 62
     7
 10
171.2868
 20
-90.2
 11
171.2868
 21
-87.70615
  0
LINE
  8
0
  6
CONTINUOUS
 62
     7
 10
170.1168
 20
-100.2
 11
170.1168
 21
-90.2
  0
LINE
  8
0
  6
CONTINUOUS
 62
     7
 10
170.7568
 20
-100.2
 11
170.7568
 21
-90.2
  0
LINE
  8
0
  6
CONTINUOUS
 62
     7
 10
167.1168
 20
-100.2
 11
167.1168
 21
-90.2
  0
LINE
  8
0
  6
CONTINUOUS
 62
     7
 10
167.7568
 20
-100.2
 11
167.7568
 21
-90.2
  0
LINE
  8
0
  6
CONTINUOUS
 62
     7
 10
166.5868
 20
-90.2
 11
166.5868
 21
-86.44678
  0
LINE
  8
0
  6
CONTINUOUS
 62
     7
 10
168.2868
 20
-90.2
 11
168.2868
 21
-86.9023
  0
LINE
  8
0
  6
CONTINUOUS
 62
     7
 10
170.7568
 20
-100.2
 11
170.1168
 21
-100.2
  0
LINE
  8
0
  6
CONTINUOUS
 62
     7
 10
167.7568
 20
-100.2
 11
167.1168
 21
-100.2
  0
LINE
  8
0
  6
CONTINUOUS
 62
     7
 10
171.2868
 20
-90.2
 11
169.5868
 21
-90.2
  0
LINE
  8
0
  6
CONTINUOUS
 62
     7
 10
168.2868
 20
-90.2
 11
166.5868
 21
-90.2
  0
LINE
  8
0
  6
CONTINUOUS
 62
     7
 10
164.4368
 20
-79.40001
 11
161.4368
 21
-79.40001
  0
LINE
  8
0
  6
CONTINUOUS
 62
     7
 10
169.5868
 20
-80.39998
 11
168.2868
 21
-80.39998
  0
LINE
  8
0
  6
CONTINUOUS
 62
     7
 10
166.5868
 20
-80.39998
 11
161.4368
 21
-80.39998
  0
LINE
  8
0
  6
CONTINUOUS
 62
     7
 10
166.5868
 20
-82.40001
 11
162.4368
 21
-82.40001
  0
LINE
  8
0
  6
CONTINUOUS
 62
     7
 10
169.5868
 20
-82.40001
 11
168.2868
 21
-82.40001
  0
LINE
  8
0
  6
PHANTOM
 62
     2
 10
173.2867
 20
-86.68914
 11
164.5867
 21
-84.35799
  0
LINE
  8
0
  6
PHANTOM
 62
     2
 10
173.2868
 20
-88.24205
 11
164.5867
 21
-85.91089
  0
LINE
  8
0
  6
CONTINUOUS
 62
     7
 10
171.2868
 20
-86.15323
 11
171.2868
 21
-80.2
  0
LINE
  8
0
  6
CONTINUOUS
 62
     7
 10
169.5868
 20
-85.69771
 11
169.5868
 21
-80.2
  0
LINE
  8
0
  6
CONTINUOUS
 62
     7
 10
168.2868
 20
-85.34938
 11
168.2868
 21
-80.2
  0
LINE
  8
0
  6
CONTINUOUS
 62
     7
 10
166.5868
 20
-84.89388
 11
166.5868
 21
-80.2
  0
LINE
  8
0
  6
CENTER
 62
     2
 10
172.9368
 20
-66.7
 11
164.9368
 21
-66.7
  0
LINE
  8
0
  6
CONTINUOUS
 62
     7
 10
175.1368
 20
-78.7
 11
162.7368
 21
-78.7
  0
LINE
  8
0
  6
CONTINUOUS
 62
     7
 10
172.9368
 20
-80.2
 11
164.9368
 21
-80.2
  0
LINE
  8
0
  6
CONTINUOUS
 62
     7
 10
173.4368
 20
-79.7
 11
173.4368
 21
-78.7
  0
LINE
  8
0
  6
CONTINUOUS
 62
     7
 10
164.4368
 20
-79.7
 11
164.4368
 21
-78.7
  0
LINE
  8
0
  6
CENTER
 62
     2
 10
285.5611
 20
55.55009
 11
285.5611
 21
-83.99771
  0
LINE
  8
0
  6
CONTINUOUS
 62
     7
 10
272.0611
 20
23.20007
 11
272.0611
 21
-53.19992
  0
LINE
  8
0
  6
CONTINUOUS
 62
     7
 10
299.0611
 20
23.20007
 11
299.0611
 21
-53.19992
  0
LINE
  8
0
  6
CONTINUOUS
 62
     7
 10
298.061
 20
24.19994
 11
299.061
 21
23.19994
  0
LINE
  8
0
  6
CONTINUOUS
 62
     7
 10
273.0612
 20
24.20012
 11
272.0611
 21
23.20005
  0
LINE
  8
0
  6
CONTINUOUS
 62
     7
 10
275.0611
 20
1.65839
 11
272.0611
 21
1.65839
  0
LINE
  8
0
  6
CONTINUOUS
 62
     7
 10
275.0611
 20
-1.65823
 11
272.0611
 21
-1.65823
  0
LINE
  8
0
  6
CONTINUOUS
 62
     7
 10
275.0611
 20
1.65839
 11
275.0611
 21
-1.65823
  0
LINE
  8
0
  6
CONTINUOUS
 62
     7
 10
298.0611
 20
24.20007
 11
264.3611
 21
24.20007
  0
LINE
  8
0
  6
CONTINUOUS
 62
     7
 10
299.0611
 20
23.20007
 11
272.0611
 21
23.20007
  0
LINE
  8
0
  6
CENTER
 62
     2
 10
269.5611
 20
-14.99992
 11
301.5176
 21
-14.99992
  0
LINE
  8
0
  6
CONTINUOUS
 62
     7
 10
299.0611
 20
-35.99992
 11
272.0611
 21
-35.99992
  0
LINE
  8
0
  6
CONTINUOUS
 62
     7
 10
299.0611
 20
6.00008
 11
272.0611
 21
6.00008
  0
LINE
  8
0
  6
CONTINUOUS
 62
     7
 10
272.061
 20
-53.20004
 11
273.0611
 21
-54.20007
  0
LINE
  8
0
  6
CONTINUOUS
 62
     7
 10
299.0611
 20
-53.19985
 11
298.061
 21
-54.19991
  0
LINE
  8
0
  6
CONTINUOUS
 62
     7
 10
272.0611
 20
-53.19992
 11
299.0611
 21
-53.19992
  0
LINE
  8
0
  6
CONTINUOUS
 62
     7
 10
298.0611
 20
-54.19991
 11
264.3611
 21
-54.19991
  0
LINE
  8
0
  6
CENTER
 62
     2
 10
270.5372
 20
0.00008
 11
276.0939
 21
0.00008
  0
LINE
  8
0
  6
CONTINUOUS
 62
     7
 10
297.5611
 20
49.40007
 11
273.5611
 21
49.40007
  0
LINE
  8
0
  6
CONTINUOUS
 62
     7
 10
297.5611
 20
50.40007
 11
297.5611
 21
24.20007
  0
LINE
  8
0
  6
CONTINUOUS
 62
     7
 10
273.5611
 20
50.40007
 11
273.5611
 21
24.20007
  0
LINE
  8
0
  6
CONTINUOUS
 62
     7
 10
263.5611
 20
47.90007
 11
263.5611
 21
25.00008
  0
LINE
  8
0
  6
CONTINUOUS
 62
     7
 10
274.5611
 20
52.40007
 11
292.7354
 21
52.40007
  0
LINE
  8
0
  6
CONTINUOUS
 62
     7
 10
297.5611
 20
50.40007
 11
273.5611
 21
50.40007
  0
LINE
  8
0
  6
CONTINUOUS
 62
     7
 10
273.5611
 20
50.4001
 11
274.5611
 21
52.40012
  0
LINE
  8
0
  6
CONTINUOUS
 62
     7
 10
297.5609
 20
50.39996
 11
296.5609
 21
52.39996
  0
LINE
  8
0
  6
CONTINUOUS
 62
     7
 10
291.5611
 20
52.40007
 11
291.5611
 21
50.40007
  0
LINE
  8
0
  6
CENTER
 62
     2
 10
294.5611
 20
55.40007
 11
294.5611
 21
46.40007
  0
LINE
  8
0
  6
CONTINUOUS
 62
     7
 10
297.1111
 20
51.00008
 11
292.0111
 21
51.00008
  0
LINE
  8
0
  6
CONTINUOUS
 62
     7
 10
294.2608
 20
50.39997
 11
294.1
 21
50.99997
  0
LINE
  8
0
  6
CONTINUOUS
 62
     7
 10
294.8607
 20
50.99998
 11
295.0214
 21
50.39998
  0
LINE
  8
0
  6
CONTINUOUS
 62
     7
 10
297.1111
 20
51.00008
 11
297.1111
 21
50.40007
  0
LINE
  8
0
  6
CONTINUOUS
 62
     7
 10
292.0111
 20
51.00008
 11
292.0111
 21
50.40007
  0
LINE
  8
0
  6
CONTINUOUS
 62
     7
 10
296.8111
 20
51.69383
 11
296.8111
 21
51.00008
  0
LINE
  8
0
  6
CONTINUOUS
 62
     7
 10
292.3111
 20
51.69383
 11
292.3111
 21
51.00008
  0
LINE
  8
0
  6
CONTINUOUS
 62
     7
 10
296.3868
 20
52.40007
 11
296.5611
 21
52.40007
  0
LINE
  8
0
  6
CENTER
 62
     2
 10
276.5611
 20
55.40007
 11
276.5611
 21
46.40007
  0
LINE
  8
0
  6
CONTINUOUS
 62
     7
 10
273.5611
 20
48.70009
 11
264.3611
 21
48.70009
  0
LINE
  8
0
  6
CENTER
 62
     2
 10
269.0611
 20
73.20006
 11
269.0611
 21
45.70009
  0
LINE
  8
0
  6
CONTINUOUS
 62
     7
 10
268.2111
 20
60.20009
 11
268.2111
 21
56.2043
  0
LINE
  8
0
  6
CONTINUOUS
 62
     7
 10
269.9111
 20
60.20009
 11
269.9111
 21
55.74876
  0
LINE
  8
0
  6
CONTINUOUS
 62
     7
 10
268.7411
 20
70.20006
 11
268.7411
 21
60.20009
  0
LINE
  8
0
  6
CONTINUOUS
 62
     7
 10
269.3811
 20
70.20006
 11
269.3811
 21
60.20009
  0
LINE
  8
0
  6
CONTINUOUS
 62
     7
 10
269.9111
 20
60.20009
 11
268.2111
 21
60.20009
  0
LINE
  8
0
  6
CONTINUOUS
 62
     7
 10
269.3811
 20
70.20006
 11
268.7411
 21
70.20006
  0
LINE
  8
0
  6
PHANTOM
 62
     2
 10
266.2111
 20
55.18718
 11
271.9111
 21
53.65988
  0
LINE
  8
0
  6
PHANTOM
 62
     2
 10
266.2111
 20
56.7401
 11
271.9111
 21
55.21279
  0
LINE
  8
0
  6
CONTINUOUS
 62
     7
 10
269.9111
 20
54.19585
 11
269.9111
 21
50.20009
  0
LINE
  8
0
  6
CONTINUOUS
 62
     7
 10
268.2111
 20
54.65138
 11
268.2111
 21
50.20009
  0
LINE
  8
0
  6
CONTINUOUS
 62
     7
 10
265.5611
 20
49.70009
 11
265.5611
 21
48.70009
  0
LINE
  8
0
  6
CONTINUOUS
 62
     7
 10
272.0611
 20
50.20009
 11
266.0611
 21
50.20009
  0
LINE
  8
0
  6
CONTINUOUS
 62
     7
 10
272.5611
 20
49.70009
 11
272.5611
 21
48.70009
  0
LINE
  8
0
  6
CONTINUOUS
 62
     7
 10
297.5611
 20
-79.39992
 11
273.5611
 21
-79.39992
  0
LINE
  8
0
  6
CONTINUOUS
 62
     7
 10
297.5611
 20
-80.39992
 11
297.5611
 21
-54.19992
  0
LINE
  8
0
  6
CONTINUOUS
 62
     7
 10
273.5611
 20
-80.39992
 11
273.5611
 21
-54.19992
  0
LINE
  8
0
  6
CONTINUOUS
 62
     7
 10
263.5611
 20
-77.89992
 11
263.5611
 21
-54.99992
  0
LINE
  8
0
  6
CONTINUOUS
 62
     7
 10
296.5611
 20
-82.39992
 11
278.3868
 21
-82.39992
  0
LINE
  8
0
  6
CONTINUOUS
 62
     7
 10
297.5611
 20
-80.39992
 11
273.5611
 21
-80.39992
  0
LINE
  8
0
  6
CONTINUOUS
 62
     7
 10
297.5611
 20
-80.39993
 11
296.5611
 21
-82.39993
  0
LINE
  8
0
  6
CONTINUOUS
 62
     7
 10
273.561
 20
-80.39994
 11
274.561
 21
-82.39996
  0
LINE
  8
0
  6
CONTINUOUS
 62
     7
 10
279.5611
 20
-82.39992
 11
279.5611
 21
-80.39992
  0
LINE
  8
0
  6
CENTER
 62
     2
 10
276.5611
 20
-85.39992
 11
276.5611
 21
-76.39992
  0
LINE
  8
0
  6
CONTINUOUS
 62
     7
 10
274.0111
 20
-80.99992
 11
279.1111
 21
-80.99992
  0
LINE
  8
0
  6
CONTINUOUS
 62
     7
 10
276.861
 20
-80.39994
 11
277.0218
 21
-80.99992
  0
LINE
  8
0
  6
CONTINUOUS
 62
     7
 10
276.2614
 20
-80.99987
 11
276.1006
 21
-80.39987
  0
LINE
  8
0
  6
CONTINUOUS
 62
     7
 10
274.0111
 20
-80.99992
 11
274.0111
 21
-80.39992
  0
LINE
  8
0
  6
CONTINUOUS
 62
     7
 10
279.1111
 20
-80.99992
 11
279.1111
 21
-80.39992
  0
LINE
  8
0
  6
CONTINUOUS
 62
     7
 10
274.3111
 20
-81.69368
 11
274.3111
 21
-80.99992
  0
LINE
  8
0
  6
CONTINUOUS
 62
     7
 10
278.8111
 20
-81.69365
 11
278.8111
 21
-80.99991
  0
LINE
  8
0
  6
CONTINUOUS
 62
     7
 10
274.7353
 20
-82.39992
 11
274.5611
 21
-82.39992
  0
LINE
  8
0
  6
CENTER
 62
     2
 10
294.5611
 20
-85.39992
 11
294.5611
 21
-76.39992
  0
LINE
  8
0
  6
CENTER
 62
     2
 10
269.0611
 20
-103.1999
 11
269.0611
 21
-75.69992
  0
LINE
  8
0
  6
CONTINUOUS
 62
     7
 10
269.9111
 20
-90.19992
 11
269.9111
 21
-86.20413
  0
LINE
  8
0
  6
CONTINUOUS
 62
     7
 10
268.2111
 20
-90.19992
 11
268.2111
 21
-85.74861
  0
LINE
  8
0
  6
CONTINUOUS
 62
     7
 10
269.3811
 20
-100.1999
 11
269.3811
 21
-90.19992
  0
LINE
  8
0
  6
CONTINUOUS
 62
     7
 10
268.7411
 20
-100.1999
 11
268.7411
 21
-90.19992
  0
LINE
  8
0
  6
CONTINUOUS
 62
     7
 10
268.2111
 20
-90.19992
 11
269.9111
 21
-90.19992
  0
LINE
  8
0
  6
CONTINUOUS
 62
     7
 10
268.7411
 20
-100.1999
 11
269.3811
 21
-100.1999
  0
LINE
  8
0
  6
PHANTOM
 62
     2
 10
271.9111
 20
-85.18714
 11
266.2111
 21
-83.65982
  0
LINE
  8
0
  6
PHANTOM
 62
     2
 10
271.9111
 20
-86.74007
 11
266.2112
 21
-85.21277
  0
LINE
  8
0
  6
CONTINUOUS
 62
     7
 10
268.2111
 20
-84.19571
 11
268.2111
 21
-80.19992
  0
LINE
  8
0
  6
CONTINUOUS
 62
     7
 10
269.9111
 20
-84.65121
 11
269.9111
 21
-80.19992
  0
LINE
  8
0
  6
CONTINUOUS
 62
     7
 10
272.5611
 20
-79.69992
 11
272.5611
 21
-78.69992
  0
LINE
  8
0
  6
CONTINUOUS
 62
     7
 10
266.0611
 20
-80.19992
 11
272.0611
 21
-80.19992
  0
LINE
  8
0
  6
CONTINUOUS
 62
     7
 10
265.5611
 20
-79.69992
 11
265.5611
 21
-78.69992
  0
LINE
  8
0
  6
CONTINUOUS
 62
     7
 10
273.5611
 20
-78.69992
 11
264.3611
 21
-78.69992
  0
LINE
  8
0
  6
CENTER
 62
     2
 10
55.31197
 20
55.55019
 11
55.31197
 21
-84.60159
  0
LINE
  8
0
  6
CONTINUOUS
 62
     7
 10
42.81203
 20
24.20012
 11
41.81203
 21
23.20012
  0
LINE
  8
0
  6
CONTINUOUS
 62
     7
 10
67.81197
 20
24.20018
 11
68.81197
 21
23.20018
  0
LINE
  8
0
  6
CONTINUOUS
 62
     7
 10
65.81197
 20
-28.34151
 11
68.81197
 21
-28.34151
  0
LINE
  8
0
  6
CONTINUOUS
 62
     7
 10
65.81197
 20
-31.65813
 11
68.81197
 21
-31.65813
  0
LINE
  8
0
  6
CONTINUOUS
 62
     7
 10
65.81197
 20
-28.34151
 11
65.81197
 21
-31.65813
  0
LINE
  8
0
  6
CONTINUOUS
 62
     7
 10
42.812
 20
24.20018
 11
76.51198
 21
24.20018
  0
LINE
  8
0
  6
CONTINUOUS
 62
     7
 10
41.81197
 20
23.20018
 11
68.81197
 21
23.20018
  0
LINE
  8
0
  6
CONTINUOUS
 62
     7
 10
41.81203
 20
-35.99982
 11
68.81197
 21
-35.99982
  0
LINE
  8
0
  6
CONTINUOUS
 62
     7
 10
41.81203
 20
6.00018
 11
68.81197
 21
6.00018
  0
LINE
  8
0
  6
CONTINUOUS
 62
     7
 10
41.81203
 20
23.20018
 11
41.81203
 21
-53.19981
  0
LINE
  8
0
  6
CONTINUOUS
 62
     7
 10
41.81201
 20
-53.19981
 11
42.81201
 21
-54.19981
  0
LINE
  8
0
  6
CONTINUOUS
 62
     7
 10
68.81197
 20
23.20018
 11
68.81197
 21
-53.19981
  0
LINE
  8
0
  6
CONTINUOUS
 62
     7
 10
67.81198
 20
-54.19981
 11
68.81196
 21
-53.19983
  0
LINE
  8
0
  6
CONTINUOUS
 62
     7
 10
41.81203
 20
-53.19981
 11
68.81197
 21
-53.19981
  0
LINE
  8
0
  6
CONTINUOUS
 62
     7
 10
42.81203
 20
-54.19983
 11
76.51198
 21
-54.19983
  0
LINE
  8
0
  6
CENTER
 62
     2
 10
64.24217
 20
-29.99982
 11
70.09019
 21
-29.99982
  0
LINE
  8
0
  6
CENTER
 62
     2
 10
39.32112
 20
-14.99982
 11
70.97865
 21
-14.99982
  0
LINE
  8
0
  6
CONTINUOUS
 62
     7
 10
43.31197
 20
49.40019
 11
67.31197
 21
49.40019
  0
LINE
  8
0
  6
CONTINUOUS
 62
     7
 10
43.31197
 20
50.40019
 11
43.31197
 21
24.20018
  0
LINE
  8
0
  6
CONTINUOUS
 62
     7
 10
67.31197
 20
50.40019
 11
67.31197
 21
24.20018
  0
LINE
  8
0
  6
CONTINUOUS
 62
     7
 10
77.31197
 20
47.90019
 11
77.31197
 21
25.00018
  0
LINE
  8
0
  6
CONTINUOUS
 62
     7
 10
44.31197
 20
52.40019
 11
62.48622
 21
52.40019
  0
LINE
  8
0
  6
CONTINUOUS
 62
     7
 10
43.31197
 20
50.40019
 11
67.31197
 21
50.40019
  0
LINE
  8
0
  6
CONTINUOUS
 62
     7
 10
43.31201
 20
50.40022
 11
44.31201
 21
52.4002
  0
LINE
  8
0
  6
CONTINUOUS
 62
     7
 10
67.31194
 20
50.40017
 11
66.31194
 21
52.40017
  0
LINE
  8
0
  6
CONTINUOUS
 62
     7
 10
61.31197
 20
52.40019
 11
61.31197
 21
50.40019
  0
LINE
  8
0
  6
CENTER
 62
     2
 10
64.31197
 20
55.40019
 11
64.31197
 21
46.40019
  0
LINE
  8
0
  6
CONTINUOUS
 62
     7
 10
66.86198
 20
51.00017
 11
61.76198
 21
51.00017
  0
LINE
  8
0
  6
CONTINUOUS
 62
     7
 10
64.01197
 20
50.40018
 11
63.8512
 21
51.00018
  0
LINE
  8
0
  6
CONTINUOUS
 62
     7
 10
64.61211
 20
51.00023
 11
64.77289
 21
50.40022
  0
LINE
  8
0
  6
CONTINUOUS
 62
     7
 10
66.86198
 20
51.00017
 11
66.86198
 21
50.40019
  0
LINE
  8
0
  6
CONTINUOUS
 62
     7
 10
61.76198
 20
51.00017
 11
61.76198
 21
50.40019
  0
LINE
  8
0
  6
CONTINUOUS
 62
     7
 10
66.562
 20
51.69395
 11
66.562
 21
51.0002
  0
LINE
  8
0
  6
CONTINUOUS
 62
     7
 10
62.062
 20
51.69392
 11
62.062
 21
51.00017
  0
LINE
  8
0
  6
CONTINUOUS
 62
     7
 10
66.13777
 20
52.40019
 11
66.31197
 21
52.40019
  0
LINE
  8
0
  6
CENTER
 62
     2
 10
46.31197
 20
55.40019
 11
46.31197
 21
46.40019
  0
LINE
  8
0
  6
CENTER
 62
     2
 10
71.81197
 20
73.20018
 11
71.81197
 21
45.70018
  0
LINE
  8
0
  6
CONTINUOUS
 62
     7
 10
70.96199
 20
60.20018
 11
70.96199
 21
56.20439
  0
LINE
  8
0
  6
CONTINUOUS
 62
     7
 10
72.66197
 20
60.20018
 11
72.66197
 21
55.74889
  0
LINE
  8
0
  6
CONTINUOUS
 62
     7
 10
71.49199
 20
70.20018
 11
71.49199
 21
60.20018
  0
LINE
  8
0
  6
CONTINUOUS
 62
     7
 10
72.13197
 20
70.20018
 11
72.13197
 21
60.20018
  0
LINE
  8
0
  6
CONTINUOUS
 62
     7
 10
72.66197
 20
60.20018
 11
70.96199
 21
60.20018
  0
LINE
  8
0
  6
CONTINUOUS
 62
     7
 10
72.13197
 20
70.20018
 11
71.49199
 21
70.20018
  0
LINE
  8
0
  6
PHANTOM
 62
     2
 10
68.96194
 20
55.18731
 11
74.66193
 21
53.66
  0
LINE
  8
0
  6
PHANTOM
 62
     2
 10
68.96198
 20
56.74021
 11
74.66199
 21
55.2129
  0
LINE
  8
0
  6
CONTINUOUS
 62
     7
 10
72.66197
 20
54.19597
 11
72.66197
 21
50.20018
  0
LINE
  8
0
  6
CONTINUOUS
 62
     7
 10
70.96199
 20
54.65147
 11
70.96199
 21
50.20018
  0
LINE
  8
0
  6
CONTINUOUS
 62
     7
 10
68.31197
 20
49.70018
 11
68.31197
 21
48.70018
  0
LINE
  8
0
  6
CONTINUOUS
 62
     7
 10
74.81197
 20
50.20018
 11
68.81197
 21
50.20018
  0
LINE
  8
0
  6
CONTINUOUS
 62
     7
 10
75.31197
 20
49.70018
 11
75.31197
 21
48.70018
  0
LINE
  8
0
  6
CONTINUOUS
 62
     7
 10
67.31197
 20
48.70018
 11
76.51198
 21
48.70018
  0
LINE
  8
0
  6
CONTINUOUS
 62
     7
 10
43.31197
 20
-79.39983
 11
67.31197
 21
-79.39983
  0
LINE
  8
0
  6
CONTINUOUS
 62
     7
 10
43.31197
 20
-80.39983
 11
43.31197
 21
-54.19981
  0
LINE
  8
0
  6
CONTINUOUS
 62
     7
 10
67.31197
 20
-80.39983
 11
67.31197
 21
-54.19981
  0
LINE
  8
0
  6
CONTINUOUS
 62
     7
 10
77.31197
 20
-77.89983
 11
77.31197
 21
-54.99982
  0
LINE
  8
0
  6
CONTINUOUS
 62
     7
 10
66.31197
 20
-82.39983
 11
48.13774
 21
-82.39983
  0
LINE
  8
0
  6
CONTINUOUS
 62
     7
 10
43.31197
 20
-80.39983
 11
67.31197
 21
-80.39983
  0
LINE
  8
0
  6
CONTINUOUS
 62
     7
 10
67.31192
 20
-80.39977
 11
66.31193
 21
-82.39975
  0
LINE
  8
0
  6
CONTINUOUS
 62
     7
 10
43.31193
 20
-80.39985
 11
44.31193
 21
-82.39984
  0
LINE
  8
0
  6
CONTINUOUS
 62
     7
 10
49.31197
 20
-82.39983
 11
49.31197
 21
-80.39983
  0
LINE
  8
0
  6
CENTER
 62
     2
 10
46.31197
 20
-85.39983
 11
46.31197
 21
-76.39983
  0
LINE
  8
0
  6
CONTINUOUS
 62
     7
 10
43.76198
 20
-80.99982
 11
48.86198
 21
-80.99982
  0
LINE
  8
0
  6
CONTINUOUS
 62
     7
 10
46.61174
 20
-80.39984
 11
46.77252
 21
-80.99983
  0
LINE
  8
0
  6
CONTINUOUS
 62
     7
 10
46.01184
 20
-80.99983
 11
45.85107
 21
-80.39983
  0
LINE
  8
0
  6
CONTINUOUS
 62
     7
 10
43.76198
 20
-80.99982
 11
43.76198
 21
-80.39983
  0
LINE
  8
0
  6
CONTINUOUS
 62
     7
 10
48.86198
 20
-80.99982
 11
48.86198
 21
-80.39983
  0
LINE
  8
0
  6
CONTINUOUS
 62
     7
 10
44.062
 20
-81.69356
 11
44.062
 21
-80.99982
  0
LINE
  8
0
  6
CONTINUOUS
 62
     7
 10
48.56197
 20
-81.69356
 11
48.56197
 21
-80.99982
  0
LINE
  8
0
  6
CONTINUOUS
 62
     7
 10
44.48622
 20
-82.39983
 11
44.312
 21
-82.39983
  0
LINE
  8
0
  6
CENTER
 62
     2
 10
64.31197
 20
-85.39983
 11
64.31197
 21
-76.39983
  0
LINE
  8
0
  6
CONTINUOUS
 62
     7
 10
67.31197
 20
-78.69981
 11
76.51198
 21
-78.69981
  0
LINE
  8
0
  6
CENTER
 62
     2
 10
71.81197
 20
-103.1998
 11
71.81197
 21
-75.69981
  0
LINE
  8
0
  6
CONTINUOUS
 62
     7
 10
72.66197
 20
-90.19981
 11
72.66197
 21
-86.20403
  0
LINE
  8
0
  6
CONTINUOUS
 62
     7
 10
70.96199
 20
-90.19981
 11
70.96199
 21
-85.74852
  0
LINE
  8
0
  6
CONTINUOUS
 62
     7
 10
72.13197
 20
-100.1998
 11
72.13197
 21
-90.19981
  0
LINE
  8
0
  6
CONTINUOUS
 62
     7
 10
71.49196
 20
-100.1998
 11
71.49196
 21
-90.19981
  0
LINE
  8
0
  6
CONTINUOUS
 62
     7
 10
70.96199
 20
-90.19981
 11
72.66197
 21
-90.19981
  0
LINE
  8
0
  6
CONTINUOUS
 62
     7
 10
71.49196
 20
-100.1998
 11
72.13197
 21
-100.1998
  0
LINE
  8
0
  6
PHANTOM
 62
     2
 10
74.66196
 20
-85.18703
 11
68.96197
 21
-83.65973
  0
LINE
  8
0
  6
PHANTOM
 62
     2
 10
74.66195
 20
-86.73994
 11
68.96196
 21
-85.21264
  0
LINE
  8
0
  6
CONTINUOUS
 62
     7
 10
70.96199
 20
-84.1956
 11
70.96199
 21
-80.19981
  0
LINE
  8
0
  6
CONTINUOUS
 62
     7
 10
72.66197
 20
-84.65111
 11
72.66197
 21
-80.19981
  0
LINE
  8
0
  6
CONTINUOUS
 62
     7
 10
75.31197
 20
-79.69981
 11
75.31197
 21
-78.69981
  0
LINE
  8
0
  6
CONTINUOUS
 62
     7
 10
68.81197
 20
-80.19981
 11
74.81197
 21
-80.19981
  0
LINE
  8
0
  6
CONTINUOUS
 62
     7
 10
68.31197
 20
-79.69981
 11
68.31197
 21
-78.69981
  0
LINE
  8
0
  6
CENTER
 62
     2
 10
168.937
 20
-189.6754
 11
168.937
 21
-148.9783
  0
LINE
  8
0
  6
CENTER
 62
     2
 10
180.687
 20
-173.7791
 11
156.7095
 21
-173.7791
  0
LINE
  8
0
  6
CONTINUOUS
 62
     7
 10
175.937
 20
-161.2791
 11
176.937
 21
-161.2791
  0
LINE
  8
0
  6
CONTINUOUS
 62
     7
 10
161.937
 20
-160.2791
 11
160.437
 21
-160.2791
  0
LINE
  8
0
  6
CONTINUOUS
 62
     7
 10
159.937
 20
-186.7791
 11
159.937
 21
-160.7791
  0
LINE
  8
0
  6
CONTINUOUS
 62
     7
 10
177.937
 20
-186.7791
 11
177.937
 21
-160.7791
  0
LINE
  8
0
  6
CONTINUOUS
 62
     7
 10
177.437
 20
-160.2791
 11
175.937
 21
-160.2791
  0
LINE
  8
0
  6
CONTINUOUS
 62
     7
 10
177.437
 20
-187.2791
 11
160.437
 21
-187.2791
  0
LINE
  8
0
  6
CONTINUOUS
 62
     7
 10
160.937
 20
-186.2791
 11
160.937
 21
-161.2791
  0
LINE
  8
0
  6
CONTINUOUS
 62
     7
 10
176.937
 20
-186.2791
 11
176.937
 21
-161.2791
  0
LINE
  8
0
  6
CONTINUOUS
 62
     7
 10
160.937
 20
-186.2791
 11
176.937
 21
-186.2791
  0
LINE
  8
0
  6
CONTINUOUS
 62
     7
 10
160.937
 20
-161.2791
 11
161.937
 21
-161.2791
  0
LINE
  8
0
  6
CONTINUOUS
 62
     7
 10
176.9369
 20
-161.2791
 11
177.7905
 21
-160.4255
  0
LINE
  8
0
  6
CONTINUOUS
 62
     7
 10
176.937
 20
-186.2791
 11
177.7905
 21
-187.1327
  0
LINE
  8
0
  6
CONTINUOUS
 62
     7
 10
160.9369
 20
-161.2791
 11
160.0834
 21
-160.4256
  0
LINE
  8
0
  6
CONTINUOUS
 62
     7
 10
160.937
 20
-186.2792
 11
160.0835
 21
-187.1327
  0
LINE
  8
0
  6
CONTINUOUS
 62
     7
 10
161.437
 20
-161.7791
 11
176.437
 21
-161.7791
  0
LINE
  8
0
  6
CONTINUOUS
 62
     7
 10
170.437
 20
-164.7791
 11
170.437
 21
-161.7791
  0
LINE
  8
0
  6
CONTINUOUS
 62
     7
 10
167.437
 20
-182.7792
 11
167.437
 21
-185.7792
  0
LINE
  8
0
  6
CONTINUOUS
 62
     7
 10
164.437
 20
-179.7791
 11
161.437
 21
-179.7791
  0
LINE
  8
0
  6
CONTINUOUS
 62
     7
 10
173.437
 20
-167.7791
 11
176.437
 21
-167.7791
  0
LINE
  8
0
  6
CONTINUOUS
 62
     7
 10
167.437
 20
-184.7792
 11
175.437
 21
-184.7792
  0
LINE
  8
0
  6
CONTINUOUS
 62
     7
 10
162.437
 20
-162.7791
 11
170.437
 21
-162.7791
  0
LINE
  8
0
  6
CONTINUOUS
 62
     7
 10
162.437
 20
-179.7791
 11
162.437
 21
-162.7791
  0
LINE
  8
0
  6
CONTINUOUS
 62
     7
 10
175.437
 20
-184.7792
 11
175.437
 21
-167.7791
  0
LINE
  8
0
  6
CONTINUOUS
 62
     7
 10
175.6669
 20
-164.4792
 11
175.9693
 21
-164.4792
  0
LINE
  8
0
  6
CONTINUOUS
 62
     7
 10
175.6669
 20
-165.0791
 11
175.9693
 21
-165.0791
  0
LINE
  8
0
  6
CONTINUOUS
 62
     7
 10
175.945
 20
-165.2399
 11
175.6393
 21
-165.2399
  0
LINE
  8
0
  6
CONTINUOUS
 62
     7
 10
162.207
 20
-183.0792
 11
161.9047
 21
-183.0792
  0
LINE
  8
0
  6
CONTINUOUS
 62
     7
 10
162.207
 20
-182.4792
 11
161.9047
 21
-182.4792
  0
LINE
  8
0
  6
CONTINUOUS
 62
     7
 10
161.9289
 20
-182.3184
 11
162.2347
 21
-182.3184
  0
LINE
  8
0
  6
CONTINUOUS
 62
     7
 10
174.1724
 20
-165.8822
 11
173.8047
 21
-165.5145
  0
LINE
  8
0
  6
CONTINUOUS
 62
     7
 10
174.5401
 20
-165.5146
 11
174.1724
 21
-165.1469
  0
LINE
  8
0
  6
CONTINUOUS
 62
     7
 10
174.1724
 20
-165.8823
 11
174.5401
 21
-165.5146
  0
LINE
  8
0
  6
CONTINUOUS
 62
     7
 10
172.3339
 20
-164.0438
 11
172.7016
 21
-163.6761
  0
LINE
  8
0
  6
CONTINUOUS
 62
     7
 10
172.0405
 20
-166.5434
 11
173.0693
 21
-165.5146
  0
LINE
  8
0
  6
CONTINUOUS
 62
     7
 10
171.6728
 20
-166.1757
 11
172.7016
 21
-165.1469
  0
LINE
  8
0
  6
CONTINUOUS
 62
     7
 10
172.7016
 20
-164.4114
 11
172.3339
 21
-164.0437
  0
LINE
  8
0
  6
CONTINUOUS
 62
     7
 10
173.0693
 20
-164.0438
 11
172.7016
 21
-163.6761
  0
LINE
  8
0
  6
CONTINUOUS
 62
     7
 10
174.1724
 20
-164.4115
 11
175.2012
 21
-163.3827
  0
LINE
  8
0
  6
CONTINUOUS
 62
     7
 10
173.8047
 20
-164.0438
 11
174.8335
 21
-163.015
  0
LINE
  8
0
  6
CONTINUOUS
 62
     7
 10
165.1724
 20
-183.8822
 11
164.8047
 21
-183.5145
  0
LINE
  8
0
  6
CONTINUOUS
 62
     7
 10
165.5401
 20
-183.5146
 11
165.1724
 21
-183.1469
  0
LINE
  8
0
  6
CONTINUOUS
 62
     7
 10
165.1723
 20
-183.8823
 11
165.54
 21
-183.5145
  0
LINE
  8
0
  6
CONTINUOUS
 62
     7
 10
163.3339
 20
-182.0438
 11
163.7016
 21
-181.6761
  0
LINE
  8
0
  6
CONTINUOUS
 62
     7
 10
163.0405
 20
-184.5434
 11
164.0693
 21
-183.5146
  0
LINE
  8
0
  6
CONTINUOUS
 62
     7
 10
162.6728
 20
-184.1757
 11
163.7016
 21
-183.1469
  0
LINE
  8
0
  6
CONTINUOUS
 62
     7
 10
163.7016
 20
-182.4114
 11
163.3339
 21
-182.0437
  0
LINE
  8
0
  6
CONTINUOUS
 62
     7
 10
164.0693
 20
-182.0438
 11
163.7016
 21
-181.6761
  0
LINE
  8
0
  6
CONTINUOUS
 62
     7
 10
165.1724
 20
-182.4115
 11
166.2012
 21
-181.3827
  0
LINE
  8
0
  6
CONTINUOUS
 62
     7
 10
164.8047
 20
-182.0438
 11
165.8335
 21
-181.015
  0
LINE
  8
0
  6
CENTER
 62
     2
 10
169.437
 20
-164.7791
 11
177.437
 21
-164.7791
  0
LINE
  8
0
  6
CENTER
 62
     2
 10
160.437
 20
-182.7792
 11
168.437
 21
-182.7792
  0
LINE
  8
0
  6
CENTER
 62
     2
 10
164.437
 20
-186.7792
 11
164.437
 21
-178.7791
  0
LINE
  8
0
  6
CENTER
 62
     2
 10
173.437
 20
-168.7791
 11
173.437
 21
-160.7791
  0
LINE
  8
0
  6
CONTINUOUS
 62
     7
 10
161.437
 20
-185.2792
 11
161.437
 21
-161.7791
  0
LINE
  8
0
  6
CONTINUOUS
 62
     7
 10
161.937
 20
-185.7792
 11
175.937
 21
-185.7792
  0
LINE
  8
0
  6
CONTINUOUS
 62
     7
 10
176.437
 20
-185.2792
 11
176.437
 21
-161.7791
  0
LINE
  8
0
  6
CONTINUOUS
 62
     7
 10
161.937
 20
-161.7791
 11
161.937
 21
-152.5791
  0
LINE
  8
0
  6
CONTINUOUS
 62
     7
 10
162.737
 20
-151.7791
 11
175.137
 21
-151.7791
  0
LINE
  8
0
  6
CONTINUOUS
 62
     7
 10
175.937
 20
-161.7791
 11
175.937
 21
-152.5791
  0
LINE
  8
0
  6
CENTER
 62
     2
 10
162.737
 20
-157.2791
 11
175.137
 21
-157.2791
  0
LINE
  8
0
  6
CENTER
 62
     2
 10
167.437
 20
-161.2791
 11
167.437
 21
-153.2791
  0
LINE
  8
0
  6
CENTER
 62
     2
 10
170.437
 20
-161.2791
 11
170.437
 21
-153.2791
  0
LINE
  8
0
  6
CONTINUOUS
 62
     7
 10
167.937
 20
-160.7791
 11
169.937
 21
-160.7791
  0
LINE
  8
0
  6
CONTINUOUS
 62
     7
 10
167.937
 20
-153.7791
 11
169.937
 21
-153.7791
  0
ARC
  8
0
  6
CONTINUOUS
 62
     7
 10
273.0354
 20
-235.0457
 40
2.21188
 50
0.0
 51
89.99999
  0
ARC
  8
0
  6
CONTINUOUS
 62
     7
 10
291.2836
 20
-246.9346
 40
2.2119
 50
270.0
 51
0.0
  0
ARC
  8
0
  6
CONTINUOUS
 62
     7
 10
290.1776
 20
-236.1516
 40
3.31784
 50
0.0
 51
89.99999
  0
ARC
  8
0
  6
CONTINUOUS
 62
     7
 10
310.3611
 20
-236.8128
 40
2.21189
 50
295.0
 51
0.0
  0
ARC
  8
0
  6
CONTINUOUS
 62
     7
 10
310.3611
 20
-235.0457
 40
2.21188
 50
0.0
 51
89.99999
  0
ARC
  8
0
  6
CONTINUOUS
 62
     7
 10
327.5034
 20
-232.8338
 40
3.31784
 50
291.6884
 51
0.0
  0
ARC
  8
0
  6
CONTINUOUS
 62
     7
 10
326.3973
 20
-232.0834
 40
1.10595
 50
291.689
 51
0.0
  0
CIRCLE
  8
0
  6
CONTINUOUS
 62
     7
 10
-174.4368
 20
0.0
 40
1.6
  0
CIRCLE
  8
0
  6
CONTINUOUS
 62
     7
 10
-174.4368
 20
-30.0
 40
1.6
  0
ARC
  8
0
  6
CONTINUOUS
 62
     7
 10
-160.7368
 20
25.0
 40
0.8
 50
270.0
 51
0.0
  0
ARC
  8
0
  6
CONTINUOUS
 62
     7
 10
-172.9368
 20
46.7
 40
6.0
 50
73.80862
 51
106.1914
  0
ARC
  8
0
  6
CONTINUOUS
 62
     7
 10
-171.4868
 20
51.69376
 40
0.8
 50
0.0
 51
73.8082
  0
ARC
  8
0
  6
CONTINUOUS
 62
     7
 10
-174.3868
 20
51.69376
 40
0.8
 50
106.1918
 51
180.0
  0
ARC
  8
0
  6
CONTINUOUS
 62
     7
 10
-190.9368
 20
46.69998
 40
6.0
 50
73.80862
 51
106.1914
  0
ARC
  8
0
  6
CONTINUOUS
 62
     7
 10
-192.3868
 20
51.69373
 40
0.8
 50
106.1918
 51
118.0138
  0
ARC
  8
0
  6
CONTINUOUS
 62
     7
 10
-189.4868
 20
51.69373
 40
0.8
 50
61.98621
 51
73.8082
  0
ARC
  8
0
  6
CONTINUOUS
 62
     7
 10
-160.7368
 20
47.89999
 40
0.8
 50
0.0
 51
89.99999
  0
ARC
  8
0
  6
CONTINUOUS
 62
     7
 10
-168.4368
 20
49.7
 40
0.5
 50
89.99999
 51
180.0
  0
ARC
  8
0
  6
CONTINUOUS
 62
     7
 10
-162.4368
 20
49.7
 40
0.5
 50
0.0
 51
89.99999
  0
ARC
  8
0
  6
CONTINUOUS
 62
     7
 10
-160.7368
 20
-55.0
 40
0.8
 50
0.0
 51
89.99999
  0
ARC
  8
0
  6
CONTINUOUS
 62
     7
 10
-190.9368
 20
-76.69998
 40
6.0
 50
253.8086
 51
286.1914
  0
ARC
  8
0
  6
CONTINUOUS
 62
     7
 10
-192.3868
 20
-81.69376
 40
0.8
 50
180.0
 51
253.8083
  0
ARC
  8
0
  6
CONTINUOUS
 62
     7
 10
-189.4868
 20
-81.69376
 40
0.80001
 50
286.1917
 51
0.0
  0
ARC
  8
0
  6
CONTINUOUS
 62
     7
 10
-172.9368
 20
-76.69998
 40
6.0
 50
253.8086
 51
286.1914
  0
ARC
  8
0
  6
CONTINUOUS
 62
     7
 10
-171.4868
 20
-81.69373
 40
0.80001
 50
286.1917
 51
298.0138
  0
ARC
  8
0
  6
CONTINUOUS
 62
     7
 10
-174.3868
 20
-81.69373
 40
0.8
 50
241.9862
 51
253.8083
  0
ARC
  8
0
  6
CONTINUOUS
 62
     7
 10
-160.7368
 20
-77.89999
 40
0.8
 50
270.0
 51
0.0
  0
ARC
  8
0
  6
CONTINUOUS
 62
     7
 10
-162.4368
 20
-79.69998
 40
0.5
 50
270.0
 51
0.0
  0
ARC
  8
0
  6
CONTINUOUS
 62
     7
 10
-168.4368
 20
-79.69998
 40
0.5
 50
180.0
 51
270.0
  0
ARC
  8
0
  6
CONTINUOUS
 62
     7
 10
-194.9367
 20
133.6774
 40
0.5
 50
180.0
 51
270.0
  0
ARC
  8
0
  6
CONTINUOUS
 62
     7
 10
-168.9367
 20
133.6774
 40
0.5
 50
270.0
 51
0.0
  0
ARC
  8
0
  6
CONTINUOUS
 62
     7
 10
-168.9367
 20
150.6774
 40
0.5
 50
0.0
 51
89.99999
  0
ARC
  8
0
  6
CONTINUOUS
 62
     7
 10
-194.9367
 20
150.6774
 40
0.5
 50
89.99999
 51
180.0
  0
ARC
  8
0
  6
CONTINUOUS
 62
     7
 10
-172.9367
 20
137.6774
 40
3.0
 50
89.99999
 51
180.0
  0
ARC
  8
0
  6
CONTINUOUS
 62
     7
 10
-190.9367
 20
146.6774
 40
3.0
 50
270.0
 51
0.0
  0
ARC
  8
0
  6
CONTINUOUS
 62
     7
 10
-172.9367
 20
137.6774
 40
2.55
 50
276.7564
 51
263.2436
  0
ARC
  8
0
  6
CONTINUOUS
 62
     7
 10
-190.9367
 20
146.6774
 40
2.55
 50
96.7564
 51
83.24359
  0
CIRCLE
  8
0
  6
CONTINUOUS
 62
     7
 10
-172.9367
 20
137.6774
 40
2.25
  0
ARC
  8
0
  6
CONTINUOUS
 62
     7
 10
-172.9367
 20
138.7805
 40
0.51999
 50
225.0
 51
315.0
  0
ARC
  8
0
  6
CONTINUOUS
 62
     7
 10
-174.0398
 20
137.6774
 40
0.51999
 50
315.0
 51
45.0
  0
ARC
  8
0
  6
CONTINUOUS
 62
     7
 10
-171.8336
 20
137.6774
 40
0.51999
 50
135.0
 51
225.0
  0
ARC
  8
0
  6
CONTINUOUS
 62
     7
 10
-172.9367
 20
136.5743
 40
0.51999
 50
45.0
 51
135.0
  0
CIRCLE
  8
0
  6
CONTINUOUS
 62
     7
 10
-190.9367
 20
146.6774
 40
2.25
  0
ARC
  8
0
  6
CONTINUOUS
 62
     7
 10
-190.9367
 20
147.7805
 40
0.51999
 50
225.0
 51
315.0
  0
ARC
  8
0
  6
CONTINUOUS
 62
     7
 10
-192.0398
 20
146.6774
 40
0.51999
 50
315.0
 51
45.0
  0
ARC
  8
0
  6
CONTINUOUS
 62
     7
 10
-189.8336
 20
146.6774
 40
0.51999
 50
135.0
 51
225.0
  0
ARC
  8
0
  6
CONTINUOUS
 62
     7
 10
-190.9367
 20
145.5743
 40
0.51999
 50
45.0
 51
135.0
  0
ARC
  8
0
  6
CONTINUOUS
 62
     7
 10
-193.4367
 20
149.1774
 40
0.5
 50
89.99999
 51
180.0
  0
ARC
  8
0
  6
CONTINUOUS
 62
     7
 10
-193.4367
 20
135.1774
 40
0.5
 50
180.0
 51
270.0
  0
ARC
  8
0
  6
CONTINUOUS
 62
     7
 10
-160.7367
 20
148.3774
 40
0.8
 50
0.0
 51
89.99999
  0
ARC
  8
0
  6
CONTINUOUS
 62
     7
 10
-160.7367
 20
135.9774
 40
0.8
 50
270.0
 51
0.0
  0
ARC
  8
0
  6
CONTINUOUS
 62
     7
 10
-165.4367
 20
143.1774
 40
3.5
 50
0.0
 51
180.0
  0
ARC
  8
0
  6
CONTINUOUS
 62
     7
 10
-165.4367
 20
141.1774
 40
3.5
 50
180.0
 51
0.0
  0
CIRCLE
  8
0
  6
CONTINUOUS
 62
     7
 10
-165.4367
 20
140.6774
 40
0.85
  0
CIRCLE
  8
0
  6
CONTINUOUS
 62
     7
 10
-165.4367
 20
143.6774
 40
0.85
  0
CIRCLE
  8
0
  6
CONTINUOUS
 62
     7
 10
-300.5613
 20
-29.99988
 40
1.6
  0
CIRCLE
  8
0
  6
CONTINUOUS
 62
     7
 10
-313.5613
 20
0.00012
 40
1.6
  0
CIRCLE
  8
0
  6
CONTINUOUS
 62
     7
 10
-307.0613
 20
15.90012
 40
2.65
  0
CIRCLE
  8
0
  6
CONTINUOUS
 62
     7
 10
-306.5613
 20
-1.79987
 40
4.86435
  0
CIRCLE
  8
0
  6
CONTINUOUS
 62
     7
 10
-306.5613
 20
-1.79987
 40
4.28325
  0
CIRCLE
  8
0
  6
CONTINUOUS
 62
     7
 10
-307.5613
 20
-28.19989
 40
4.86435
  0
CIRCLE
  8
0
  6
CONTINUOUS
 62
     7
 10
-307.5613
 20
-28.19989
 40
4.28325
  0
CIRCLE
  8
0
  6
CONTINUOUS
 62
     7
 10
-307.0613
 20
-14.99988
 40
4.86435
  0
CIRCLE
  8
0
  6
CONTINUOUS
 62
     7
 10
-307.0613
 20
-14.99988
 40
4.28325
  0
CIRCLE
  8
0
  6
CONTINUOUS
 62
     7
 10
-307.0613
 20
15.90012
 40
2.0
  0
CIRCLE
  8
0
  6
CONTINUOUS
 62
     7
 10
-307.0613
 20
-45.89987
 40
2.65
  0
CIRCLE
  8
0
  6
CONTINUOUS
 62
     7
 10
-307.0613
 20
-45.89987
 40
2.0
  0
ARC
  8
0
  6
CONTINUOUS
 62
     7
 10
-310.5076
 20
45.15344
 40
0.35345
 50
0.0
 51
89.99999
  0
ARC
  8
0
  6
CONTINUOUS
 62
     7
 10
-307.5916
 20
43.25357
 40
0.35346
 50
270.0
 51
0.0
  0
ARC
  8
0
  6
CONTINUOUS
 62
     7
 10
-307.7682
 20
44.97672
 40
0.53018
 50
0.0
 51
89.99999
  0
ARC
  8
0
  6
CONTINUOUS
 62
     7
 10
-304.5429
 20
45.15344
 40
0.35345
 50
0.0
 51
89.99999
  0
ARC
  8
0
  6
CONTINUOUS
 62
     7
 10
-304.5429
 20
44.87105
 40
0.35347
 50
295.0005
 51
0.0
  0
ARC
  8
0
  6
CONTINUOUS
 62
     7
 10
-301.8036
 20
45.5069
 40
0.53019
 50
291.6869
 51
0.0
  0
ARC
  8
0
  6
CONTINUOUS
 62
     7
 10
-301.9803
 20
45.6268
 40
0.17673
 50
291.687
 51
0.0
  0
ARC
  8
0
  6
CONTINUOUS
 62
     7
 10
-313.0114
 20
51.69385
 40
0.8
 50
106.1918
 51
180.0
  0
ARC
  8
0
  6
CONTINUOUS
 62
     7
 10
-311.5613
 20
46.7001
 40
6.0
 50
73.80876
 51
106.1912
  0
ARC
  8
0
  6
CONTINUOUS
 62
     7
 10
-310.1113
 20
51.69385
 40
0.79999
 50
0.0
 51
73.8082
  0
ARC
  8
0
  6
CONTINUOUS
 62
     7
 10
-302.5613
 20
46.7001
 40
6.0
 50
73.80876
 51
106.1912
  0
ARC
  8
0
  6
CONTINUOUS
 62
     7
 10
-304.0114
 20
51.69385
 40
0.8
 50
106.1918
 51
118.0148
  0
ARC
  8
0
  6
CONTINUOUS
 62
     7
 10
-301.1113
 20
51.69385
 40
0.80001
 50
61.98524
 51
73.8082
  0
ARC
  8
0
  6
CONTINUOUS
 62
     7
 10
-303.6151
 20
-75.1532
 40
0.35345
 50
180.0
 51
270.0
  0
ARC
  8
0
  6
CONTINUOUS
 62
     7
 10
-306.5311
 20
-73.25333
 40
0.35346
 50
89.99999
 51
180.0
  0
ARC
  8
0
  6
CONTINUOUS
 62
     7
 10
-306.3544
 20
-74.97647
 40
0.53018
 50
180.0
 51
270.0
  0
ARC
  8
0
  6
CONTINUOUS
 62
     7
 10
-309.5798
 20
-75.1532
 40
0.35345
 50
180.0
 51
270.0
  0
ARC
  8
0
  6
CONTINUOUS
 62
     7
 10
-309.5798
 20
-74.87082
 40
0.35346
 50
115.0008
 51
180.0
  0
ARC
  8
0
  6
CONTINUOUS
 62
     7
 10
-312.3191
 20
-75.50665
 40
0.53019
 50
111.6869
 51
180.0
  0
ARC
  8
0
  6
CONTINUOUS
 62
     7
 10
-312.1423
 20
-75.62656
 40
0.17673
 50
111.6866
 51
180.0
  0
ARC
  8
0
  6
CONTINUOUS
 62
     7
 10
-301.1113
 20
-81.6936
 40
0.80001
 50
286.1917
 51
0.0
  0
ARC
  8
0
  6
CONTINUOUS
 62
     7
 10
-302.5613
 20
-76.69986
 40
6.0
 50
253.8088
 51
286.1912
  0
ARC
  8
0
  6
CONTINUOUS
 62
     7
 10
-304.0114
 20
-81.6936
 40
0.79999
 50
180.0
 51
253.8083
  0
ARC
  8
0
  6
CONTINUOUS
 62
     7
 10
-311.5613
 20
-76.69986
 40
6.0
 50
253.8088
 51
286.1912
  0
ARC
  8
0
  6
CONTINUOUS
 62
     7
 10
-310.1113
 20
-81.6936
 40
0.80001
 50
286.1917
 51
298.0128
  0
ARC
  8
0
  6
CONTINUOUS
 62
     7
 10
-313.0114
 20
-81.6936
 40
0.80001
 50
241.9852
 51
253.8083
  0
CIRCLE
  8
0
  6
CONTINUOUS
 62
     7
 10
-49.31221
 20
-29.99991
 40
1.6
  0
CIRCLE
  8
0
  6
CONTINUOUS
 62
     7
 10
-36.31221
 20
0.00011
 40
1.6
  0
ARC
  8
0
  6
CONTINUOUS
 62
     7
 10
-36.31221
 20
0.00011
 40
3.0
 50
33.55732
 51
326.4427
  0
ARC
  8
0
  6
CONTINUOUS
 62
     7
 10
-49.31221
 20
-29.99991
 40
3.0
 50
0.0
 51
146.4427
  0
ARC
  8
0
  6
CONTINUOUS
 62
     7
 10
-49.31221
 20
-29.99991
 40
3.0
 50
213.5573
 51
0.0
  0
CIRCLE
  8
0
  6
CONTINUOUS
 62
     7
 10
-42.81221
 20
20.7001
 40
1.65
  0
CIRCLE
  8
0
  6
CONTINUOUS
 62
     7
 10
-43.31221
 20
-22.99991
 40
4.86435
  0
CIRCLE
  8
0
  6
CONTINUOUS
 62
     7
 10
-43.31221
 20
-22.99991
 40
4.28325
  0
CIRCLE
  8
0
  6
CONTINUOUS
 62
     7
 10
-42.31221
 20
-6.99991
 40
4.86435
  0
CIRCLE
  8
0
  6
CONTINUOUS
 62
     7
 10
-42.31221
 20
-6.99991
 40
4.28325
  0
CIRCLE
  8
0
  6
CONTINUOUS
 62
     7
 10
-42.81221
 20
-50.69989
 40
1.65
  0
ARC
  8
0
  6
CONTINUOUS
 62
     7
 10
-49.01221
 20
25.00011
 40
0.8
 50
180.0
 51
270.0
  0
ARC
  8
0
  6
CONTINUOUS
 62
     7
 10
-36.61221
 20
25.00011
 40
0.8
 50
270.0
 51
0.0
  0
ARC
  8
0
  6
CONTINUOUS
 62
     7
 10
-47.31221
 20
46.7001
 40
6.0
 50
73.80869
 51
106.1913
  0
ARC
  8
0
  6
CONTINUOUS
 62
     7
 10
-45.86221
 20
51.69385
 40
0.8
 50
28.9544
 51
73.80872
  0
ARC
  8
0
  6
CONTINUOUS
 62
     7
 10
-48.76221
 20
51.69385
 40
0.8
 50
106.1913
 51
180.0
  0
ARC
  8
0
  6
CONTINUOUS
 62
     7
 10
-38.31221
 20
46.7001
 40
6.0
 50
73.80865
 51
106.1913
  0
ARC
  8
0
  6
CONTINUOUS
 62
     7
 10
-39.76221
 20
51.69385
 40
0.8
 50
106.1913
 51
118.0138
  0
ARC
  8
0
  6
CONTINUOUS
 62
     7
 10
-36.86221
 20
51.69385
 40
0.8
 50
61.98621
 51
73.80872
  0
ARC
  8
0
  6
CONTINUOUS
 62
     7
 10
-49.01221
 20
47.90012
 40
0.8
 50
89.99999
 51
180.0
  0
ARC
  8
0
  6
CONTINUOUS
 62
     7
 10
-36.61221
 20
47.90012
 40
0.8
 50
0.0
 51
89.99999
  0
ARC
  8
0
  6
CONTINUOUS
 62
     7
 10
-46.81221
 20
49.7001
 40
0.5
 50
89.99999
 51
180.0
  0
ARC
  8
0
  6
CONTINUOUS
 62
     7
 10
-38.81221
 20
49.7001
 40
0.5
 50
0.0
 51
89.99999
  0
ARC
  8
0
  6
CONTINUOUS
 62
     7
 10
-36.61221
 20
-54.99988
 40
0.8
 50
0.0
 51
89.99999
  0
ARC
  8
0
  6
CONTINUOUS
 62
     7
 10
-49.01221
 20
-54.99988
 40
0.8
 50
89.99999
 51
180.0
  0
ARC
  8
0
  6
CONTINUOUS
 62
     7
 10
-38.31221
 20
-76.69986
 40
6.0
 50
253.8087
 51
286.1913
  0
ARC
  8
0
  6
CONTINUOUS
 62
     7
 10
-39.76221
 20
-81.69363
 40
0.8
 50
208.9544
 51
253.8088
  0
ARC
  8
0
  6
CONTINUOUS
 62
     7
 10
-36.86221
 20
-81.69363
 40
0.8
 50
286.1912
 51
0.0
  0
ARC
  8
0
  6
CONTINUOUS
 62
     7
 10
-47.31221
 20
-76.69986
 40
6.0
 50
253.8086
 51
286.1913
  0
ARC
  8
0
  6
CONTINUOUS
 62
     7
 10
-45.86221
 20
-81.69363
 40
0.8
 50
286.1912
 51
298.0138
  0
ARC
  8
0
  6
CONTINUOUS
 62
     7
 10
-48.76221
 20
-81.69363
 40
0.8
 50
241.9862
 51
253.8088
  0
ARC
  8
0
  6
CONTINUOUS
 62
     7
 10
-36.61221
 20
-77.89987
 40
0.8
 50
270.0
 51
0.0
  0
ARC
  8
0
  6
CONTINUOUS
 62
     7
 10
-49.01221
 20
-77.89987
 40
0.8
 50
180.0
 51
270.0
  0
ARC
  8
0
  6
CONTINUOUS
 62
     7
 10
-38.81221
 20
-79.69989
 40
0.5
 50
270.0
 51
0.0
  0
ARC
  8
0
  6
CONTINUOUS
 62
     7
 10
-46.81221
 20
-79.69989
 40
0.5
 50
180.0
 51
270.0
  0
ARC
  8
0
  6
CONTINUOUS
 62
     7
 10
-194.9367
 20
-189.2791
 40
0.5
 50
180.0
 51
270.0
  0
ARC
  8
0
  6
CONTINUOUS
 62
     7
 10
-168.9367
 20
-189.2791
 40
0.5
 50
270.0
 51
0.0
  0
ARC
  8
0
  6
CONTINUOUS
 62
     7
 10
-168.9367
 20
-172.2791
 40
0.5
 50
0.0
 51
89.99999
  0
ARC
  8
0
  6
CONTINUOUS
 62
     7
 10
-194.9367
 20
-172.2791
 40
0.5
 50
89.99999
 51
180.0
  0
ARC
  8
0
  6
CONTINUOUS
 62
     7
 10
-172.9367
 20
-185.2791
 40
3.0
 50
89.99999
 51
180.0
  0
ARC
  8
0
  6
CONTINUOUS
 62
     7
 10
-190.9367
 20
-176.2791
 40
3.0
 50
270.0
 51
0.0
  0
ARC
  8
0
  6
CONTINUOUS
 62
     7
 10
-172.9367
 20
-185.2791
 40
2.55
 50
276.7564
 51
263.2436
  0
ARC
  8
0
  6
CONTINUOUS
 62
     7
 10
-190.9367
 20
-176.2791
 40
2.55
 50
96.7564
 51
83.24359
  0
CIRCLE
  8
0
  6
CONTINUOUS
 62
     7
 10
-172.9367
 20
-185.2791
 40
2.25
  0
ARC
  8
0
  6
CONTINUOUS
 62
     7
 10
-172.9367
 20
-184.176
 40
0.51999
 50
225.0
 51
315.0
  0
ARC
  8
0
  6
CONTINUOUS
 62
     7
 10
-174.0398
 20
-185.2791
 40
0.51999
 50
315.0
 51
45.0
  0
ARC
  8
0
  6
CONTINUOUS
 62
     7
 10
-171.8336
 20
-185.2791
 40
0.51999
 50
135.0
 51
225.0
  0
ARC
  8
0
  6
CONTINUOUS
 62
     7
 10
-172.9367
 20
-186.3821
 40
0.51999
 50
45.0
 51
135.0
  0
CIRCLE
  8
0
  6
CONTINUOUS
 62
     7
 10
-190.9367
 20
-176.2791
 40
2.25
  0
ARC
  8
0
  6
CONTINUOUS
 62
     7
 10
-190.9367
 20
-175.176
 40
0.51999
 50
225.0
 51
315.0
  0
ARC
  8
0
  6
CONTINUOUS
 62
     7
 10
-192.0398
 20
-176.2791
 40
0.51999
 50
315.0
 51
45.0
  0
ARC
  8
0
  6
CONTINUOUS
 62
     7
 10
-189.8336
 20
-176.2791
 40
0.51999
 50
135.0
 51
225.0
  0
ARC
  8
0
  6
CONTINUOUS
 62
     7
 10
-190.9367
 20
-177.3821
 40
0.51999
 50
45.0
 51
135.0
  0
ARC
  8
0
  6
CONTINUOUS
 62
     7
 10
-193.4367
 20
-173.7791
 40
0.5
 50
89.99999
 51
180.0
  0
ARC
  8
0
  6
CONTINUOUS
 62
     7
 10
-193.4367
 20
-187.7791
 40
0.5
 50
180.0
 51
270.0
  0
ARC
  8
0
  6
CONTINUOUS
 62
     7
 10
-160.7367
 20
-174.579
 40
0.8
 50
0.0
 51
89.99999
  0
ARC
  8
0
  6
CONTINUOUS
 62
     7
 10
-160.7367
 20
-186.9791
 40
0.8
 50
270.0
 51
0.0
  0
ARC
  8
0
  6
CONTINUOUS
 62
     7
 10
-165.4367
 20
-179.7791
 40
3.5
 50
0.0
 51
180.0
  0
ARC
  8
0
  6
CONTINUOUS
 62
     7
 10
-165.4367
 20
-181.7791
 40
3.5
 50
180.0
 51
0.0
  0
CIRCLE
  8
0
  6
CONTINUOUS
 62
     7
 10
-165.4367
 20
-182.2791
 40
0.85
  0
CIRCLE
  8
0
  6
CONTINUOUS
 62
     7
 10
-165.4367
 20
-179.2791
 40
0.85
  0
ARC
  8
0
  6
CONTINUOUS
 62
     7
 10
160.4371
 20
148.1773
 40
0.5
 50
89.99999
 51
180.0
  0
ARC
  8
0
  6
CONTINUOUS
 62
     7
 10
160.4371
 20
122.1773
 40
0.5
 50
180.0
 51
270.0
  0
ARC
  8
0
  6
CONTINUOUS
 62
     7
 10
177.4371
 20
122.1773
 40
0.5
 50
270.0
 51
0.0
  0
ARC
  8
0
  6
CONTINUOUS
 62
     7
 10
177.4371
 20
148.1773
 40
0.5
 50
0.0
 51
89.99999
  0
ARC
  8
0
  6
CONTINUOUS
 62
     7
 10
164.4371
 20
126.1773
 40
3.0
 50
0.0
 51
89.99999
  0
ARC
  8
0
  6
CONTINUOUS
 62
     7
 10
173.4371
 20
144.1773
 40
3.0
 50
180.0
 51
270.0
  0
ARC
  8
0
  6
CONTINUOUS
 62
     7
 10
164.4371
 20
126.1773
 40
2.55
 50
186.7564
 51
173.2438
  0
ARC
  8
0
  6
CONTINUOUS
 62
     7
 10
173.4371
 20
144.1773
 40
2.55
 50
6.75641
 51
353.2436
  0
CIRCLE
  8
0
  6
CONTINUOUS
 62
     7
 10
164.4371
 20
126.1773
 40
2.25
  0
ARC
  8
0
  6
CONTINUOUS
 62
     7
 10
165.5402
 20
126.1773
 40
0.52
 50
134.9994
 51
225.0006
  0
ARC
  8
0
  6
CONTINUOUS
 62
     7
 10
164.4371
 20
127.2803
 40
0.52
 50
225.0006
 51
314.9994
  0
ARC
  8
0
  6
CONTINUOUS
 62
     7
 10
164.4371
 20
125.0742
 40
0.52
 50
45.0006
 51
134.9994
  0
ARC
  8
0
  6
CONTINUOUS
 62
     7
 10
163.334
 20
126.1773
 40
0.52
 50
314.9994
 51
45.0006
  0
CIRCLE
  8
0
  6
CONTINUOUS
 62
     7
 10
173.4371
 20
144.1773
 40
2.25
  0
ARC
  8
0
  6
CONTINUOUS
 62
     7
 10
174.5402
 20
144.1773
 40
0.51999
 50
135.0
 51
225.0
  0
ARC
  8
0
  6
CONTINUOUS
 62
     7
 10
173.4371
 20
145.2803
 40
0.51999
 50
225.0
 51
315.0
  0
ARC
  8
0
  6
CONTINUOUS
 62
     7
 10
173.4371
 20
143.0742
 40
0.51999
 50
45.0
 51
135.0
  0
ARC
  8
0
  6
CONTINUOUS
 62
     7
 10
172.334
 20
144.1773
 40
0.51999
 50
315.0
 51
45.0
  0
ARC
  8
0
  6
CONTINUOUS
 62
     7
 10
175.9371
 20
146.6773
 40
0.5
 50
0.0
 51
89.99999
  0
ARC
  8
0
  6
CONTINUOUS
 62
     7
 10
161.9371
 20
146.6773
 40
0.5
 50
89.99999
 51
180.0
  0
ARC
  8
0
  6
CONTINUOUS
 62
     7
 10
175.1371
 20
113.9772
 40
0.8
 50
270.0
 51
0.0
  0
ARC
  8
0
  6
CONTINUOUS
 62
     7
 10
162.7371
 20
113.9772
 40
0.8
 50
180.0
 51
270.0
  0
ARC
  8
0
  6
CONTINUOUS
 62
     7
 10
169.9371
 20
118.6773
 40
3.5
 50
270.0
 51
89.99999
  0
ARC
  8
0
  6
CONTINUOUS
 62
     7
 10
167.9371
 20
118.6773
 40
3.5
 50
89.99999
 51
270.0
  0
CIRCLE
  8
0
  6
CONTINUOUS
 62
     7
 10
167.4371
 20
118.6773
 40
0.85
  0
CIRCLE
  8
0
  6
CONTINUOUS
 62
     7
 10
170.4371
 20
118.6773
 40
0.85
  0
CIRCLE
  8
0
  6
CONTINUOUS
 62
     7
 10
162.4368
 20
-30.0
 40
1.6
  0
CIRCLE
  8
0
  6
CONTINUOUS
 62
     7
 10
175.4368
 20
0.0
 40
1.6
  0
ARC
  8
0
  6
CONTINUOUS
 62
     7
 10
175.4368
 20
0.0
 40
3.0
 50
33.55732
 51
326.4427
  0
ARC
  8
0
  6
CONTINUOUS
 62
     7
 10
162.4368
 20
-30.0
 40
3.0
 50
0.0
 51
146.4427
  0
ARC
  8
0
  6
CONTINUOUS
 62
     7
 10
162.4368
 20
-30.0
 40
3.0
 50
213.5573
 51
0.0
  0
CIRCLE
  8
0
  6
CONTINUOUS
 62
     7
 10
168.9368
 20
20.7
 40
1.65
  0
CIRCLE
  8
0
  6
CONTINUOUS
 62
     7
 10
168.9368
 20
-50.7
 40
1.65
  0
ARC
  8
0
  6
CONTINUOUS
 62
     7
 10
162.7368
 20
25.0
 40
0.8
 50
180.0
 51
270.0
  0
ARC
  8
0
  6
CONTINUOUS
 62
     7
 10
175.1368
 20
25.0
 40
0.8
 50
270.0
 51
0.0
  0
ARC
  8
0
  6
CONTINUOUS
 62
     7
 10
164.4368
 20
46.7
 40
6.0
 50
73.80862
 51
106.1914
  0
ARC
  8
0
  6
CONTINUOUS
 62
     7
 10
165.8868
 20
51.69374
 40
0.79999
 50
28.95467
 51
73.8082
  0
ARC
  8
0
  6
CONTINUOUS
 62
     7
 10
162.9868
 20
51.69374
 40
0.8
 50
106.1918
 51
180.0
  0
ARC
  8
0
  6
CONTINUOUS
 62
     7
 10
173.4368
 20
46.7
 40
6.0
 50
73.80862
 51
106.1914
  0
ARC
  8
0
  6
CONTINUOUS
 62
     7
 10
171.9868
 20
51.69374
 40
0.8
 50
106.1918
 51
118.0138
  0
ARC
  8
0
  6
CONTINUOUS
 62
     7
 10
174.8868
 20
51.69374
 40
0.8
 50
61.98621
 51
73.8082
  0
ARC
  8
0
  6
CONTINUOUS
 62
     7
 10
162.7368
 20
47.90001
 40
0.8
 50
89.99999
 51
180.0
  0
ARC
  8
0
  6
CONTINUOUS
 62
     7
 10
175.1368
 20
47.90001
 40
0.8
 50
0.0
 51
89.99999
  0
ARC
  8
0
  6
CONTINUOUS
 62
     7
 10
164.9368
 20
49.7
 40
0.5
 50
89.99999
 51
180.0
  0
ARC
  8
0
  6
CONTINUOUS
 62
     7
 10
172.9368
 20
49.7
 40
0.5
 50
0.0
 51
89.99999
  0
ARC
  8
0
  6
CONTINUOUS
 62
     7
 10
175.1368
 20
-55.0
 40
0.8
 50
0.0
 51
89.99999
  0
ARC
  8
0
  6
CONTINUOUS
 62
     7
 10
162.7368
 20
-55.0
 40
0.8
 50
89.99999
 51
180.0
  0
ARC
  8
0
  6
CONTINUOUS
 62
     7
 10
173.4368
 20
-76.7
 40
6.0
 50
253.8086
 51
286.1914
  0
ARC
  8
0
  6
CONTINUOUS
 62
     7
 10
171.9868
 20
-81.69374
 40
0.79999
 50
208.9547
 51
253.8083
  0
ARC
  8
0
  6
CONTINUOUS
 62
     7
 10
174.8868
 20
-81.69374
 40
0.80001
 50
286.1917
 51
0.0
  0
ARC
  8
0
  6
CONTINUOUS
 62
     7
 10
164.4368
 20
-76.7
 40
6.0
 50
253.8086
 51
286.1914
  0
ARC
  8
0
  6
CONTINUOUS
 62
     7
 10
165.8868
 20
-81.69374
 40
0.80001
 50
286.1917
 51
298.0138
  0
ARC
  8
0
  6
CONTINUOUS
 62
     7
 10
162.9868
 20
-81.69374
 40
0.8
 50
241.9862
 51
253.8083
  0
ARC
  8
0
  6
CONTINUOUS
 62
     7
 10
175.1368
 20
-77.90001
 40
0.8
 50
270.0
 51
0.0
  0
ARC
  8
0
  6
CONTINUOUS
 62
     7
 10
162.7368
 20
-77.90001
 40
0.8
 50
180.0
 51
270.0
  0
ARC
  8
0
  6
CONTINUOUS
 62
     7
 10
172.9368
 20
-79.7
 40
0.5
 50
270.0
 51
0.0
  0
ARC
  8
0
  6
CONTINUOUS
 62
     7
 10
164.9368
 20
-79.7
 40
0.5
 50
180.0
 51
270.0
  0
ARC
  8
0
  6
CONTINUOUS
 62
     7
 10
264.3611
 20
25.00008
 40
0.79999
 50
180.0
 51
270.0
  0
ARC
  8
0
  6
CONTINUOUS
 62
     7
 10
294.5611
 20
46.70009
 40
6.0
 50
73.80876
 51
106.1912
  0
ARC
  8
0
  6
CONTINUOUS
 62
     7
 10
296.0111
 20
51.69383
 40
0.79999
 50
0.0
 51
73.8082
  0
ARC
  8
0
  6
CONTINUOUS
 62
     7
 10
293.1111
 20
51.69383
 40
0.8
 50
106.1918
 51
180.0
  0
ARC
  8
0
  6
CONTINUOUS
 62
     7
 10
276.5611
 20
46.70006
 40
6.0
 50
73.80876
 51
106.1912
  0
ARC
  8
0
  6
CONTINUOUS
 62
     7
 10
275.1111
 20
51.6938
 40
0.8
 50
106.1918
 51
118.0148
  0
ARC
  8
0
  6
CONTINUOUS
 62
     7
 10
278.0111
 20
51.6938
 40
0.80001
 50
61.98524
 51
73.8082
  0
ARC
  8
0
  6
CONTINUOUS
 62
     7
 10
264.3611
 20
47.90007
 40
0.8
 50
89.99999
 51
180.0
  0
ARC
  8
0
  6
CONTINUOUS
 62
     7
 10
266.0611
 20
49.70009
 40
0.5
 50
89.99999
 51
180.0
  0
ARC
  8
0
  6
CONTINUOUS
 62
     7
 10
272.0611
 20
49.70009
 40
0.5
 50
0.0
 51
89.99999
  0
ARC
  8
0
  6
CONTINUOUS
 62
     7
 10
264.3611
 20
-54.99992
 40
0.8
 50
89.99999
 51
180.0
  0
ARC
  8
0
  6
CONTINUOUS
 62
     7
 10
276.5611
 20
-76.69992
 40
6.0
 50
253.8088
 51
286.1912
  0
ARC
  8
0
  6
CONTINUOUS
 62
     7
 10
275.1111
 20
-81.69366
 40
0.79999
 50
180.0
 51
253.8083
  0
ARC
  8
0
  6
CONTINUOUS
 62
     7
 10
278.0111
 20
-81.69366
 40
0.80001
 50
286.1917
 51
0.0
  0
ARC
  8
0
  6
CONTINUOUS
 62
     7
 10
294.5611
 20
-76.69991
 40
6.0
 50
253.8088
 51
286.1912
  0
ARC
  8
0
  6
CONTINUOUS
 62
     7
 10
296.0111
 20
-81.69365
 40
0.80001
 50
286.1917
 51
298.0128
  0
ARC
  8
0
  6
CONTINUOUS
 62
     7
 10
293.1111
 20
-81.69365
 40
0.80001
 50
241.9852
 51
253.8083
  0
ARC
  8
0
  6
CONTINUOUS
 62
     7
 10
264.3611
 20
-77.89992
 40
0.79999
 50
180.0
 51
270.0
  0
ARC
  8
0
  6
CONTINUOUS
 62
     7
 10
272.0611
 20
-79.69992
 40
0.5
 50
270.0
 51
0.0
  0
ARC
  8
0
  6
CONTINUOUS
 62
     7
 10
266.0611
 20
-79.69992
 40
0.5
 50
180.0
 51
270.0
  0
ARC
  8
0
  6
CONTINUOUS
 62
     7
 10
76.51198
 20
25.00018
 40
0.8
 50
270.0
 51
0.0
  0
ARC
  8
0
  6
CONTINUOUS
 62
     7
 10
64.31197
 20
46.70018
 40
6.0
 50
73.80869
 51
106.1913
  0
ARC
  8
0
  6
CONTINUOUS
 62
     7
 10
65.76198
 20
51.69392
 40
0.8
 50
0.0
 51
73.80872
  0
ARC
  8
0
  6
CONTINUOUS
 62
     7
 10
62.86198
 20
51.69392
 40
0.8
 50
106.1913
 51
180.0
  0
ARC
  8
0
  6
CONTINUOUS
 62
     7
 10
46.31197
 20
46.70018
 40
6.0
 50
73.80865
 51
106.1913
  0
ARC
  8
0
  6
CONTINUOUS
 62
     7
 10
44.86198
 20
51.69392
 40
0.8
 50
106.1913
 51
118.0138
  0
ARC
  8
0
  6
CONTINUOUS
 62
     7
 10
47.76198
 20
51.69392
 40
0.8
 50
61.98621
 51
73.80872
  0
ARC
  8
0
  6
CONTINUOUS
 62
     7
 10
76.51198
 20
47.90019
 40
0.8
 50
0.0
 51
89.99999
  0
ARC
  8
0
  6
CONTINUOUS
 62
     7
 10
68.81197
 20
49.70018
 40
0.5
 50
89.99999
 51
180.0
  0
ARC
  8
0
  6
CONTINUOUS
 62
     7
 10
74.81197
 20
49.70018
 40
0.5
 50
0.0
 51
89.99999
  0
ARC
  8
0
  6
CONTINUOUS
 62
     7
 10
76.51198
 20
-54.99982
 40
0.8
 50
0.0
 51
89.99999
  0
ARC
  8
0
  6
CONTINUOUS
 62
     7
 10
46.31197
 20
-76.69981
 40
6.0
 50
253.8087
 51
286.1913
  0
ARC
  8
0
  6
CONTINUOUS
 62
     7
 10
44.86198
 20
-81.69356
 40
0.8
 50
180.0
 51
253.8088
  0
ARC
  8
0
  6
CONTINUOUS
 62
     7
 10
47.76198
 20
-81.69356
 40
0.8
 50
286.1912
 51
0.0
  0
ARC
  8
0
  6
CONTINUOUS
 62
     7
 10
64.31197
 20
-76.69981
 40
6.0
 50
253.8086
 51
286.1913
  0
ARC
  8
0
  6
CONTINUOUS
 62
     7
 10
65.76198
 20
-81.69356
 40
0.8
 50
286.1912
 51
298.0138
  0
ARC
  8
0
  6
CONTINUOUS
 62
     7
 10
62.86198
 20
-81.69356
 40
0.8
 50
241.9862
 51
253.8088
  0
ARC
  8
0
  6
CONTINUOUS
 62
     7
 10
76.51198
 20
-77.89983
 40
0.8
 50
270.0
 51
0.0
  0
ARC
  8
0
  6
CONTINUOUS
 62
     7
 10
74.81197
 20
-79.69981
 40
0.5
 50
270.0
 51
0.0
  0
ARC
  8
0
  6
CONTINUOUS
 62
     7
 10
68.81197
 20
-79.69981
 40
0.5
 50
180.0
 51
270.0
  0
ARC
  8
0
  6
CONTINUOUS
 62
     7
 10
177.437
 20
-186.7791
 40
0.5
 50
270.0
 51
0.0
  0
ARC
  8
0
  6
CONTINUOUS
 62
     7
 10
177.437
 20
-160.7791
 40
0.5
 50
0.0
 51
89.99999
  0
ARC
  8
0
  6
CONTINUOUS
 62
     7
 10
160.437
 20
-160.7791
 40
0.5
 50
89.99999
 51
180.0
  0
ARC
  8
0
  6
CONTINUOUS
 62
     7
 10
160.437
 20
-186.7791
 40
0.5
 50
180.0
 51
270.0
  0
ARC
  8
0
  6
CONTINUOUS
 62
     7
 10
173.437
 20
-164.7791
 40
3.0
 50
180.0
 51
270.0
  0
ARC
  8
0
  6
CONTINUOUS
 62
     7
 10
164.437
 20
-182.7792
 40
3.0
 50
0.0
 51
89.99999
  0
ARC
  8
0
  6
CONTINUOUS
 62
     7
 10
173.437
 20
-164.7791
 40
2.55
 50
6.75641
 51
353.2436
  0
ARC
  8
0
  6
CONTINUOUS
 62
     7
 10
164.437
 20
-182.7792
 40
2.55
 50
186.7564
 51
173.2436
  0
CIRCLE
  8
0
  6
CONTINUOUS
 62
     7
 10
173.437
 20
-164.7791
 40
2.25
  0
ARC
  8
0
  6
CONTINUOUS
 62
     7
 10
172.3339
 20
-164.7791
 40
0.51999
 50
315.0
 51
45.0
  0
ARC
  8
0
  6
CONTINUOUS
 62
     7
 10
173.437
 20
-165.8822
 40
0.51999
 50
45.0
 51
135.0
  0
ARC
  8
0
  6
CONTINUOUS
 62
     7
 10
173.437
 20
-163.6761
 40
0.51999
 50
225.0
 51
315.0
  0
ARC
  8
0
  6
CONTINUOUS
 62
     7
 10
174.5401
 20
-164.7791
 40
0.51999
 50
135.0
 51
225.0
  0
CIRCLE
  8
0
  6
CONTINUOUS
 62
     7
 10
164.437
 20
-182.7792
 40
2.25
  0
ARC
  8
0
  6
CONTINUOUS
 62
     7
 10
163.3339
 20
-182.7792
 40
0.51999
 50
315.0
 51
45.0
  0
ARC
  8
0
  6
CONTINUOUS
 62
     7
 10
164.437
 20
-183.8822
 40
0.51999
 50
45.0
 51
135.0
  0
ARC
  8
0
  6
CONTINUOUS
 62
     7
 10
164.437
 20
-181.6761
 40
0.51999
 50
225.0
 51
315.0
  0
ARC
  8
0
  6
CONTINUOUS
 62
     7
 10
165.5401
 20
-182.7792
 40
0.51999
 50
135.0
 51
225.0
  0
ARC
  8
0
  6
CONTINUOUS
 62
     7
 10
161.937
 20
-185.2792
 40
0.5
 50
180.0
 51
270.0
  0
ARC
  8
0
  6
CONTINUOUS
 62
     7
 10
175.937
 20
-185.2792
 40
0.5
 50
270.0
 51
0.0
  0
ARC
  8
0
  6
CONTINUOUS
 62
     7
 10
162.737
 20
-152.5791
 40
0.8
 50
89.99999
 51
180.0
  0
ARC
  8
0
  6
CONTINUOUS
 62
     7
 10
175.137
 20
-152.5791
 40
0.8
 50
0.0
 51
89.99999
  0
ARC
  8
0
  6
CONTINUOUS
 62
     7
 10
167.937
 20
-157.2791
 40
3.5
 50
89.99999
 51
270.0
  0
ARC
  8
0
  6
CONTINUOUS
 62
     7
 10
169.937
 20
-157.2791
 40
3.5
 50
270.0
 51
89.99999
  0
CIRCLE
  8
0
  6
CONTINUOUS
 62
     7
 10
170.437
 20
-157.2791
 40
0.85
  0
CIRCLE
  8
0
  6
CONTINUOUS
 62
     7
 10
167.437
 20
-157.2791
 40
0.85
  0
TEXT
  8
0
  6
CONTINUOUS
 62
     7
 10
-350.9787
 20
200.5946
 40
8.5
  1
MODEL : 180-4E2-L
 41
0.8
  7
STANDARD
  0
TEXT
  8
0
  6
CONTINUOUS
 62
     7
 10
229.0661
 20
236.2625
 40
8.5
  1
DATE : NOV ,1989
 41
0.8
  7
STANDARD
  0
TEXT
  8
0
  6
CONTINUOUS
 62
     7
 10
-362.5531
 20
235.5575
 40
10.0
  1
180 CONNECTOR,-L
 41
0.69402
  7
STANDARD
  0
TEXT
  8
0
  6
CONTINUOUS
 62
     7
 10
19.88928
 20
200.5946
 40
8.5
  1
MODEL : A180-4E2-L
 41
0.8
  7
STANDARD
  0
TEXT
  8
0
  6
CONTINUOUS
 62
     7
 10
-304.8928
 20
-34.93988
 40
2.0
  1
R2
 41
0.8
  7
STANDARD
  0
TEXT
  8
0
  6
CONTINUOUS
 62
     7
 10
-302.8928
 20
-21.93988
 40
2.0
  1
P
 41
0.8
  7
STANDARD
  0
TEXT
  8
0
  6
CONTINUOUS
 62
     7
 10
-312.8928
 20
3.06012
 40
2.0
  1
R1
 41
0.8
  7
STANDARD
  0
TEXT
  8
0
  6
CONTINUOUS
 62
     7
 10
-39.14364
 20
-29.93991
 40
2.0
  1
B
 41
0.8
  7
STANDARD
  0
TEXT
  8
0
  6
CONTINUOUS
 62
     7
 10
-49.08935
 20
-1.93991
 40
2.0
  1
A
 41
0.8
  7
STANDARD
  0
ENDSEC
  0
EOF
