  0
SECTION
  2
HEADER
  9
$ACADVER
  1
AC1002
  9
$INSBASE
 10
0.0
 20
0.0
  9
$EXTMIN
 10
-370.8736
 20
-254.5585
  9
$EXTMAX
 10
370.8736
 20
254.5585
  9
$LIMMIN
 10
0.0
 20
0.0
  9
$LIMMAX
 10
12.0
 20
9.0
  9
$VIEWCTR
 10
28.6093211
 20
0.0
  9
$VIEWSIZE
 40
509.117
  9
$SNAPMODE
 70
     0
  9
$SNAPUNIT
 10
1.0
 20
1.0
  9
$SNAPBASE
 10
0.0
 20
0.0
  9
$SNAPANG
 50
0.0
  9
$SNAPSTYLE
 70
     0
  9
$SNAPISOPAIR
 70
     0
  9
$GRIDMODE
 70
     0
  9
$GRIDUNIT
 10
0.0
 20
0.0
  9
$ORTHOMODE
 70
     0
  9
$REGENMODE
 70
     1
  9
$FILLMODE
 70
     1
  9
$QTEXTMODE
 70
     0
  9
$DRAGMODE
 70
     2
  9
$LTSCALE
 40
1.0
  9
$OSMODE
 70
     0
  9
$ATTMODE
 70
     1
  9
$TEXTSIZE
 40
0.2
  9
$TRACEWID
 40
0.05
  9
$TEXTSTYLE
  7
AAA
  9
$CLAYER
  8
0
  9
$CELTYPE
  6
BYLAYER
  9
$CECOLOR
 62
   256
  9
$DIMSCALE
 40
1.0
  9
$DIMASZ
 40
0.18
  9
$DIMEXO
 40
0.0625
  9
$DIMDLI
 40
0.38
  9
$DIMRND
 40
0.0
  9
$DIMDLE
 40
0.0
  9
$DIMEXE
 40
0.18
  9
$DIMTP
 40
0.0
  9
$DIMTM
 40
0.0
  9
$DIMTXT
 40
0.18
  9
$DIMCEN
 40
0.09
  9
$DIMTSZ
 40
0.0
  9
$DIMTOL
 70
     0
  9
$DIMLIM
 70
     0
  9
$DIMTIH
 70
     1
  9
$DIMTOH
 70
     1
  9
$DIMSE1
 70
     0
  9
$DIMSE2
 70
     0
  9
$DIMTAD
 70
     0
  9
$DIMZIN
 70
     0
  9
$DIMBLK
  1

  9
$LUNITS
 70
     2
  9
$LUPREC
 70
     4
  9
$AXISMODE
 70
     0
  9
$AXISUNIT
 10
0.0
 20
0.0
  9
$SKETCHINC
 40
0.1
  9
$FILLETRAD
 40
0.0
  9
$AUNITS
 70
     0
  9
$AUPREC
 70
     0
  9
$MENU
  1
ACAD
  9
$ELEVATION
 40
0.0
  9
$THICKNESS
 40
0.0
  9
$VIEWDIR
 10
0.0
 20
0.0
 30
1.0
  9
$LIMCHECK
 70
     0
  9
$BLIPMODE
 70
     1
  9
$CHAMFERA
 40
0.0
  9
$CHAMFERB
 40
0.0
  9
$FASTZOOM
 70
     1
  9
$SKPOLY
 70
     0
  9
$TDCREATE
 40
2447881.7502778271
  9
$TDUPDATE
 40
2447881.7502778271
  9
$TDINDWG
 40
0.0019212963
  9
$TDUSRTIMER
 40
0.0019212963
  9
$USRTIMER
 70
     1
  9
$ANGBASE
 50
0.0
  9
$ANGDIR
 70
     0
  9
$PDMODE
 70
     0
  9
$PDSIZE
 40
0.0
  9
$PLINEWID
 40
0.0
  9
$COORDS
 70
     0
  9
$USERI1
 70
     0
  9
$USERI2
 70
     0
  9
$USERI3
 70
     0
  9
$USERI4
 70
     0
  9
$USERI5
 70
     0
  9
$USERR1
 40
0.0
  9
$USERR2
 40
0.0
  9
$USERR3
 40
0.0
  9
$USERR4
 40
0.0
  9
$USERR5
 40
0.0
  0
ENDSEC
  0
SECTION
  2
TABLES
  0
TABLE
  2
LTYPE
 70
     3
  0
LTYPE
  2
CONTINUOUS
 70
    64
  3
SOLID
 72
    65
 73
     0
 40
0.0
  0
LTYPE
  2
CENTER
 70
    64
  3
CENTER
 72
    65
 73
     4
 40
2.0
 49
1.25
 49
-0.25
 49
0.25
 49
-0.25
  0
LTYPE
  2
PHANTOM
 70
    64
  3
PHANTOM
 72
    65
 73
     6
 40
2.5
 49
1.25
 49
-0.25
 49
0.25
 49
-0.25
 49
0.25
 49
-0.25
  0
ENDTAB
  0
TABLE
  2
LAYER
 70
     1
  0
LAYER
  2
0
 70
    64
 62
     7
  6
CONTINUOUS
  0
ENDTAB
  0
TABLE
  2
STYLE
 70
     2
  0
STYLE
  2
AAA
 70
     0
 40
0.0
 41
1.0
 50
0.0
 71
     0
 42
0.2
  3
TXT
  4

  0
STYLE
  2
STANDARD
 70
    64
 40
0.0
 41
1.0
 50
0.0
 71
     0
 42
0.2
  3
TXT
  4
BIGFONT
  0
ENDTAB
  0
TABLE
  2
VIEW
 70
     0
  0
ENDTAB
  0
ENDSEC
  0
SECTION
  2
BLOCKS
  0
ENDSEC
  0
SECTION
  2
ENTITIES
  0
POINT
  8
0
  6
CONTINUOUS
 62
     7
 10
-168.4367
 20
148.6775
  0
POINT
  8
0
  6
CONTINUOUS
 62
     7
 10
-195.4367
 20
148.6775
  0
POINT
  8
0
  6
CONTINUOUS
 62
     7
 10
-298.0613
 20
0.00017
  0
POINT
  8
0
  6
CONTINUOUS
 62
     7
 10
-313.5613
 20
0.00017
  0
POINT
  8
0
  6
CONTINUOUS
 62
     7
 10
-307.5613
 20
-28.19983
  0
POINT
  8
0
  6
CONTINUOUS
 62
     7
 10
-307.0613
 20
-14.99985
  0
POINT
  8
0
  6
CONTINUOUS
 62
     7
 10
-306.5613
 20
-1.79984
  0
POINT
  8
0
  6
CONTINUOUS
 62
     7
 10
-195.4368
 20
0.0
  0
POINT
  8
0
  6
CONTINUOUS
 62
     7
 10
-168.4368
 20
0.0
  0
POINT
  8
0
  6
CONTINUOUS
 62
     7
 10
-168.4368
 20
-63.70001
  0
POINT
  8
0
  6
CONTINUOUS
 62
     7
 10
-168.4368
 20
23.5
  0
POINT
  8
0
  6
CONTINUOUS
 62
     7
 10
-36.3123
 20
0.00011
  0
POINT
  8
0
  6
CONTINUOUS
 62
     7
 10
-42.8123
 20
-63.69989
  0
POINT
  8
0
  6
CONTINUOUS
 62
     7
 10
-43.3123
 20
-22.99991
  0
POINT
  8
0
  6
CONTINUOUS
 62
     7
 10
-42.3123
 20
-6.99991
  0
POINT
  8
0
  6
CONTINUOUS
 62
     7
 10
-42.8123
 20
23.50011
  0
POINT
  8
0
  6
CONTINUOUS
 62
     7
 10
-195.4367
 20
-187.279
  0
POINT
  8
0
  6
CONTINUOUS
 62
     7
 10
-168.4367
 20
-187.279
  0
POINT
  8
0
  6
CONTINUOUS
 62
     7
 10
175.4371
 20
148.6773
  0
POINT
  8
0
  6
CONTINUOUS
 62
     7
 10
175.4368
 20
0.0
  0
POINT
  8
0
  6
CONTINUOUS
 62
     7
 10
168.9368
 20
-63.7
  0
POINT
  8
0
  6
CONTINUOUS
 62
     7
 10
168.9368
 20
23.5
  0
POINT
  8
0
  6
CONTINUOUS
 62
     7
 10
299.0609
 20
0.00031
  0
POINT
  8
0
  6
CONTINUOUS
 62
     7
 10
272.061
 20
-63.69969
  0
POINT
  8
0
  6
CONTINUOUS
 62
     7
 10
272.061
 20
23.50031
  0
POINT
  8
0
  6
CONTINUOUS
 62
     7
 10
68.81206
 20
0.00021
  0
POINT
  8
0
  6
CONTINUOUS
 62
     7
 10
41.81206
 20
0.00021
  0
POINT
  8
0
  6
CONTINUOUS
 62
     7
 10
68.812
 20
-63.69978
  0
POINT
  8
0
  6
CONTINUOUS
 62
     7
 10
68.812
 20
23.50021
  0
POINT
  8
0
  6
CONTINUOUS
 62
     7
 10
175.437
 20
-187.2791
  0
LINE
  8
0
  6
CONTINUOUS
 62
     7
 10
218.3292
 20
-225.9564
 11
370.8736
 21
-225.9564
  0
LINE
  8
0
  6
CONTINUOUS
 62
     7
 10
-218.3292
 20
225.9564
 11
-218.3292
 21
254.5585
  0
LINE
  8
0
  6
CONTINUOUS
 62
     7
 10
-370.8736
 20
225.9564
 11
-218.3292
 21
225.9564
  0
LINE
  8
0
  6
CONTINUOUS
 62
     7
 10
-370.8736
 20
254.5585
 11
370.8736
 21
254.5585
  0
LINE
  8
0
  6
CONTINUOUS
 62
     7
 10
-370.8736
 20
-254.5585
 11
370.8736
 21
-254.5585
  0
LINE
  8
0
  6
CONTINUOUS
 62
     7
 10
370.8736
 20
254.5585
 11
370.8736
 21
-254.5585
  0
LINE
  8
0
  6
CONTINUOUS
 62
     7
 10
-370.8736
 20
-254.5585
 11
-370.8736
 21
254.5585
  0
LINE
  8
0
  6
CONTINUOUS
 62
     7
 10
218.3292
 20
-225.9564
 11
218.3292
 21
-254.5585
  0
LINE
  8
0
  6
CONTINUOUS
 62
     7
 10
218.3292
 20
254.5585
 11
218.3292
 21
225.9564
  0
LINE
  8
0
  6
CONTINUOUS
 62
     7
 10
218.3292
 20
225.9564
 11
370.8736
 21
225.9564
  0
LINE
  8
0
  6
CONTINUOUS
 62
     7
 10
258.3816
 20
-232.8337
 11
258.3816
 21
-236.1516
  0
LINE
  8
0
  6
CONTINUOUS
 62
     7
 10
258.3816
 20
-236.1516
 11
270.8235
 21
-236.1516
  0
LINE
  8
0
  6
CONTINUOUS
 62
     7
 10
258.3816
 20
-249.1465
 11
275.2473
 21
-249.1465
  0
LINE
  8
0
  6
CONTINUOUS
 62
     7
 10
258.3816
 20
-245.8286
 11
270.8235
 21
-245.8286
  0
LINE
  8
0
  6
CONTINUOUS
 62
     7
 10
258.3816
 20
-232.8337
 11
273.0354
 21
-232.8337
  0
LINE
  8
0
  6
CONTINUOUS
 62
     7
 10
270.8235
 20
-236.1516
 11
270.8235
 21
-245.8286
  0
LINE
  8
0
  6
CONTINUOUS
 62
     7
 10
275.2473
 20
-235.0457
 11
275.2473
 21
-249.1465
  0
LINE
  8
0
  6
CONTINUOUS
 62
     7
 10
258.3816
 20
-245.8286
 11
258.3816
 21
-249.1465
  0
LINE
  8
0
  6
CONTINUOUS
 62
     7
 10
293.4954
 20
-236.1516
 11
293.4954
 21
-246.9346
  0
LINE
  8
0
  6
CONTINUOUS
 62
     7
 10
277.7357
 20
-232.8337
 11
277.7357
 21
-236.1516
  0
LINE
  8
0
  6
CONTINUOUS
 62
     7
 10
293.9378
 20
-232.585
 11
295.5138
 21
-232.585
  0
LINE
  8
0
  6
CONTINUOUS
 62
     7
 10
293.9378
 20
-230.373
 11
295.5138
 21
-230.373
  0
LINE
  8
0
  6
CONTINUOUS
 62
     7
 10
295.5138
 20
-230.373
 11
295.5138
 21
-232.585
  0
LINE
  8
0
  6
CONTINUOUS
 62
     7
 10
293.9378
 20
-230.373
 11
293.9378
 21
-232.585
  0
LINE
  8
0
  6
CONTINUOUS
 62
     7
 10
293.1083
 20
-230.373
 11
293.1083
 21
-232.585
  0
LINE
  8
0
  6
CONTINUOUS
 62
     7
 10
282.7661
 20
-230.373
 11
286.2009
 21
-230.373
  0
LINE
  8
0
  6
CONTINUOUS
 62
     7
 10
285.5413
 20
-232.8335
 11
286.2006
 21
-230.3727
  0
LINE
  8
0
  6
CONTINUOUS
 62
     7
 10
282.1067
 20
-232.8337
 11
282.766
 21
-230.373
  0
LINE
  8
0
  6
CONTINUOUS
 62
     7
 10
285.5416
 20
-232.8337
 11
290.1776
 21
-232.8337
  0
LINE
  8
0
  6
CONTINUOUS
 62
     7
 10
284.6526
 20
-236.1516
 11
289.0716
 21
-236.1516
  0
LINE
  8
0
  6
CONTINUOUS
 62
     7
 10
286.6429
 20
-249.1465
 11
291.2836
 21
-249.1465
  0
LINE
  8
0
  6
CONTINUOUS
 62
     7
 10
285.7537
 20
-245.8286
 11
286.6427
 21
-249.1463
  0
LINE
  8
0
  6
CONTINUOUS
 62
     7
 10
285.7538
 20
-245.8286
 11
289.0716
 21
-245.8286
  0
LINE
  8
0
  6
CONTINUOUS
 62
     7
 10
281.1707
 20
-249.1466
 11
284.6527
 21
-236.1517
  0
LINE
  8
0
  6
CONTINUOUS
 62
     7
 10
277.7357
 20
-236.1516
 11
281.2177
 21
-236.1516
  0
LINE
  8
0
  6
CONTINUOUS
 62
     7
 10
277.7354
 20
-249.1462
 11
281.2175
 21
-236.1513
  0
LINE
  8
0
  6
CONTINUOUS
 62
     7
 10
277.7357
 20
-249.1465
 11
281.1706
 21
-249.1465
  0
LINE
  8
0
  6
CONTINUOUS
 62
     7
 10
277.7357
 20
-232.8337
 11
282.1067
 21
-232.8337
  0
LINE
  8
0
  6
CONTINUOUS
 62
     7
 10
289.0716
 20
-236.1516
 11
289.0716
 21
-245.8286
  0
LINE
  8
0
  6
CONTINUOUS
 62
     7
 10
291.5323
 20
-230.373
 11
293.1083
 21
-230.373
  0
LINE
  8
0
  6
CONTINUOUS
 62
     7
 10
291.5323
 20
-232.585
 11
293.1083
 21
-232.585
  0
LINE
  8
0
  6
CONTINUOUS
 62
     7
 10
291.5323
 20
-230.373
 11
291.5323
 21
-232.585
  0
LINE
  8
0
  6
CONTINUOUS
 62
     7
 10
301.5135
 20
-230.373
 11
305.9373
 21
-230.373
  0
LINE
  8
0
  6
CONTINUOUS
 62
     7
 10
308.3423
 20
-240.1951
 11
311.2962
 21
-238.8176
  0
LINE
  8
0
  6
CONTINUOUS
 62
     7
 10
305.9373
 20
-242.7344
 11
305.9373
 21
-249.1465
  0
LINE
  8
0
  6
CONTINUOUS
 62
     7
 10
301.5135
 20
-243.379
 11
301.5135
 21
-249.1465
  0
LINE
  8
0
  6
CONTINUOUS
 62
     7
 10
305.9373
 20
-232.8337
 11
310.3611
 21
-232.8337
  0
LINE
  8
0
  6
CONTINUOUS
 62
     7
 10
305.9373
 20
-230.373
 11
305.9373
 21
-232.8337
  0
LINE
  8
0
  6
CONTINUOUS
 62
     7
 10
301.5135
 20
-230.373
 11
301.5135
 21
-232.8337
  0
LINE
  8
0
  6
CONTINUOUS
 62
     7
 10
312.573
 20
-235.0457
 11
312.573
 21
-236.8128
  0
LINE
  8
0
  6
CONTINUOUS
 62
     7
 10
308.3424
 20
-240.195
 11
312.5734
 21
-242.168
  0
LINE
  8
0
  6
CONTINUOUS
 62
     7
 10
305.9373
 20
-242.7343
 11
312.5731
 21
-245.8286
  0
LINE
  8
0
  6
CONTINUOUS
 62
     7
 10
296.2603
 20
-242.1678
 11
296.2603
 21
-245.8286
  0
LINE
  8
0
  6
CONTINUOUS
 62
     7
 10
296.2607
 20
-242.1682
 11
309.1626
 21
-236.1519
  0
LINE
  8
0
  6
CONTINUOUS
 62
     7
 10
296.2603
 20
-245.8286
 11
301.5136
 21
-243.3789
  0
LINE
  8
0
  6
CONTINUOUS
 62
     7
 10
312.573
 20
-242.1678
 11
312.573
 21
-245.8286
  0
LINE
  8
0
  6
CONTINUOUS
 62
     7
 10
296.2603
 20
-232.8337
 11
296.2603
 21
-236.1516
  0
LINE
  8
0
  6
CONTINUOUS
 62
     7
 10
301.5135
 20
-249.1465
 11
305.9373
 21
-249.1465
  0
LINE
  8
0
  6
CONTINUOUS
 62
     7
 10
296.2603
 20
-236.1516
 11
309.1621
 21
-236.1516
  0
LINE
  8
0
  6
CONTINUOUS
 62
     7
 10
296.2603
 20
-232.8337
 11
301.5135
 21
-232.8337
  0
LINE
  8
0
  6
CONTINUOUS
 62
     7
 10
327.504
 20
-236.4047
 11
328.73
 21
-235.9171
  0
LINE
  8
0
  6
CONTINUOUS
 62
     7
 10
327.5034
 20
-236.4044
 11
327.5034
 21
-249.1465
  0
LINE
  8
0
  6
CONTINUOUS
 62
     7
 10
323.0795
 20
-249.1465
 11
327.5034
 21
-249.1465
  0
LINE
  8
0
  6
CONTINUOUS
 62
     7
 10
313.9553
 20
-241.7925
 11
323.0794
 21
-238.1637
  0
LINE
  8
0
  6
CONTINUOUS
 62
     7
 10
313.9555
 20
-238.222
 11
326.8062
 21
-233.1111
  0
LINE
  8
0
  6
CONTINUOUS
 62
     7
 10
323.0795
 20
-238.1638
 11
323.0795
 21
-249.1465
  0
LINE
  8
0
  6
CONTINUOUS
 62
     7
 10
327.5034
 20
-231.3684
 11
327.5034
 21
-232.0834
  0
LINE
  8
0
  6
CONTINUOUS
 62
     7
 10
330.8211
 20
-231.3684
 11
330.8211
 21
-232.8338
  0
LINE
  8
0
  6
CONTINUOUS
 62
     7
 10
313.9554
 20
-238.2219
 11
313.9554
 21
-241.7925
  0
LINE
  8
0
  6
CONTINUOUS
 62
     7
 10
327.5034
 20
-231.3684
 11
330.8211
 21
-231.3684
  0
LINE
  8
0
  6
CONTINUOUS
 62
     7
 10
0.0
 20
254.5585
 11
0.0
 21
-254.5585
  0
LINE
  8
0
  6
CENTER
 62
     2
 10
-181.9368
 20
58.74336
 11
-181.9368
 21
-100.5
  0
LINE
  8
0
  6
CONTINUOUS
 62
     7
 10
-168.4368
 20
26.0
 11
-168.4368
 21
-66.19998
  0
LINE
  8
0
  6
CONTINUOUS
 62
     7
 10
-195.4368
 20
26.0
 11
-195.4368
 21
-66.19998
  0
LINE
  8
0
  6
CONTINUOUS
 62
     7
 10
-195.4368
 20
-36.0
 11
-168.4368
 21
-36.0
  0
LINE
  8
0
  6
CONTINUOUS
 62
     7
 10
-195.4368
 20
6.0
 11
-168.4368
 21
6.0
  0
LINE
  8
0
  6
CONTINUOUS
 62
     7
 10
-194.4368
 20
27.00006
 11
-195.4368
 21
26.00006
  0
LINE
  8
0
  6
CONTINUOUS
 62
     7
 10
-169.4368
 20
27.00001
 11
-168.4368
 21
25.99998
  0
LINE
  8
0
  6
CONTINUOUS
 62
     7
 10
-171.4368
 20
-28.34167
 11
-168.4368
 21
-28.34167
  0
LINE
  8
0
  6
CONTINUOUS
 62
     7
 10
-171.4368
 20
-31.65833
 11
-168.4368
 21
-31.65833
  0
LINE
  8
0
  6
CONTINUOUS
 62
     7
 10
-171.4368
 20
-28.34167
 11
-171.4368
 21
-31.65833
  0
LINE
  8
0
  6
CONTINUOUS
 62
     7
 10
-194.4368
 20
27.0
 11
-160.7368
 21
27.0
  0
LINE
  8
0
  6
CONTINUOUS
 62
     7
 10
-195.4368
 20
26.0
 11
-168.4368
 21
26.0
  0
LINE
  8
0
  6
CONTINUOUS
 62
     7
 10
-195.4368
 20
-66.19999
 11
-194.4368
 21
-67.19999
  0
LINE
  8
0
  6
CONTINUOUS
 62
     7
 10
-168.4368
 20
-66.19998
 11
-169.4368
 21
-67.19997
  0
LINE
  8
0
  6
CONTINUOUS
 62
     7
 10
-195.4368
 20
-66.20001
 11
-168.4368
 21
-66.20001
  0
LINE
  8
0
  6
CONTINUOUS
 62
     7
 10
-194.4368
 20
-67.20001
 11
-160.7368
 21
-67.20001
  0
LINE
  8
0
  6
CENTER
 62
     2
 10
-174.4368
 20
3.20863
 11
-174.4368
 21
-3.15509
  0
LINE
  8
0
  6
CENTER
 62
     2
 10
-177.4665
 20
-30.0
 11
-167.453
 21
-30.0
  0
LINE
  8
0
  6
CENTER
 62
     2
 10
-177.4665
 20
0.0
 11
-171.3836
 21
0.0
  0
LINE
  8
0
  6
CENTER
 62
     2
 10
-174.4368
 20
-27.11261
 11
-174.4368
 21
-33.10199
  0
LINE
  8
0
  6
CONTINUOUS
 62
     7
 10
-193.9368
 20
52.2
 11
-169.9368
 21
52.2
  0
LINE
  8
0
  6
CONTINUOUS
 62
     7
 10
-193.9368
 20
53.2
 11
-193.9368
 21
27.0
  0
LINE
  8
0
  6
CONTINUOUS
 62
     7
 10
-169.9368
 20
53.2
 11
-169.9368
 21
27.0
  0
LINE
  8
0
  6
CONTINUOUS
 62
     7
 10
-159.9368
 20
50.7
 11
-159.9368
 21
27.8
  0
LINE
  8
0
  6
CONTINUOUS
 62
     7
 10
-192.9368
 20
55.2
 11
-174.7626
 21
55.2
  0
LINE
  8
0
  6
CONTINUOUS
 62
     7
 10
-193.9368
 20
53.2
 11
-169.9368
 21
53.2
  0
LINE
  8
0
  6
CONTINUOUS
 62
     7
 10
-193.9368
 20
53.20003
 11
-192.9368
 21
55.20003
  0
LINE
  8
0
  6
CONTINUOUS
 62
     7
 10
-169.9368
 20
53.19997
 11
-170.9368
 21
55.19998
  0
LINE
  8
0
  6
CONTINUOUS
 62
     7
 10
-175.9368
 20
55.2
 11
-175.9368
 21
53.2
  0
LINE
  8
0
  6
CENTER
 62
     2
 10
-172.9368
 20
58.20001
 11
-172.9368
 21
49.2
  0
LINE
  8
0
  6
CONTINUOUS
 62
     7
 10
-170.3868
 20
53.8
 11
-175.4868
 21
53.8
  0
LINE
  8
0
  6
CONTINUOUS
 62
     7
 10
-173.2368
 20
53.20001
 11
-173.3975
 21
53.8
  0
LINE
  8
0
  6
CONTINUOUS
 62
     7
 10
-172.6367
 20
53.80006
 11
-172.4759
 21
53.20007
  0
LINE
  8
0
  6
CONTINUOUS
 62
     7
 10
-170.3868
 20
53.79999
 11
-170.3868
 21
53.2
  0
LINE
  8
0
  6
CONTINUOUS
 62
     7
 10
-175.4868
 20
53.8
 11
-175.4868
 21
53.2
  0
LINE
  8
0
  6
CONTINUOUS
 62
     7
 10
-170.6868
 20
54.49374
 11
-170.6868
 21
53.8
  0
LINE
  8
0
  6
CONTINUOUS
 62
     7
 10
-175.1868
 20
54.49374
 11
-175.1868
 21
53.79999
  0
LINE
  8
0
  6
CONTINUOUS
 62
     7
 10
-171.111
 20
55.2
 11
-170.9368
 21
55.2
  0
LINE
  8
0
  6
CENTER
 62
     2
 10
-190.9368
 20
58.20001
 11
-190.9368
 21
49.2
  0
LINE
  8
0
  6
CENTER
 62
     2
 10
-165.4368
 20
76.0
 11
-165.4368
 21
48.5
  0
LINE
  8
0
  6
CONTINUOUS
 62
     7
 10
-166.2868
 20
63.0
 11
-166.2868
 21
59.00421
  0
LINE
  8
0
  6
CONTINUOUS
 62
     7
 10
-164.5868
 20
63.0
 11
-164.5868
 21
58.54871
  0
LINE
  8
0
  6
CONTINUOUS
 62
     7
 10
-165.7568
 20
73.0
 11
-165.7568
 21
63.0
  0
LINE
  8
0
  6
CONTINUOUS
 62
     7
 10
-165.1168
 20
73.0
 11
-165.1168
 21
63.0
  0
LINE
  8
0
  6
CONTINUOUS
 62
     7
 10
-164.5868
 20
63.0
 11
-166.2868
 21
63.0
  0
LINE
  8
0
  6
CONTINUOUS
 62
     7
 10
-165.1168
 20
73.0
 11
-165.7568
 21
73.0
  0
LINE
  8
0
  6
PHANTOM
 62
     2
 10
-168.2868
 20
57.98721
 11
-162.5868
 21
56.45989
  0
LINE
  8
0
  6
PHANTOM
 62
     2
 10
-168.2868
 20
59.54008
 11
-162.5868
 21
58.01278
  0
LINE
  8
0
  6
CONTINUOUS
 62
     7
 10
-164.5868
 20
56.99579
 11
-164.5868
 21
53.0
  0
LINE
  8
0
  6
CONTINUOUS
 62
     7
 10
-166.2868
 20
57.45129
 11
-166.2868
 21
53.0
  0
LINE
  8
0
  6
CONTINUOUS
 62
     7
 10
-168.9368
 20
52.5
 11
-168.9368
 21
51.5
  0
LINE
  8
0
  6
CONTINUOUS
 62
     7
 10
-162.4368
 20
53.0
 11
-168.4368
 21
53.0
  0
LINE
  8
0
  6
CONTINUOUS
 62
     7
 10
-161.9368
 20
52.5
 11
-161.9368
 21
51.5
  0
LINE
  8
0
  6
CONTINUOUS
 62
     7
 10
-169.9368
 20
51.5
 11
-160.7368
 21
51.5
  0
LINE
  8
0
  6
CONTINUOUS
 62
     7
 10
-193.9368
 20
-92.39999
 11
-169.9368
 21
-92.39999
  0
LINE
  8
0
  6
CONTINUOUS
 62
     7
 10
-193.9368
 20
-93.39999
 11
-193.9368
 21
-67.20001
  0
LINE
  8
0
  6
CONTINUOUS
 62
     7
 10
-169.9368
 20
-93.39999
 11
-169.9368
 21
-67.20001
  0
LINE
  8
0
  6
CONTINUOUS
 62
     7
 10
-159.9368
 20
-90.89999
 11
-159.9368
 21
-68.0
  0
LINE
  8
0
  6
CONTINUOUS
 62
     7
 10
-170.9368
 20
-95.39999
 11
-189.111
 21
-95.39999
  0
LINE
  8
0
  6
CONTINUOUS
 62
     7
 10
-193.9368
 20
-93.39999
 11
-169.9368
 21
-93.39999
  0
LINE
  8
0
  6
CONTINUOUS
 62
     7
 10
-169.9368
 20
-93.39996
 11
-170.9368
 21
-95.39996
  0
LINE
  8
0
  6
CONTINUOUS
 62
     7
 10
-193.9368
 20
-93.40001
 11
-192.9368
 21
-95.40002
  0
LINE
  8
0
  6
CONTINUOUS
 62
     7
 10
-187.9368
 20
-95.39999
 11
-187.9368
 21
-93.39999
  0
LINE
  8
0
  6
CENTER
 62
     2
 10
-190.9368
 20
-98.39999
 11
-190.9368
 21
-89.39999
  0
LINE
  8
0
  6
CONTINUOUS
 62
     7
 10
-193.4868
 20
-94.0
 11
-188.3868
 21
-94.0
  0
LINE
  8
0
  6
CONTINUOUS
 62
     7
 10
-190.6369
 20
-93.39999
 11
-190.4761
 21
-93.99998
  0
LINE
  8
0
  6
CONTINUOUS
 62
     7
 10
-191.2368
 20
-94.00005
 11
-191.3976
 21
-93.40005
  0
LINE
  8
0
  6
CONTINUOUS
 62
     7
 10
-193.4868
 20
-94.0
 11
-193.4868
 21
-93.39999
  0
LINE
  8
0
  6
CONTINUOUS
 62
     7
 10
-188.3868
 20
-94.0
 11
-188.3868
 21
-93.39999
  0
LINE
  8
0
  6
CONTINUOUS
 62
     7
 10
-193.1868
 20
-94.69376
 11
-193.1868
 21
-94.0
  0
LINE
  8
0
  6
CONTINUOUS
 62
     7
 10
-188.6868
 20
-94.69376
 11
-188.6868
 21
-94.0
  0
LINE
  8
0
  6
CONTINUOUS
 62
     7
 10
-192.7626
 20
-95.39999
 11
-192.9368
 21
-95.39999
  0
LINE
  8
0
  6
CENTER
 62
     2
 10
-172.9368
 20
-98.39999
 11
-172.9368
 21
-89.39999
  0
LINE
  8
0
  6
CONTINUOUS
 62
     7
 10
-169.9368
 20
-91.70001
 11
-160.7368
 21
-91.70001
  0
LINE
  8
0
  6
CENTER
 62
     2
 10
-165.4368
 20
-116.2
 11
-165.4368
 21
-88.70001
  0
LINE
  8
0
  6
CONTINUOUS
 62
     7
 10
-164.5868
 20
-103.2
 11
-164.5868
 21
-99.20422
  0
LINE
  8
0
  6
CONTINUOUS
 62
     7
 10
-166.2868
 20
-103.2
 11
-166.2868
 21
-98.74869
  0
LINE
  8
0
  6
CONTINUOUS
 62
     7
 10
-165.1168
 20
-113.2
 11
-165.1168
 21
-103.2
  0
LINE
  8
0
  6
CONTINUOUS
 62
     7
 10
-165.7568
 20
-113.2
 11
-165.7568
 21
-103.2
  0
LINE
  8
0
  6
CONTINUOUS
 62
     7
 10
-166.2868
 20
-103.2
 11
-164.5868
 21
-103.2
  0
LINE
  8
0
  6
CONTINUOUS
 62
     7
 10
-165.7568
 20
-113.2
 11
-165.1168
 21
-113.2
  0
LINE
  8
0
  6
PHANTOM
 62
     2
 10
-162.5868
 20
-98.18716
 11
-168.2868
 21
-96.65985
  0
LINE
  8
0
  6
PHANTOM
 62
     2
 10
-162.5868
 20
-99.74007
 11
-168.2867
 21
-98.21276
  0
LINE
  8
0
  6
CONTINUOUS
 62
     7
 10
-166.2868
 20
-97.19577
 11
-166.2868
 21
-93.20001
  0
LINE
  8
0
  6
CONTINUOUS
 62
     7
 10
-164.5868
 20
-97.65131
 11
-164.5868
 21
-93.20001
  0
LINE
  8
0
  6
CONTINUOUS
 62
     7
 10
-161.9368
 20
-92.70001
 11
-161.9368
 21
-91.70001
  0
LINE
  8
0
  6
CONTINUOUS
 62
     7
 10
-168.4368
 20
-93.20001
 11
-162.4368
 21
-93.20001
  0
LINE
  8
0
  6
CONTINUOUS
 62
     7
 10
-168.9368
 20
-92.70001
 11
-168.9368
 21
-91.70001
  0
LINE
  8
0
  6
CONTINUOUS
 62
     7
 10
-169.4367
 20
135.1775
 11
-169.4367
 21
134.1775
  0
LINE
  8
0
  6
CONTINUOUS
 62
     7
 10
-168.4367
 20
149.1775
 11
-168.4367
 21
150.6775
  0
LINE
  8
0
  6
CENTER
 62
     2
 10
-197.8329
 20
142.1775
 11
-157.6355
 21
142.1775
  0
LINE
  8
0
  6
CONTINUOUS
 62
     7
 10
-194.9367
 20
151.1775
 11
-168.9367
 21
151.1775
  0
LINE
  8
0
  6
CONTINUOUS
 62
     7
 10
-194.9367
 20
133.1775
 11
-168.9367
 21
133.1775
  0
LINE
  8
0
  6
CONTINUOUS
 62
     7
 10
-168.4367
 20
133.6775
 11
-168.4367
 21
135.1775
  0
LINE
  8
0
  6
CONTINUOUS
 62
     7
 10
-195.4367
 20
133.6775
 11
-195.4367
 21
150.6775
  0
LINE
  8
0
  6
CENTER
 62
     2
 10
-181.9367
 20
130.4275
 11
-181.9367
 21
154.4049
  0
LINE
  8
0
  6
CONTINUOUS
 62
     7
 10
-194.4366
 20
150.1775
 11
-169.4367
 21
150.1775
  0
LINE
  8
0
  6
CONTINUOUS
 62
     7
 10
-194.4366
 20
134.1775
 11
-169.4367
 21
134.1775
  0
LINE
  8
0
  6
CONTINUOUS
 62
     7
 10
-194.4366
 20
150.1775
 11
-194.4366
 21
134.1775
  0
LINE
  8
0
  6
CONTINUOUS
 62
     7
 10
-169.4367
 20
150.1775
 11
-169.4367
 21
149.1775
  0
LINE
  8
0
  6
CONTINUOUS
 62
     7
 10
-169.4367
 20
134.1774
 11
-168.5831
 21
133.3239
  0
LINE
  8
0
  6
CONTINUOUS
 62
     7
 10
-194.4367
 20
134.1775
 11
-195.2902
 21
133.324
  0
LINE
  8
0
  6
CONTINUOUS
 62
     7
 10
-169.4366
 20
150.1775
 11
-168.5831
 21
151.0311
  0
LINE
  8
0
  6
CONTINUOUS
 62
     7
 10
-194.4366
 20
150.1775
 11
-195.2902
 21
151.0311
  0
LINE
  8
0
  6
CONTINUOUS
 62
     7
 10
-169.9367
 20
149.6775
 11
-169.9367
 21
134.6775
  0
LINE
  8
0
  6
CONTINUOUS
 62
     7
 10
-172.9367
 20
140.6775
 11
-169.9367
 21
140.6775
  0
LINE
  8
0
  6
CONTINUOUS
 62
     7
 10
-190.9367
 20
143.6775
 11
-193.9367
 21
143.6775
  0
LINE
  8
0
  6
CONTINUOUS
 62
     7
 10
-187.9367
 20
146.6775
 11
-187.9367
 21
149.6775
  0
LINE
  8
0
  6
CONTINUOUS
 62
     7
 10
-175.9367
 20
137.6775
 11
-175.9367
 21
134.6775
  0
LINE
  8
0
  6
CONTINUOUS
 62
     7
 10
-192.9367
 20
143.6775
 11
-192.9367
 21
135.6775
  0
LINE
  8
0
  6
CONTINUOUS
 62
     7
 10
-170.9367
 20
148.6775
 11
-170.9367
 21
140.6775
  0
LINE
  8
0
  6
CONTINUOUS
 62
     7
 10
-187.9367
 20
148.6775
 11
-170.9367
 21
148.6775
  0
LINE
  8
0
  6
CONTINUOUS
 62
     7
 10
-192.9367
 20
135.6775
 11
-175.9367
 21
135.6775
  0
LINE
  8
0
  6
CONTINUOUS
 62
     7
 10
-172.6367
 20
135.4476
 11
-172.6367
 21
135.1452
  0
LINE
  8
0
  6
CONTINUOUS
 62
     7
 10
-173.2366
 20
135.4476
 11
-173.2366
 21
135.1452
  0
LINE
  8
0
  6
CONTINUOUS
 62
     7
 10
-173.3974
 20
135.1695
 11
-173.3974
 21
135.4752
  0
LINE
  8
0
  6
CONTINUOUS
 62
     7
 10
-191.2366
 20
148.9074
 11
-191.2366
 21
149.2098
  0
LINE
  8
0
  6
CONTINUOUS
 62
     7
 10
-190.6367
 20
148.9074
 11
-190.6367
 21
149.2098
  0
LINE
  8
0
  6
CONTINUOUS
 62
     7
 10
-190.4759
 20
149.1855
 11
-190.4759
 21
148.8798
  0
LINE
  8
0
  6
CONTINUOUS
 62
     7
 10
-174.0397
 20
136.9421
 11
-173.672
 21
137.3098
  0
LINE
  8
0
  6
CONTINUOUS
 62
     7
 10
-173.672
 20
136.5744
 11
-173.3043
 21
136.9421
  0
LINE
  8
0
  6
CONTINUOUS
 62
     7
 10
-174.0397
 20
136.9422
 11
-173.672
 21
136.5744
  0
LINE
  8
0
  6
CONTINUOUS
 62
     7
 10
-172.2012
 20
138.7806
 11
-171.8335
 21
138.4129
  0
LINE
  8
0
  6
CONTINUOUS
 62
     7
 10
-174.7008
 20
139.074
 11
-173.672
 21
138.0452
  0
LINE
  8
0
  6
CONTINUOUS
 62
     7
 10
-174.3331
 20
139.4417
 11
-173.3043
 21
138.4129
  0
LINE
  8
0
  6
CONTINUOUS
 62
     7
 10
-172.5689
 20
138.4129
 11
-172.2012
 21
138.7806
  0
LINE
  8
0
  6
CONTINUOUS
 62
     7
 10
-172.2012
 20
138.0452
 11
-171.8335
 21
138.4129
  0
LINE
  8
0
  6
CONTINUOUS
 62
     7
 10
-172.5689
 20
136.9422
 11
-171.5401
 21
135.9134
  0
LINE
  8
0
  6
CONTINUOUS
 62
     7
 10
-172.2012
 20
137.3099
 11
-171.1725
 21
136.2811
  0
LINE
  8
0
  6
CONTINUOUS
 62
     7
 10
-192.0397
 20
145.9421
 11
-191.6721
 21
146.3098
  0
LINE
  8
0
  6
CONTINUOUS
 62
     7
 10
-191.6721
 20
145.5744
 11
-191.3044
 21
145.9421
  0
LINE
  8
0
  6
CONTINUOUS
 62
     7
 10
-192.0397
 20
145.9422
 11
-191.672
 21
145.5745
  0
LINE
  8
0
  6
CONTINUOUS
 62
     7
 10
-190.2013
 20
147.7806
 11
-189.8336
 21
147.4129
  0
LINE
  8
0
  6
CONTINUOUS
 62
     7
 10
-192.7008
 20
148.074
 11
-191.672
 21
147.0452
  0
LINE
  8
0
  6
CONTINUOUS
 62
     7
 10
-192.3331
 20
148.4417
 11
-191.3043
 21
147.4129
  0
LINE
  8
0
  6
CONTINUOUS
 62
     7
 10
-190.569
 20
147.4129
 11
-190.2013
 21
147.7806
  0
LINE
  8
0
  6
CONTINUOUS
 62
     7
 10
-190.2013
 20
147.0452
 11
-189.8336
 21
147.4129
  0
LINE
  8
0
  6
CONTINUOUS
 62
     7
 10
-190.569
 20
145.9422
 11
-189.5402
 21
144.9134
  0
LINE
  8
0
  6
CONTINUOUS
 62
     7
 10
-190.2012
 20
146.3099
 11
-189.1725
 21
145.2811
  0
LINE
  8
0
  6
CENTER
 62
     2
 10
-172.9367
 20
141.6775
 11
-172.9367
 21
133.6775
  0
LINE
  8
0
  6
CENTER
 62
     2
 10
-190.9367
 20
150.6775
 11
-190.9367
 21
142.6775
  0
LINE
  8
0
  6
CENTER
 62
     2
 10
-194.9367
 20
146.6775
 11
-186.9367
 21
146.6775
  0
LINE
  8
0
  6
CENTER
 62
     2
 10
-176.9367
 20
137.6775
 11
-168.9367
 21
137.6775
  0
LINE
  8
0
  6
CONTINUOUS
 62
     7
 10
-193.4367
 20
149.6775
 11
-169.9367
 21
149.6775
  0
LINE
  8
0
  6
CONTINUOUS
 62
     7
 10
-193.9367
 20
149.1775
 11
-193.9367
 21
135.1775
  0
LINE
  8
0
  6
CONTINUOUS
 62
     7
 10
-193.4367
 20
134.6775
 11
-169.9367
 21
134.6775
  0
LINE
  8
0
  6
CONTINUOUS
 62
     7
 10
-169.9367
 20
149.1775
 11
-160.7366
 21
149.1775
  0
LINE
  8
0
  6
CONTINUOUS
 62
     7
 10
-159.9367
 20
148.3775
 11
-159.9367
 21
135.9775
  0
LINE
  8
0
  6
CONTINUOUS
 62
     7
 10
-169.9367
 20
135.1775
 11
-160.7366
 21
135.1775
  0
LINE
  8
0
  6
CENTER
 62
     2
 10
-165.4367
 20
148.3775
 11
-165.4367
 21
135.9775
  0
LINE
  8
0
  6
CENTER
 62
     2
 10
-169.4367
 20
143.6775
 11
-161.4367
 21
143.6775
  0
LINE
  8
0
  6
CENTER
 62
     2
 10
-169.4367
 20
140.6775
 11
-161.4367
 21
140.6775
  0
LINE
  8
0
  6
CONTINUOUS
 62
     7
 10
-168.9367
 20
143.1775
 11
-168.9367
 21
141.1775
  0
LINE
  8
0
  6
CONTINUOUS
 62
     7
 10
-161.9367
 20
143.1775
 11
-161.9367
 21
141.1775
  0
LINE
  8
0
  6
CONTINUOUS
 62
     7
 10
-316.0613
 20
6.00017
 11
-298.0613
 21
6.00017
  0
LINE
  8
0
  6
CENTER
 62
     2
 10
-307.0613
 20
58.05278
 11
-307.0613
 21
-97.91135
  0
LINE
  8
0
  6
CONTINUOUS
 62
     7
 10
-298.0613
 20
26.00017
 11
-298.0613
 21
-66.19983
  0
LINE
  8
0
  6
CONTINUOUS
 62
     7
 10
-316.0613
 20
26.00015
 11
-316.0613
 21
-66.19983
  0
LINE
  8
0
  6
CONTINUOUS
 62
     7
 10
-316.0613
 20
-35.99985
 11
-298.0613
 21
-35.99985
  0
LINE
  8
0
  6
CONTINUOUS
 62
     7
 10
-315.0612
 20
27.00017
 11
-316.0613
 21
26.00017
  0
LINE
  8
0
  6
CONTINUOUS
 62
     7
 10
-299.0613
 20
27.00015
 11
-298.0613
 21
26.00015
  0
LINE
  8
0
  6
CENTER
 62
     2
 10
-313.4094
 20
-28.19983
 11
-301.1439
 21
-28.19983
  0
LINE
  8
0
  6
CENTER
 62
     2
 10
-313.27
 20
-14.99985
 11
-300.7258
 21
-14.99985
  0
LINE
  8
0
  6
CENTER
 62
     2
 10
-312.7822
 20
-1.79984
 11
-300.7258
 21
-1.79984
  0
LINE
  8
0
  6
CENTER
 62
     2
 10
-313.5613
 20
2.75165
 11
-313.5613
 21
-2.41406
  0
LINE
  8
0
  6
CENTER
 62
     2
 10
-300.5613
 20
-27.28156
 11
-300.5613
 21
-32.80765
  0
LINE
  8
0
  6
CENTER
 62
     2
 10
-303.1368
 20
-29.99985
 11
-298.0613
 21
-29.99985
  0
LINE
  8
0
  6
CENTER
 62
     2
 10
-316.0613
 20
0.00017
 11
-311.0656
 21
0.00017
  0
LINE
  8
0
  6
CENTER
 62
     2
 10
-310.8253
 20
18.70016
 11
-303.257
 21
18.70016
  0
LINE
  8
0
  6
CONTINUOUS
 62
     7
 10
-315.0613
 20
27.00017
 11
-299.0613
 21
27.00017
  0
LINE
  8
0
  6
CONTINUOUS
 62
     7
 10
-316.0613
 20
26.00017
 11
-298.0613
 21
26.00017
  0
LINE
  8
0
  6
CONTINUOUS
 62
     7
 10
-308.4755
 20
17.28589
 11
-305.647
 21
20.11432
  0
LINE
  8
0
  6
CONTINUOUS
 62
     7
 10
-308.4755
 20
20.11441
 11
-305.6471
 21
17.28598
  0
LINE
  8
0
  6
CONTINUOUS
 62
     7
 10
-308.9932
 20
19.21782
 11
-306.5437
 21
16.76832
  0
LINE
  8
0
  6
CONTINUOUS
 62
     7
 10
-307.5789
 20
20.63203
 11
-305.1295
 21
18.18254
  0
LINE
  8
0
  6
CONTINUOUS
 62
     7
 10
-308.9931
 20
18.18252
 11
-306.5436
 21
20.632
  0
LINE
  8
0
  6
CONTINUOUS
 62
     7
 10
-307.5789
 20
16.76825
 11
-305.1294
 21
19.21775
  0
LINE
  8
0
  6
CONTINUOUS
 62
     7
 10
-316.0613
 20
-66.19981
 11
-315.0613
 21
-67.19981
  0
LINE
  8
0
  6
CONTINUOUS
 62
     7
 10
-298.0613
 20
-66.19976
 11
-299.0613
 21
-67.19977
  0
LINE
  8
0
  6
CONTINUOUS
 62
     7
 10
-316.0613
 20
-66.19983
 11
-298.0613
 21
-66.19983
  0
LINE
  8
0
  6
CONTINUOUS
 62
     7
 10
-299.0613
 20
-67.19983
 11
-315.0613
 21
-67.19983
  0
LINE
  8
0
  6
CENTER
 62
     2
 10
-302.8946
 20
-58.89984
 11
-311.228
 21
-58.89984
  0
LINE
  8
0
  6
CONTINUOUS
 62
     7
 10
-308.4755
 20
-60.31411
 11
-305.647
 21
-57.48566
  0
LINE
  8
0
  6
CONTINUOUS
 62
     7
 10
-308.4755
 20
-57.48563
 11
-305.6471
 21
-60.31406
  0
LINE
  8
0
  6
CONTINUOUS
 62
     7
 10
-307.579
 20
-56.96799
 11
-305.1295
 21
-59.41746
  0
LINE
  8
0
  6
CONTINUOUS
 62
     7
 10
-308.9932
 20
-58.38219
 11
-306.5437
 21
-60.83169
  0
LINE
  8
0
  6
CONTINUOUS
 62
     7
 10
-308.9931
 20
-59.41751
 11
-306.5436
 21
-56.96802
  0
LINE
  8
0
  6
CONTINUOUS
 62
     7
 10
-307.5789
 20
-60.83173
 11
-305.1294
 21
-58.38223
  0
LINE
  8
0
  6
CENTER
 62
     2
 10
-307.5613
 20
-21.99982
 11
-307.5613
 21
-34.16443
  0
LINE
  8
0
  6
CENTER
 62
     2
 10
-306.5613
 20
4.02318
 11
-306.5613
 21
-7.83347
  0
LINE
  8
0
  6
CONTINUOUS
 62
     7
 10
-314.5613
 20
53.20016
 11
-314.5613
 21
27.00017
  0
LINE
  8
0
  6
CONTINUOUS
 62
     7
 10
-299.5613
 20
53.20016
 11
-299.5613
 21
27.00017
  0
LINE
  8
0
  6
CONTINUOUS
 62
     7
 10
-308.5613
 20
55.20016
 11
-308.5613
 21
53.20016
  0
LINE
  8
0
  6
CONTINUOUS
 62
     7
 10
-313.5613
 20
49.20016
 11
-300.5613
 21
49.20016
  0
LINE
  8
0
  6
CONTINUOUS
 62
     7
 10
-313.5613
 20
45.20016
 11
-300.5613
 21
45.20016
  0
LINE
  8
0
  6
CONTINUOUS
 62
     7
 10
-300.5613
 20
49.20016
 11
-300.5613
 21
45.20016
  0
LINE
  8
0
  6
CONTINUOUS
 62
     7
 10
-313.5613
 20
49.20016
 11
-313.5613
 21
45.20016
  0
LINE
  8
0
  6
CONTINUOUS
 62
     7
 10
-312.8492
 20
48.30695
 11
-310.5075
 21
48.30695
  0
LINE
  8
0
  6
CONTINUOUS
 62
     7
 10
-312.8492
 20
46.23036
 11
-310.861
 21
46.23036
  0
LINE
  8
0
  6
CONTINUOUS
 62
     7
 10
-312.8492
 20
45.70016
 11
-310.1541
 21
45.70016
  0
LINE
  8
0
  6
CONTINUOUS
 62
     7
 10
-312.8492
 20
47.77676
 11
-310.861
 21
47.77676
  0
LINE
  8
0
  6
CONTINUOUS
 62
     7
 10
-312.8492
 20
48.30695
 11
-312.8492
 21
47.77676
  0
LINE
  8
0
  6
CONTINUOUS
 62
     7
 10
-310.1541
 20
47.95349
 11
-310.1541
 21
45.70016
  0
LINE
  8
0
  6
CONTINUOUS
 62
     7
 10
-310.861
 20
47.77676
 11
-310.861
 21
46.23036
  0
LINE
  8
0
  6
CONTINUOUS
 62
     7
 10
-309.7564
 20
48.30695
 11
-309.7564
 21
47.77676
  0
LINE
  8
0
  6
CONTINUOUS
 62
     7
 10
-307.238
 20
47.77676
 11
-307.238
 21
46.05362
  0
LINE
  8
0
  6
CONTINUOUS
 62
     7
 10
-307.9449
 20
47.77676
 11
-307.9449
 21
46.23036
  0
LINE
  8
0
  6
CONTINUOUS
 62
     7
 10
-312.8492
 20
46.23036
 11
-312.8492
 21
45.70016
  0
LINE
  8
0
  6
CONTINUOUS
 62
     7
 10
-309.7564
 20
48.30695
 11
-309.0579
 21
48.30695
  0
LINE
  8
0
  6
CONTINUOUS
 62
     7
 10
-309.7564
 20
45.70016
 11
-309.2075
 21
45.70016
  0
LINE
  8
0
  6
CONTINUOUS
 62
     7
 10
-309.7564
 20
45.70018
 11
-309.2
 21
47.77676
  0
LINE
  8
0
  6
CONTINUOUS
 62
     7
 10
-309.7564
 20
47.77676
 11
-309.2
 21
47.77676
  0
LINE
  8
0
  6
CONTINUOUS
 62
     7
 10
-309.2075
 20
45.70013
 11
-308.651
 21
47.7767
  0
LINE
  8
0
  6
CONTINUOUS
 62
     7
 10
-308.4751
 20
46.23036
 11
-307.9449
 21
46.23036
  0
LINE
  8
0
  6
CONTINUOUS
 62
     7
 10
-308.4751
 20
46.23038
 11
-308.3331
 21
45.7002
  0
LINE
  8
0
  6
CONTINUOUS
 62
     7
 10
-308.3331
 20
45.70016
 11
-307.5915
 21
45.70016
  0
LINE
  8
0
  6
CONTINUOUS
 62
     7
 10
-308.6511
 20
47.77676
 11
-307.9449
 21
47.77676
  0
LINE
  8
0
  6
CONTINUOUS
 62
     7
 10
-308.509
 20
48.30695
 11
-307.7682
 21
48.30695
  0
LINE
  8
0
  6
CONTINUOUS
 62
     7
 10
-309.0579
 20
48.30695
 11
-308.9526
 21
48.70016
  0
LINE
  8
0
  6
CONTINUOUS
 62
     7
 10
-308.5091
 20
48.30698
 11
-308.4037
 21
48.70021
  0
LINE
  8
0
  6
CONTINUOUS
 62
     7
 10
-306.7962
 20
48.30695
 11
-305.9567
 21
48.30695
  0
LINE
  8
0
  6
CONTINUOUS
 62
     7
 10
-306.7962
 20
47.77676
 11
-304.7345
 21
47.77676
  0
LINE
  8
0
  6
CONTINUOUS
 62
     7
 10
-305.9567
 20
45.70016
 11
-305.2498
 21
45.70016
  0
LINE
  8
0
  6
CONTINUOUS
 62
     7
 10
-306.7962
 20
48.30695
 11
-306.7962
 21
47.77676
  0
LINE
  8
0
  6
CONTINUOUS
 62
     7
 10
-304.1894
 20
46.81537
 11
-304.1894
 21
46.23036
  0
LINE
  8
0
  6
CONTINUOUS
 62
     7
 10
-306.7962
 20
46.23043
 11
-305.9567
 21
46.62189
  0
LINE
  8
0
  6
CONTINUOUS
 62
     7
 10
-306.7961
 20
46.81532
 11
-304.7344
 21
47.77672
  0
LINE
  8
0
  6
CONTINUOUS
 62
     7
 10
-306.7962
 20
46.81537
 11
-306.7962
 21
46.23036
  0
LINE
  8
0
  6
CONTINUOUS
 62
     7
 10
-305.2498
 20
46.72482
 11
-304.1894
 21
46.23034
  0
LINE
  8
0
  6
CONTINUOUS
 62
     7
 10
-304.8655
 20
47.13061
 11
-304.1894
 21
46.81533
  0
LINE
  8
0
  6
CONTINUOUS
 62
     7
 10
-304.1894
 20
47.95349
 11
-304.1894
 21
47.6711
  0
LINE
  8
0
  6
CONTINUOUS
 62
     7
 10
-305.9567
 20
48.70016
 11
-305.9567
 21
48.30695
  0
LINE
  8
0
  6
CONTINUOUS
 62
     7
 10
-305.2498
 20
48.70016
 11
-305.2498
 21
48.30695
  0
LINE
  8
0
  6
CONTINUOUS
 62
     7
 10
-305.2498
 20
48.30695
 11
-304.5428
 21
48.30695
  0
LINE
  8
0
  6
CONTINUOUS
 62
     7
 10
-305.9567
 20
46.6218
 11
-305.9567
 21
45.70016
  0
LINE
  8
0
  6
CONTINUOUS
 62
     7
 10
-305.2498
 20
46.72482
 11
-305.2498
 21
45.70016
  0
LINE
  8
0
  6
CONTINUOUS
 62
     7
 10
-304.8655
 20
47.13065
 11
-304.3934
 21
47.35077
  0
LINE
  8
0
  6
CONTINUOUS
 62
     7
 10
-301.8035
 20
48.54111
 11
-301.2733
 21
48.54111
  0
LINE
  8
0
  6
CONTINUOUS
 62
     7
 10
-303.9685
 20
47.44592
 11
-303.9685
 21
46.87534
  0
LINE
  8
0
  6
CONTINUOUS
 62
     7
 10
-301.2733
 20
48.54111
 11
-301.2733
 21
48.30695
  0
LINE
  8
0
  6
CONTINUOUS
 62
     7
 10
-301.8035
 20
48.54111
 11
-301.8035
 21
48.42685
  0
LINE
  8
0
  6
CONTINUOUS
 62
     7
 10
-302.5105
 20
47.4552
 11
-302.5105
 21
45.70016
  0
LINE
  8
0
  6
CONTINUOUS
 62
     7
 10
-303.9684
 20
47.44592
 11
-301.9149
 21
48.26262
  0
LINE
  8
0
  6
CONTINUOUS
 62
     7
 10
-303.9685
 20
46.87518
 11
-302.5104
 21
47.45507
  0
LINE
  8
0
  6
CONTINUOUS
 62
     7
 10
-302.5105
 20
45.70016
 11
-301.8035
 21
45.70016
  0
LINE
  8
0
  6
CONTINUOUS
 62
     7
 10
-301.8035
 20
47.73636
 11
-301.8035
 21
45.70016
  0
LINE
  8
0
  6
CONTINUOUS
 62
     7
 10
-301.8034
 20
47.73638
 11
-301.6075
 21
47.81431
  0
LINE
  8
0
  6
CONTINUOUS
 62
     7
 10
-308.9526
 20
48.70016
 11
-308.4037
 21
48.70016
  0
LINE
  8
0
  6
CONTINUOUS
 62
     7
 10
-307.5252
 20
48.70016
 11
-307.2992
 21
48.70016
  0
LINE
  8
0
  6
CONTINUOUS
 62
     7
 10
-305.9567
 20
48.70016
 11
-305.2498
 21
48.70016
  0
LINE
  8
0
  6
CONTINUOUS
 62
     7
 10
-307.5252
 20
48.34671
 11
-307.2992
 21
48.34671
  0
LINE
  8
0
  6
CONTINUOUS
 62
     7
 10
-307.5252
 20
48.70016
 11
-307.5252
 21
48.34671
  0
LINE
  8
0
  6
CONTINUOUS
 62
     7
 10
-307.2992
 20
48.70016
 11
-307.2992
 21
48.34671
  0
LINE
  8
0
  6
CONTINUOUS
 62
     7
 10
-307.1415
 20
48.70016
 11
-307.1415
 21
48.34671
  0
LINE
  8
0
  6
CONTINUOUS
 62
     7
 10
-306.9155
 20
48.70016
 11
-306.9155
 21
48.34671
  0
LINE
  8
0
  6
CONTINUOUS
 62
     7
 10
-307.1415
 20
48.70016
 11
-306.9155
 21
48.70016
  0
LINE
  8
0
  6
CONTINUOUS
 62
     7
 10
-307.1415
 20
48.34671
 11
-306.9155
 21
48.34671
  0
LINE
  8
0
  6
CENTER
 62
     2
 10
-305.5613
 20
76.00017
 11
-305.5613
 21
50.20016
  0
LINE
  8
0
  6
CENTER
 62
     2
 10
-308.5613
 20
76.00017
 11
-308.5613
 21
50.20016
  0
LINE
  8
0
  6
CONTINUOUS
 62
     7
 10
-307.7113
 20
63.00017
 11
-307.7113
 21
60.05078
  0
LINE
  8
0
  6
CONTINUOUS
 62
     7
 10
-309.4113
 20
63.00017
 11
-309.4113
 21
60.5063
  0
LINE
  8
0
  6
CONTINUOUS
 62
     7
 10
-308.2413
 20
73.00017
 11
-308.2413
 21
63.00017
  0
LINE
  8
0
  6
CONTINUOUS
 62
     7
 10
-308.8813
 20
73.00017
 11
-308.8813
 21
63.00017
  0
LINE
  8
0
  6
CONTINUOUS
 62
     7
 10
-305.2413
 20
73.00017
 11
-305.2413
 21
63.00017
  0
LINE
  8
0
  6
CONTINUOUS
 62
     7
 10
-305.8813
 20
73.00017
 11
-305.8813
 21
63.00017
  0
LINE
  8
0
  6
CONTINUOUS
 62
     7
 10
-304.7113
 20
63.00017
 11
-304.7113
 21
59.24695
  0
LINE
  8
0
  6
CONTINUOUS
 62
     7
 10
-306.4113
 20
63.00017
 11
-306.4113
 21
59.70245
  0
LINE
  8
0
  6
CONTINUOUS
 62
     7
 10
-308.8813
 20
73.00017
 11
-308.2413
 21
73.00017
  0
LINE
  8
0
  6
CONTINUOUS
 62
     7
 10
-305.8813
 20
73.00017
 11
-305.2413
 21
73.00017
  0
LINE
  8
0
  6
CONTINUOUS
 62
     7
 10
-309.4113
 20
63.00017
 11
-307.7113
 21
63.00017
  0
LINE
  8
0
  6
CONTINUOUS
 62
     7
 10
-306.4113
 20
63.00017
 11
-304.7113
 21
63.00017
  0
LINE
  8
0
  6
CONTINUOUS
 62
     7
 10
-314.5613
 20
53.20018
 11
-313.5613
 21
55.20018
  0
LINE
  8
0
  6
CONTINUOUS
 62
     7
 10
-313.8113
 20
54.4939
 11
-313.8113
 21
53.80016
  0
LINE
  8
0
  6
CENTER
 62
     2
 10
-311.5613
 20
58.20016
 11
-311.5613
 21
50.20016
  0
LINE
  8
0
  6
CONTINUOUS
 62
     7
 10
-313.5613
 20
55.20016
 11
-313.387
 21
55.20016
  0
LINE
  8
0
  6
CONTINUOUS
 62
     7
 10
-309.3113
 20
54.4939
 11
-309.3113
 21
53.80016
  0
LINE
  8
0
  6
CONTINUOUS
 62
     7
 10
-309.7355
 20
55.20016
 11
-300.5613
 21
55.20016
  0
LINE
  8
0
  6
CENTER
 62
     2
 10
-302.5613
 20
58.20016
 11
-302.5613
 21
50.20016
  0
LINE
  8
0
  6
CONTINUOUS
 62
     7
 10
-299.5613
 20
53.20018
 11
-300.5613
 21
55.20016
  0
LINE
  8
0
  6
CONTINUOUS
 62
     7
 10
-314.5613
 20
53.20016
 11
-299.5613
 21
53.20016
  0
LINE
  8
0
  6
CONTINUOUS
 62
     7
 10
-314.5613
 20
52.20016
 11
-299.5613
 21
52.20016
  0
LINE
  8
0
  6
CONTINUOUS
 62
     7
 10
-309.0113
 20
53.80016
 11
-314.1113
 21
53.80016
  0
LINE
  8
0
  6
CONTINUOUS
 62
     7
 10
-309.0113
 20
53.80016
 11
-309.0113
 21
53.20016
  0
LINE
  8
0
  6
CONTINUOUS
 62
     7
 10
-314.1113
 20
53.80016
 11
-314.1113
 21
53.20016
  0
LINE
  8
0
  6
PHANTOM
 62
     2
 10
-311.4113
 20
61.04221
 11
-302.7112
 21
58.71106
  0
LINE
  8
0
  6
PHANTOM
 62
     2
 10
-311.4113
 20
59.48931
 11
-302.7113
 21
57.15815
  0
LINE
  8
0
  6
CONTINUOUS
 62
     7
 10
-309.4113
 20
58.9534
 11
-309.4113
 21
55.20016
  0
LINE
  8
0
  6
CONTINUOUS
 62
     7
 10
-307.7113
 20
58.49788
 11
-307.7113
 21
55.20016
  0
LINE
  8
0
  6
CONTINUOUS
 62
     7
 10
-306.4113
 20
58.14954
 11
-306.4113
 21
55.20016
  0
LINE
  8
0
  6
CONTINUOUS
 62
     7
 10
-304.7113
 20
57.69403
 11
-304.7113
 21
55.20016
  0
LINE
  8
0
  6
CONTINUOUS
 62
     7
 10
-299.5613
 20
-93.39981
 11
-299.5613
 21
-67.19983
  0
LINE
  8
0
  6
CONTINUOUS
 62
     7
 10
-314.5613
 20
-93.39981
 11
-314.5613
 21
-67.19983
  0
LINE
  8
0
  6
CONTINUOUS
 62
     7
 10
-305.5613
 20
-95.39981
 11
-305.5613
 21
-93.39981
  0
LINE
  8
0
  6
CONTINUOUS
 62
     7
 10
-300.5613
 20
-89.39981
 11
-313.5613
 21
-89.39981
  0
LINE
  8
0
  6
CONTINUOUS
 62
     7
 10
-300.5613
 20
-85.39981
 11
-313.5613
 21
-85.39981
  0
LINE
  8
0
  6
CONTINUOUS
 62
     7
 10
-313.5613
 20
-89.39981
 11
-313.5613
 21
-85.39981
  0
LINE
  8
0
  6
CONTINUOUS
 62
     7
 10
-300.5613
 20
-89.39981
 11
-300.5613
 21
-85.39981
  0
LINE
  8
0
  6
CONTINUOUS
 62
     7
 10
-301.2733
 20
-88.50659
 11
-303.6151
 21
-88.50659
  0
LINE
  8
0
  6
CONTINUOUS
 62
     7
 10
-301.2733
 20
-86.43002
 11
-303.2616
 21
-86.43002
  0
LINE
  8
0
  6
CONTINUOUS
 62
     7
 10
-301.2733
 20
-85.89981
 11
-303.9685
 21
-85.89981
  0
LINE
  8
0
  6
CONTINUOUS
 62
     7
 10
-301.2733
 20
-87.97641
 11
-303.2616
 21
-87.97641
  0
LINE
  8
0
  6
CONTINUOUS
 62
     7
 10
-301.2733
 20
-88.50659
 11
-301.2733
 21
-87.97641
  0
LINE
  8
0
  6
CONTINUOUS
 62
     7
 10
-303.9685
 20
-88.15314
 11
-303.9685
 21
-85.89981
  0
LINE
  8
0
  6
CONTINUOUS
 62
     7
 10
-303.2616
 20
-87.97641
 11
-303.2616
 21
-86.43002
  0
LINE
  8
0
  6
CONTINUOUS
 62
     7
 10
-304.3661
 20
-88.50659
 11
-304.3661
 21
-87.97641
  0
LINE
  8
0
  6
CONTINUOUS
 62
     7
 10
-306.8845
 20
-87.97641
 11
-306.8845
 21
-86.25327
  0
LINE
  8
0
  6
CONTINUOUS
 62
     7
 10
-306.1776
 20
-87.97641
 11
-306.1776
 21
-86.43002
  0
LINE
  8
0
  6
CONTINUOUS
 62
     7
 10
-301.2733
 20
-86.43002
 11
-301.2733
 21
-85.89981
  0
LINE
  8
0
  6
CONTINUOUS
 62
     7
 10
-304.3661
 20
-88.50659
 11
-305.0646
 21
-88.50659
  0
LINE
  8
0
  6
CONTINUOUS
 62
     7
 10
-304.3661
 20
-85.89981
 11
-304.915
 21
-85.89981
  0
LINE
  8
0
  6
CONTINUOUS
 62
     7
 10
-304.3661
 20
-85.89979
 11
-304.9226
 21
-87.97637
  0
LINE
  8
0
  6
CONTINUOUS
 62
     7
 10
-304.3661
 20
-87.97641
 11
-304.9225
 21
-87.97641
  0
LINE
  8
0
  6
CONTINUOUS
 62
     7
 10
-304.9151
 20
-85.8998
 11
-305.4715
 21
-87.97639
  0
LINE
  8
0
  6
CONTINUOUS
 62
     7
 10
-305.6474
 20
-86.43002
 11
-306.1776
 21
-86.43002
  0
LINE
  8
0
  6
CONTINUOUS
 62
     7
 10
-305.6474
 20
-86.43004
 11
-305.7895
 21
-85.89985
  0
LINE
  8
0
  6
CONTINUOUS
 62
     7
 10
-305.7895
 20
-85.89981
 11
-306.5311
 21
-85.89981
  0
LINE
  8
0
  6
CONTINUOUS
 62
     7
 10
-305.4714
 20
-87.97641
 11
-306.1776
 21
-87.97641
  0
LINE
  8
0
  6
CONTINUOUS
 62
     7
 10
-305.6135
 20
-88.50659
 11
-306.3544
 21
-88.50659
  0
LINE
  8
0
  6
CONTINUOUS
 62
     7
 10
-305.0647
 20
-88.50658
 11
-305.17
 21
-88.89979
  0
LINE
  8
0
  6
CONTINUOUS
 62
     7
 10
-305.6135
 20
-88.50662
 11
-305.7189
 21
-88.89983
  0
LINE
  8
0
  6
CONTINUOUS
 62
     7
 10
-307.3264
 20
-88.50659
 11
-308.1658
 21
-88.50659
  0
LINE
  8
0
  6
CONTINUOUS
 62
     7
 10
-307.3264
 20
-87.97641
 11
-309.3881
 21
-87.97641
  0
LINE
  8
0
  6
CONTINUOUS
 62
     7
 10
-308.1658
 20
-85.89981
 11
-308.8727
 21
-85.89981
  0
LINE
  8
0
  6
CONTINUOUS
 62
     7
 10
-307.3264
 20
-88.50659
 11
-307.3264
 21
-87.97641
  0
LINE
  8
0
  6
CONTINUOUS
 62
     7
 10
-309.9332
 20
-87.01501
 11
-309.9332
 21
-86.43002
  0
LINE
  8
0
  6
CONTINUOUS
 62
     7
 10
-307.3264
 20
-86.42993
 11
-308.1659
 21
-86.8214
  0
LINE
  8
0
  6
CONTINUOUS
 62
     7
 10
-307.3264
 20
-87.01497
 11
-309.3881
 21
-87.97636
  0
LINE
  8
0
  6
CONTINUOUS
 62
     7
 10
-307.3264
 20
-87.01501
 11
-307.3264
 21
-86.43002
  0
LINE
  8
0
  6
CONTINUOUS
 62
     7
 10
-308.8727
 20
-86.92448
 11
-309.9331
 21
-86.43002
  0
LINE
  8
0
  6
CONTINUOUS
 62
     7
 10
-309.2571
 20
-87.33025
 11
-309.9332
 21
-87.01497
  0
LINE
  8
0
  6
CONTINUOUS
 62
     7
 10
-309.9332
 20
-88.15314
 11
-309.9332
 21
-87.87076
  0
LINE
  8
0
  6
CONTINUOUS
 62
     7
 10
-308.1658
 20
-88.89981
 11
-308.1658
 21
-88.50659
  0
LINE
  8
0
  6
CONTINUOUS
 62
     7
 10
-308.8727
 20
-88.89981
 11
-308.8727
 21
-88.50659
  0
LINE
  8
0
  6
CONTINUOUS
 62
     7
 10
-308.8727
 20
-88.50659
 11
-309.5797
 21
-88.50659
  0
LINE
  8
0
  6
CONTINUOUS
 62
     7
 10
-308.1658
 20
-86.82144
 11
-308.1658
 21
-85.89981
  0
LINE
  8
0
  6
CONTINUOUS
 62
     7
 10
-308.8727
 20
-86.92447
 11
-308.8727
 21
-85.89981
  0
LINE
  8
0
  6
CONTINUOUS
 62
     7
 10
-309.2571
 20
-87.33015
 11
-309.7292
 21
-87.55027
  0
LINE
  8
0
  6
CONTINUOUS
 62
     7
 10
-312.319
 20
-88.74075
 11
-312.8492
 21
-88.74075
  0
LINE
  8
0
  6
CONTINUOUS
 62
     7
 10
-310.1541
 20
-87.64557
 11
-310.1541
 21
-87.07498
  0
LINE
  8
0
  6
CONTINUOUS
 62
     7
 10
-312.8492
 20
-88.74075
 11
-312.8492
 21
-88.50659
  0
LINE
  8
0
  6
CONTINUOUS
 62
     7
 10
-312.319
 20
-88.74075
 11
-312.319
 21
-88.6265
  0
LINE
  8
0
  6
CONTINUOUS
 62
     7
 10
-311.6121
 20
-87.65488
 11
-311.6121
 21
-85.89981
  0
LINE
  8
0
  6
CONTINUOUS
 62
     7
 10
-310.1541
 20
-87.64557
 11
-312.2077
 21
-88.46228
  0
LINE
  8
0
  6
CONTINUOUS
 62
     7
 10
-310.1541
 20
-87.07504
 11
-311.6121
 21
-87.65493
  0
LINE
  8
0
  6
CONTINUOUS
 62
     7
 10
-311.6121
 20
-85.89981
 11
-312.319
 21
-85.89981
  0
LINE
  8
0
  6
CONTINUOUS
 62
     7
 10
-312.319
 20
-87.936
 11
-312.319
 21
-85.89981
  0
LINE
  8
0
  6
CONTINUOUS
 62
     7
 10
-312.3191
 20
-87.93585
 11
-312.515
 21
-88.01379
  0
LINE
  8
0
  6
CONTINUOUS
 62
     7
 10
-305.17
 20
-88.89981
 11
-305.7189
 21
-88.89981
  0
LINE
  8
0
  6
CONTINUOUS
 62
     7
 10
-306.5974
 20
-88.89981
 11
-306.8234
 21
-88.89981
  0
LINE
  8
0
  6
CONTINUOUS
 62
     7
 10
-308.1658
 20
-88.89981
 11
-308.8727
 21
-88.89981
  0
LINE
  8
0
  6
CONTINUOUS
 62
     7
 10
-306.5974
 20
-88.54636
 11
-306.8234
 21
-88.54636
  0
LINE
  8
0
  6
CONTINUOUS
 62
     7
 10
-306.5974
 20
-88.89981
 11
-306.5974
 21
-88.54636
  0
LINE
  8
0
  6
CONTINUOUS
 62
     7
 10
-306.8234
 20
-88.89981
 11
-306.8234
 21
-88.54636
  0
LINE
  8
0
  6
CONTINUOUS
 62
     7
 10
-306.9811
 20
-88.89981
 11
-306.9811
 21
-88.54636
  0
LINE
  8
0
  6
CONTINUOUS
 62
     7
 10
-307.2071
 20
-88.89981
 11
-307.2071
 21
-88.54636
  0
LINE
  8
0
  6
CONTINUOUS
 62
     7
 10
-306.9811
 20
-88.89981
 11
-307.2071
 21
-88.89981
  0
LINE
  8
0
  6
CONTINUOUS
 62
     7
 10
-306.9811
 20
-88.54636
 11
-307.2071
 21
-88.54636
  0
LINE
  8
0
  6
CENTER
 62
     2
 10
-308.5613
 20
-116.1998
 11
-308.5613
 21
-90.39981
  0
LINE
  8
0
  6
CENTER
 62
     2
 10
-305.5613
 20
-116.1998
 11
-305.5613
 21
-90.39981
  0
LINE
  8
0
  6
CONTINUOUS
 62
     7
 10
-306.4113
 20
-103.1998
 11
-306.4113
 21
-100.2505
  0
LINE
  8
0
  6
CONTINUOUS
 62
     7
 10
-304.7113
 20
-103.1998
 11
-304.7113
 21
-100.706
  0
LINE
  8
0
  6
CONTINUOUS
 62
     7
 10
-305.8813
 20
-113.1998
 11
-305.8813
 21
-103.1998
  0
LINE
  8
0
  6
CONTINUOUS
 62
     7
 10
-305.2413
 20
-113.1998
 11
-305.2413
 21
-103.1998
  0
LINE
  8
0
  6
CONTINUOUS
 62
     7
 10
-308.8813
 20
-113.1998
 11
-308.8813
 21
-103.1998
  0
LINE
  8
0
  6
CONTINUOUS
 62
     7
 10
-308.2413
 20
-113.1998
 11
-308.2413
 21
-103.1998
  0
LINE
  8
0
  6
CONTINUOUS
 62
     7
 10
-309.4113
 20
-103.1998
 11
-309.4113
 21
-99.44659
  0
LINE
  8
0
  6
CONTINUOUS
 62
     7
 10
-307.7113
 20
-103.1998
 11
-307.7113
 21
-99.90213
  0
LINE
  8
0
  6
CONTINUOUS
 62
     7
 10
-305.2413
 20
-113.1998
 11
-305.8813
 21
-113.1998
  0
LINE
  8
0
  6
CONTINUOUS
 62
     7
 10
-308.2413
 20
-113.1998
 11
-308.8813
 21
-113.1998
  0
LINE
  8
0
  6
CONTINUOUS
 62
     7
 10
-304.7113
 20
-103.1998
 11
-306.4113
 21
-103.1998
  0
LINE
  8
0
  6
CONTINUOUS
 62
     7
 10
-307.7113
 20
-103.1998
 11
-309.4113
 21
-103.1998
  0
LINE
  8
0
  6
CONTINUOUS
 62
     7
 10
-299.5613
 20
-93.3998
 11
-300.5613
 21
-95.39982
  0
LINE
  8
0
  6
CONTINUOUS
 62
     7
 10
-300.3113
 20
-94.69357
 11
-300.3113
 21
-93.99982
  0
LINE
  8
0
  6
CENTER
 62
     2
 10
-302.5613
 20
-98.39981
 11
-302.5613
 21
-90.39981
  0
LINE
  8
0
  6
CONTINUOUS
 62
     7
 10
-300.5613
 20
-95.39981
 11
-300.7355
 21
-95.39981
  0
LINE
  8
0
  6
CONTINUOUS
 62
     7
 10
-304.8113
 20
-94.69357
 11
-304.8113
 21
-93.99982
  0
LINE
  8
0
  6
CONTINUOUS
 62
     7
 10
-304.387
 20
-95.39981
 11
-313.5613
 21
-95.39981
  0
LINE
  8
0
  6
CENTER
 62
     2
 10
-311.5613
 20
-98.39981
 11
-311.5613
 21
-90.39981
  0
LINE
  8
0
  6
CONTINUOUS
 62
     7
 10
-314.5612
 20
-93.39986
 11
-313.5612
 21
-95.39985
  0
LINE
  8
0
  6
CONTINUOUS
 62
     7
 10
-299.5613
 20
-93.39981
 11
-314.5613
 21
-93.39981
  0
LINE
  8
0
  6
CONTINUOUS
 62
     7
 10
-299.5613
 20
-92.39981
 11
-314.5613
 21
-92.39981
  0
LINE
  8
0
  6
CONTINUOUS
 62
     7
 10
-305.1113
 20
-93.99982
 11
-300.0113
 21
-93.99982
  0
LINE
  8
0
  6
CONTINUOUS
 62
     7
 10
-305.1113
 20
-93.99982
 11
-305.1113
 21
-93.39981
  0
LINE
  8
0
  6
CONTINUOUS
 62
     7
 10
-300.0113
 20
-93.99982
 11
-300.0113
 21
-93.39981
  0
LINE
  8
0
  6
PHANTOM
 62
     2
 10
-302.7112
 20
-101.2418
 11
-311.4113
 21
-98.91068
  0
LINE
  8
0
  6
PHANTOM
 62
     2
 10
-302.7112
 20
-99.6889
 11
-311.4112
 21
-97.35775
  0
LINE
  8
0
  6
CONTINUOUS
 62
     7
 10
-304.7113
 20
-99.15305
 11
-304.7113
 21
-95.39981
  0
LINE
  8
0
  6
CONTINUOUS
 62
     7
 10
-306.4113
 20
-98.69754
 11
-306.4113
 21
-95.39981
  0
LINE
  8
0
  6
CONTINUOUS
 62
     7
 10
-307.7113
 20
-98.34921
 11
-307.7113
 21
-95.39981
  0
LINE
  8
0
  6
CONTINUOUS
 62
     7
 10
-309.4113
 20
-97.89368
 11
-309.4113
 21
-95.39981
  0
LINE
  8
0
  6
CENTER
 62
     2
 10
-42.8123
 20
57.83295
 11
-42.8123
 21
-97.87796
  0
LINE
  8
0
  6
CONTINUOUS
 62
     7
 10
-33.8123
 20
26.00011
 11
-33.8123
 21
-66.19986
  0
LINE
  8
0
  6
CONTINUOUS
 62
     7
 10
-51.8123
 20
26.00011
 11
-51.8123
 21
-66.19989
  0
LINE
  8
0
  6
CONTINUOUS
 62
     7
 10
-51.8123
 20
6.00011
 11
-33.8123
 21
6.00011
  0
LINE
  8
0
  6
CONTINUOUS
 62
     7
 10
-51.8123
 20
-35.99991
 11
-33.8123
 21
-35.99991
  0
LINE
  8
0
  6
CONTINUOUS
 62
     7
 10
-50.81229
 20
27.00011
 11
-51.81229
 21
26.0001
  0
LINE
  8
0
  6
CONTINUOUS
 62
     7
 10
-34.81234
 20
27.00009
 11
-33.81236
 21
26.0001
  0
LINE
  8
0
  6
CENTER
 62
     2
 10
-48.8958
 20
-22.99991
 11
-36.73454
 21
-22.99991
  0
LINE
  8
0
  6
CENTER
 62
     2
 10
-48.45976
 20
-6.99991
 11
-36.83147
 21
-6.99991
  0
LINE
  8
0
  6
CENTER
 62
     2
 10
-36.3123
 20
4.5914
 11
-36.3123
 21
-4.41656
  0
LINE
  8
0
  6
CENTER
 62
     2
 10
-49.3123
 20
-25.88715
 11
-49.3123
 21
-34.29178
  0
LINE
  8
0
  6
CENTER
 62
     2
 10
-52.2245
 20
-29.99991
 11
-45.15392
 21
-29.99991
  0
LINE
  8
0
  6
CENTER
 62
     2
 10
-40.65892
 20
0.00011
 11
-33.22795
 21
0.00011
  0
LINE
  8
0
  6
CENTER
 62
     2
 10
-45.73399
 20
23.50011
 11
-39.9026
 21
23.50011
  0
LINE
  8
0
  6
CONTINUOUS
 62
     7
 10
-50.8123
 20
27.00011
 11
-34.8123
 21
27.00011
  0
LINE
  8
0
  6
CONTINUOUS
 62
     7
 10
-51.8123
 20
26.00011
 11
-33.8123
 21
26.00011
  0
LINE
  8
0
  6
CONTINUOUS
 62
     7
 10
-51.81229
 20
-66.19991
 11
-50.81226
 21
-67.19993
  0
LINE
  8
0
  6
CONTINUOUS
 62
     7
 10
-33.81232
 20
-66.19987
 11
-34.81232
 21
-67.19987
  0
LINE
  8
0
  6
CONTINUOUS
 62
     7
 10
-51.8123
 20
-66.19989
 11
-33.8123
 21
-66.19989
  0
LINE
  8
0
  6
CONTINUOUS
 62
     7
 10
-34.8123
 20
-67.19989
 11
-50.81227
 21
-67.19989
  0
LINE
  8
0
  6
CENTER
 62
     2
 10
-39.31227
 20
-63.69989
 11
-45.64561
 21
-63.69989
  0
LINE
  8
0
  6
CENTER
 62
     2
 10
-42.3123
 20
-0.66803
 11
-42.3123
 21
-13.14258
  0
LINE
  8
0
  6
CENTER
 62
     2
 10
-43.3123
 20
-16.69681
 11
-43.3123
 21
-29.03198
  0
LINE
  8
0
  6
CENTER
 62
     2
 10
-53.5685
 20
-14.99991
 11
-32.25652
 21
-14.99991
  0
LINE
  8
0
  6
CONTINUOUS
 62
     7
 10
-50.3123
 20
53.2001
 11
-50.3123
 21
27.00011
  0
LINE
  8
0
  6
CONTINUOUS
 62
     7
 10
-50.3123
 20
52.2001
 11
-47.3123
 21
52.2001
  0
LINE
  8
0
  6
CONTINUOUS
 62
     7
 10
-35.3123
 20
53.2001
 11
-35.3123
 21
27.00011
  0
LINE
  8
0
  6
CONTINUOUS
 62
     7
 10
-49.8123
 20
50.7001
 11
-49.8123
 21
27.80011
  0
LINE
  8
0
  6
CONTINUOUS
 62
     7
 10
-35.8123
 20
50.7001
 11
-35.8123
 21
27.80011
  0
LINE
  8
0
  6
CONTINUOUS
 62
     7
 10
-48.3123
 20
28.50011
 11
-37.3123
 21
28.50011
  0
LINE
  8
0
  6
CONTINUOUS
 62
     7
 10
-48.3123
 20
37.00011
 11
-37.3123
 21
37.00011
  0
LINE
  8
0
  6
CONTINUOUS
 62
     7
 10
-48.3123
 20
37.00011
 11
-48.3123
 21
28.50011
  0
LINE
  8
0
  6
CONTINUOUS
 62
     7
 10
-37.3123
 20
37.00011
 11
-37.3123
 21
28.50011
  0
LINE
  8
0
  6
CONTINUOUS
 62
     7
 10
-44.8123
 20
40.50011
 11
-40.8123
 21
40.50011
  0
LINE
  8
0
  6
CONTINUOUS
 62
     7
 10
-44.8123
 20
38.50011
 11
-40.8123
 21
38.50011
  0
LINE
  8
0
  6
CONTINUOUS
 62
     7
 10
-44.8123
 20
40.50011
 11
-44.8123
 21
38.50011
  0
LINE
  8
0
  6
CONTINUOUS
 62
     7
 10
-40.8123
 20
40.50011
 11
-40.8123
 21
38.50011
  0
LINE
  8
0
  6
CONTINUOUS
 62
     7
 10
-45.3123
 20
41.00011
 11
-40.3123
 21
41.00011
  0
LINE
  8
0
  6
CONTINUOUS
 62
     7
 10
-45.3123
 20
41.00011
 11
-45.3123
 21
38.00011
  0
LINE
  8
0
  6
CONTINUOUS
 62
     7
 10
-45.3123
 20
38.00011
 11
-40.3123
 21
38.00011
  0
LINE
  8
0
  6
CONTINUOUS
 62
     7
 10
-40.3123
 20
41.00011
 11
-40.3123
 21
38.00011
  0
LINE
  8
0
  6
CONTINUOUS
 62
     7
 10
-44.81232
 20
40.50009
 11
-45.31233
 21
41.0001
  0
LINE
  8
0
  6
CONTINUOUS
 62
     7
 10
-40.81232
 20
40.50013
 11
-40.31231
 21
41.00014
  0
LINE
  8
0
  6
CONTINUOUS
 62
     7
 10
-40.81231
 20
38.5001
 11
-40.31231
 21
38.00011
  0
LINE
  8
0
  6
CONTINUOUS
 62
     7
 10
-44.81232
 20
38.50013
 11
-45.31231
 21
38.00014
  0
LINE
  8
0
  6
CONTINUOUS
 62
     7
 10
-50.3123
 20
53.2001
 11
-45.16231
 21
53.2001
  0
LINE
  8
0
  6
CONTINUOUS
 62
     7
 10
-49.3123
 20
55.2001
 11
-49.13805
 21
55.2001
  0
LINE
  8
0
  6
CONTINUOUS
 62
     7
 10
-35.31229
 20
53.20008
 11
-36.31229
 21
55.20007
  0
LINE
  8
0
  6
CONTINUOUS
 62
     7
 10
-50.31231
 20
53.20013
 11
-49.31231
 21
55.20013
  0
LINE
  8
0
  6
CENTER
 62
     2
 10
-47.3123
 20
58.2001
 11
-47.3123
 21
49.2001
  0
LINE
  8
0
  6
CONTINUOUS
 62
     7
 10
-45.16231
 20
53.80009
 11
-49.86229
 21
53.80009
  0
LINE
  8
0
  6
CONTINUOUS
 62
     7
 10
-49.86229
 20
53.80009
 11
-49.86229
 21
53.2001
  0
LINE
  8
0
  6
CONTINUOUS
 62
     7
 10
-49.56227
 20
54.49384
 11
-49.56227
 21
53.80011
  0
LINE
  8
0
  6
CONTINUOUS
 62
     7
 10
-45.48656
 20
55.2001
 11
-45.16231
 21
55.2001
  0
LINE
  8
0
  6
CENTER
 62
     2
 10
-38.3123
 20
58.2001
 11
-38.3123
 21
49.2001
  0
LINE
  8
0
  6
CENTER
 62
     2
 10
-41.3123
 20
76.00011
 11
-41.3123
 21
48.50011
  0
LINE
  8
0
  6
CENTER
 62
     2
 10
-44.3123
 20
76.00011
 11
-44.3123
 21
48.50011
  0
LINE
  8
0
  6
CONTINUOUS
 62
     7
 10
-43.4623
 20
63.00011
 11
-43.4623
 21
60.05074
  0
LINE
  8
0
  6
CONTINUOUS
 62
     7
 10
-45.16231
 20
63.00011
 11
-45.16231
 21
60.50626
  0
LINE
  8
0
  6
CONTINUOUS
 62
     7
 10
-43.99229
 20
73.00011
 11
-43.99229
 21
63.00011
  0
LINE
  8
0
  6
CONTINUOUS
 62
     7
 10
-44.63231
 20
73.00011
 11
-44.63231
 21
63.00011
  0
LINE
  8
0
  6
CONTINUOUS
 62
     7
 10
-40.99229
 20
73.00011
 11
-40.99229
 21
63.00011
  0
LINE
  8
0
  6
CONTINUOUS
 62
     7
 10
-41.63231
 20
73.00011
 11
-41.63231
 21
63.00011
  0
LINE
  8
0
  6
CONTINUOUS
 62
     7
 10
-40.4623
 20
63.00011
 11
-40.4623
 21
59.24689
  0
LINE
  8
0
  6
CONTINUOUS
 62
     7
 10
-42.16231
 20
63.00011
 11
-42.16231
 21
59.70239
  0
LINE
  8
0
  6
CONTINUOUS
 62
     7
 10
-44.63231
 20
73.00011
 11
-43.99229
 21
73.00011
  0
LINE
  8
0
  6
CONTINUOUS
 62
     7
 10
-41.63231
 20
73.00011
 11
-40.99229
 21
73.00011
  0
LINE
  8
0
  6
CONTINUOUS
 62
     7
 10
-45.16231
 20
63.00011
 11
-43.4623
 21
63.00011
  0
LINE
  8
0
  6
CONTINUOUS
 62
     7
 10
-42.16231
 20
63.00011
 11
-40.4623
 21
63.00011
  0
LINE
  8
0
  6
CONTINUOUS
 62
     7
 10
-38.3123
 20
52.2001
 11
-35.3123
 21
52.2001
  0
LINE
  8
0
  6
CONTINUOUS
 62
     7
 10
-43.4623
 20
53.2001
 11
-42.16231
 21
53.2001
  0
LINE
  8
0
  6
CONTINUOUS
 62
     7
 10
-40.4623
 20
53.2001
 11
-35.3123
 21
53.2001
  0
LINE
  8
0
  6
CONTINUOUS
 62
     7
 10
-40.4623
 20
55.2001
 11
-36.3123
 21
55.2001
  0
LINE
  8
0
  6
CONTINUOUS
 62
     7
 10
-43.4623
 20
55.2001
 11
-42.16231
 21
55.2001
  0
LINE
  8
0
  6
PHANTOM
 62
     2
 10
-47.16228
 20
59.48922
 11
-38.46228
 21
57.15807
  0
LINE
  8
0
  6
PHANTOM
 62
     2
 10
-47.16226
 20
61.04212
 11
-38.46227
 21
58.71096
  0
LINE
  8
0
  6
CONTINUOUS
 62
     7
 10
-45.16231
 20
58.95334
 11
-45.16231
 21
53.00011
  0
LINE
  8
0
  6
CONTINUOUS
 62
     7
 10
-43.4623
 20
58.49782
 11
-43.4623
 21
53.00011
  0
LINE
  8
0
  6
CONTINUOUS
 62
     7
 10
-42.16231
 20
58.14948
 11
-42.16231
 21
53.00011
  0
LINE
  8
0
  6
CONTINUOUS
 62
     7
 10
-40.4623
 20
57.69397
 11
-40.4623
 21
53.00011
  0
LINE
  8
0
  6
CENTER
 62
     2
 10
-46.8123
 20
39.50011
 11
-38.8123
 21
39.50011
  0
LINE
  8
0
  6
CONTINUOUS
 62
     7
 10
-49.01231
 20
51.50011
 11
-36.61229
 21
51.50011
  0
LINE
  8
0
  6
CONTINUOUS
 62
     7
 10
-46.8123
 20
53.00011
 11
-38.8123
 21
53.00011
  0
LINE
  8
0
  6
CONTINUOUS
 62
     7
 10
-47.3123
 20
52.50011
 11
-47.3123
 21
51.50011
  0
LINE
  8
0
  6
CONTINUOUS
 62
     7
 10
-38.3123
 20
52.50011
 11
-38.3123
 21
51.50011
  0
LINE
  8
0
  6
CONTINUOUS
 62
     7
 10
-35.3123
 20
-93.3999
 11
-35.3123
 21
-67.19989
  0
LINE
  8
0
  6
CONTINUOUS
 62
     7
 10
-35.3123
 20
-92.3999
 11
-38.3123
 21
-92.3999
  0
LINE
  8
0
  6
CONTINUOUS
 62
     7
 10
-50.3123
 20
-93.3999
 11
-50.3123
 21
-67.19989
  0
LINE
  8
0
  6
CONTINUOUS
 62
     7
 10
-35.8123
 20
-90.8999
 11
-35.8123
 21
-67.99991
  0
LINE
  8
0
  6
CONTINUOUS
 62
     7
 10
-49.8123
 20
-90.8999
 11
-49.8123
 21
-67.99991
  0
LINE
  8
0
  6
CONTINUOUS
 62
     7
 10
-37.3123
 20
-68.69989
 11
-48.3123
 21
-68.69989
  0
LINE
  8
0
  6
CONTINUOUS
 62
     7
 10
-37.3123
 20
-77.19989
 11
-48.3123
 21
-77.19989
  0
LINE
  8
0
  6
CONTINUOUS
 62
     7
 10
-37.3123
 20
-77.19989
 11
-37.3123
 21
-68.69989
  0
LINE
  8
0
  6
CONTINUOUS
 62
     7
 10
-48.3123
 20
-77.19989
 11
-48.3123
 21
-68.69989
  0
LINE
  8
0
  6
CONTINUOUS
 62
     7
 10
-40.8123
 20
-80.69989
 11
-44.8123
 21
-80.69989
  0
LINE
  8
0
  6
CONTINUOUS
 62
     7
 10
-40.8123
 20
-78.69989
 11
-44.8123
 21
-78.69989
  0
LINE
  8
0
  6
CONTINUOUS
 62
     7
 10
-40.8123
 20
-80.69989
 11
-40.8123
 21
-78.69989
  0
LINE
  8
0
  6
CONTINUOUS
 62
     7
 10
-44.8123
 20
-80.69989
 11
-44.8123
 21
-78.69989
  0
LINE
  8
0
  6
CONTINUOUS
 62
     7
 10
-40.3123
 20
-81.19989
 11
-45.3123
 21
-81.19989
  0
LINE
  8
0
  6
CONTINUOUS
 62
     7
 10
-40.3123
 20
-81.19989
 11
-40.3123
 21
-78.19989
  0
LINE
  8
0
  6
CONTINUOUS
 62
     7
 10
-40.3123
 20
-78.19989
 11
-45.3123
 21
-78.19989
  0
LINE
  8
0
  6
CONTINUOUS
 62
     7
 10
-45.3123
 20
-81.19989
 11
-45.3123
 21
-78.19989
  0
LINE
  8
0
  6
CONTINUOUS
 62
     7
 10
-40.81232
 20
-80.69989
 11
-40.31233
 21
-81.19988
  0
LINE
  8
0
  6
CONTINUOUS
 62
     7
 10
-44.81229
 20
-80.69989
 11
-45.31229
 21
-81.1999
  0
LINE
  8
0
  6
CONTINUOUS
 62
     7
 10
-44.8123
 20
-78.69991
 11
-45.31229
 21
-78.19992
  0
LINE
  8
0
  6
CONTINUOUS
 62
     7
 10
-40.81229
 20
-78.69989
 11
-40.31229
 21
-78.19989
  0
LINE
  8
0
  6
CONTINUOUS
 62
     7
 10
-35.3123
 20
-93.39987
 11
-40.4623
 21
-93.39987
  0
LINE
  8
0
  6
CONTINUOUS
 62
     7
 10
-36.3123
 20
-95.3999
 11
-36.48656
 21
-95.3999
  0
LINE
  8
0
  6
CONTINUOUS
 62
     7
 10
-50.31229
 20
-93.39992
 11
-49.31228
 21
-95.39993
  0
LINE
  8
0
  6
CONTINUOUS
 62
     7
 10
-35.31235
 20
-93.39989
 11
-36.31235
 21
-95.39989
  0
LINE
  8
0
  6
CENTER
 62
     2
 10
-38.3123
 20
-98.3999
 11
-38.3123
 21
-89.3999
  0
LINE
  8
0
  6
CONTINUOUS
 62
     7
 10
-40.4623
 20
-93.99988
 11
-35.76231
 21
-93.99988
  0
LINE
  8
0
  6
CONTINUOUS
 62
     7
 10
-35.76231
 20
-93.99988
 11
-35.76231
 21
-93.39987
  0
LINE
  8
0
  6
CONTINUOUS
 62
     7
 10
-36.0623
 20
-94.69363
 11
-36.0623
 21
-93.99991
  0
LINE
  8
0
  6
CONTINUOUS
 62
     7
 10
-40.13805
 20
-95.3999
 11
-40.4623
 21
-95.3999
  0
LINE
  8
0
  6
CENTER
 62
     2
 10
-47.3123
 20
-98.3999
 11
-47.3123
 21
-89.3999
  0
LINE
  8
0
  6
CENTER
 62
     2
 10
-44.3123
 20
-116.1999
 11
-44.3123
 21
-88.69989
  0
LINE
  8
0
  6
CENTER
 62
     2
 10
-41.3123
 20
-116.1999
 11
-41.3123
 21
-88.69989
  0
LINE
  8
0
  6
CONTINUOUS
 62
     7
 10
-42.16231
 20
-103.1999
 11
-42.16231
 21
-100.2505
  0
LINE
  8
0
  6
CONTINUOUS
 62
     7
 10
-40.4623
 20
-103.1999
 11
-40.4623
 21
-100.706
  0
LINE
  8
0
  6
CONTINUOUS
 62
     7
 10
-41.63231
 20
-113.1999
 11
-41.63231
 21
-103.1999
  0
LINE
  8
0
  6
CONTINUOUS
 62
     7
 10
-40.99229
 20
-113.1999
 11
-40.99229
 21
-103.1999
  0
LINE
  8
0
  6
CONTINUOUS
 62
     7
 10
-44.63231
 20
-113.1999
 11
-44.63231
 21
-103.1999
  0
LINE
  8
0
  6
CONTINUOUS
 62
     7
 10
-43.99229
 20
-113.1999
 11
-43.99229
 21
-103.1999
  0
LINE
  8
0
  6
CONTINUOUS
 62
     7
 10
-45.16231
 20
-103.1999
 11
-45.16231
 21
-99.44669
  0
LINE
  8
0
  6
CONTINUOUS
 62
     7
 10
-43.4623
 20
-103.1999
 11
-43.4623
 21
-99.90219
  0
LINE
  8
0
  6
CONTINUOUS
 62
     7
 10
-40.99229
 20
-113.1999
 11
-41.63231
 21
-113.1999
  0
LINE
  8
0
  6
CONTINUOUS
 62
     7
 10
-43.99229
 20
-113.1999
 11
-44.63231
 21
-113.1999
  0
LINE
  8
0
  6
CONTINUOUS
 62
     7
 10
-40.4623
 20
-103.1999
 11
-42.16231
 21
-103.1999
  0
LINE
  8
0
  6
CONTINUOUS
 62
     7
 10
-43.4623
 20
-103.1999
 11
-45.16231
 21
-103.1999
  0
LINE
  8
0
  6
CONTINUOUS
 62
     7
 10
-47.3123
 20
-92.3999
 11
-50.3123
 21
-92.3999
  0
LINE
  8
0
  6
CONTINUOUS
 62
     7
 10
-42.16231
 20
-93.39987
 11
-43.4623
 21
-93.39987
  0
LINE
  8
0
  6
CONTINUOUS
 62
     7
 10
-45.16231
 20
-93.39987
 11
-50.3123
 21
-93.39987
  0
LINE
  8
0
  6
CONTINUOUS
 62
     7
 10
-45.16231
 20
-95.3999
 11
-49.3123
 21
-95.3999
  0
LINE
  8
0
  6
CONTINUOUS
 62
     7
 10
-42.16231
 20
-95.3999
 11
-43.4623
 21
-95.3999
  0
LINE
  8
0
  6
PHANTOM
 62
     2
 10
-38.46226
 20
-99.68897
 11
-47.16225
 21
-97.35782
  0
LINE
  8
0
  6
PHANTOM
 62
     2
 10
-38.46231
 20
-101.2419
 11
-47.1623
 21
-98.91073
  0
LINE
  8
0
  6
CONTINUOUS
 62
     7
 10
-40.4623
 20
-99.15311
 11
-40.4623
 21
-93.19989
  0
LINE
  8
0
  6
CONTINUOUS
 62
     7
 10
-42.16231
 20
-98.6976
 11
-42.16231
 21
-93.19989
  0
LINE
  8
0
  6
CONTINUOUS
 62
     7
 10
-43.4623
 20
-98.34927
 11
-43.4623
 21
-93.19989
  0
LINE
  8
0
  6
CONTINUOUS
 62
     7
 10
-45.16231
 20
-97.89377
 11
-45.16231
 21
-93.19989
  0
LINE
  8
0
  6
CENTER
 62
     2
 10
-38.8123
 20
-79.69989
 11
-46.8123
 21
-79.69989
  0
LINE
  8
0
  6
CONTINUOUS
 62
     7
 10
-36.61229
 20
-91.69989
 11
-49.01231
 21
-91.69989
  0
LINE
  8
0
  6
CONTINUOUS
 62
     7
 10
-38.8123
 20
-93.19989
 11
-46.8123
 21
-93.19989
  0
LINE
  8
0
  6
CONTINUOUS
 62
     7
 10
-38.3123
 20
-92.69989
 11
-38.3123
 21
-91.69989
  0
LINE
  8
0
  6
CONTINUOUS
 62
     7
 10
-47.3123
 20
-92.69989
 11
-47.3123
 21
-91.69989
  0
LINE
  8
0
  6
CONTINUOUS
 62
     7
 10
-169.4367
 20
-187.779
 11
-169.4367
 21
-188.779
  0
LINE
  8
0
  6
CONTINUOUS
 62
     7
 10
-168.4367
 20
-173.779
 11
-168.4367
 21
-172.279
  0
LINE
  8
0
  6
CENTER
 62
     2
 10
-197.833
 20
-180.779
 11
-157.6356
 21
-180.779
  0
LINE
  8
0
  6
CONTINUOUS
 62
     7
 10
-194.9367
 20
-171.779
 11
-168.9367
 21
-171.779
  0
LINE
  8
0
  6
CONTINUOUS
 62
     7
 10
-194.9367
 20
-189.779
 11
-168.9367
 21
-189.779
  0
LINE
  8
0
  6
CONTINUOUS
 62
     7
 10
-168.4367
 20
-189.279
 11
-168.4367
 21
-187.779
  0
LINE
  8
0
  6
CONTINUOUS
 62
     7
 10
-195.4367
 20
-189.279
 11
-195.4367
 21
-172.279
  0
LINE
  8
0
  6
CENTER
 62
     2
 10
-181.9367
 20
-192.529
 11
-181.9367
 21
-168.5515
  0
LINE
  8
0
  6
CONTINUOUS
 62
     7
 10
-194.4367
 20
-172.779
 11
-169.4367
 21
-172.779
  0
LINE
  8
0
  6
CONTINUOUS
 62
     7
 10
-194.4367
 20
-188.779
 11
-169.4367
 21
-188.779
  0
LINE
  8
0
  6
CONTINUOUS
 62
     7
 10
-194.4367
 20
-172.779
 11
-194.4367
 21
-188.779
  0
LINE
  8
0
  6
CONTINUOUS
 62
     7
 10
-169.4367
 20
-172.779
 11
-169.4367
 21
-173.779
  0
LINE
  8
0
  6
CONTINUOUS
 62
     7
 10
-169.4367
 20
-188.779
 11
-168.5831
 21
-189.6325
  0
LINE
  8
0
  6
CONTINUOUS
 62
     7
 10
-194.4367
 20
-188.779
 11
-195.2903
 21
-189.6326
  0
LINE
  8
0
  6
CONTINUOUS
 62
     7
 10
-169.4368
 20
-172.7789
 11
-168.5832
 21
-171.9254
  0
LINE
  8
0
  6
CONTINUOUS
 62
     7
 10
-194.4368
 20
-172.779
 11
-195.2903
 21
-171.9254
  0
LINE
  8
0
  6
CONTINUOUS
 62
     7
 10
-169.9367
 20
-173.279
 11
-169.9367
 21
-188.279
  0
LINE
  8
0
  6
CONTINUOUS
 62
     7
 10
-172.9367
 20
-182.279
 11
-169.9367
 21
-182.279
  0
LINE
  8
0
  6
CONTINUOUS
 62
     7
 10
-190.9367
 20
-179.279
 11
-193.9367
 21
-179.279
  0
LINE
  8
0
  6
CONTINUOUS
 62
     7
 10
-187.9367
 20
-176.279
 11
-187.9367
 21
-173.279
  0
LINE
  8
0
  6
CONTINUOUS
 62
     7
 10
-175.9367
 20
-185.279
 11
-175.9367
 21
-188.279
  0
LINE
  8
0
  6
CONTINUOUS
 62
     7
 10
-192.9367
 20
-179.279
 11
-192.9367
 21
-187.279
  0
LINE
  8
0
  6
CONTINUOUS
 62
     7
 10
-170.9367
 20
-174.279
 11
-170.9367
 21
-182.279
  0
LINE
  8
0
  6
CONTINUOUS
 62
     7
 10
-187.9367
 20
-174.279
 11
-170.9367
 21
-174.279
  0
LINE
  8
0
  6
CONTINUOUS
 62
     7
 10
-192.9367
 20
-187.279
 11
-175.9367
 21
-187.279
  0
LINE
  8
0
  6
CONTINUOUS
 62
     7
 10
-172.6367
 20
-187.5089
 11
-172.6367
 21
-187.8113
  0
LINE
  8
0
  6
CONTINUOUS
 62
     7
 10
-173.2367
 20
-187.5089
 11
-173.2367
 21
-187.8113
  0
LINE
  8
0
  6
CONTINUOUS
 62
     7
 10
-173.3975
 20
-187.787
 11
-173.3975
 21
-187.4813
  0
LINE
  8
0
  6
CONTINUOUS
 62
     7
 10
-191.2367
 20
-174.0491
 11
-191.2367
 21
-173.7467
  0
LINE
  8
0
  6
CONTINUOUS
 62
     7
 10
-190.6367
 20
-174.0491
 11
-190.6367
 21
-173.7467
  0
LINE
  8
0
  6
CONTINUOUS
 62
     7
 10
-190.476
 20
-173.771
 11
-190.476
 21
-174.0767
  0
LINE
  8
0
  6
CONTINUOUS
 62
     7
 10
-174.0398
 20
-186.0144
 11
-173.6721
 21
-185.6467
  0
LINE
  8
0
  6
CONTINUOUS
 62
     7
 10
-173.6721
 20
-186.3821
 11
-173.3044
 21
-186.0144
  0
LINE
  8
0
  6
CONTINUOUS
 62
     7
 10
-174.0398
 20
-186.0144
 11
-173.6721
 21
-186.382
  0
LINE
  8
0
  6
CONTINUOUS
 62
     7
 10
-172.2013
 20
-184.1759
 11
-171.8337
 21
-184.5436
  0
LINE
  8
0
  6
CONTINUOUS
 62
     7
 10
-174.701
 20
-183.8825
 11
-173.6721
 21
-184.9113
  0
LINE
  8
0
  6
CONTINUOUS
 62
     7
 10
-174.3332
 20
-183.5148
 11
-173.3044
 21
-184.5436
  0
LINE
  8
0
  6
CONTINUOUS
 62
     7
 10
-172.569
 20
-184.5436
 11
-172.2013
 21
-184.1759
  0
LINE
  8
0
  6
CONTINUOUS
 62
     7
 10
-172.2013
 20
-184.9113
 11
-171.8336
 21
-184.5436
  0
LINE
  8
0
  6
CONTINUOUS
 62
     7
 10
-172.5691
 20
-186.0144
 11
-171.5403
 21
-187.0432
  0
LINE
  8
0
  6
CONTINUOUS
 62
     7
 10
-172.2013
 20
-185.6467
 11
-171.1726
 21
-186.6754
  0
LINE
  8
0
  6
CONTINUOUS
 62
     7
 10
-192.0398
 20
-177.0144
 11
-191.6721
 21
-176.6467
  0
LINE
  8
0
  6
CONTINUOUS
 62
     7
 10
-191.6721
 20
-177.3822
 11
-191.3044
 21
-177.0145
  0
LINE
  8
0
  6
CONTINUOUS
 62
     7
 10
-192.0398
 20
-177.0144
 11
-191.6721
 21
-177.3821
  0
LINE
  8
0
  6
CONTINUOUS
 62
     7
 10
-190.2014
 20
-175.1759
 11
-189.8337
 21
-175.5436
  0
LINE
  8
0
  6
CONTINUOUS
 62
     7
 10
-192.7009
 20
-174.8825
 11
-191.6722
 21
-175.9113
  0
LINE
  8
0
  6
CONTINUOUS
 62
     7
 10
-192.3332
 20
-174.5148
 11
-191.3044
 21
-175.5436
  0
LINE
  8
0
  6
CONTINUOUS
 62
     7
 10
-190.5691
 20
-175.5436
 11
-190.2014
 21
-175.176
  0
LINE
  8
0
  6
CONTINUOUS
 62
     7
 10
-190.2013
 20
-175.9114
 11
-189.8336
 21
-175.5437
  0
LINE
  8
0
  6
CONTINUOUS
 62
     7
 10
-190.5691
 20
-177.0144
 11
-189.5403
 21
-178.0432
  0
LINE
  8
0
  6
CONTINUOUS
 62
     7
 10
-190.2013
 20
-176.6467
 11
-189.1725
 21
-177.6755
  0
LINE
  8
0
  6
CENTER
 62
     2
 10
-172.9367
 20
-181.279
 11
-172.9367
 21
-189.279
  0
LINE
  8
0
  6
CENTER
 62
     2
 10
-190.9367
 20
-172.279
 11
-190.9367
 21
-180.279
  0
LINE
  8
0
  6
CENTER
 62
     2
 10
-194.9367
 20
-176.279
 11
-186.9367
 21
-176.279
  0
LINE
  8
0
  6
CENTER
 62
     2
 10
-176.9367
 20
-185.279
 11
-168.9367
 21
-185.279
  0
LINE
  8
0
  6
CONTINUOUS
 62
     7
 10
-193.4367
 20
-173.279
 11
-169.9367
 21
-173.279
  0
LINE
  8
0
  6
CONTINUOUS
 62
     7
 10
-193.9367
 20
-173.779
 11
-193.9367
 21
-187.779
  0
LINE
  8
0
  6
CONTINUOUS
 62
     7
 10
-193.4367
 20
-188.279
 11
-169.9367
 21
-188.279
  0
LINE
  8
0
  6
CONTINUOUS
 62
     7
 10
-169.9367
 20
-173.779
 11
-160.7367
 21
-173.779
  0
LINE
  8
0
  6
CONTINUOUS
 62
     7
 10
-159.9367
 20
-174.579
 11
-159.9367
 21
-186.979
  0
LINE
  8
0
  6
CONTINUOUS
 62
     7
 10
-169.9367
 20
-187.779
 11
-160.7367
 21
-187.779
  0
LINE
  8
0
  6
CENTER
 62
     2
 10
-165.4367
 20
-174.579
 11
-165.4367
 21
-186.979
  0
LINE
  8
0
  6
CENTER
 62
     2
 10
-169.4367
 20
-179.279
 11
-161.4367
 21
-179.279
  0
LINE
  8
0
  6
CENTER
 62
     2
 10
-169.4367
 20
-182.279
 11
-161.4367
 21
-182.279
  0
LINE
  8
0
  6
CONTINUOUS
 62
     7
 10
-168.9367
 20
-179.779
 11
-168.9367
 21
-181.779
  0
LINE
  8
0
  6
CONTINUOUS
 62
     7
 10
-161.9367
 20
-179.779
 11
-161.9367
 21
-181.779
  0
LINE
  8
0
  6
CENTER
 62
     2
 10
168.9368
 20
57.83972
 11
168.9368
 21
-97.99113
  0
LINE
  8
0
  6
CONTINUOUS
 62
     7
 10
177.9368
 20
26.0
 11
177.9368
 21
-66.19997
  0
LINE
  8
0
  6
CONTINUOUS
 62
     7
 10
159.9368
 20
6.0
 11
177.9368
 21
6.0
  0
LINE
  8
0
  6
CONTINUOUS
 62
     7
 10
159.9368
 20
-36.00002
 11
177.9368
 21
-36.00002
  0
LINE
  8
0
  6
CONTINUOUS
 62
     7
 10
160.9368
 20
26.99997
 11
159.9368
 21
25.99997
  0
LINE
  8
0
  6
CONTINUOUS
 62
     7
 10
176.9368
 20
26.99995
 11
177.9368
 21
25.99995
  0
LINE
  8
0
  6
CENTER
 62
     2
 10
175.4368
 20
4.59129
 11
175.4368
 21
-4.41667
  0
LINE
  8
0
  6
CENTER
 62
     2
 10
162.4368
 20
-25.88725
 11
162.4368
 21
-34.29189
  0
LINE
  8
0
  6
CENTER
 62
     2
 10
159.5246
 20
-30.0
 11
166.6691
 21
-30.0
  0
LINE
  8
0
  6
CENTER
 62
     2
 10
171.0902
 20
0.0
 11
178.5212
 21
0.0
  0
LINE
  8
0
  6
CENTER
 62
     2
 10
166.0151
 20
23.5
 11
171.8465
 21
23.5
  0
LINE
  8
0
  6
CONTINUOUS
 62
     7
 10
160.9368
 20
27.0
 11
176.9368
 21
27.0
  0
LINE
  8
0
  6
CONTINUOUS
 62
     7
 10
159.9368
 20
26.0
 11
177.9368
 21
26.0
  0
LINE
  8
0
  6
CONTINUOUS
 62
     7
 10
159.9368
 20
26.0
 11
159.9368
 21
-66.2
  0
LINE
  8
0
  6
CONTINUOUS
 62
     7
 10
159.9368
 20
-66.19992
 11
160.9368
 21
-67.19992
  0
LINE
  8
0
  6
CONTINUOUS
 62
     7
 10
176.9368
 20
-67.19994
 11
177.9368
 21
-66.19997
  0
LINE
  8
0
  6
CONTINUOUS
 62
     7
 10
159.9368
 20
-66.2
 11
177.9368
 21
-66.2
  0
LINE
  8
0
  6
CONTINUOUS
 62
     7
 10
176.9368
 20
-67.2
 11
160.9368
 21
-67.2
  0
LINE
  8
0
  6
CENTER
 62
     2
 10
171.8812
 20
-63.7
 11
165.9702
 21
-63.7
  0
LINE
  8
0
  6
CENTER
 62
     2
 10
158.836
 20
-15.0
 11
179.6138
 21
-15.0
  0
LINE
  8
0
  6
CONTINUOUS
 62
     7
 10
161.4368
 20
53.2
 11
161.4368
 21
27.0
  0
LINE
  8
0
  6
CONTINUOUS
 62
     7
 10
161.4368
 20
52.2
 11
164.4368
 21
52.2
  0
LINE
  8
0
  6
CONTINUOUS
 62
     7
 10
176.4368
 20
53.2
 11
176.4368
 21
27.0
  0
LINE
  8
0
  6
CONTINUOUS
 62
     7
 10
161.9368
 20
50.7
 11
161.9368
 21
27.8
  0
LINE
  8
0
  6
CONTINUOUS
 62
     7
 10
175.9368
 20
50.7
 11
175.9368
 21
27.8
  0
LINE
  8
0
  6
CONTINUOUS
 62
     7
 10
163.4368
 20
28.5
 11
174.4368
 21
28.5
  0
LINE
  8
0
  6
CONTINUOUS
 62
     7
 10
163.4368
 20
37.0
 11
174.4368
 21
37.0
  0
LINE
  8
0
  6
CONTINUOUS
 62
     7
 10
163.4368
 20
37.0
 11
163.4368
 21
28.5
  0
LINE
  8
0
  6
CONTINUOUS
 62
     7
 10
174.4368
 20
37.0
 11
174.4368
 21
28.5
  0
LINE
  8
0
  6
CONTINUOUS
 62
     7
 10
166.9368
 20
40.5
 11
170.9368
 21
40.5
  0
LINE
  8
0
  6
CONTINUOUS
 62
     7
 10
166.9368
 20
38.5
 11
170.9368
 21
38.5
  0
LINE
  8
0
  6
CONTINUOUS
 62
     7
 10
166.9368
 20
40.5
 11
166.9368
 21
38.5
  0
LINE
  8
0
  6
CONTINUOUS
 62
     7
 10
170.9368
 20
40.5
 11
170.9368
 21
38.5
  0
LINE
  8
0
  6
CONTINUOUS
 62
     7
 10
166.4368
 20
41.0
 11
171.4368
 21
41.0
  0
LINE
  8
0
  6
CONTINUOUS
 62
     7
 10
166.4368
 20
41.0
 11
166.4368
 21
38.0
  0
LINE
  8
0
  6
CONTINUOUS
 62
     7
 10
166.4368
 20
38.0
 11
171.4368
 21
38.0
  0
LINE
  8
0
  6
CONTINUOUS
 62
     7
 10
171.4368
 20
41.0
 11
171.4368
 21
38.0
  0
LINE
  8
0
  6
CONTINUOUS
 62
     7
 10
166.9368
 20
40.5
 11
166.4368
 21
41.00001
  0
LINE
  8
0
  6
CONTINUOUS
 62
     7
 10
170.9367
 20
40.5
 11
171.4367
 21
41.00002
  0
LINE
  8
0
  6
CONTINUOUS
 62
     7
 10
170.9368
 20
38.5
 11
171.4368
 21
38.0
  0
LINE
  8
0
  6
CONTINUOUS
 62
     7
 10
166.9367
 20
38.5
 11
166.4367
 21
38.00002
  0
LINE
  8
0
  6
CONTINUOUS
 62
     7
 10
161.4368
 20
53.2
 11
166.5868
 21
53.2
  0
LINE
  8
0
  6
CONTINUOUS
 62
     7
 10
162.4368
 20
55.2
 11
162.611
 21
55.2
  0
LINE
  8
0
  6
CONTINUOUS
 62
     7
 10
176.4368
 20
53.2
 11
175.4368
 21
55.2
  0
LINE
  8
0
  6
CONTINUOUS
 62
     7
 10
161.4368
 20
53.2
 11
162.4368
 21
55.19999
  0
LINE
  8
0
  6
CENTER
 62
     2
 10
164.4368
 20
58.2
 11
164.4368
 21
49.2
  0
LINE
  8
0
  6
CONTINUOUS
 62
     7
 10
166.5868
 20
53.79999
 11
161.8868
 21
53.79999
  0
LINE
  8
0
  6
CONTINUOUS
 62
     7
 10
161.8868
 20
53.79999
 11
161.8868
 21
53.2
  0
LINE
  8
0
  6
CONTINUOUS
 62
     7
 10
162.1868
 20
54.49373
 11
162.1868
 21
53.8
  0
LINE
  8
0
  6
CONTINUOUS
 62
     7
 10
166.2625
 20
55.2
 11
166.5868
 21
55.2
  0
LINE
  8
0
  6
CENTER
 62
     2
 10
173.4368
 20
58.2
 11
173.4368
 21
49.2
  0
LINE
  8
0
  6
CENTER
 62
     2
 10
170.4368
 20
76.0
 11
170.4368
 21
48.5
  0
LINE
  8
0
  6
CENTER
 62
     2
 10
167.4368
 20
76.0
 11
167.4368
 21
48.5
  0
LINE
  8
0
  6
CONTINUOUS
 62
     7
 10
168.2868
 20
63.0
 11
168.2868
 21
60.05063
  0
LINE
  8
0
  6
CONTINUOUS
 62
     7
 10
166.5868
 20
63.0
 11
166.5868
 21
60.50615
  0
LINE
  8
0
  6
CONTINUOUS
 62
     7
 10
167.7568
 20
73.0
 11
167.7568
 21
63.0
  0
LINE
  8
0
  6
CONTINUOUS
 62
     7
 10
167.1168
 20
73.0
 11
167.1168
 21
63.0
  0
LINE
  8
0
  6
CONTINUOUS
 62
     7
 10
170.7568
 20
73.0
 11
170.7568
 21
63.0
  0
LINE
  8
0
  6
CONTINUOUS
 62
     7
 10
170.1168
 20
73.0
 11
170.1168
 21
63.0
  0
LINE
  8
0
  6
CONTINUOUS
 62
     7
 10
171.2868
 20
63.0
 11
171.2868
 21
59.24678
  0
LINE
  8
0
  6
CONTINUOUS
 62
     7
 10
169.5868
 20
63.0
 11
169.5868
 21
59.70229
  0
LINE
  8
0
  6
CONTINUOUS
 62
     7
 10
167.1168
 20
73.0
 11
167.7568
 21
73.0
  0
LINE
  8
0
  6
CONTINUOUS
 62
     7
 10
170.1168
 20
73.0
 11
170.7568
 21
73.0
  0
LINE
  8
0
  6
CONTINUOUS
 62
     7
 10
166.5868
 20
63.0
 11
168.2868
 21
63.0
  0
LINE
  8
0
  6
CONTINUOUS
 62
     7
 10
169.5868
 20
63.0
 11
171.2868
 21
63.0
  0
LINE
  8
0
  6
CONTINUOUS
 62
     7
 10
173.4368
 20
52.2
 11
176.4368
 21
52.2
  0
LINE
  8
0
  6
CONTINUOUS
 62
     7
 10
168.2868
 20
53.2
 11
169.5868
 21
53.2
  0
LINE
  8
0
  6
CONTINUOUS
 62
     7
 10
171.2868
 20
53.2
 11
176.4368
 21
53.2
  0
LINE
  8
0
  6
CONTINUOUS
 62
     7
 10
171.2868
 20
55.2
 11
175.4368
 21
55.2
  0
LINE
  8
0
  6
CONTINUOUS
 62
     7
 10
168.2868
 20
55.2
 11
169.5868
 21
55.2
  0
LINE
  8
0
  6
PHANTOM
 62
     2
 10
164.5868
 20
59.48912
 11
173.2868
 21
57.15796
  0
LINE
  8
0
  6
PHANTOM
 62
     2
 10
164.5868
 20
61.04203
 11
173.2868
 21
58.71087
  0
LINE
  8
0
  6
CONTINUOUS
 62
     7
 10
166.5868
 20
58.95323
 11
166.5868
 21
53.0
  0
LINE
  8
0
  6
CONTINUOUS
 62
     7
 10
168.2868
 20
58.49771
 11
168.2868
 21
53.0
  0
LINE
  8
0
  6
CONTINUOUS
 62
     7
 10
169.5868
 20
58.14937
 11
169.5868
 21
53.0
  0
LINE
  8
0
  6
CONTINUOUS
 62
     7
 10
171.2868
 20
57.69386
 11
171.2868
 21
53.0
  0
LINE
  8
0
  6
CENTER
 62
     2
 10
164.9368
 20
39.5
 11
172.9368
 21
39.5
  0
LINE
  8
0
  6
CONTINUOUS
 62
     7
 10
162.7368
 20
51.5
 11
175.1368
 21
51.5
  0
LINE
  8
0
  6
CONTINUOUS
 62
     7
 10
164.9368
 20
53.0
 11
172.9368
 21
53.0
  0
LINE
  8
0
  6
CONTINUOUS
 62
     7
 10
164.4368
 20
52.5
 11
164.4368
 21
51.5
  0
LINE
  8
0
  6
CONTINUOUS
 62
     7
 10
173.4368
 20
52.5
 11
173.4368
 21
51.5
  0
LINE
  8
0
  6
CONTINUOUS
 62
     7
 10
176.4368
 20
-93.40001
 11
176.4368
 21
-67.2
  0
LINE
  8
0
  6
CONTINUOUS
 62
     7
 10
176.4368
 20
-92.40001
 11
173.4368
 21
-92.40001
  0
LINE
  8
0
  6
CONTINUOUS
 62
     7
 10
161.4368
 20
-93.40001
 11
161.4368
 21
-67.2
  0
LINE
  8
0
  6
CONTINUOUS
 62
     7
 10
175.9368
 20
-90.90001
 11
175.9368
 21
-68.00002
  0
LINE
  8
0
  6
CONTINUOUS
 62
     7
 10
161.9368
 20
-90.90001
 11
161.9368
 21
-68.00002
  0
LINE
  8
0
  6
CONTINUOUS
 62
     7
 10
174.4368
 20
-68.7
 11
163.4368
 21
-68.7
  0
LINE
  8
0
  6
CONTINUOUS
 62
     7
 10
174.4368
 20
-77.2
 11
163.4368
 21
-77.2
  0
LINE
  8
0
  6
CONTINUOUS
 62
     7
 10
174.4368
 20
-77.2
 11
174.4368
 21
-68.7
  0
LINE
  8
0
  6
CONTINUOUS
 62
     7
 10
163.4368
 20
-77.2
 11
163.4368
 21
-68.7
  0
LINE
  8
0
  6
CONTINUOUS
 62
     7
 10
170.9368
 20
-80.7
 11
166.9368
 21
-80.7
  0
LINE
  8
0
  6
CONTINUOUS
 62
     7
 10
170.9368
 20
-78.7
 11
166.9368
 21
-78.7
  0
LINE
  8
0
  6
CONTINUOUS
 62
     7
 10
170.9368
 20
-80.7
 11
170.9368
 21
-78.7
  0
LINE
  8
0
  6
CONTINUOUS
 62
     7
 10
166.9368
 20
-80.7
 11
166.9368
 21
-78.7
  0
LINE
  8
0
  6
CONTINUOUS
 62
     7
 10
171.4368
 20
-81.2
 11
166.4368
 21
-81.2
  0
LINE
  8
0
  6
CONTINUOUS
 62
     7
 10
171.4368
 20
-81.2
 11
171.4368
 21
-78.2
  0
LINE
  8
0
  6
CONTINUOUS
 62
     7
 10
171.4368
 20
-78.2
 11
166.4368
 21
-78.2
  0
LINE
  8
0
  6
CONTINUOUS
 62
     7
 10
166.4368
 20
-81.2
 11
166.4368
 21
-78.2
  0
LINE
  8
0
  6
CONTINUOUS
 62
     7
 10
170.9368
 20
-80.69997
 11
171.4368
 21
-81.19996
  0
LINE
  8
0
  6
CONTINUOUS
 62
     7
 10
166.9368
 20
-80.70004
 11
166.4368
 21
-81.20003
  0
LINE
  8
0
  6
CONTINUOUS
 62
     7
 10
166.9368
 20
-78.7
 11
166.4368
 21
-78.19998
  0
LINE
  8
0
  6
CONTINUOUS
 62
     7
 10
170.9368
 20
-78.7
 11
171.4368
 21
-78.20001
  0
LINE
  8
0
  6
CONTINUOUS
 62
     7
 10
176.4368
 20
-93.39998
 11
171.2868
 21
-93.39998
  0
LINE
  8
0
  6
CONTINUOUS
 62
     7
 10
175.4368
 20
-95.40001
 11
175.2625
 21
-95.40001
  0
LINE
  8
0
  6
CONTINUOUS
 62
     7
 10
161.4368
 20
-93.39998
 11
162.4368
 21
-95.39998
  0
LINE
  8
0
  6
CONTINUOUS
 62
     7
 10
176.4368
 20
-93.4
 11
175.4368
 21
-95.40002
  0
LINE
  8
0
  6
CENTER
 62
     2
 10
173.4368
 20
-98.40001
 11
173.4368
 21
-89.40001
  0
LINE
  8
0
  6
CONTINUOUS
 62
     7
 10
171.2868
 20
-93.99998
 11
175.9868
 21
-93.99998
  0
LINE
  8
0
  6
CONTINUOUS
 62
     7
 10
175.9868
 20
-93.99998
 11
175.9868
 21
-93.39998
  0
LINE
  8
0
  6
CONTINUOUS
 62
     7
 10
175.6868
 20
-94.69374
 11
175.6868
 21
-94.00002
  0
LINE
  8
0
  6
CONTINUOUS
 62
     7
 10
171.611
 20
-95.40001
 11
171.2868
 21
-95.40001
  0
LINE
  8
0
  6
CENTER
 62
     2
 10
164.4368
 20
-98.40001
 11
164.4368
 21
-89.40001
  0
LINE
  8
0
  6
CENTER
 62
     2
 10
167.4368
 20
-116.2
 11
167.4368
 21
-88.7
  0
LINE
  8
0
  6
CENTER
 62
     2
 10
170.4368
 20
-116.2
 11
170.4368
 21
-88.7
  0
LINE
  8
0
  6
CONTINUOUS
 62
     7
 10
169.5868
 20
-103.2
 11
169.5868
 21
-100.2506
  0
LINE
  8
0
  6
CONTINUOUS
 62
     7
 10
171.2868
 20
-103.2
 11
171.2868
 21
-100.7061
  0
LINE
  8
0
  6
CONTINUOUS
 62
     7
 10
170.1168
 20
-113.2
 11
170.1168
 21
-103.2
  0
LINE
  8
0
  6
CONTINUOUS
 62
     7
 10
170.7568
 20
-113.2
 11
170.7568
 21
-103.2
  0
LINE
  8
0
  6
CONTINUOUS
 62
     7
 10
167.1168
 20
-113.2
 11
167.1168
 21
-103.2
  0
LINE
  8
0
  6
CONTINUOUS
 62
     7
 10
167.7568
 20
-113.2
 11
167.7568
 21
-103.2
  0
LINE
  8
0
  6
CONTINUOUS
 62
     7
 10
166.5868
 20
-103.2
 11
166.5868
 21
-99.44679
  0
LINE
  8
0
  6
CONTINUOUS
 62
     7
 10
168.2868
 20
-103.2
 11
168.2868
 21
-99.9023
  0
LINE
  8
0
  6
CONTINUOUS
 62
     7
 10
170.7568
 20
-113.2
 11
170.1168
 21
-113.2
  0
LINE
  8
0
  6
CONTINUOUS
 62
     7
 10
167.7568
 20
-113.2
 11
167.1168
 21
-113.2
  0
LINE
  8
0
  6
CONTINUOUS
 62
     7
 10
171.2868
 20
-103.2
 11
169.5868
 21
-103.2
  0
LINE
  8
0
  6
CONTINUOUS
 62
     7
 10
168.2868
 20
-103.2
 11
166.5868
 21
-103.2
  0
LINE
  8
0
  6
CONTINUOUS
 62
     7
 10
164.4368
 20
-92.40001
 11
161.4368
 21
-92.40001
  0
LINE
  8
0
  6
CONTINUOUS
 62
     7
 10
169.5868
 20
-93.39998
 11
168.2868
 21
-93.39998
  0
LINE
  8
0
  6
CONTINUOUS
 62
     7
 10
166.5868
 20
-93.39998
 11
161.4368
 21
-93.39998
  0
LINE
  8
0
  6
CONTINUOUS
 62
     7
 10
166.5868
 20
-95.40001
 11
162.4368
 21
-95.40001
  0
LINE
  8
0
  6
CONTINUOUS
 62
     7
 10
169.5868
 20
-95.40001
 11
168.2868
 21
-95.40001
  0
LINE
  8
0
  6
PHANTOM
 62
     2
 10
173.2868
 20
-99.68903
 11
164.5868
 21
-97.35788
  0
LINE
  8
0
  6
PHANTOM
 62
     2
 10
173.2868
 20
-101.2419
 11
164.5868
 21
-98.91079
  0
LINE
  8
0
  6
CONTINUOUS
 62
     7
 10
171.2868
 20
-99.15321
 11
171.2868
 21
-93.2
  0
LINE
  8
0
  6
CONTINUOUS
 62
     7
 10
169.5868
 20
-98.69771
 11
169.5868
 21
-93.2
  0
LINE
  8
0
  6
CONTINUOUS
 62
     7
 10
168.2868
 20
-98.34938
 11
168.2868
 21
-93.2
  0
LINE
  8
0
  6
CONTINUOUS
 62
     7
 10
166.5868
 20
-97.89388
 11
166.5868
 21
-93.2
  0
LINE
  8
0
  6
CENTER
 62
     2
 10
172.9368
 20
-79.7
 11
164.9368
 21
-79.7
  0
LINE
  8
0
  6
CONTINUOUS
 62
     7
 10
175.1368
 20
-91.7
 11
162.7368
 21
-91.7
  0
LINE
  8
0
  6
CONTINUOUS
 62
     7
 10
172.9368
 20
-93.2
 11
164.9368
 21
-93.2
  0
LINE
  8
0
  6
CONTINUOUS
 62
     7
 10
173.4368
 20
-92.7
 11
173.4368
 21
-91.7
  0
LINE
  8
0
  6
CONTINUOUS
 62
     7
 10
164.4368
 20
-92.7
 11
164.4368
 21
-91.7
  0
LINE
  8
0
  6
CENTER
 62
     2
 10
168.9371
 20
151.0735
 11
168.9371
 21
110.3764
  0
LINE
  8
0
  6
CENTER
 62
     2
 10
157.1871
 20
135.1773
 11
181.1646
 21
135.1773
  0
LINE
  8
0
  6
CONTINUOUS
 62
     7
 10
161.9371
 20
122.6773
 11
160.9371
 21
122.6773
  0
LINE
  8
0
  6
CONTINUOUS
 62
     7
 10
175.9371
 20
121.6773
 11
177.4371
 21
121.6773
  0
LINE
  8
0
  6
CONTINUOUS
 62
     7
 10
177.9371
 20
148.1773
 11
177.9371
 21
122.1773
  0
LINE
  8
0
  6
CONTINUOUS
 62
     7
 10
159.9371
 20
148.1773
 11
159.9371
 21
122.1773
  0
LINE
  8
0
  6
CONTINUOUS
 62
     7
 10
160.4371
 20
121.6773
 11
161.9371
 21
121.6773
  0
LINE
  8
0
  6
CONTINUOUS
 62
     7
 10
160.4371
 20
148.6773
 11
177.4371
 21
148.6773
  0
LINE
  8
0
  6
CONTINUOUS
 62
     7
 10
176.9371
 20
147.6772
 11
176.9371
 21
122.6773
  0
LINE
  8
0
  6
CONTINUOUS
 62
     7
 10
160.9371
 20
147.6772
 11
160.9371
 21
122.6773
  0
LINE
  8
0
  6
CONTINUOUS
 62
     7
 10
176.9371
 20
147.6772
 11
160.9371
 21
147.6772
  0
LINE
  8
0
  6
CONTINUOUS
 62
     7
 10
176.9371
 20
122.6773
 11
175.9371
 21
122.6773
  0
LINE
  8
0
  6
CONTINUOUS
 62
     7
 10
160.9371
 20
122.6772
 11
160.0836
 21
121.8236
  0
LINE
  8
0
  6
CONTINUOUS
 62
     7
 10
160.9371
 20
147.6772
 11
160.0836
 21
148.5308
  0
LINE
  8
0
  6
CONTINUOUS
 62
     7
 10
176.9371
 20
122.6773
 11
177.7906
 21
121.8237
  0
LINE
  8
0
  6
CONTINUOUS
 62
     7
 10
176.9371
 20
147.6773
 11
177.7907
 21
148.5308
  0
LINE
  8
0
  6
CONTINUOUS
 62
     7
 10
176.4371
 20
123.1773
 11
161.4371
 21
123.1773
  0
LINE
  8
0
  6
CONTINUOUS
 62
     7
 10
167.4371
 20
126.1773
 11
167.4371
 21
123.1773
  0
LINE
  8
0
  6
CONTINUOUS
 62
     7
 10
170.4371
 20
144.1773
 11
170.4371
 21
147.1773
  0
LINE
  8
0
  6
CONTINUOUS
 62
     7
 10
173.4371
 20
141.1773
 11
176.4371
 21
141.1773
  0
LINE
  8
0
  6
CONTINUOUS
 62
     7
 10
164.4371
 20
129.1773
 11
161.4371
 21
129.1773
  0
LINE
  8
0
  6
CONTINUOUS
 62
     7
 10
170.4371
 20
146.1773
 11
162.4371
 21
146.1773
  0
LINE
  8
0
  6
CONTINUOUS
 62
     7
 10
175.4371
 20
124.1773
 11
167.4371
 21
124.1773
  0
LINE
  8
0
  6
CONTINUOUS
 62
     7
 10
175.4371
 20
141.1773
 11
175.4371
 21
124.1773
  0
LINE
  8
0
  6
CONTINUOUS
 62
     7
 10
162.4371
 20
146.1773
 11
162.4371
 21
129.1773
  0
LINE
  8
0
  6
CONTINUOUS
 62
     7
 10
162.2072
 20
125.8773
 11
161.9048
 21
125.8773
  0
LINE
  8
0
  6
CONTINUOUS
 62
     7
 10
162.2072
 20
126.4773
 11
161.9048
 21
126.4773
  0
LINE
  8
0
  6
CONTINUOUS
 62
     7
 10
161.9291
 20
126.638
 11
162.2348
 21
126.638
  0
LINE
  8
0
  6
CONTINUOUS
 62
     7
 10
175.667
 20
144.4773
 11
175.9694
 21
144.4773
  0
LINE
  8
0
  6
CONTINUOUS
 62
     7
 10
175.667
 20
143.8773
 11
175.9694
 21
143.8773
  0
LINE
  8
0
  6
CONTINUOUS
 62
     7
 10
175.9451
 20
143.7165
 11
175.6394
 21
143.7165
  0
LINE
  8
0
  6
CONTINUOUS
 62
     7
 10
163.7017
 20
127.2804
 11
164.0694
 21
126.9127
  0
LINE
  8
0
  6
CONTINUOUS
 62
     7
 10
163.334
 20
126.9127
 11
163.7017
 21
126.545
  0
LINE
  8
0
  6
CONTINUOUS
 62
     7
 10
163.7018
 20
127.2804
 11
163.334
 21
126.9127
  0
LINE
  8
0
  6
CONTINUOUS
 62
     7
 10
165.5402
 20
125.4419
 11
165.1725
 21
125.0742
  0
LINE
  8
0
  6
CONTINUOUS
 62
     7
 10
165.8336
 20
127.9415
 11
164.8048
 21
126.9127
  0
LINE
  8
0
  6
CONTINUOUS
 62
     7
 10
166.2013
 20
127.5738
 11
165.1725
 21
126.545
  0
LINE
  8
0
  6
CONTINUOUS
 62
     7
 10
165.1725
 20
125.8096
 11
165.5402
 21
125.4419
  0
LINE
  8
0
  6
CONTINUOUS
 62
     7
 10
164.8048
 20
125.4419
 11
165.1725
 21
125.0742
  0
LINE
  8
0
  6
CONTINUOUS
 62
     7
 10
163.7017
 20
125.8096
 11
162.6729
 21
124.7808
  0
LINE
  8
0
  6
CONTINUOUS
 62
     7
 10
164.0694
 20
125.4419
 11
163.0406
 21
124.4131
  0
LINE
  8
0
  6
CONTINUOUS
 62
     7
 10
172.7017
 20
145.2803
 11
173.0694
 21
144.9126
  0
LINE
  8
0
  6
CONTINUOUS
 62
     7
 10
172.3341
 20
144.9126
 11
172.7018
 21
144.545
  0
LINE
  8
0
  6
CONTINUOUS
 62
     7
 10
172.7017
 20
145.2804
 11
172.334
 21
144.9127
  0
LINE
  8
0
  6
CONTINUOUS
 62
     7
 10
174.5402
 20
143.4419
 11
174.1725
 21
143.0742
  0
LINE
  8
0
  6
CONTINUOUS
 62
     7
 10
174.8336
 20
145.9414
 11
173.8048
 21
144.9127
  0
LINE
  8
0
  6
CONTINUOUS
 62
     7
 10
175.2013
 20
145.5737
 11
174.1725
 21
144.545
  0
LINE
  8
0
  6
CONTINUOUS
 62
     7
 10
174.1725
 20
143.8096
 11
174.5402
 21
143.4418
  0
LINE
  8
0
  6
CONTINUOUS
 62
     7
 10
173.8048
 20
143.4419
 11
174.1725
 21
143.0742
  0
LINE
  8
0
  6
CONTINUOUS
 62
     7
 10
172.7017
 20
143.8096
 11
171.6729
 21
142.7808
  0
LINE
  8
0
  6
CONTINUOUS
 62
     7
 10
173.0694
 20
143.4419
 11
172.0406
 21
142.4131
  0
LINE
  8
0
  6
CENTER
 62
     2
 10
168.4371
 20
126.1773
 11
160.4371
 21
126.1773
  0
LINE
  8
0
  6
CENTER
 62
     2
 10
177.4371
 20
144.1773
 11
169.4371
 21
144.1773
  0
LINE
  8
0
  6
CENTER
 62
     2
 10
173.4371
 20
148.1773
 11
173.4371
 21
140.1773
  0
LINE
  8
0
  6
CENTER
 62
     2
 10
164.4371
 20
130.1773
 11
164.4371
 21
122.1773
  0
LINE
  8
0
  6
CONTINUOUS
 62
     7
 10
176.4371
 20
146.6773
 11
176.4371
 21
123.1773
  0
LINE
  8
0
  6
CONTINUOUS
 62
     7
 10
175.9371
 20
147.1773
 11
161.9371
 21
147.1773
  0
LINE
  8
0
  6
CONTINUOUS
 62
     7
 10
161.4371
 20
146.6773
 11
161.4371
 21
123.1773
  0
LINE
  8
0
  6
CONTINUOUS
 62
     7
 10
175.9371
 20
123.1773
 11
175.9371
 21
113.9773
  0
LINE
  8
0
  6
CONTINUOUS
 62
     7
 10
175.1371
 20
113.1773
 11
162.7371
 21
113.1773
  0
LINE
  8
0
  6
CONTINUOUS
 62
     7
 10
161.9371
 20
123.1773
 11
161.9371
 21
113.9773
  0
LINE
  8
0
  6
CENTER
 62
     2
 10
175.1371
 20
118.6773
 11
162.7371
 21
118.6773
  0
LINE
  8
0
  6
CENTER
 62
     2
 10
170.4371
 20
122.6773
 11
170.4371
 21
114.6773
  0
LINE
  8
0
  6
CENTER
 62
     2
 10
167.4371
 20
122.6773
 11
167.4371
 21
114.6773
  0
LINE
  8
0
  6
CONTINUOUS
 62
     7
 10
169.9371
 20
122.1773
 11
167.9371
 21
122.1773
  0
LINE
  8
0
  6
CONTINUOUS
 62
     7
 10
169.9371
 20
115.1773
 11
167.9371
 21
115.1773
  0
LINE
  8
0
  6
CENTER
 62
     2
 10
55.312
 20
58.35022
 11
55.312
 21
-98.69398
  0
LINE
  8
0
  6
CONTINUOUS
 62
     7
 10
42.81202
 20
27.00012
 11
41.81204
 21
26.00014
  0
LINE
  8
0
  6
CONTINUOUS
 62
     7
 10
67.81209
 20
27.00026
 11
68.81209
 21
26.00026
  0
LINE
  8
0
  6
CONTINUOUS
 62
     7
 10
65.812
 20
-28.34148
 11
68.812
 21
-28.34148
  0
LINE
  8
0
  6
CONTINUOUS
 62
     7
 10
65.812
 20
-31.6581
 11
68.812
 21
-31.6581
  0
LINE
  8
0
  6
CONTINUOUS
 62
     7
 10
65.812
 20
-28.34148
 11
65.812
 21
-31.6581
  0
LINE
  8
0
  6
CONTINUOUS
 62
     7
 10
42.81206
 20
27.00021
 11
76.51201
 21
27.00021
  0
LINE
  8
0
  6
CONTINUOUS
 62
     7
 10
41.812
 20
26.00021
 11
68.812
 21
26.00021
  0
LINE
  8
0
  6
CONTINUOUS
 62
     7
 10
41.81206
 20
-35.99977
 11
68.812
 21
-35.99977
  0
LINE
  8
0
  6
CONTINUOUS
 62
     7
 10
41.81206
 20
6.00021
 11
68.812
 21
6.00021
  0
LINE
  8
0
  6
CONTINUOUS
 62
     7
 10
41.81206
 20
26.00021
 11
41.81206
 21
-66.19978
  0
LINE
  8
0
  6
CONTINUOUS
 62
     7
 10
41.81215
 20
-66.19968
 11
42.81215
 21
-67.19969
  0
LINE
  8
0
  6
CONTINUOUS
 62
     7
 10
68.812
 20
26.00021
 11
68.812
 21
-66.19978
  0
LINE
  8
0
  6
CONTINUOUS
 62
     7
 10
67.81201
 20
-67.19978
 11
68.81199
 21
-66.19981
  0
LINE
  8
0
  6
CONTINUOUS
 62
     7
 10
41.81206
 20
-66.19978
 11
68.812
 21
-66.19978
  0
LINE
  8
0
  6
CONTINUOUS
 62
     7
 10
42.81206
 20
-67.19978
 11
76.51201
 21
-67.19978
  0
LINE
  8
0
  6
CENTER
 62
     2
 10
64.24223
 20
-29.99979
 11
70.09019
 21
-29.99979
  0
LINE
  8
0
  6
CENTER
 62
     2
 10
39.89171
 20
-14.99979
 11
70.97868
 21
-14.99979
  0
LINE
  8
0
  6
CONTINUOUS
 62
     7
 10
43.312
 20
52.20021
 11
67.312
 21
52.20021
  0
LINE
  8
0
  6
CONTINUOUS
 62
     7
 10
43.312
 20
53.20021
 11
43.312
 21
27.00021
  0
LINE
  8
0
  6
CONTINUOUS
 62
     7
 10
67.312
 20
53.20021
 11
67.312
 21
27.00021
  0
LINE
  8
0
  6
CONTINUOUS
 62
     7
 10
77.312
 20
50.70021
 11
77.312
 21
27.80022
  0
LINE
  8
0
  6
CONTINUOUS
 62
     7
 10
44.312
 20
55.20021
 11
62.48625
 21
55.20021
  0
LINE
  8
0
  6
CONTINUOUS
 62
     7
 10
43.312
 20
53.20021
 11
67.312
 21
53.20021
  0
LINE
  8
0
  6
CONTINUOUS
 62
     7
 10
43.31205
 20
53.20023
 11
44.31205
 21
55.20021
  0
LINE
  8
0
  6
CONTINUOUS
 62
     7
 10
67.31207
 20
53.20028
 11
66.31207
 21
55.20027
  0
LINE
  8
0
  6
CONTINUOUS
 62
     7
 10
61.312
 20
55.20021
 11
61.312
 21
53.20021
  0
LINE
  8
0
  6
CENTER
 62
     2
 10
64.312
 20
58.20021
 11
64.312
 21
49.20021
  0
LINE
  8
0
  6
CONTINUOUS
 62
     7
 10
66.86198
 20
53.80022
 11
61.76201
 21
53.80022
  0
LINE
  8
0
  6
CONTINUOUS
 62
     7
 10
64.012
 20
53.2002
 11
63.85123
 21
53.80021
  0
LINE
  8
0
  6
CONTINUOUS
 62
     7
 10
64.61185
 20
53.80017
 11
64.77262
 21
53.20018
  0
LINE
  8
0
  6
CONTINUOUS
 62
     7
 10
66.86198
 20
53.80022
 11
66.86198
 21
53.20021
  0
LINE
  8
0
  6
CONTINUOUS
 62
     7
 10
61.76201
 20
53.80022
 11
61.76201
 21
53.20021
  0
LINE
  8
0
  6
CONTINUOUS
 62
     7
 10
66.56206
 20
54.49397
 11
66.56206
 21
53.80022
  0
LINE
  8
0
  6
CONTINUOUS
 62
     7
 10
62.06206
 20
54.49394
 11
62.06206
 21
53.8002
  0
LINE
  8
0
  6
CONTINUOUS
 62
     7
 10
66.1378
 20
55.20021
 11
66.312
 21
55.20021
  0
LINE
  8
0
  6
CENTER
 62
     2
 10
46.312
 20
58.20021
 11
46.312
 21
49.20021
  0
LINE
  8
0
  6
CENTER
 62
     2
 10
71.812
 20
76.00021
 11
71.812
 21
48.50021
  0
LINE
  8
0
  6
CONTINUOUS
 62
     7
 10
70.96202
 20
63.00021
 11
70.96202
 21
59.00443
  0
LINE
  8
0
  6
CONTINUOUS
 62
     7
 10
72.66203
 20
63.00021
 11
72.66203
 21
58.5489
  0
LINE
  8
0
  6
CONTINUOUS
 62
     7
 10
71.49199
 20
73.00021
 11
71.49199
 21
63.00021
  0
LINE
  8
0
  6
CONTINUOUS
 62
     7
 10
72.132
 20
73.00021
 11
72.132
 21
63.00021
  0
LINE
  8
0
  6
CONTINUOUS
 62
     7
 10
72.66203
 20
63.00021
 11
70.96202
 21
63.00021
  0
LINE
  8
0
  6
CONTINUOUS
 62
     7
 10
72.132
 20
73.00021
 11
71.49199
 21
73.00021
  0
LINE
  8
0
  6
PHANTOM
 62
     2
 10
68.96207
 20
57.98746
 11
74.66206
 21
56.46016
  0
LINE
  8
0
  6
PHANTOM
 62
     2
 10
68.96204
 20
59.54037
 11
74.66203
 21
58.01307
  0
LINE
  8
0
  6
CONTINUOUS
 62
     7
 10
72.66203
 20
56.996
 11
72.66203
 21
53.00021
  0
LINE
  8
0
  6
CONTINUOUS
 62
     7
 10
70.96202
 20
57.45151
 11
70.96202
 21
53.00021
  0
LINE
  8
0
  6
CONTINUOUS
 62
     7
 10
68.312
 20
52.50021
 11
68.312
 21
51.50021
  0
LINE
  8
0
  6
CONTINUOUS
 62
     7
 10
74.812
 20
53.00021
 11
68.812
 21
53.00021
  0
LINE
  8
0
  6
CONTINUOUS
 62
     7
 10
75.312
 20
52.50021
 11
75.312
 21
51.50021
  0
LINE
  8
0
  6
CONTINUOUS
 62
     7
 10
67.312
 20
51.50021
 11
76.51201
 21
51.50021
  0
LINE
  8
0
  6
CONTINUOUS
 62
     7
 10
43.312
 20
-92.3998
 11
67.312
 21
-92.3998
  0
LINE
  8
0
  6
CONTINUOUS
 62
     7
 10
43.312
 20
-93.3998
 11
43.312
 21
-67.19978
  0
LINE
  8
0
  6
CONTINUOUS
 62
     7
 10
67.312
 20
-93.3998
 11
67.312
 21
-67.19978
  0
LINE
  8
0
  6
CONTINUOUS
 62
     7
 10
77.312
 20
-90.8998
 11
77.312
 21
-67.99977
  0
LINE
  8
0
  6
CONTINUOUS
 62
     7
 10
66.312
 20
-95.3998
 11
48.1378
 21
-95.3998
  0
LINE
  8
0
  6
CONTINUOUS
 62
     7
 10
43.312
 20
-93.3998
 11
67.312
 21
-93.3998
  0
LINE
  8
0
  6
CONTINUOUS
 62
     7
 10
67.31207
 20
-93.39982
 11
66.31207
 21
-95.39983
  0
LINE
  8
0
  6
CONTINUOUS
 62
     7
 10
43.31217
 20
-93.3997
 11
44.31217
 21
-95.39969
  0
LINE
  8
0
  6
CONTINUOUS
 62
     7
 10
49.312
 20
-95.3998
 11
49.312
 21
-93.3998
  0
LINE
  8
0
  6
CENTER
 62
     2
 10
46.312
 20
-98.3998
 11
46.312
 21
-89.3998
  0
LINE
  8
0
  6
CONTINUOUS
 62
     7
 10
43.76201
 20
-93.99977
 11
48.86198
 21
-93.99977
  0
LINE
  8
0
  6
CONTINUOUS
 62
     7
 10
46.6123
 20
-93.3997
 11
46.77308
 21
-93.99969
  0
LINE
  8
0
  6
CONTINUOUS
 62
     7
 10
46.01228
 20
-93.9997
 11
45.8515
 21
-93.3997
  0
LINE
  8
0
  6
CONTINUOUS
 62
     7
 10
43.76201
 20
-93.99977
 11
43.76201
 21
-93.3998
  0
LINE
  8
0
  6
CONTINUOUS
 62
     7
 10
48.86198
 20
-93.99977
 11
48.86198
 21
-93.3998
  0
LINE
  8
0
  6
CONTINUOUS
 62
     7
 10
44.062
 20
-94.69353
 11
44.062
 21
-93.99977
  0
LINE
  8
0
  6
CONTINUOUS
 62
     7
 10
48.562
 20
-94.69353
 11
48.562
 21
-93.99977
  0
LINE
  8
0
  6
CONTINUOUS
 62
     7
 10
44.48625
 20
-95.3998
 11
44.312
 21
-95.3998
  0
LINE
  8
0
  6
CENTER
 62
     2
 10
64.312
 20
-98.3998
 11
64.312
 21
-89.3998
  0
LINE
  8
0
  6
CONTINUOUS
 62
     7
 10
67.312
 20
-91.69978
 11
76.51201
 21
-91.69978
  0
LINE
  8
0
  6
CENTER
 62
     2
 10
71.812
 20
-116.1998
 11
71.812
 21
-88.69978
  0
LINE
  8
0
  6
CONTINUOUS
 62
     7
 10
72.66203
 20
-103.1998
 11
72.66203
 21
-99.20399
  0
LINE
  8
0
  6
CONTINUOUS
 62
     7
 10
70.96202
 20
-103.1998
 11
70.96202
 21
-98.74849
  0
LINE
  8
0
  6
CONTINUOUS
 62
     7
 10
72.132
 20
-113.1998
 11
72.132
 21
-103.1998
  0
LINE
  8
0
  6
CONTINUOUS
 62
     7
 10
71.49199
 20
-113.1998
 11
71.49199
 21
-103.1998
  0
LINE
  8
0
  6
CONTINUOUS
 62
     7
 10
70.96202
 20
-103.1998
 11
72.66203
 21
-103.1998
  0
LINE
  8
0
  6
CONTINUOUS
 62
     7
 10
71.49199
 20
-113.1998
 11
72.132
 21
-113.1998
  0
LINE
  8
0
  6
PHANTOM
 62
     2
 10
74.66206
 20
-98.18691
 11
68.96207
 21
-96.65961
  0
LINE
  8
0
  6
PHANTOM
 62
     2
 10
74.66202
 20
-99.73978
 11
68.96204
 21
-98.21247
  0
LINE
  8
0
  6
CONTINUOUS
 62
     7
 10
70.96202
 20
-97.19557
 11
70.96202
 21
-93.19978
  0
LINE
  8
0
  6
CONTINUOUS
 62
     7
 10
72.66203
 20
-97.65108
 11
72.66203
 21
-93.19978
  0
LINE
  8
0
  6
CONTINUOUS
 62
     7
 10
75.312
 20
-92.69978
 11
75.312
 21
-91.69978
  0
LINE
  8
0
  6
CONTINUOUS
 62
     7
 10
68.812
 20
-93.19978
 11
74.812
 21
-93.19978
  0
LINE
  8
0
  6
CONTINUOUS
 62
     7
 10
68.312
 20
-92.69978
 11
68.312
 21
-91.69978
  0
LINE
  8
0
  6
CENTER
 62
     2
 10
285.5609
 20
58.35031
 11
285.5609
 21
-99.99971
  0
LINE
  8
0
  6
CONTINUOUS
 62
     7
 10
272.061
 20
26.00031
 11
272.061
 21
-66.19969
  0
LINE
  8
0
  6
CONTINUOUS
 62
     7
 10
299.0609
 20
26.00031
 11
299.0609
 21
-66.19969
  0
LINE
  8
0
  6
CONTINUOUS
 62
     7
 10
298.0609
 20
27.00029
 11
299.0609
 21
26.00029
  0
LINE
  8
0
  6
CONTINUOUS
 62
     7
 10
273.0609
 20
27.00029
 11
272.0609
 21
26.00027
  0
LINE
  8
0
  6
CONTINUOUS
 62
     7
 10
275.061
 20
1.65862
 11
272.061
 21
1.65862
  0
LINE
  8
0
  6
CONTINUOUS
 62
     7
 10
275.061
 20
-1.658
 11
272.061
 21
-1.658
  0
LINE
  8
0
  6
CONTINUOUS
 62
     7
 10
275.061
 20
1.65862
 11
275.061
 21
-1.658
  0
LINE
  8
0
  6
CONTINUOUS
 62
     7
 10
298.0609
 20
27.00031
 11
264.3609
 21
27.00031
  0
LINE
  8
0
  6
CONTINUOUS
 62
     7
 10
299.0609
 20
26.00031
 11
272.061
 21
26.00031
  0
LINE
  8
0
  6
CENTER
 62
     2
 10
269.561
 20
-14.99969
 11
301.8146
 21
-14.99969
  0
LINE
  8
0
  6
CONTINUOUS
 62
     7
 10
299.0609
 20
-35.99971
 11
272.061
 21
-35.99971
  0
LINE
  8
0
  6
CONTINUOUS
 62
     7
 10
299.0609
 20
6.00031
 11
272.061
 21
6.00031
  0
LINE
  8
0
  6
CONTINUOUS
 62
     7
 10
272.0609
 20
-66.19971
 11
273.0609
 21
-67.19971
  0
LINE
  8
0
  6
CONTINUOUS
 62
     7
 10
299.0609
 20
-66.19963
 11
298.0609
 21
-67.19965
  0
LINE
  8
0
  6
CONTINUOUS
 62
     7
 10
272.061
 20
-66.19969
 11
299.0609
 21
-66.19969
  0
LINE
  8
0
  6
CONTINUOUS
 62
     7
 10
298.0609
 20
-67.19966
 11
264.3609
 21
-67.19966
  0
LINE
  8
0
  6
CENTER
 62
     2
 10
270.537
 20
0.00031
 11
276.0937
 21
0.00031
  0
LINE
  8
0
  6
CONTINUOUS
 62
     7
 10
297.5609
 20
52.2003
 11
273.5609
 21
52.2003
  0
LINE
  8
0
  6
CONTINUOUS
 62
     7
 10
297.5609
 20
53.2003
 11
297.5609
 21
27.00031
  0
LINE
  8
0
  6
CONTINUOUS
 62
     7
 10
273.5609
 20
53.2003
 11
273.5609
 21
27.00031
  0
LINE
  8
0
  6
CONTINUOUS
 62
     7
 10
263.5609
 20
50.7003
 11
263.5609
 21
27.80031
  0
LINE
  8
0
  6
CONTINUOUS
 62
     7
 10
274.5609
 20
55.2003
 11
292.7352
 21
55.2003
  0
LINE
  8
0
  6
CONTINUOUS
 62
     7
 10
297.5609
 20
53.2003
 11
273.5609
 21
53.2003
  0
LINE
  8
0
  6
CONTINUOUS
 62
     7
 10
273.561
 20
53.20029
 11
274.561
 21
55.20028
  0
LINE
  8
0
  6
CONTINUOUS
 62
     7
 10
297.561
 20
53.20035
 11
296.561
 21
55.20035
  0
LINE
  8
0
  6
CONTINUOUS
 62
     7
 10
291.5609
 20
55.2003
 11
291.5609
 21
53.2003
  0
LINE
  8
0
  6
CENTER
 62
     2
 10
294.5609
 20
58.2003
 11
294.5609
 21
49.2003
  0
LINE
  8
0
  6
CONTINUOUS
 62
     7
 10
297.1109
 20
53.80031
 11
292.0109
 21
53.80031
  0
LINE
  8
0
  6
CONTINUOUS
 62
     7
 10
294.2611
 20
53.20035
 11
294.1003
 21
53.80035
  0
LINE
  8
0
  6
CONTINUOUS
 62
     7
 10
294.8611
 20
53.80038
 11
295.0219
 21
53.20037
  0
LINE
  8
0
  6
CONTINUOUS
 62
     7
 10
297.1109
 20
53.80031
 11
297.1109
 21
53.2003
  0
LINE
  8
0
  6
CONTINUOUS
 62
     7
 10
292.0109
 20
53.80031
 11
292.0109
 21
53.2003
  0
LINE
  8
0
  6
CONTINUOUS
 62
     7
 10
296.8109
 20
54.49406
 11
296.8109
 21
53.80031
  0
LINE
  8
0
  6
CONTINUOUS
 62
     7
 10
292.3109
 20
54.49406
 11
292.3109
 21
53.80031
  0
LINE
  8
0
  6
CONTINUOUS
 62
     7
 10
296.3867
 20
55.2003
 11
296.5609
 21
55.2003
  0
LINE
  8
0
  6
CENTER
 62
     2
 10
276.5609
 20
58.2003
 11
276.5609
 21
49.2003
  0
LINE
  8
0
  6
CONTINUOUS
 62
     7
 10
273.5609
 20
51.50031
 11
264.361
 21
51.50031
  0
LINE
  8
0
  6
CENTER
 62
     2
 10
269.0609
 20
76.00031
 11
269.0609
 21
48.50031
  0
LINE
  8
0
  6
CONTINUOUS
 62
     7
 10
268.2109
 20
63.00031
 11
268.2109
 21
59.00452
  0
LINE
  8
0
  6
CONTINUOUS
 62
     7
 10
269.9109
 20
63.00031
 11
269.9109
 21
58.54901
  0
LINE
  8
0
  6
CONTINUOUS
 62
     7
 10
268.741
 20
73.00031
 11
268.741
 21
63.00031
  0
LINE
  8
0
  6
CONTINUOUS
 62
     7
 10
269.3809
 20
73.00031
 11
269.3809
 21
63.00031
  0
LINE
  8
0
  6
CONTINUOUS
 62
     7
 10
269.9109
 20
63.00031
 11
268.2109
 21
63.00031
  0
LINE
  8
0
  6
CONTINUOUS
 62
     7
 10
269.3809
 20
73.00031
 11
268.741
 21
73.00031
  0
LINE
  8
0
  6
PHANTOM
 62
     2
 10
266.211
 20
57.98754
 11
271.9109
 21
56.46023
  0
LINE
  8
0
  6
PHANTOM
 62
     2
 10
266.2109
 20
59.54047
 11
271.9109
 21
58.01315
  0
LINE
  8
0
  6
CONTINUOUS
 62
     7
 10
269.9109
 20
56.99609
 11
269.9109
 21
53.00031
  0
LINE
  8
0
  6
CONTINUOUS
 62
     7
 10
268.2109
 20
57.45161
 11
268.2109
 21
53.00031
  0
LINE
  8
0
  6
CONTINUOUS
 62
     7
 10
265.5609
 20
52.50031
 11
265.5609
 21
51.50031
  0
LINE
  8
0
  6
CONTINUOUS
 62
     7
 10
272.0609
 20
53.00031
 11
266.0609
 21
53.00031
  0
LINE
  8
0
  6
CONTINUOUS
 62
     7
 10
272.5609
 20
52.50031
 11
272.5609
 21
51.50031
  0
LINE
  8
0
  6
CONTINUOUS
 62
     7
 10
297.5609
 20
-92.39967
 11
273.5609
 21
-92.39967
  0
LINE
  8
0
  6
CONTINUOUS
 62
     7
 10
297.5609
 20
-93.39967
 11
297.5609
 21
-67.19969
  0
LINE
  8
0
  6
CONTINUOUS
 62
     7
 10
273.5609
 20
-93.39967
 11
273.5609
 21
-67.19969
  0
LINE
  8
0
  6
CONTINUOUS
 62
     7
 10
263.5609
 20
-90.89967
 11
263.5609
 21
-67.99968
  0
LINE
  8
0
  6
CONTINUOUS
 62
     7
 10
296.5609
 20
-95.39967
 11
278.3867
 21
-95.39967
  0
LINE
  8
0
  6
CONTINUOUS
 62
     7
 10
297.5609
 20
-93.39967
 11
273.5609
 21
-93.39967
  0
LINE
  8
0
  6
CONTINUOUS
 62
     7
 10
297.5609
 20
-93.3997
 11
296.5609
 21
-95.39968
  0
LINE
  8
0
  6
CONTINUOUS
 62
     7
 10
273.561
 20
-93.39965
 11
274.561
 21
-95.39964
  0
LINE
  8
0
  6
CONTINUOUS
 62
     7
 10
279.5609
 20
-95.39967
 11
279.5609
 21
-93.39967
  0
LINE
  8
0
  6
CENTER
 62
     2
 10
276.5609
 20
-98.39967
 11
276.5609
 21
-89.39967
  0
LINE
  8
0
  6
CONTINUOUS
 62
     7
 10
274.0109
 20
-93.99968
 11
279.1109
 21
-93.99968
  0
LINE
  8
0
  6
CONTINUOUS
 62
     7
 10
276.861
 20
-93.39965
 11
277.0218
 21
-93.99965
  0
LINE
  8
0
  6
CONTINUOUS
 62
     7
 10
276.2607
 20
-93.99975
 11
276.0999
 21
-93.39976
  0
LINE
  8
0
  6
CONTINUOUS
 62
     7
 10
274.0109
 20
-93.99968
 11
274.0109
 21
-93.39967
  0
LINE
  8
0
  6
CONTINUOUS
 62
     7
 10
279.1109
 20
-93.99968
 11
279.1109
 21
-93.39967
  0
LINE
  8
0
  6
CONTINUOUS
 62
     7
 10
274.3109
 20
-94.69344
 11
274.3109
 21
-93.99968
  0
LINE
  8
0
  6
CONTINUOUS
 62
     7
 10
278.8109
 20
-94.69344
 11
278.8109
 21
-93.99968
  0
LINE
  8
0
  6
CONTINUOUS
 62
     7
 10
274.7352
 20
-95.39967
 11
274.5609
 21
-95.39967
  0
LINE
  8
0
  6
CENTER
 62
     2
 10
294.5609
 20
-98.39967
 11
294.5609
 21
-89.39967
  0
LINE
  8
0
  6
CENTER
 62
     2
 10
269.0609
 20
-116.1997
 11
269.0609
 21
-88.69969
  0
LINE
  8
0
  6
CONTINUOUS
 62
     7
 10
269.9109
 20
-103.1997
 11
269.9109
 21
-99.2039
  0
LINE
  8
0
  6
CONTINUOUS
 62
     7
 10
268.2109
 20
-103.1997
 11
268.2109
 21
-98.74837
  0
LINE
  8
0
  6
CONTINUOUS
 62
     7
 10
269.3809
 20
-113.1997
 11
269.3809
 21
-103.1997
  0
LINE
  8
0
  6
CONTINUOUS
 62
     7
 10
268.7409
 20
-113.1997
 11
268.7409
 21
-103.1997
  0
LINE
  8
0
  6
CONTINUOUS
 62
     7
 10
268.2109
 20
-103.1997
 11
269.9109
 21
-103.1997
  0
LINE
  8
0
  6
CONTINUOUS
 62
     7
 10
268.7409
 20
-113.1997
 11
269.3809
 21
-113.1997
  0
LINE
  8
0
  6
PHANTOM
 62
     2
 10
271.9109
 20
-98.1868
 11
266.2109
 21
-96.65948
  0
LINE
  8
0
  6
PHANTOM
 62
     2
 10
271.9109
 20
-99.73966
 11
266.2109
 21
-98.21236
  0
LINE
  8
0
  6
CONTINUOUS
 62
     7
 10
268.2109
 20
-97.19545
 11
268.2109
 21
-93.19969
  0
LINE
  8
0
  6
CONTINUOUS
 62
     7
 10
269.9109
 20
-97.65099
 11
269.9109
 21
-93.19969
  0
LINE
  8
0
  6
CONTINUOUS
 62
     7
 10
272.5609
 20
-92.69969
 11
272.5609
 21
-91.69969
  0
LINE
  8
0
  6
CONTINUOUS
 62
     7
 10
266.0609
 20
-93.19969
 11
272.0609
 21
-93.19969
  0
LINE
  8
0
  6
CONTINUOUS
 62
     7
 10
265.5609
 20
-92.69969
 11
265.5609
 21
-91.69969
  0
LINE
  8
0
  6
CONTINUOUS
 62
     7
 10
273.5609
 20
-91.69969
 11
264.3609
 21
-91.69969
  0
LINE
  8
0
  6
CENTER
 62
     2
 10
168.937
 20
-189.6753
 11
168.937
 21
-148.9782
  0
LINE
  8
0
  6
CENTER
 62
     2
 10
180.687
 20
-173.7791
 11
156.7096
 21
-173.7791
  0
LINE
  8
0
  6
CONTINUOUS
 62
     7
 10
175.937
 20
-161.2791
 11
176.937
 21
-161.2791
  0
LINE
  8
0
  6
CONTINUOUS
 62
     7
 10
161.937
 20
-160.2791
 11
160.437
 21
-160.2791
  0
LINE
  8
0
  6
CONTINUOUS
 62
     7
 10
159.937
 20
-186.7791
 11
159.937
 21
-160.7791
  0
LINE
  8
0
  6
CONTINUOUS
 62
     7
 10
177.937
 20
-186.7791
 11
177.937
 21
-160.7791
  0
LINE
  8
0
  6
CONTINUOUS
 62
     7
 10
177.437
 20
-160.2791
 11
175.937
 21
-160.2791
  0
LINE
  8
0
  6
CONTINUOUS
 62
     7
 10
177.437
 20
-187.2791
 11
160.437
 21
-187.2791
  0
LINE
  8
0
  6
CONTINUOUS
 62
     7
 10
160.937
 20
-186.2791
 11
160.937
 21
-161.2791
  0
LINE
  8
0
  6
CONTINUOUS
 62
     7
 10
176.937
 20
-186.2791
 11
176.937
 21
-161.2791
  0
LINE
  8
0
  6
CONTINUOUS
 62
     7
 10
160.937
 20
-186.2791
 11
176.937
 21
-186.2791
  0
LINE
  8
0
  6
CONTINUOUS
 62
     7
 10
160.937
 20
-161.2791
 11
161.937
 21
-161.2791
  0
LINE
  8
0
  6
CONTINUOUS
 62
     7
 10
176.937
 20
-161.2791
 11
177.7906
 21
-160.4255
  0
LINE
  8
0
  6
CONTINUOUS
 62
     7
 10
176.937
 20
-186.2791
 11
177.7905
 21
-187.1326
  0
LINE
  8
0
  6
CONTINUOUS
 62
     7
 10
160.937
 20
-161.279
 11
160.0835
 21
-160.4255
  0
LINE
  8
0
  6
CONTINUOUS
 62
     7
 10
160.937
 20
-186.2791
 11
160.0835
 21
-187.1327
  0
LINE
  8
0
  6
CONTINUOUS
 62
     7
 10
161.437
 20
-161.7791
 11
176.437
 21
-161.7791
  0
LINE
  8
0
  6
CONTINUOUS
 62
     7
 10
170.437
 20
-164.7791
 11
170.437
 21
-161.7791
  0
LINE
  8
0
  6
CONTINUOUS
 62
     7
 10
167.437
 20
-182.7791
 11
167.437
 21
-185.7791
  0
LINE
  8
0
  6
CONTINUOUS
 62
     7
 10
164.437
 20
-179.7791
 11
161.437
 21
-179.7791
  0
LINE
  8
0
  6
CONTINUOUS
 62
     7
 10
173.437
 20
-167.7791
 11
176.437
 21
-167.7791
  0
LINE
  8
0
  6
CONTINUOUS
 62
     7
 10
167.437
 20
-184.7791
 11
175.437
 21
-184.7791
  0
LINE
  8
0
  6
CONTINUOUS
 62
     7
 10
162.437
 20
-162.7791
 11
170.437
 21
-162.7791
  0
LINE
  8
0
  6
CONTINUOUS
 62
     7
 10
162.437
 20
-179.7791
 11
162.437
 21
-162.7791
  0
LINE
  8
0
  6
CONTINUOUS
 62
     7
 10
175.437
 20
-184.7791
 11
175.437
 21
-167.7791
  0
LINE
  8
0
  6
CONTINUOUS
 62
     7
 10
175.6669
 20
-164.4791
 11
175.9693
 21
-164.4791
  0
LINE
  8
0
  6
CONTINUOUS
 62
     7
 10
175.6669
 20
-165.0791
 11
175.9693
 21
-165.0791
  0
LINE
  8
0
  6
CONTINUOUS
 62
     7
 10
175.945
 20
-165.2399
 11
175.6393
 21
-165.2399
  0
LINE
  8
0
  6
CONTINUOUS
 62
     7
 10
162.2071
 20
-183.0791
 11
161.9047
 21
-183.0791
  0
LINE
  8
0
  6
CONTINUOUS
 62
     7
 10
162.2071
 20
-182.4791
 11
161.9047
 21
-182.4791
  0
LINE
  8
0
  6
CONTINUOUS
 62
     7
 10
161.929
 20
-182.3183
 11
162.2347
 21
-182.3183
  0
LINE
  8
0
  6
CONTINUOUS
 62
     7
 10
174.1724
 20
-165.8822
 11
173.8047
 21
-165.5145
  0
LINE
  8
0
  6
CONTINUOUS
 62
     7
 10
174.54
 20
-165.5146
 11
174.1723
 21
-165.1469
  0
LINE
  8
0
  6
CONTINUOUS
 62
     7
 10
174.1724
 20
-165.8821
 11
174.5401
 21
-165.5145
  0
LINE
  8
0
  6
CONTINUOUS
 62
     7
 10
172.3339
 20
-164.0437
 11
172.7016
 21
-163.676
  0
LINE
  8
0
  6
CONTINUOUS
 62
     7
 10
172.0405
 20
-166.5433
 11
173.0693
 21
-165.5145
  0
LINE
  8
0
  6
CONTINUOUS
 62
     7
 10
171.6728
 20
-166.1756
 11
172.7016
 21
-165.1467
  0
LINE
  8
0
  6
CONTINUOUS
 62
     7
 10
172.7016
 20
-164.4114
 11
172.3339
 21
-164.0437
  0
LINE
  8
0
  6
CONTINUOUS
 62
     7
 10
173.0692
 20
-164.0438
 11
172.7016
 21
-163.6761
  0
LINE
  8
0
  6
CONTINUOUS
 62
     7
 10
174.1724
 20
-164.4114
 11
175.2012
 21
-163.3826
  0
LINE
  8
0
  6
CONTINUOUS
 62
     7
 10
173.8047
 20
-164.0437
 11
174.8335
 21
-163.0149
  0
LINE
  8
0
  6
CONTINUOUS
 62
     7
 10
165.1724
 20
-183.8822
 11
164.8047
 21
-183.5145
  0
LINE
  8
0
  6
CONTINUOUS
 62
     7
 10
165.54
 20
-183.5146
 11
165.1723
 21
-183.1469
  0
LINE
  8
0
  6
CONTINUOUS
 62
     7
 10
165.1724
 20
-183.8822
 11
165.5401
 21
-183.5145
  0
LINE
  8
0
  6
CONTINUOUS
 62
     7
 10
163.3339
 20
-182.0437
 11
163.7016
 21
-181.676
  0
LINE
  8
0
  6
CONTINUOUS
 62
     7
 10
163.0405
 20
-184.5433
 11
164.0693
 21
-183.5145
  0
LINE
  8
0
  6
CONTINUOUS
 62
     7
 10
162.6728
 20
-184.1756
 11
163.7016
 21
-183.1468
  0
LINE
  8
0
  6
CONTINUOUS
 62
     7
 10
163.7016
 20
-182.4114
 11
163.3339
 21
-182.0437
  0
LINE
  8
0
  6
CONTINUOUS
 62
     7
 10
164.0692
 20
-182.0438
 11
163.7015
 21
-181.6761
  0
LINE
  8
0
  6
CONTINUOUS
 62
     7
 10
165.1724
 20
-182.4114
 11
166.2012
 21
-181.3826
  0
LINE
  8
0
  6
CONTINUOUS
 62
     7
 10
164.8047
 20
-182.0437
 11
165.8335
 21
-181.0149
  0
LINE
  8
0
  6
CENTER
 62
     2
 10
169.437
 20
-164.7791
 11
177.437
 21
-164.7791
  0
LINE
  8
0
  6
CENTER
 62
     2
 10
160.437
 20
-182.7791
 11
168.437
 21
-182.7791
  0
LINE
  8
0
  6
CENTER
 62
     2
 10
164.437
 20
-186.7791
 11
164.437
 21
-178.7791
  0
LINE
  8
0
  6
CENTER
 62
     2
 10
173.437
 20
-168.7791
 11
173.437
 21
-160.7791
  0
LINE
  8
0
  6
CONTINUOUS
 62
     7
 10
161.437
 20
-185.2791
 11
161.437
 21
-161.7791
  0
LINE
  8
0
  6
CONTINUOUS
 62
     7
 10
161.937
 20
-185.7791
 11
175.937
 21
-185.7791
  0
LINE
  8
0
  6
CONTINUOUS
 62
     7
 10
176.437
 20
-185.2791
 11
176.437
 21
-161.7791
  0
LINE
  8
0
  6
CONTINUOUS
 62
     7
 10
161.937
 20
-161.7791
 11
161.937
 21
-152.5791
  0
LINE
  8
0
  6
CONTINUOUS
 62
     7
 10
162.737
 20
-151.7791
 11
175.137
 21
-151.7791
  0
LINE
  8
0
  6
CONTINUOUS
 62
     7
 10
175.937
 20
-161.7791
 11
175.937
 21
-152.5791
  0
LINE
  8
0
  6
CENTER
 62
     2
 10
162.737
 20
-157.2791
 11
175.137
 21
-157.2791
  0
LINE
  8
0
  6
CENTER
 62
     2
 10
167.437
 20
-161.2791
 11
167.437
 21
-153.2791
  0
LINE
  8
0
  6
CENTER
 62
     2
 10
170.437
 20
-161.2791
 11
170.437
 21
-153.2791
  0
LINE
  8
0
  6
CONTINUOUS
 62
     7
 10
167.937
 20
-160.7791
 11
169.937
 21
-160.7791
  0
LINE
  8
0
  6
CONTINUOUS
 62
     7
 10
167.937
 20
-153.7791
 11
169.937
 21
-153.7791
  0
ARC
  8
0
  6
CONTINUOUS
 62
     7
 10
273.0354
 20
-235.0457
 40
2.21188
 50
0.0
 51
89.99999
  0
ARC
  8
0
  6
CONTINUOUS
 62
     7
 10
291.2836
 20
-246.9346
 40
2.2119
 50
270.0
 51
0.0
  0
ARC
  8
0
  6
CONTINUOUS
 62
     7
 10
290.1776
 20
-236.1516
 40
3.31784
 50
0.0
 51
89.99999
  0
ARC
  8
0
  6
CONTINUOUS
 62
     7
 10
310.3611
 20
-236.8128
 40
2.21189
 50
295.0
 51
0.0
  0
ARC
  8
0
  6
CONTINUOUS
 62
     7
 10
310.3611
 20
-235.0457
 40
2.21188
 50
0.0
 51
89.99999
  0
ARC
  8
0
  6
CONTINUOUS
 62
     7
 10
327.5034
 20
-232.8338
 40
3.31784
 50
291.6884
 51
0.0
  0
ARC
  8
0
  6
CONTINUOUS
 62
     7
 10
326.3973
 20
-232.0834
 40
1.10595
 50
291.689
 51
0.0
  0
CIRCLE
  8
0
  6
CONTINUOUS
 62
     7
 10
-174.4368
 20
0.0
 40
1.6
  0
CIRCLE
  8
0
  6
CONTINUOUS
 62
     7
 10
-174.4368
 20
-30.0
 40
1.6
  0
ARC
  8
0
  6
CONTINUOUS
 62
     7
 10
-160.7368
 20
27.8
 40
0.8
 50
270.0
 51
0.0
  0
ARC
  8
0
  6
CONTINUOUS
 62
     7
 10
-172.9368
 20
49.5
 40
6.0
 50
73.80862
 51
106.1914
  0
ARC
  8
0
  6
CONTINUOUS
 62
     7
 10
-171.4868
 20
54.49374
 40
0.8
 50
0.0
 51
73.8082
  0
ARC
  8
0
  6
CONTINUOUS
 62
     7
 10
-174.3868
 20
54.49374
 40
0.8
 50
106.1918
 51
180.0
  0
ARC
  8
0
  6
CONTINUOUS
 62
     7
 10
-190.9368
 20
49.49998
 40
6.0
 50
73.80862
 51
106.1914
  0
ARC
  8
0
  6
CONTINUOUS
 62
     7
 10
-192.3868
 20
54.49373
 40
0.8
 50
106.1918
 51
118.0138
  0
ARC
  8
0
  6
CONTINUOUS
 62
     7
 10
-189.4868
 20
54.49374
 40
0.8
 50
61.98621
 51
73.8082
  0
ARC
  8
0
  6
CONTINUOUS
 62
     7
 10
-160.7368
 20
50.7
 40
0.8
 50
0.0
 51
89.99999
  0
ARC
  8
0
  6
CONTINUOUS
 62
     7
 10
-168.4368
 20
52.5
 40
0.5
 50
89.99999
 51
180.0
  0
ARC
  8
0
  6
CONTINUOUS
 62
     7
 10
-162.4368
 20
52.5
 40
0.5
 50
0.0
 51
89.99999
  0
ARC
  8
0
  6
CONTINUOUS
 62
     7
 10
-160.7368
 20
-68.0
 40
0.8
 50
0.0
 51
89.99999
  0
ARC
  8
0
  6
CONTINUOUS
 62
     7
 10
-190.9368
 20
-89.70001
 40
6.0
 50
253.8086
 51
286.1914
  0
ARC
  8
0
  6
CONTINUOUS
 62
     7
 10
-192.3868
 20
-94.69376
 40
0.8
 50
180.0
 51
253.8083
  0
ARC
  8
0
  6
CONTINUOUS
 62
     7
 10
-189.4868
 20
-94.69376
 40
0.80001
 50
286.1917
 51
0.0
  0
ARC
  8
0
  6
CONTINUOUS
 62
     7
 10
-172.9368
 20
-89.69998
 40
6.0
 50
253.8086
 51
286.1914
  0
ARC
  8
0
  6
CONTINUOUS
 62
     7
 10
-171.4868
 20
-94.69376
 40
0.80001
 50
286.1917
 51
298.0138
  0
ARC
  8
0
  6
CONTINUOUS
 62
     7
 10
-174.3868
 20
-94.69376
 40
0.8
 50
241.9862
 51
253.8083
  0
ARC
  8
0
  6
CONTINUOUS
 62
     7
 10
-160.7368
 20
-90.89999
 40
0.8
 50
270.0
 51
0.0
  0
ARC
  8
0
  6
CONTINUOUS
 62
     7
 10
-162.4368
 20
-92.70001
 40
0.5
 50
270.0
 51
0.0
  0
ARC
  8
0
  6
CONTINUOUS
 62
     7
 10
-168.4368
 20
-92.70001
 40
0.5
 50
180.0
 51
270.0
  0
ARC
  8
0
  6
CONTINUOUS
 62
     7
 10
-194.9367
 20
133.6775
 40
0.5
 50
180.0
 51
270.0
  0
ARC
  8
0
  6
CONTINUOUS
 62
     7
 10
-168.9367
 20
133.6775
 40
0.5
 50
270.0
 51
0.0
  0
ARC
  8
0
  6
CONTINUOUS
 62
     7
 10
-168.9367
 20
150.6775
 40
0.5
 50
0.0
 51
89.99999
  0
ARC
  8
0
  6
CONTINUOUS
 62
     7
 10
-194.9367
 20
150.6775
 40
0.5
 50
89.99999
 51
180.0
  0
ARC
  8
0
  6
CONTINUOUS
 62
     7
 10
-172.9367
 20
137.6775
 40
3.0
 50
89.99999
 51
180.0
  0
ARC
  8
0
  6
CONTINUOUS
 62
     7
 10
-190.9367
 20
146.6775
 40
3.0
 50
270.0
 51
0.0
  0
ARC
  8
0
  6
CONTINUOUS
 62
     7
 10
-172.9367
 20
137.6775
 40
2.55
 50
276.7564
 51
263.2436
  0
ARC
  8
0
  6
CONTINUOUS
 62
     7
 10
-190.9367
 20
146.6775
 40
2.55
 50
96.7564
 51
83.24359
  0
CIRCLE
  8
0
  6
CONTINUOUS
 62
     7
 10
-172.9367
 20
137.6775
 40
2.25
  0
ARC
  8
0
  6
CONTINUOUS
 62
     7
 10
-172.9367
 20
138.7806
 40
0.51999
 50
225.0
 51
315.0
  0
ARC
  8
0
  6
CONTINUOUS
 62
     7
 10
-174.0397
 20
137.6775
 40
0.51999
 50
315.0
 51
45.0
  0
ARC
  8
0
  6
CONTINUOUS
 62
     7
 10
-171.8336
 20
137.6775
 40
0.51999
 50
135.0
 51
225.0
  0
ARC
  8
0
  6
CONTINUOUS
 62
     7
 10
-172.9367
 20
136.5744
 40
0.51999
 50
45.0
 51
135.0
  0
CIRCLE
  8
0
  6
CONTINUOUS
 62
     7
 10
-190.9367
 20
146.6775
 40
2.25
  0
ARC
  8
0
  6
CONTINUOUS
 62
     7
 10
-190.9367
 20
147.7806
 40
0.51999
 50
225.0
 51
315.0
  0
ARC
  8
0
  6
CONTINUOUS
 62
     7
 10
-192.0397
 20
146.6775
 40
0.51999
 50
315.0
 51
45.0
  0
ARC
  8
0
  6
CONTINUOUS
 62
     7
 10
-189.8336
 20
146.6775
 40
0.51999
 50
135.0
 51
225.0
  0
ARC
  8
0
  6
CONTINUOUS
 62
     7
 10
-190.9367
 20
145.5744
 40
0.51999
 50
45.0
 51
135.0
  0
ARC
  8
0
  6
CONTINUOUS
 62
     7
 10
-193.4367
 20
149.1775
 40
0.5
 50
89.99999
 51
180.0
  0
ARC
  8
0
  6
CONTINUOUS
 62
     7
 10
-193.4367
 20
135.1775
 40
0.5
 50
180.0
 51
270.0
  0
ARC
  8
0
  6
CONTINUOUS
 62
     7
 10
-160.7366
 20
148.3775
 40
0.8
 50
0.0
 51
89.99999
  0
ARC
  8
0
  6
CONTINUOUS
 62
     7
 10
-160.7366
 20
135.9775
 40
0.8
 50
270.0
 51
0.0
  0
ARC
  8
0
  6
CONTINUOUS
 62
     7
 10
-165.4367
 20
143.1775
 40
3.5
 50
0.0
 51
180.0
  0
ARC
  8
0
  6
CONTINUOUS
 62
     7
 10
-165.4367
 20
141.1775
 40
3.5
 50
180.0
 51
0.0
  0
CIRCLE
  8
0
  6
CONTINUOUS
 62
     7
 10
-165.4367
 20
140.6775
 40
0.85
  0
CIRCLE
  8
0
  6
CONTINUOUS
 62
     7
 10
-165.4367
 20
143.6775
 40
0.85
  0
CIRCLE
  8
0
  6
CONTINUOUS
 62
     7
 10
-300.5613
 20
-29.99985
 40
1.6
  0
CIRCLE
  8
0
  6
CONTINUOUS
 62
     7
 10
-313.5613
 20
0.00017
 40
1.6
  0
CIRCLE
  8
0
  6
CONTINUOUS
 62
     7
 10
-307.0613
 20
18.70016
 40
2.65
  0
CIRCLE
  8
0
  6
CONTINUOUS
 62
     7
 10
-306.5613
 20
-1.79984
 40
4.86435
  0
CIRCLE
  8
0
  6
CONTINUOUS
 62
     7
 10
-306.5613
 20
-1.79984
 40
4.28325
  0
CIRCLE
  8
0
  6
CONTINUOUS
 62
     7
 10
-307.5613
 20
-28.19983
 40
4.86435
  0
CIRCLE
  8
0
  6
CONTINUOUS
 62
     7
 10
-307.5613
 20
-28.19983
 40
4.28325
  0
CIRCLE
  8
0
  6
CONTINUOUS
 62
     7
 10
-307.0613
 20
-14.99985
 40
4.86435
  0
CIRCLE
  8
0
  6
CONTINUOUS
 62
     7
 10
-307.0613
 20
-14.99985
 40
4.28325
  0
CIRCLE
  8
0
  6
CONTINUOUS
 62
     7
 10
-307.0613
 20
18.70016
 40
2.0
  0
CIRCLE
  8
0
  6
CONTINUOUS
 62
     7
 10
-307.0613
 20
-58.89984
 40
2.65
  0
CIRCLE
  8
0
  6
CONTINUOUS
 62
     7
 10
-307.0613
 20
-58.89984
 40
2.0
  0
ARC
  8
0
  6
CONTINUOUS
 62
     7
 10
-310.5075
 20
47.95349
 40
0.35345
 50
0.0
 51
89.99999
  0
ARC
  8
0
  6
CONTINUOUS
 62
     7
 10
-307.5915
 20
46.05362
 40
0.35346
 50
270.0
 51
0.0
  0
ARC
  8
0
  6
CONTINUOUS
 62
     7
 10
-307.7682
 20
47.77676
 40
0.53018
 50
0.0
 51
89.99999
  0
ARC
  8
0
  6
CONTINUOUS
 62
     7
 10
-304.5428
 20
47.95349
 40
0.35345
 50
0.0
 51
89.99999
  0
ARC
  8
0
  6
CONTINUOUS
 62
     7
 10
-304.5428
 20
47.6711
 40
0.35347
 50
295.0005
 51
0.0
  0
ARC
  8
0
  6
CONTINUOUS
 62
     7
 10
-301.8035
 20
48.30695
 40
0.53019
 50
291.6869
 51
0.0
  0
ARC
  8
0
  6
CONTINUOUS
 62
     7
 10
-301.9803
 20
48.42685
 40
0.17673
 50
291.687
 51
0.0
  0
ARC
  8
0
  6
CONTINUOUS
 62
     7
 10
-313.0113
 20
54.4939
 40
0.8
 50
106.1918
 51
180.0
  0
ARC
  8
0
  6
CONTINUOUS
 62
     7
 10
-311.5613
 20
49.50015
 40
6.0
 50
73.80876
 51
106.1912
  0
ARC
  8
0
  6
CONTINUOUS
 62
     7
 10
-310.1113
 20
54.4939
 40
0.79999
 50
0.0
 51
73.8082
  0
ARC
  8
0
  6
CONTINUOUS
 62
     7
 10
-302.5613
 20
49.50015
 40
6.0
 50
73.80876
 51
106.1912
  0
ARC
  8
0
  6
CONTINUOUS
 62
     7
 10
-304.0113
 20
54.4939
 40
0.8
 50
106.1918
 51
118.0148
  0
ARC
  8
0
  6
CONTINUOUS
 62
     7
 10
-301.1113
 20
54.4939
 40
0.80001
 50
61.98524
 51
73.8082
  0
ARC
  8
0
  6
CONTINUOUS
 62
     7
 10
-303.6151
 20
-88.15314
 40
0.35345
 50
180.0
 51
270.0
  0
ARC
  8
0
  6
CONTINUOUS
 62
     7
 10
-306.5311
 20
-86.25327
 40
0.35346
 50
89.99999
 51
180.0
  0
ARC
  8
0
  6
CONTINUOUS
 62
     7
 10
-306.3544
 20
-87.97641
 40
0.53018
 50
180.0
 51
270.0
  0
ARC
  8
0
  6
CONTINUOUS
 62
     7
 10
-309.5797
 20
-88.15314
 40
0.35345
 50
180.0
 51
270.0
  0
ARC
  8
0
  6
CONTINUOUS
 62
     7
 10
-309.5797
 20
-87.87076
 40
0.35346
 50
115.0008
 51
180.0
  0
ARC
  8
0
  6
CONTINUOUS
 62
     7
 10
-312.319
 20
-88.50659
 40
0.53019
 50
111.6869
 51
180.0
  0
ARC
  8
0
  6
CONTINUOUS
 62
     7
 10
-312.1423
 20
-88.6265
 40
0.17673
 50
111.6866
 51
180.0
  0
ARC
  8
0
  6
CONTINUOUS
 62
     7
 10
-301.1113
 20
-94.69357
 40
0.80001
 50
286.1917
 51
0.0
  0
ARC
  8
0
  6
CONTINUOUS
 62
     7
 10
-302.5613
 20
-89.6998
 40
6.0
 50
253.8088
 51
286.1912
  0
ARC
  8
0
  6
CONTINUOUS
 62
     7
 10
-304.0113
 20
-94.69357
 40
0.79999
 50
180.0
 51
253.8083
  0
ARC
  8
0
  6
CONTINUOUS
 62
     7
 10
-311.5613
 20
-89.6998
 40
6.0
 50
253.8088
 51
286.1912
  0
ARC
  8
0
  6
CONTINUOUS
 62
     7
 10
-310.1113
 20
-94.69357
 40
0.80001
 50
286.1917
 51
298.0128
  0
ARC
  8
0
  6
CONTINUOUS
 62
     7
 10
-313.0113
 20
-94.69357
 40
0.80001
 50
241.9852
 51
253.8083
  0
CIRCLE
  8
0
  6
CONTINUOUS
 62
     7
 10
-49.3123
 20
-29.99991
 40
1.6
  0
CIRCLE
  8
0
  6
CONTINUOUS
 62
     7
 10
-36.3123
 20
0.00011
 40
1.6
  0
ARC
  8
0
  6
CONTINUOUS
 62
     7
 10
-36.3123
 20
0.00011
 40
3.0
 50
33.55732
 51
326.4427
  0
ARC
  8
0
  6
CONTINUOUS
 62
     7
 10
-49.3123
 20
-29.99991
 40
3.0
 50
0.0
 51
146.4427
  0
ARC
  8
0
  6
CONTINUOUS
 62
     7
 10
-49.3123
 20
-29.99991
 40
3.0
 50
213.5573
 51
0.0
  0
CIRCLE
  8
0
  6
CONTINUOUS
 62
     7
 10
-42.8123
 20
23.50011
 40
1.65
  0
CIRCLE
  8
0
  6
CONTINUOUS
 62
     7
 10
-43.3123
 20
-22.99991
 40
4.86435
  0
CIRCLE
  8
0
  6
CONTINUOUS
 62
     7
 10
-43.3123
 20
-22.99991
 40
4.28325
  0
CIRCLE
  8
0
  6
CONTINUOUS
 62
     7
 10
-42.3123
 20
-6.99991
 40
4.86435
  0
CIRCLE
  8
0
  6
CONTINUOUS
 62
     7
 10
-42.3123
 20
-6.99991
 40
4.28325
  0
CIRCLE
  8
0
  6
CONTINUOUS
 62
     7
 10
-42.8123
 20
-63.69989
 40
1.65
  0
ARC
  8
0
  6
CONTINUOUS
 62
     7
 10
-49.01231
 20
27.80011
 40
0.8
 50
180.0
 51
270.0
  0
ARC
  8
0
  6
CONTINUOUS
 62
     7
 10
-36.61229
 20
27.80011
 40
0.8
 50
270.0
 51
0.0
  0
ARC
  8
0
  6
CONTINUOUS
 62
     7
 10
-47.3123
 20
49.50009
 40
6.0
 50
73.80869
 51
106.1913
  0
ARC
  8
0
  6
CONTINUOUS
 62
     7
 10
-45.86229
 20
54.49384
 40
0.8
 50
28.9544
 51
73.80872
  0
ARC
  8
0
  6
CONTINUOUS
 62
     7
 10
-48.76231
 20
54.49384
 40
0.8
 50
106.1913
 51
180.0
  0
ARC
  8
0
  6
CONTINUOUS
 62
     7
 10
-38.3123
 20
49.50009
 40
6.0
 50
73.80865
 51
106.1913
  0
ARC
  8
0
  6
CONTINUOUS
 62
     7
 10
-39.76231
 20
54.49384
 40
0.8
 50
106.1913
 51
118.0138
  0
ARC
  8
0
  6
CONTINUOUS
 62
     7
 10
-36.86229
 20
54.49384
 40
0.8
 50
61.98621
 51
73.80872
  0
ARC
  8
0
  6
CONTINUOUS
 62
     7
 10
-49.01231
 20
50.7001
 40
0.8
 50
89.99999
 51
180.0
  0
ARC
  8
0
  6
CONTINUOUS
 62
     7
 10
-36.61229
 20
50.7001
 40
0.8
 50
0.0
 51
89.99999
  0
ARC
  8
0
  6
CONTINUOUS
 62
     7
 10
-46.8123
 20
52.50011
 40
0.5
 50
89.99999
 51
180.0
  0
ARC
  8
0
  6
CONTINUOUS
 62
     7
 10
-38.8123
 20
52.50011
 40
0.5
 50
0.0
 51
89.99999
  0
ARC
  8
0
  6
CONTINUOUS
 62
     7
 10
-36.61229
 20
-67.99991
 40
0.8
 50
0.0
 51
89.99999
  0
ARC
  8
0
  6
CONTINUOUS
 62
     7
 10
-49.01231
 20
-67.99991
 40
0.8
 50
89.99999
 51
180.0
  0
ARC
  8
0
  6
CONTINUOUS
 62
     7
 10
-38.3123
 20
-89.69989
 40
6.0
 50
253.8087
 51
286.1913
  0
ARC
  8
0
  6
CONTINUOUS
 62
     7
 10
-39.76231
 20
-94.69363
 40
0.8
 50
208.9544
 51
253.8088
  0
ARC
  8
0
  6
CONTINUOUS
 62
     7
 10
-36.86229
 20
-94.69363
 40
0.8
 50
286.1912
 51
0.0
  0
ARC
  8
0
  6
CONTINUOUS
 62
     7
 10
-47.3123
 20
-89.69989
 40
6.0
 50
253.8086
 51
286.1913
  0
ARC
  8
0
  6
CONTINUOUS
 62
     7
 10
-45.86229
 20
-94.69363
 40
0.8
 50
286.1912
 51
298.0138
  0
ARC
  8
0
  6
CONTINUOUS
 62
     7
 10
-48.76231
 20
-94.69363
 40
0.8
 50
241.9862
 51
253.8088
  0
ARC
  8
0
  6
CONTINUOUS
 62
     7
 10
-36.61229
 20
-90.8999
 40
0.8
 50
270.0
 51
0.0
  0
ARC
  8
0
  6
CONTINUOUS
 62
     7
 10
-49.01231
 20
-90.8999
 40
0.8
 50
180.0
 51
270.0
  0
ARC
  8
0
  6
CONTINUOUS
 62
     7
 10
-38.8123
 20
-92.69989
 40
0.5
 50
270.0
 51
0.0
  0
ARC
  8
0
  6
CONTINUOUS
 62
     7
 10
-46.8123
 20
-92.69989
 40
0.5
 50
180.0
 51
270.0
  0
ARC
  8
0
  6
CONTINUOUS
 62
     7
 10
-194.9367
 20
-189.279
 40
0.5
 50
180.0
 51
270.0
  0
ARC
  8
0
  6
CONTINUOUS
 62
     7
 10
-168.9367
 20
-189.279
 40
0.5
 50
270.0
 51
0.0
  0
ARC
  8
0
  6
CONTINUOUS
 62
     7
 10
-168.9367
 20
-172.279
 40
0.5
 50
0.0
 51
89.99999
  0
ARC
  8
0
  6
CONTINUOUS
 62
     7
 10
-194.9367
 20
-172.279
 40
0.5
 50
89.99999
 51
180.0
  0
ARC
  8
0
  6
CONTINUOUS
 62
     7
 10
-172.9367
 20
-185.279
 40
3.0
 50
89.99999
 51
180.0
  0
ARC
  8
0
  6
CONTINUOUS
 62
     7
 10
-190.9367
 20
-176.279
 40
3.0
 50
270.0
 51
0.0
  0
ARC
  8
0
  6
CONTINUOUS
 62
     7
 10
-172.9367
 20
-185.279
 40
2.55
 50
276.7564
 51
263.2436
  0
ARC
  8
0
  6
CONTINUOUS
 62
     7
 10
-190.9367
 20
-176.279
 40
2.55
 50
96.7564
 51
83.24359
  0
CIRCLE
  8
0
  6
CONTINUOUS
 62
     7
 10
-172.9367
 20
-185.279
 40
2.25
  0
ARC
  8
0
  6
CONTINUOUS
 62
     7
 10
-172.9367
 20
-184.1759
 40
0.51999
 50
225.0
 51
315.0
  0
ARC
  8
0
  6
CONTINUOUS
 62
     7
 10
-174.0398
 20
-185.279
 40
0.51999
 50
315.0
 51
45.0
  0
ARC
  8
0
  6
CONTINUOUS
 62
     7
 10
-171.8336
 20
-185.279
 40
0.51999
 50
135.0
 51
225.0
  0
ARC
  8
0
  6
CONTINUOUS
 62
     7
 10
-172.9367
 20
-186.3821
 40
0.51999
 50
45.0
 51
135.0
  0
CIRCLE
  8
0
  6
CONTINUOUS
 62
     7
 10
-190.9367
 20
-176.279
 40
2.25
  0
ARC
  8
0
  6
CONTINUOUS
 62
     7
 10
-190.9367
 20
-175.1759
 40
0.51999
 50
225.0
 51
315.0
  0
ARC
  8
0
  6
CONTINUOUS
 62
     7
 10
-192.0398
 20
-176.279
 40
0.51999
 50
315.0
 51
45.0
  0
ARC
  8
0
  6
CONTINUOUS
 62
     7
 10
-189.8336
 20
-176.279
 40
0.51999
 50
135.0
 51
225.0
  0
ARC
  8
0
  6
CONTINUOUS
 62
     7
 10
-190.9367
 20
-177.3821
 40
0.51999
 50
45.0
 51
135.0
  0
ARC
  8
0
  6
CONTINUOUS
 62
     7
 10
-193.4367
 20
-173.779
 40
0.5
 50
89.99999
 51
180.0
  0
ARC
  8
0
  6
CONTINUOUS
 62
     7
 10
-193.4367
 20
-187.779
 40
0.5
 50
180.0
 51
270.0
  0
ARC
  8
0
  6
CONTINUOUS
 62
     7
 10
-160.7367
 20
-174.579
 40
0.8
 50
0.0
 51
89.99999
  0
ARC
  8
0
  6
CONTINUOUS
 62
     7
 10
-160.7367
 20
-186.979
 40
0.8
 50
270.0
 51
0.0
  0
ARC
  8
0
  6
CONTINUOUS
 62
     7
 10
-165.4367
 20
-179.779
 40
3.5
 50
0.0
 51
180.0
  0
ARC
  8
0
  6
CONTINUOUS
 62
     7
 10
-165.4367
 20
-181.779
 40
3.5
 50
180.0
 51
0.0
  0
CIRCLE
  8
0
  6
CONTINUOUS
 62
     7
 10
-165.4367
 20
-182.279
 40
0.85
  0
CIRCLE
  8
0
  6
CONTINUOUS
 62
     7
 10
-165.4367
 20
-179.279
 40
0.85
  0
CIRCLE
  8
0
  6
CONTINUOUS
 62
     7
 10
162.4368
 20
-30.0
 40
1.6
  0
CIRCLE
  8
0
  6
CONTINUOUS
 62
     7
 10
175.4368
 20
0.0
 40
1.6
  0
ARC
  8
0
  6
CONTINUOUS
 62
     7
 10
175.4368
 20
0.0
 40
3.0
 50
33.55732
 51
326.4427
  0
ARC
  8
0
  6
CONTINUOUS
 62
     7
 10
162.4368
 20
-30.0
 40
3.0
 50
0.0
 51
146.4427
  0
ARC
  8
0
  6
CONTINUOUS
 62
     7
 10
162.4368
 20
-30.0
 40
3.0
 50
213.5573
 51
0.0
  0
CIRCLE
  8
0
  6
CONTINUOUS
 62
     7
 10
168.9368
 20
23.5
 40
1.65
  0
CIRCLE
  8
0
  6
CONTINUOUS
 62
     7
 10
168.9368
 20
-63.7
 40
1.65
  0
ARC
  8
0
  6
CONTINUOUS
 62
     7
 10
162.7368
 20
27.8
 40
0.8
 50
180.0
 51
270.0
  0
ARC
  8
0
  6
CONTINUOUS
 62
     7
 10
175.1368
 20
27.8
 40
0.8
 50
270.0
 51
0.0
  0
ARC
  8
0
  6
CONTINUOUS
 62
     7
 10
164.4368
 20
49.49998
 40
6.0
 50
73.80862
 51
106.1914
  0
ARC
  8
0
  6
CONTINUOUS
 62
     7
 10
165.8868
 20
54.49373
 40
0.79999
 50
28.95467
 51
73.8082
  0
ARC
  8
0
  6
CONTINUOUS
 62
     7
 10
162.9868
 20
54.49373
 40
0.8
 50
106.1918
 51
180.0
  0
ARC
  8
0
  6
CONTINUOUS
 62
     7
 10
173.4368
 20
49.49998
 40
6.0
 50
73.80862
 51
106.1914
  0
ARC
  8
0
  6
CONTINUOUS
 62
     7
 10
171.9868
 20
54.49373
 40
0.8
 50
106.1918
 51
118.0138
  0
ARC
  8
0
  6
CONTINUOUS
 62
     7
 10
174.8868
 20
54.49373
 40
0.8
 50
61.98621
 51
73.8082
  0
ARC
  8
0
  6
CONTINUOUS
 62
     7
 10
162.7368
 20
50.7
 40
0.8
 50
89.99999
 51
180.0
  0
ARC
  8
0
  6
CONTINUOUS
 62
     7
 10
175.1368
 20
50.7
 40
0.8
 50
0.0
 51
89.99999
  0
ARC
  8
0
  6
CONTINUOUS
 62
     7
 10
164.9368
 20
52.5
 40
0.5
 50
89.99999
 51
180.0
  0
ARC
  8
0
  6
CONTINUOUS
 62
     7
 10
172.9368
 20
52.5
 40
0.5
 50
0.0
 51
89.99999
  0
ARC
  8
0
  6
CONTINUOUS
 62
     7
 10
175.1368
 20
-68.00002
 40
0.8
 50
0.0
 51
89.99999
  0
ARC
  8
0
  6
CONTINUOUS
 62
     7
 10
162.7368
 20
-68.00002
 40
0.8
 50
89.99999
 51
180.0
  0
ARC
  8
0
  6
CONTINUOUS
 62
     7
 10
173.4368
 20
-89.7
 40
6.0
 50
253.8086
 51
286.1914
  0
ARC
  8
0
  6
CONTINUOUS
 62
     7
 10
171.9868
 20
-94.69374
 40
0.79999
 50
208.9547
 51
253.8083
  0
ARC
  8
0
  6
CONTINUOUS
 62
     7
 10
174.8868
 20
-94.69374
 40
0.80001
 50
286.1917
 51
0.0
  0
ARC
  8
0
  6
CONTINUOUS
 62
     7
 10
164.4368
 20
-89.7
 40
6.0
 50
253.8086
 51
286.1914
  0
ARC
  8
0
  6
CONTINUOUS
 62
     7
 10
165.8868
 20
-94.69374
 40
0.80001
 50
286.1917
 51
298.0138
  0
ARC
  8
0
  6
CONTINUOUS
 62
     7
 10
162.9868
 20
-94.69374
 40
0.8
 50
241.9862
 51
253.8083
  0
ARC
  8
0
  6
CONTINUOUS
 62
     7
 10
175.1368
 20
-90.90001
 40
0.8
 50
270.0
 51
0.0
  0
ARC
  8
0
  6
CONTINUOUS
 62
     7
 10
162.7368
 20
-90.90001
 40
0.8
 50
180.0
 51
270.0
  0
ARC
  8
0
  6
CONTINUOUS
 62
     7
 10
172.9368
 20
-92.7
 40
0.5
 50
270.0
 51
0.0
  0
ARC
  8
0
  6
CONTINUOUS
 62
     7
 10
164.9368
 20
-92.7
 40
0.5
 50
180.0
 51
270.0
  0
ARC
  8
0
  6
CONTINUOUS
 62
     7
 10
160.4371
 20
148.1773
 40
0.5
 50
89.99999
 51
180.0
  0
ARC
  8
0
  6
CONTINUOUS
 62
     7
 10
160.4371
 20
122.1773
 40
0.5
 50
180.0
 51
270.0
  0
ARC
  8
0
  6
CONTINUOUS
 62
     7
 10
177.4371
 20
122.1773
 40
0.5
 50
270.0
 51
0.0
  0
ARC
  8
0
  6
CONTINUOUS
 62
     7
 10
177.4371
 20
148.1773
 40
0.5
 50
0.0
 51
89.99999
  0
ARC
  8
0
  6
CONTINUOUS
 62
     7
 10
164.4371
 20
126.1773
 40
3.0
 50
0.0
 51
89.99999
  0
ARC
  8
0
  6
CONTINUOUS
 62
     7
 10
173.4371
 20
144.1773
 40
3.0
 50
180.0
 51
270.0
  0
ARC
  8
0
  6
CONTINUOUS
 62
     7
 10
164.4371
 20
126.1773
 40
2.55
 50
186.7564
 51
173.2438
  0
ARC
  8
0
  6
CONTINUOUS
 62
     7
 10
173.4371
 20
144.1773
 40
2.55
 50
6.75641
 51
353.2436
  0
CIRCLE
  8
0
  6
CONTINUOUS
 62
     7
 10
164.4371
 20
126.1773
 40
2.25
  0
ARC
  8
0
  6
CONTINUOUS
 62
     7
 10
165.5402
 20
126.1773
 40
0.52
 50
134.9994
 51
225.0006
  0
ARC
  8
0
  6
CONTINUOUS
 62
     7
 10
164.4371
 20
127.2803
 40
0.52
 50
225.0006
 51
314.9994
  0
ARC
  8
0
  6
CONTINUOUS
 62
     7
 10
164.4371
 20
125.0742
 40
0.52
 50
45.0006
 51
134.9994
  0
ARC
  8
0
  6
CONTINUOUS
 62
     7
 10
163.334
 20
126.1773
 40
0.52
 50
314.9994
 51
45.0006
  0
CIRCLE
  8
0
  6
CONTINUOUS
 62
     7
 10
173.4371
 20
144.1773
 40
2.25
  0
ARC
  8
0
  6
CONTINUOUS
 62
     7
 10
174.5402
 20
144.1773
 40
0.51999
 50
135.0
 51
225.0
  0
ARC
  8
0
  6
CONTINUOUS
 62
     7
 10
173.4371
 20
145.2803
 40
0.51999
 50
225.0
 51
315.0
  0
ARC
  8
0
  6
CONTINUOUS
 62
     7
 10
173.4371
 20
143.0742
 40
0.51999
 50
45.0
 51
135.0
  0
ARC
  8
0
  6
CONTINUOUS
 62
     7
 10
172.334
 20
144.1773
 40
0.51999
 50
315.0
 51
45.0
  0
ARC
  8
0
  6
CONTINUOUS
 62
     7
 10
175.9371
 20
146.6773
 40
0.5
 50
0.0
 51
89.99999
  0
ARC
  8
0
  6
CONTINUOUS
 62
     7
 10
161.9371
 20
146.6773
 40
0.5
 50
89.99999
 51
180.0
  0
ARC
  8
0
  6
CONTINUOUS
 62
     7
 10
175.1371
 20
113.9773
 40
0.8
 50
270.0
 51
0.0
  0
ARC
  8
0
  6
CONTINUOUS
 62
     7
 10
162.7371
 20
113.9773
 40
0.8
 50
180.0
 51
270.0
  0
ARC
  8
0
  6
CONTINUOUS
 62
     7
 10
169.9371
 20
118.6773
 40
3.5
 50
270.0
 51
89.99999
  0
ARC
  8
0
  6
CONTINUOUS
 62
     7
 10
167.9371
 20
118.6773
 40
3.5
 50
89.99999
 51
270.0
  0
CIRCLE
  8
0
  6
CONTINUOUS
 62
     7
 10
167.4371
 20
118.6773
 40
0.85
  0
CIRCLE
  8
0
  6
CONTINUOUS
 62
     7
 10
170.4371
 20
118.6773
 40
0.85
  0
ARC
  8
0
  6
CONTINUOUS
 62
     7
 10
76.51201
 20
27.80022
 40
0.8
 50
270.0
 51
0.0
  0
ARC
  8
0
  6
CONTINUOUS
 62
     7
 10
64.312
 20
49.50021
 40
6.0
 50
73.80869
 51
106.1913
  0
ARC
  8
0
  6
CONTINUOUS
 62
     7
 10
65.76201
 20
54.49396
 40
0.8
 50
0.0
 51
73.80872
  0
ARC
  8
0
  6
CONTINUOUS
 62
     7
 10
62.86198
 20
54.49396
 40
0.8
 50
106.1913
 51
180.0
  0
ARC
  8
0
  6
CONTINUOUS
 62
     7
 10
46.312
 20
49.5002
 40
6.0
 50
73.80865
 51
106.1913
  0
ARC
  8
0
  6
CONTINUOUS
 62
     7
 10
44.86198
 20
54.49394
 40
0.8
 50
106.1913
 51
118.0138
  0
ARC
  8
0
  6
CONTINUOUS
 62
     7
 10
47.76201
 20
54.49394
 40
0.8
 50
61.98621
 51
73.80872
  0
ARC
  8
0
  6
CONTINUOUS
 62
     7
 10
76.51201
 20
50.70021
 40
0.8
 50
0.0
 51
89.99999
  0
ARC
  8
0
  6
CONTINUOUS
 62
     7
 10
68.812
 20
52.50021
 40
0.5
 50
89.99999
 51
180.0
  0
ARC
  8
0
  6
CONTINUOUS
 62
     7
 10
74.812
 20
52.50021
 40
0.5
 50
0.0
 51
89.99999
  0
ARC
  8
0
  6
CONTINUOUS
 62
     7
 10
76.51201
 20
-67.99977
 40
0.8
 50
0.0
 51
89.99999
  0
ARC
  8
0
  6
CONTINUOUS
 62
     7
 10
46.312
 20
-89.69978
 40
6.0
 50
253.8087
 51
286.1913
  0
ARC
  8
0
  6
CONTINUOUS
 62
     7
 10
44.86198
 20
-94.69353
 40
0.8
 50
180.0
 51
253.8088
  0
ARC
  8
0
  6
CONTINUOUS
 62
     7
 10
47.76201
 20
-94.69353
 40
0.8
 50
286.1912
 51
0.0
  0
ARC
  8
0
  6
CONTINUOUS
 62
     7
 10
64.312
 20
-89.69978
 40
6.0
 50
253.8086
 51
286.1913
  0
ARC
  8
0
  6
CONTINUOUS
 62
     7
 10
65.76201
 20
-94.6935
 40
0.8
 50
286.1912
 51
298.0138
  0
ARC
  8
0
  6
CONTINUOUS
 62
     7
 10
62.86198
 20
-94.69353
 40
0.8
 50
241.9862
 51
253.8088
  0
ARC
  8
0
  6
CONTINUOUS
 62
     7
 10
76.51201
 20
-90.8998
 40
0.8
 50
270.0
 51
0.0
  0
ARC
  8
0
  6
CONTINUOUS
 62
     7
 10
74.812
 20
-92.69978
 40
0.5
 50
270.0
 51
0.0
  0
ARC
  8
0
  6
CONTINUOUS
 62
     7
 10
68.812
 20
-92.69978
 40
0.5
 50
180.0
 51
270.0
  0
ARC
  8
0
  6
CONTINUOUS
 62
     7
 10
264.3609
 20
27.80031
 40
0.79999
 50
180.0
 51
270.0
  0
ARC
  8
0
  6
CONTINUOUS
 62
     7
 10
294.5609
 20
49.50031
 40
6.0
 50
73.80876
 51
106.1912
  0
ARC
  8
0
  6
CONTINUOUS
 62
     7
 10
296.0109
 20
54.49406
 40
0.79999
 50
0.0
 51
73.8082
  0
ARC
  8
0
  6
CONTINUOUS
 62
     7
 10
293.1109
 20
54.49406
 40
0.8
 50
106.1918
 51
180.0
  0
ARC
  8
0
  6
CONTINUOUS
 62
     7
 10
276.5609
 20
49.50029
 40
6.0
 50
73.80876
 51
106.1912
  0
ARC
  8
0
  6
CONTINUOUS
 62
     7
 10
275.1109
 20
54.49403
 40
0.8
 50
106.1918
 51
118.0148
  0
ARC
  8
0
  6
CONTINUOUS
 62
     7
 10
278.0109
 20
54.49403
 40
0.80001
 50
61.98524
 51
73.8082
  0
ARC
  8
0
  6
CONTINUOUS
 62
     7
 10
264.361
 20
50.7003
 40
0.8
 50
89.99999
 51
180.0
  0
ARC
  8
0
  6
CONTINUOUS
 62
     7
 10
266.0609
 20
52.50031
 40
0.5
 50
89.99999
 51
180.0
  0
ARC
  8
0
  6
CONTINUOUS
 62
     7
 10
272.0609
 20
52.50031
 40
0.5
 50
0.0
 51
89.99999
  0
ARC
  8
0
  6
CONTINUOUS
 62
     7
 10
264.3609
 20
-67.99968
 40
0.8
 50
89.99999
 51
180.0
  0
ARC
  8
0
  6
CONTINUOUS
 62
     7
 10
276.5609
 20
-89.69969
 40
6.0
 50
253.8088
 51
286.1912
  0
ARC
  8
0
  6
CONTINUOUS
 62
     7
 10
275.1109
 20
-94.69344
 40
0.79999
 50
180.0
 51
253.8083
  0
ARC
  8
0
  6
CONTINUOUS
 62
     7
 10
278.0109
 20
-94.69344
 40
0.80001
 50
286.1917
 51
0.0
  0
ARC
  8
0
  6
CONTINUOUS
 62
     7
 10
294.5609
 20
-89.69966
 40
6.0
 50
253.8088
 51
286.1912
  0
ARC
  8
0
  6
CONTINUOUS
 62
     7
 10
296.0109
 20
-94.69344
 40
0.80001
 50
286.1917
 51
298.0128
  0
ARC
  8
0
  6
CONTINUOUS
 62
     7
 10
293.1109
 20
-94.69344
 40
0.80001
 50
241.9852
 51
253.8083
  0
ARC
  8
0
  6
CONTINUOUS
 62
     7
 10
264.3609
 20
-90.89967
 40
0.79999
 50
180.0
 51
270.0
  0
ARC
  8
0
  6
CONTINUOUS
 62
     7
 10
272.0609
 20
-92.69969
 40
0.5
 50
270.0
 51
0.0
  0
ARC
  8
0
  6
CONTINUOUS
 62
     7
 10
266.0609
 20
-92.69969
 40
0.5
 50
180.0
 51
270.0
  0
ARC
  8
0
  6
CONTINUOUS
 62
     7
 10
177.437
 20
-186.7791
 40
0.5
 50
270.0
 51
0.0
  0
ARC
  8
0
  6
CONTINUOUS
 62
     7
 10
177.437
 20
-160.7791
 40
0.5
 50
0.0
 51
89.99999
  0
ARC
  8
0
  6
CONTINUOUS
 62
     7
 10
160.437
 20
-160.7791
 40
0.5
 50
89.99999
 51
180.0
  0
ARC
  8
0
  6
CONTINUOUS
 62
     7
 10
160.437
 20
-186.7791
 40
0.5
 50
180.0
 51
270.0
  0
ARC
  8
0
  6
CONTINUOUS
 62
     7
 10
173.437
 20
-164.7791
 40
3.0
 50
180.0
 51
270.0
  0
ARC
  8
0
  6
CONTINUOUS
 62
     7
 10
164.437
 20
-182.7791
 40
3.0
 50
0.0
 51
89.99999
  0
ARC
  8
0
  6
CONTINUOUS
 62
     7
 10
173.437
 20
-164.7791
 40
2.55
 50
6.75641
 51
353.2436
  0
ARC
  8
0
  6
CONTINUOUS
 62
     7
 10
164.437
 20
-182.7791
 40
2.55
 50
186.7564
 51
173.2436
  0
CIRCLE
  8
0
  6
CONTINUOUS
 62
     7
 10
173.437
 20
-164.7791
 40
2.25
  0
ARC
  8
0
  6
CONTINUOUS
 62
     7
 10
172.3339
 20
-164.7791
 40
0.51999
 50
315.0
 51
45.0
  0
ARC
  8
0
  6
CONTINUOUS
 62
     7
 10
173.437
 20
-165.8822
 40
0.51999
 50
45.0
 51
135.0
  0
ARC
  8
0
  6
CONTINUOUS
 62
     7
 10
173.437
 20
-163.676
 40
0.51999
 50
225.0
 51
315.0
  0
ARC
  8
0
  6
CONTINUOUS
 62
     7
 10
174.5401
 20
-164.7791
 40
0.51999
 50
135.0
 51
225.0
  0
CIRCLE
  8
0
  6
CONTINUOUS
 62
     7
 10
164.437
 20
-182.7791
 40
2.25
  0
ARC
  8
0
  6
CONTINUOUS
 62
     7
 10
163.3339
 20
-182.7791
 40
0.51999
 50
315.0
 51
45.0
  0
ARC
  8
0
  6
CONTINUOUS
 62
     7
 10
164.437
 20
-183.8822
 40
0.51999
 50
45.0
 51
135.0
  0
ARC
  8
0
  6
CONTINUOUS
 62
     7
 10
164.437
 20
-181.676
 40
0.51999
 50
225.0
 51
315.0
  0
ARC
  8
0
  6
CONTINUOUS
 62
     7
 10
165.5401
 20
-182.7791
 40
0.51999
 50
135.0
 51
225.0
  0
ARC
  8
0
  6
CONTINUOUS
 62
     7
 10
161.937
 20
-185.2791
 40
0.5
 50
180.0
 51
270.0
  0
ARC
  8
0
  6
CONTINUOUS
 62
     7
 10
175.937
 20
-185.2791
 40
0.5
 50
270.0
 51
0.0
  0
ARC
  8
0
  6
CONTINUOUS
 62
     7
 10
162.737
 20
-152.5791
 40
0.8
 50
89.99999
 51
180.0
  0
ARC
  8
0
  6
CONTINUOUS
 62
     7
 10
175.137
 20
-152.5791
 40
0.8
 50
0.0
 51
89.99999
  0
ARC
  8
0
  6
CONTINUOUS
 62
     7
 10
167.937
 20
-157.2791
 40
3.5
 50
89.99999
 51
270.0
  0
ARC
  8
0
  6
CONTINUOUS
 62
     7
 10
169.937
 20
-157.2791
 40
3.5
 50
270.0
 51
89.99999
  0
CIRCLE
  8
0
  6
CONTINUOUS
 62
     7
 10
170.437
 20
-157.2791
 40
0.85
  0
CIRCLE
  8
0
  6
CONTINUOUS
 62
     7
 10
167.437
 20
-157.2791
 40
0.85
  0
TEXT
  8
0
  6
CONTINUOUS
 62
     7
 10
-350.9787
 20
200.5946
 40
8.5
  1
MODEL : 183-4E2-L
 41
0.8
  7
STANDARD
  0
TEXT
  8
0
  6
CONTINUOUS
 62
     7
 10
229.0661
 20
236.2625
 40
8.5
  1
DATE : NOV ,1989
 41
0.8
  7
STANDARD
  0
TEXT
  8
0
  6
CONTINUOUS
 62
     7
 10
-362.5531
 20
235.5575
 40
10.0
  1
180 CONNECTOR,-L
 41
0.69402
  7
STANDARD
  0
TEXT
  8
0
  6
CONTINUOUS
 62
     7
 10
19.88928
 20
200.5946
 40
8.5
  1
MODEL : A183-4E2-L
 41
0.8
  7
STANDARD
  0
TEXT
  8
0
  6
CONTINUOUS
 62
     7
 10
-304.8927
 20
-34.93985
 40
2.0
  1
R2
 41
0.8
  7
STANDARD
  0
TEXT
  8
0
  6
CONTINUOUS
 62
     7
 10
-302.8927
 20
-21.93985
 40
2.0
  1
P
 41
0.8
  7
STANDARD
  0
TEXT
  8
0
  6
CONTINUOUS
 62
     7
 10
-312.8927
 20
3.06017
 40
2.0
  1
R1
 41
0.8
  7
STANDARD
  0
TEXT
  8
0
  6
CONTINUOUS
 62
     7
 10
-39.14373
 20
-29.93991
 40
2.0
  1
B
 41
0.8
  7
STANDARD
  0
TEXT
  8
0
  6
CONTINUOUS
 62
     7
 10
-49.08944
 20
-1.93991
 40
2.0
  1
A
 41
0.8
  7
STANDARD
  0
ENDSEC
  0
EOF
