  0
SECTION
  2
HEADER
  9
$ACADVER
  1
AC1002
  9
$INSBASE
 10
0.0
 20
0.0
  9
$EXTMIN
 10
-370.8736
 20
-254.5585
  9
$EXTMAX
 10
370.8736
 20
254.5585
  9
$LIMMIN
 10
0.0
 20
0.0
  9
$LIMMAX
 10
12.0
 20
9.0
  9
$VIEWCTR
 10
28.6093211
 20
0.0
  9
$VIEWSIZE
 40
509.117
  9
$SNAPMODE
 70
     0
  9
$SNAPUNIT
 10
1.0
 20
1.0
  9
$SNAPBASE
 10
0.0
 20
0.0
  9
$SNAPANG
 50
0.0
  9
$SNAPSTYLE
 70
     0
  9
$SNAPISOPAIR
 70
     0
  9
$GRIDMODE
 70
     0
  9
$GRIDUNIT
 10
0.0
 20
0.0
  9
$ORTHOMODE
 70
     0
  9
$REGENMODE
 70
     1
  9
$FILLMODE
 70
     1
  9
$QTEXTMODE
 70
     0
  9
$DRAGMODE
 70
     2
  9
$LTSCALE
 40
1.0
  9
$OSMODE
 70
     0
  9
$ATTMODE
 70
     1
  9
$TEXTSIZE
 40
0.2
  9
$TRACEWID
 40
0.05
  9
$TEXTSTYLE
  7
AAA
  9
$CLAYER
  8
0
  9
$CELTYPE
  6
BYLAYER
  9
$CECOLOR
 62
   256
  9
$DIMSCALE
 40
1.0
  9
$DIMASZ
 40
0.18
  9
$DIMEXO
 40
0.0625
  9
$DIMDLI
 40
0.38
  9
$DIMRND
 40
0.0
  9
$DIMDLE
 40
0.0
  9
$DIMEXE
 40
0.18
  9
$DIMTP
 40
0.0
  9
$DIMTM
 40
0.0
  9
$DIMTXT
 40
0.18
  9
$DIMCEN
 40
0.09
  9
$DIMTSZ
 40
0.0
  9
$DIMTOL
 70
     0
  9
$DIMLIM
 70
     0
  9
$DIMTIH
 70
     1
  9
$DIMTOH
 70
     1
  9
$DIMSE1
 70
     0
  9
$DIMSE2
 70
     0
  9
$DIMTAD
 70
     0
  9
$DIMZIN
 70
     0
  9
$DIMBLK
  1

  9
$LUNITS
 70
     2
  9
$LUPREC
 70
     4
  9
$AXISMODE
 70
     0
  9
$AXISUNIT
 10
0.0
 20
0.0
  9
$SKETCHINC
 40
0.1
  9
$FILLETRAD
 40
0.0
  9
$AUNITS
 70
     0
  9
$AUPREC
 70
     0
  9
$MENU
  1
ACAD
  9
$ELEVATION
 40
0.0
  9
$THICKNESS
 40
0.0
  9
$VIEWDIR
 10
0.0
 20
0.0
 30
1.0
  9
$LIMCHECK
 70
     0
  9
$BLIPMODE
 70
     1
  9
$CHAMFERA
 40
0.0
  9
$CHAMFERB
 40
0.0
  9
$FASTZOOM
 70
     1
  9
$SKPOLY
 70
     0
  9
$TDCREATE
 40
2447877.4833449570
  9
$TDUPDATE
 40
2447877.4833449570
  9
$TDINDWG
 40
0.0124537037
  9
$TDUSRTIMER
 40
0.0124537037
  9
$USRTIMER
 70
     1
  9
$ANGBASE
 50
0.0
  9
$ANGDIR
 70
     0
  9
$PDMODE
 70
     0
  9
$PDSIZE
 40
0.0
  9
$PLINEWID
 40
0.0
  9
$COORDS
 70
     0
  9
$USERI1
 70
     0
  9
$USERI2
 70
     0
  9
$USERI3
 70
     0
  9
$USERI4
 70
     0
  9
$USERI5
 70
     0
  9
$USERR1
 40
0.0
  9
$USERR2
 40
0.0
  9
$USERR3
 40
0.0
  9
$USERR4
 40
0.0
  9
$USERR5
 40
0.0
  0
ENDSEC
  0
SECTION
  2
TABLES
  0
TABLE
  2
LTYPE
 70
     3
  0
LTYPE
  2
CONTINUOUS
 70
    64
  3
SOLID
 72
    65
 73
     0
 40
0.0
  0
LTYPE
  2
CENTER
 70
    64
  3
CENTER
 72
    65
 73
     4
 40
2.0
 49
1.25
 49
-0.25
 49
0.25
 49
-0.25
  0
LTYPE
  2
PHANTOM
 70
    64
  3
PHANTOM
 72
    65
 73
     6
 40
2.5
 49
1.25
 49
-0.25
 49
0.25
 49
-0.25
 49
0.25
 49
-0.25
  0
ENDTAB
  0
TABLE
  2
LAYER
 70
     1
  0
LAYER
  2
0
 70
    64
 62
     7
  6
CONTINUOUS
  0
ENDTAB
  0
TABLE
  2
STYLE
 70
     2
  0
STYLE
  2
AAA
 70
     0
 40
0.0
 41
1.0
 50
0.0
 71
     0
 42
0.2
  3
TXT
  4

  0
STYLE
  2
STANDARD
 70
    64
 40
0.0
 41
1.0
 50
0.0
 71
     0
 42
0.2
  3
TXT
  4
BIGFONT
  0
ENDTAB
  0
TABLE
  2
VIEW
 70
     0
  0
ENDTAB
  0
ENDSEC
  0
SECTION
  2
BLOCKS
  0
ENDSEC
  0
SECTION
  2
ENTITIES
  0
POINT
  8
0
  6
CONTINUOUS
 62
     7
 10
-168.4368
 20
150.2775
  0
POINT
  8
0
  6
CONTINUOUS
 62
     7
 10
-195.4368
 20
150.2775
  0
POINT
  8
0
  6
CONTINUOUS
 62
     7
 10
-172.4368
 20
148.7775
  0
POINT
  8
0
  6
CONTINUOUS
 62
     7
 10
-195.4368
 20
1.60001
  0
POINT
  8
0
  6
CONTINUOUS
 62
     7
 10
-168.4368
 20
1.60001
  0
POINT
  8
0
  6
CONTINUOUS
 62
     7
 10
-172.4368
 20
-32.8
  0
POINT
  8
0
  6
CONTINUOUS
 62
     7
 10
-168.4368
 20
22.3
  0
POINT
  8
0
  6
CONTINUOUS
 62
     7
 10
-36.31229
 20
1.60007
  0
POINT
  8
0
  6
CONTINUOUS
 62
     7
 10
-42.81229
 20
-6.39993
  0
POINT
  8
0
  6
CONTINUOUS
 62
     7
 10
-42.81229
 20
22.30006
  0
POINT
  8
0
  6
CONTINUOUS
 62
     7
 10
-37.81229
 20
-32.79994
  0
POINT
  8
0
  6
CONTINUOUS
 62
     7
 10
-313.5614
 20
1.60017
  0
POINT
  8
0
  6
CONTINUOUS
 62
     7
 10
-298.0614
 20
1.60017
  0
POINT
  8
0
  6
CONTINUOUS
 62
     7
 10
-307.0614
 20
-13.39983
  0
POINT
  8
0
  6
CONTINUOUS
 62
     7
 10
-306.5614
 20
-0.19983
  0
POINT
  8
0
  6
CONTINUOUS
 62
     7
 10
-312.0614
 20
-32.79984
  0
POINT
  8
0
  6
CONTINUOUS
 62
     7
 10
-168.4368
 20
-185.679
  0
POINT
  8
0
  6
CONTINUOUS
 62
     7
 10
-195.4368
 20
-185.679
  0
POINT
  8
0
  6
CONTINUOUS
 62
     7
 10
-168.4368
 20
-179.179
  0
POINT
  8
0
  6
CONTINUOUS
 62
     7
 10
-172.4368
 20
-184.179
  0
POINT
  8
0
  6
CONTINUOUS
 62
     7
 10
175.4368
 20
1.60002
  0
POINT
  8
0
  6
CONTINUOUS
 62
     7
 10
168.9368
 20
22.30002
  0
POINT
  8
0
  6
CONTINUOUS
 62
     7
 10
175.4372
 20
150.2773
  0
POINT
  8
0
  6
CONTINUOUS
 62
     7
 10
175.4369
 20
-185.6791
  0
POINT
  8
0
  6
CONTINUOUS
 62
     7
 10
168.9369
 20
-158.6791
  0
POINT
  8
0
  6
CONTINUOUS
 62
     7
 10
299.0612
 20
1.60019
  0
POINT
  8
0
  6
CONTINUOUS
 62
     7
 10
272.0612
 20
22.30019
  0
POINT
  8
0
  6
CONTINUOUS
 62
     7
 10
68.81206
 20
1.60025
  0
POINT
  8
0
  6
CONTINUOUS
 62
     7
 10
41.81206
 20
1.60025
  0
POINT
  8
0
  6
CONTINUOUS
 62
     7
 10
68.81206
 20
22.30025
  0
LINE
  8
0
  6
CONTINUOUS
 62
     7
 10
218.3292
 20
-225.9564
 11
370.8736
 21
-225.9564
  0
LINE
  8
0
  6
CONTINUOUS
 62
     7
 10
-218.3292
 20
225.9564
 11
-218.3292
 21
254.5585
  0
LINE
  8
0
  6
CONTINUOUS
 62
     7
 10
-370.8736
 20
225.9564
 11
-218.3292
 21
225.9564
  0
LINE
  8
0
  6
CONTINUOUS
 62
     7
 10
-370.8736
 20
254.5585
 11
370.8736
 21
254.5585
  0
LINE
  8
0
  6
CONTINUOUS
 62
     7
 10
-370.8736
 20
-254.5585
 11
370.8736
 21
-254.5585
  0
LINE
  8
0
  6
CONTINUOUS
 62
     7
 10
370.8736
 20
254.5585
 11
370.8736
 21
-254.5585
  0
LINE
  8
0
  6
CONTINUOUS
 62
     7
 10
-370.8736
 20
-254.5585
 11
-370.8736
 21
254.5585
  0
LINE
  8
0
  6
CONTINUOUS
 62
     7
 10
218.3292
 20
-225.9564
 11
218.3292
 21
-254.5585
  0
LINE
  8
0
  6
CONTINUOUS
 62
     7
 10
218.3292
 20
254.5585
 11
218.3292
 21
225.9564
  0
LINE
  8
0
  6
CONTINUOUS
 62
     7
 10
218.3292
 20
225.9564
 11
370.8736
 21
225.9564
  0
LINE
  8
0
  6
CONTINUOUS
 62
     7
 10
258.3816
 20
-232.8337
 11
258.3816
 21
-236.1516
  0
LINE
  8
0
  6
CONTINUOUS
 62
     7
 10
258.3816
 20
-236.1516
 11
270.8235
 21
-236.1516
  0
LINE
  8
0
  6
CONTINUOUS
 62
     7
 10
258.3816
 20
-249.1465
 11
275.2473
 21
-249.1465
  0
LINE
  8
0
  6
CONTINUOUS
 62
     7
 10
258.3816
 20
-245.8286
 11
270.8235
 21
-245.8286
  0
LINE
  8
0
  6
CONTINUOUS
 62
     7
 10
258.3816
 20
-232.8337
 11
273.0354
 21
-232.8337
  0
LINE
  8
0
  6
CONTINUOUS
 62
     7
 10
270.8235
 20
-236.1516
 11
270.8235
 21
-245.8286
  0
LINE
  8
0
  6
CONTINUOUS
 62
     7
 10
275.2473
 20
-235.0457
 11
275.2473
 21
-249.1465
  0
LINE
  8
0
  6
CONTINUOUS
 62
     7
 10
258.3816
 20
-245.8286
 11
258.3816
 21
-249.1465
  0
LINE
  8
0
  6
CONTINUOUS
 62
     7
 10
293.4954
 20
-236.1516
 11
293.4954
 21
-246.9346
  0
LINE
  8
0
  6
CONTINUOUS
 62
     7
 10
277.7357
 20
-232.8337
 11
277.7357
 21
-236.1516
  0
LINE
  8
0
  6
CONTINUOUS
 62
     7
 10
293.9378
 20
-232.585
 11
295.5138
 21
-232.585
  0
LINE
  8
0
  6
CONTINUOUS
 62
     7
 10
293.9378
 20
-230.373
 11
295.5138
 21
-230.373
  0
LINE
  8
0
  6
CONTINUOUS
 62
     7
 10
295.5138
 20
-230.373
 11
295.5138
 21
-232.585
  0
LINE
  8
0
  6
CONTINUOUS
 62
     7
 10
293.9378
 20
-230.373
 11
293.9378
 21
-232.585
  0
LINE
  8
0
  6
CONTINUOUS
 62
     7
 10
293.1083
 20
-230.373
 11
293.1083
 21
-232.585
  0
LINE
  8
0
  6
CONTINUOUS
 62
     7
 10
282.7661
 20
-230.373
 11
286.2009
 21
-230.373
  0
LINE
  8
0
  6
CONTINUOUS
 62
     7
 10
285.5413
 20
-232.8335
 11
286.2006
 21
-230.3727
  0
LINE
  8
0
  6
CONTINUOUS
 62
     7
 10
282.1067
 20
-232.8337
 11
282.766
 21
-230.373
  0
LINE
  8
0
  6
CONTINUOUS
 62
     7
 10
285.5416
 20
-232.8337
 11
290.1776
 21
-232.8337
  0
LINE
  8
0
  6
CONTINUOUS
 62
     7
 10
284.6526
 20
-236.1516
 11
289.0716
 21
-236.1516
  0
LINE
  8
0
  6
CONTINUOUS
 62
     7
 10
286.6429
 20
-249.1465
 11
291.2836
 21
-249.1465
  0
LINE
  8
0
  6
CONTINUOUS
 62
     7
 10
285.7537
 20
-245.8286
 11
286.6427
 21
-249.1463
  0
LINE
  8
0
  6
CONTINUOUS
 62
     7
 10
285.7538
 20
-245.8286
 11
289.0716
 21
-245.8286
  0
LINE
  8
0
  6
CONTINUOUS
 62
     7
 10
281.1707
 20
-249.1466
 11
284.6527
 21
-236.1517
  0
LINE
  8
0
  6
CONTINUOUS
 62
     7
 10
277.7357
 20
-236.1516
 11
281.2177
 21
-236.1516
  0
LINE
  8
0
  6
CONTINUOUS
 62
     7
 10
277.7354
 20
-249.1462
 11
281.2175
 21
-236.1513
  0
LINE
  8
0
  6
CONTINUOUS
 62
     7
 10
277.7357
 20
-249.1465
 11
281.1706
 21
-249.1465
  0
LINE
  8
0
  6
CONTINUOUS
 62
     7
 10
277.7357
 20
-232.8337
 11
282.1067
 21
-232.8337
  0
LINE
  8
0
  6
CONTINUOUS
 62
     7
 10
289.0716
 20
-236.1516
 11
289.0716
 21
-245.8286
  0
LINE
  8
0
  6
CONTINUOUS
 62
     7
 10
291.5323
 20
-230.373
 11
293.1083
 21
-230.373
  0
LINE
  8
0
  6
CONTINUOUS
 62
     7
 10
291.5323
 20
-232.585
 11
293.1083
 21
-232.585
  0
LINE
  8
0
  6
CONTINUOUS
 62
     7
 10
291.5323
 20
-230.373
 11
291.5323
 21
-232.585
  0
LINE
  8
0
  6
CONTINUOUS
 62
     7
 10
301.5135
 20
-230.373
 11
305.9373
 21
-230.373
  0
LINE
  8
0
  6
CONTINUOUS
 62
     7
 10
308.3423
 20
-240.1951
 11
311.2962
 21
-238.8176
  0
LINE
  8
0
  6
CONTINUOUS
 62
     7
 10
305.9373
 20
-242.7344
 11
305.9373
 21
-249.1465
  0
LINE
  8
0
  6
CONTINUOUS
 62
     7
 10
301.5135
 20
-243.379
 11
301.5135
 21
-249.1465
  0
LINE
  8
0
  6
CONTINUOUS
 62
     7
 10
305.9373
 20
-232.8337
 11
310.3611
 21
-232.8337
  0
LINE
  8
0
  6
CONTINUOUS
 62
     7
 10
305.9373
 20
-230.373
 11
305.9373
 21
-232.8337
  0
LINE
  8
0
  6
CONTINUOUS
 62
     7
 10
301.5135
 20
-230.373
 11
301.5135
 21
-232.8337
  0
LINE
  8
0
  6
CONTINUOUS
 62
     7
 10
312.573
 20
-235.0457
 11
312.573
 21
-236.8128
  0
LINE
  8
0
  6
CONTINUOUS
 62
     7
 10
308.3424
 20
-240.195
 11
312.5734
 21
-242.168
  0
LINE
  8
0
  6
CONTINUOUS
 62
     7
 10
305.9373
 20
-242.7343
 11
312.5731
 21
-245.8286
  0
LINE
  8
0
  6
CONTINUOUS
 62
     7
 10
296.2603
 20
-242.1678
 11
296.2603
 21
-245.8286
  0
LINE
  8
0
  6
CONTINUOUS
 62
     7
 10
296.2607
 20
-242.1682
 11
309.1626
 21
-236.1519
  0
LINE
  8
0
  6
CONTINUOUS
 62
     7
 10
296.2603
 20
-245.8286
 11
301.5136
 21
-243.3789
  0
LINE
  8
0
  6
CONTINUOUS
 62
     7
 10
312.573
 20
-242.1678
 11
312.573
 21
-245.8286
  0
LINE
  8
0
  6
CONTINUOUS
 62
     7
 10
296.2603
 20
-232.8337
 11
296.2603
 21
-236.1516
  0
LINE
  8
0
  6
CONTINUOUS
 62
     7
 10
301.5135
 20
-249.1465
 11
305.9373
 21
-249.1465
  0
LINE
  8
0
  6
CONTINUOUS
 62
     7
 10
296.2603
 20
-236.1516
 11
309.1621
 21
-236.1516
  0
LINE
  8
0
  6
CONTINUOUS
 62
     7
 10
296.2603
 20
-232.8337
 11
301.5135
 21
-232.8337
  0
LINE
  8
0
  6
CONTINUOUS
 62
     7
 10
327.504
 20
-236.4047
 11
328.73
 21
-235.9171
  0
LINE
  8
0
  6
CONTINUOUS
 62
     7
 10
327.5034
 20
-236.4044
 11
327.5034
 21
-249.1465
  0
LINE
  8
0
  6
CONTINUOUS
 62
     7
 10
323.0795
 20
-249.1465
 11
327.5034
 21
-249.1465
  0
LINE
  8
0
  6
CONTINUOUS
 62
     7
 10
313.9553
 20
-241.7925
 11
323.0794
 21
-238.1637
  0
LINE
  8
0
  6
CONTINUOUS
 62
     7
 10
313.9555
 20
-238.222
 11
326.8062
 21
-233.1111
  0
LINE
  8
0
  6
CONTINUOUS
 62
     7
 10
323.0795
 20
-238.1638
 11
323.0795
 21
-249.1465
  0
LINE
  8
0
  6
CONTINUOUS
 62
     7
 10
327.5034
 20
-231.3684
 11
327.5034
 21
-232.0834
  0
LINE
  8
0
  6
CONTINUOUS
 62
     7
 10
330.8211
 20
-231.3684
 11
330.8211
 21
-232.8338
  0
LINE
  8
0
  6
CONTINUOUS
 62
     7
 10
313.9554
 20
-238.2219
 11
313.9554
 21
-241.7925
  0
LINE
  8
0
  6
CONTINUOUS
 62
     7
 10
327.5034
 20
-231.3684
 11
330.8211
 21
-231.3684
  0
LINE
  8
0
  6
CONTINUOUS
 62
     7
 10
0.0
 20
254.5585
 11
0.0
 21
-254.5585
  0
LINE
  8
0
  6
CONTINUOUS
 62
     7
 10
-169.4368
 20
136.7775
 11
-169.4368
 21
135.7775
  0
LINE
  8
0
  6
CONTINUOUS
 62
     7
 10
-168.4368
 20
150.7775
 11
-168.4368
 21
152.2775
  0
LINE
  8
0
  6
CENTER
 62
     2
 10
-197.833
 20
143.7775
 11
-147.2765
 21
143.7775
  0
LINE
  8
0
  6
CONTINUOUS
 62
     7
 10
-194.9368
 20
152.7775
 11
-168.9368
 21
152.7775
  0
LINE
  8
0
  6
CONTINUOUS
 62
     7
 10
-194.9368
 20
134.7775
 11
-168.9368
 21
134.7775
  0
LINE
  8
0
  6
CONTINUOUS
 62
     7
 10
-168.4368
 20
135.2775
 11
-168.4368
 21
136.7775
  0
LINE
  8
0
  6
CONTINUOUS
 62
     7
 10
-195.4368
 20
135.2775
 11
-195.4368
 21
152.2775
  0
LINE
  8
0
  6
CENTER
 62
     2
 10
-181.9368
 20
132.0275
 11
-181.9368
 21
156.005
  0
LINE
  8
0
  6
CONTINUOUS
 62
     7
 10
-194.4368
 20
151.7775
 11
-169.4368
 21
151.7775
  0
LINE
  8
0
  6
CONTINUOUS
 62
     7
 10
-194.4368
 20
135.7775
 11
-169.4368
 21
135.7775
  0
LINE
  8
0
  6
CONTINUOUS
 62
     7
 10
-194.4368
 20
151.7775
 11
-194.4368
 21
135.7775
  0
LINE
  8
0
  6
CONTINUOUS
 62
     7
 10
-169.4368
 20
151.7775
 11
-169.4368
 21
150.7775
  0
LINE
  8
0
  6
CONTINUOUS
 62
     7
 10
-169.4368
 20
135.7775
 11
-168.5833
 21
134.9239
  0
LINE
  8
0
  6
CONTINUOUS
 62
     7
 10
-194.4368
 20
135.7775
 11
-195.2903
 21
134.9239
  0
LINE
  8
0
  6
CONTINUOUS
 62
     7
 10
-169.4367
 20
151.7775
 11
-168.5832
 21
152.631
  0
LINE
  8
0
  6
CONTINUOUS
 62
     7
 10
-194.4368
 20
151.7776
 11
-195.2903
 21
152.6311
  0
LINE
  8
0
  6
CONTINUOUS
 62
     7
 10
-169.9368
 20
151.2775
 11
-169.9368
 21
136.2775
  0
LINE
  8
0
  6
CONTINUOUS
 62
     7
 10
-160.8368
 20
150.7775
 11
-160.8368
 21
147.7775
  0
LINE
  8
0
  6
CONTINUOUS
 62
     7
 10
-172.9368
 20
142.2775
 11
-169.9368
 21
142.2775
  0
LINE
  8
0
  6
CONTINUOUS
 62
     7
 10
-190.9368
 20
145.2775
 11
-193.9368
 21
145.2775
  0
LINE
  8
0
  6
CONTINUOUS
 62
     7
 10
-187.9368
 20
148.2775
 11
-187.9368
 21
151.2775
  0
LINE
  8
0
  6
CONTINUOUS
 62
     7
 10
-175.9368
 20
139.2775
 11
-175.9368
 21
136.2775
  0
LINE
  8
0
  6
CONTINUOUS
 62
     7
 10
-192.9368
 20
145.2775
 11
-192.9368
 21
137.2775
  0
LINE
  8
0
  6
CONTINUOUS
 62
     7
 10
-170.9368
 20
150.2775
 11
-170.9368
 21
142.2775
  0
LINE
  8
0
  6
CONTINUOUS
 62
     7
 10
-187.9368
 20
150.2775
 11
-170.9368
 21
150.2775
  0
LINE
  8
0
  6
CONTINUOUS
 62
     7
 10
-192.9368
 20
137.2775
 11
-175.9368
 21
137.2775
  0
LINE
  8
0
  6
CONTINUOUS
 62
     7
 10
-172.6368
 20
137.0476
 11
-172.6368
 21
136.7452
  0
LINE
  8
0
  6
CONTINUOUS
 62
     7
 10
-173.2368
 20
137.0476
 11
-173.2368
 21
136.7452
  0
LINE
  8
0
  6
CONTINUOUS
 62
     7
 10
-173.3976
 20
136.7695
 11
-173.3976
 21
137.0752
  0
LINE
  8
0
  6
CONTINUOUS
 62
     7
 10
-191.2368
 20
150.5074
 11
-191.2368
 21
150.8098
  0
LINE
  8
0
  6
CONTINUOUS
 62
     7
 10
-190.6368
 20
150.5074
 11
-190.6368
 21
150.8098
  0
LINE
  8
0
  6
CONTINUOUS
 62
     7
 10
-190.476
 20
150.7855
 11
-190.476
 21
150.4798
  0
LINE
  8
0
  6
CONTINUOUS
 62
     7
 10
-174.0399
 20
138.5422
 11
-173.6722
 21
138.9099
  0
LINE
  8
0
  6
CONTINUOUS
 62
     7
 10
-173.6722
 20
138.1744
 11
-173.3045
 21
138.5421
  0
LINE
  8
0
  6
CONTINUOUS
 62
     7
 10
-174.0399
 20
138.5421
 11
-173.6722
 21
138.1744
  0
LINE
  8
0
  6
CONTINUOUS
 62
     7
 10
-172.2014
 20
140.3806
 11
-171.8337
 21
140.0129
  0
LINE
  8
0
  6
CONTINUOUS
 62
     7
 10
-174.701
 20
140.674
 11
-173.6722
 21
139.6452
  0
LINE
  8
0
  6
CONTINUOUS
 62
     7
 10
-174.3332
 20
141.0417
 11
-173.3044
 21
140.0129
  0
LINE
  8
0
  6
CONTINUOUS
 62
     7
 10
-172.5691
 20
140.013
 11
-172.2014
 21
140.3806
  0
LINE
  8
0
  6
CONTINUOUS
 62
     7
 10
-172.2014
 20
139.6452
 11
-171.8337
 21
140.0129
  0
LINE
  8
0
  6
CONTINUOUS
 62
     7
 10
-172.5691
 20
138.5421
 11
-171.5403
 21
137.5133
  0
LINE
  8
0
  6
CONTINUOUS
 62
     7
 10
-172.2013
 20
138.9098
 11
-171.1726
 21
137.8811
  0
LINE
  8
0
  6
CONTINUOUS
 62
     7
 10
-192.04
 20
147.5422
 11
-191.6723
 21
147.9099
  0
LINE
  8
0
  6
CONTINUOUS
 62
     7
 10
-191.6722
 20
147.1745
 11
-191.3045
 21
147.5422
  0
LINE
  8
0
  6
CONTINUOUS
 62
     7
 10
-192.0399
 20
147.5421
 11
-191.6721
 21
147.1744
  0
LINE
  8
0
  6
CONTINUOUS
 62
     7
 10
-190.2014
 20
149.3806
 11
-189.8337
 21
149.0129
  0
LINE
  8
0
  6
CONTINUOUS
 62
     7
 10
-192.7009
 20
149.674
 11
-191.6721
 21
148.6452
  0
LINE
  8
0
  6
CONTINUOUS
 62
     7
 10
-192.3332
 20
150.0417
 11
-191.3045
 21
149.013
  0
LINE
  8
0
  6
CONTINUOUS
 62
     7
 10
-190.5692
 20
149.013
 11
-190.2015
 21
149.3807
  0
LINE
  8
0
  6
CONTINUOUS
 62
     7
 10
-190.2014
 20
148.6453
 11
-189.8337
 21
149.013
  0
LINE
  8
0
  6
CONTINUOUS
 62
     7
 10
-190.5691
 20
147.5421
 11
-189.5403
 21
146.5133
  0
LINE
  8
0
  6
CONTINUOUS
 62
     7
 10
-190.2014
 20
147.9099
 11
-189.1726
 21
146.8811
  0
LINE
  8
0
  6
CONTINUOUS
 62
     7
 10
-151.4368
 20
147.7775
 11
-151.4368
 21
139.7775
  0
LINE
  8
0
  6
CONTINUOUS
 62
     7
 10
-157.1081
 20
147.7775
 11
-157.1081
 21
139.7775
  0
LINE
  8
0
  6
CONTINUOUS
 62
     7
 10
-168.4368
 20
147.7775
 11
-168.4368
 21
139.7775
  0
LINE
  8
0
  6
CONTINUOUS
 62
     7
 10
-169.9368
 20
139.5775
 11
-166.4368
 21
139.5775
  0
LINE
  8
0
  6
CONTINUOUS
 62
     7
 10
-169.9368
 20
147.9775
 11
-166.4368
 21
147.9775
  0
LINE
  8
0
  6
CONTINUOUS
 62
     7
 10
-166.4368
 20
147.9775
 11
-166.4368
 21
147.7775
  0
LINE
  8
0
  6
CONTINUOUS
 62
     7
 10
-165.4368
 20
147.9775
 11
-165.4368
 21
147.7775
  0
LINE
  8
0
  6
CONTINUOUS
 62
     7
 10
-165.4368
 20
139.5775
 11
-160.8368
 21
139.5775
  0
LINE
  8
0
  6
CONTINUOUS
 62
     7
 10
-165.4368
 20
147.9775
 11
-160.8368
 21
147.9775
  0
LINE
  8
0
  6
CONTINUOUS
 62
     7
 10
-160.8368
 20
139.7775
 11
-160.8368
 21
136.7775
  0
LINE
  8
0
  6
CONTINUOUS
 62
     7
 10
-165.4368
 20
139.7775
 11
-165.4368
 21
139.5775
  0
LINE
  8
0
  6
CONTINUOUS
 62
     7
 10
-166.4368
 20
139.7775
 11
-166.4368
 21
139.5775
  0
LINE
  8
0
  6
CENTER
 62
     2
 10
-172.9368
 20
143.2775
 11
-172.9368
 21
135.2775
  0
LINE
  8
0
  6
CENTER
 62
     2
 10
-190.9368
 20
152.2775
 11
-190.9368
 21
144.2775
  0
LINE
  8
0
  6
CENTER
 62
     2
 10
-194.9368
 20
148.2775
 11
-186.9368
 21
148.2775
  0
LINE
  8
0
  6
CENTER
 62
     2
 10
-176.9368
 20
139.2775
 11
-168.9368
 21
139.2775
  0
LINE
  8
0
  6
CONTINUOUS
 62
     7
 10
-193.4368
 20
151.2775
 11
-169.9368
 21
151.2775
  0
LINE
  8
0
  6
CONTINUOUS
 62
     7
 10
-193.9368
 20
150.7775
 11
-193.9368
 21
136.7775
  0
LINE
  8
0
  6
CONTINUOUS
 62
     7
 10
-193.4368
 20
136.2775
 11
-169.9368
 21
136.2775
  0
LINE
  8
0
  6
CONTINUOUS
 62
     7
 10
-169.9368
 20
150.7775
 11
-160.7368
 21
150.7775
  0
LINE
  8
0
  6
CONTINUOUS
 62
     7
 10
-159.9368
 20
149.9775
 11
-159.9368
 21
149.2775
  0
LINE
  8
0
  6
CONTINUOUS
 62
     7
 10
-159.9368
 20
138.2775
 11
-159.9368
 21
137.5775
  0
LINE
  8
0
  6
CONTINUOUS
 62
     7
 10
-169.9368
 20
136.7775
 11
-160.7368
 21
136.7775
  0
LINE
  8
0
  6
CONTINUOUS
 62
     7
 10
-160.8368
 20
138.2775
 11
-149.4368
 21
138.2775
  0
LINE
  8
0
  6
CONTINUOUS
 62
     7
 10
-149.4368
 20
149.2775
 11
-149.4368
 21
138.2775
  0
LINE
  8
0
  6
CONTINUOUS
 62
     7
 10
-160.8368
 20
149.2775
 11
-149.4368
 21
149.2775
  0
LINE
  8
0
  6
CONTINUOUS
 62
     7
 10
-168.4368
 20
147.7775
 11
-149.4368
 21
147.7775
  0
LINE
  8
0
  6
CONTINUOUS
 62
     7
 10
-168.4368
 20
139.7775
 11
-149.4368
 21
139.7775
  0
LINE
  8
0
  6
CONTINUOUS
 62
     7
 10
-149.4368
 20
147.1275
 11
-144.3156
 21
147.1275
  0
LINE
  8
0
  6
CONTINUOUS
 62
     7
 10
-149.4368
 20
145.4275
 11
-144.7711
 21
145.4275
  0
LINE
  8
0
  6
CENTER
 62
     2
 10
-152.4368
 20
146.2775
 11
-126.4368
 21
146.2775
  0
LINE
  8
0
  6
CONTINUOUS
 62
     7
 10
-139.4368
 20
146.5975
 11
-129.4368
 21
146.5975
  0
LINE
  8
0
  6
CONTINUOUS
 62
     7
 10
-139.4368
 20
147.1275
 11
-139.4368
 21
145.4275
  0
LINE
  8
0
  6
CONTINUOUS
 62
     7
 10
-129.4368
 20
146.5975
 11
-129.4368
 21
145.9575
  0
LINE
  8
0
  6
CONTINUOUS
 62
     7
 10
-139.4368
 20
145.9575
 11
-129.4368
 21
145.9575
  0
LINE
  8
0
  6
CONTINUOUS
 62
     7
 10
-139.4368
 20
141.5975
 11
-129.4368
 21
141.5975
  0
LINE
  8
0
  6
CONTINUOUS
 62
     7
 10
-129.4368
 20
141.5975
 11
-129.4368
 21
140.9575
  0
LINE
  8
0
  6
CONTINUOUS
 62
     7
 10
-139.4368
 20
140.9575
 11
-129.4368
 21
140.9575
  0
LINE
  8
0
  6
CENTER
 62
     2
 10
-152.4368
 20
141.2775
 11
-126.4368
 21
141.2775
  0
LINE
  8
0
  6
CONTINUOUS
 62
     7
 10
-149.4368
 20
142.1275
 11
-145.6553
 21
142.1275
  0
LINE
  8
0
  6
CONTINUOUS
 62
     7
 10
-139.4368
 20
142.1275
 11
-139.4368
 21
140.4275
  0
LINE
  8
0
  6
CONTINUOUS
 62
     7
 10
-149.4368
 20
140.4275
 11
-146.1109
 21
140.4275
  0
LINE
  8
0
  6
PHANTOM
 62
     2
 10
-146.6468
 20
138.4275
 11
-143.7797
 21
149.1275
  0
LINE
  8
0
  6
PHANTOM
 62
     2
 10
-145.0938
 20
138.4276
 11
-142.2268
 21
149.1275
  0
LINE
  8
0
  6
CONTINUOUS
 62
     7
 10
-142.7627
 20
147.1275
 11
-139.4368
 21
147.1275
  0
LINE
  8
0
  6
CONTINUOUS
 62
     7
 10
-143.2182
 20
145.4275
 11
-139.4368
 21
145.4275
  0
LINE
  8
0
  6
CONTINUOUS
 62
     7
 10
-144.1024
 20
142.1275
 11
-139.4368
 21
142.1275
  0
LINE
  8
0
  6
CONTINUOUS
 62
     7
 10
-144.558
 20
140.4275
 11
-139.4368
 21
140.4275
  0
LINE
  8
0
  6
CENTER
 62
     2
 10
-181.9368
 20
57.15001
 11
-181.9368
 21
-35.54999
  0
LINE
  8
0
  6
CONTINUOUS
 62
     7
 10
-168.4368
 20
24.8
 11
-168.4368
 21
-32.3
  0
LINE
  8
0
  6
CONTINUOUS
 62
     7
 10
-195.4368
 20
24.8
 11
-195.4368
 21
-32.3
  0
LINE
  8
0
  6
CONTINUOUS
 62
     7
 10
-195.4368
 20
7.60002
 11
-168.4368
 21
7.60002
  0
LINE
  8
0
  6
CONTINUOUS
 62
     7
 10
-194.4366
 20
25.79991
 11
-195.4366
 21
24.79991
  0
LINE
  8
0
  6
CONTINUOUS
 62
     7
 10
-169.4368
 20
25.80003
 11
-168.4368
 21
24.80003
  0
LINE
  8
0
  6
CONTINUOUS
 62
     7
 10
-194.4368
 20
25.8
 11
-160.7368
 21
25.8
  0
LINE
  8
0
  6
CONTINUOUS
 62
     7
 10
-195.4368
 20
24.8
 11
-168.4368
 21
24.8
  0
LINE
  8
0
  6
CENTER
 62
     2
 10
-174.4368
 20
4.08186
 11
-174.4368
 21
-1.10907
  0
LINE
  8
0
  6
CENTER
 62
     2
 10
-177.3053
 20
1.60001
 11
-171.6066
 21
1.60001
  0
LINE
  8
0
  6
CONTINUOUS
 62
     7
 10
-195.4368
 20
-24.39999
 11
-168.4368
 21
-24.39999
  0
LINE
  8
0
  6
CONTINUOUS
 62
     7
 10
-194.9368
 20
-32.8
 11
-168.9368
 21
-32.8
  0
LINE
  8
0
  6
CENTER
 62
     2
 10
-171.4368
 20
-28.27174
 11
-171.4368
 21
-33.98251
  0
LINE
  8
0
  6
CONTINUOUS
 62
     7
 10
-174.6368
 20
-29.89999
 11
-174.6368
 21
-32.3
  0
LINE
  8
0
  6
CONTINUOUS
 62
     7
 10
-174.1368
 20
-29.39999
 11
-168.9368
 21
-29.39999
  0
LINE
  8
0
  6
CENTER
 62
     2
 10
-177.5515
 20
-18.39999
 11
-167.8272
 21
-18.39999
  0
LINE
  8
0
  6
CENTER
 62
     2
 10
-174.4368
 20
-15.34048
 11
-174.4368
 21
-21.75464
  0
LINE
  8
0
  6
CONTINUOUS
 62
     7
 10
-174.2368
 20
-30.57181
 11
-174.2368
 21
-29.39998
  0
LINE
  8
0
  6
CONTINUOUS
 62
     7
 10
-168.6368
 20
-30.57182
 11
-168.6368
 21
-29.40001
  0
LINE
  8
0
  6
CONTINUOUS
 62
     7
 10
-171.4368
 20
-20.0583
 11
-168.4368
 21
-20.0583
  0
LINE
  8
0
  6
CONTINUOUS
 62
     7
 10
-171.4368
 20
-16.74168
 11
-168.4368
 21
-16.74168
  0
LINE
  8
0
  6
CONTINUOUS
 62
     7
 10
-171.4368
 20
-16.74168
 11
-171.4368
 21
-20.0583
  0
LINE
  8
0
  6
CONTINUOUS
 62
     7
 10
-193.9368
 20
51.00002
 11
-169.9368
 21
51.00002
  0
LINE
  8
0
  6
CONTINUOUS
 62
     7
 10
-193.9368
 20
52.00002
 11
-193.9368
 21
25.8
  0
LINE
  8
0
  6
CONTINUOUS
 62
     7
 10
-169.9368
 20
52.8
 11
-169.9368
 21
25.8
  0
LINE
  8
0
  6
CONTINUOUS
 62
     7
 10
-159.9368
 20
46.00002
 11
-159.9368
 21
26.60002
  0
LINE
  8
0
  6
CONTINUOUS
 62
     7
 10
-169.9368
 20
52.8
 11
-158.9368
 21
52.8
  0
LINE
  8
0
  6
CONTINUOUS
 62
     7
 10
-160.8368
 20
52.8
 11
-160.8368
 21
46.8
  0
LINE
  8
0
  6
CONTINUOUS
 62
     7
 10
-169.9368
 20
46.8
 11
-157.4368
 21
46.8
  0
LINE
  8
0
  6
CONTINUOUS
 62
     7
 10
-192.9368
 20
54.00002
 11
-174.7626
 21
54.00002
  0
LINE
  8
0
  6
CONTINUOUS
 62
     7
 10
-193.9368
 20
52.00002
 11
-169.9368
 21
52.00002
  0
LINE
  8
0
  6
CONTINUOUS
 62
     7
 10
-193.9367
 20
51.99999
 11
-192.9367
 21
53.99999
  0
LINE
  8
0
  6
CONTINUOUS
 62
     7
 10
-169.9368
 20
51.99996
 11
-170.9368
 21
53.99998
  0
LINE
  8
0
  6
CONTINUOUS
 62
     7
 10
-175.9368
 20
54.00002
 11
-175.9368
 21
52.00002
  0
LINE
  8
0
  6
CENTER
 62
     2
 10
-172.9368
 20
57.00002
 11
-172.9368
 21
48.00002
  0
LINE
  8
0
  6
CONTINUOUS
 62
     7
 10
-170.3868
 20
52.60002
 11
-175.4868
 21
52.60002
  0
LINE
  8
0
  6
CONTINUOUS
 62
     7
 10
-173.2367
 20
52.00001
 11
-173.3975
 21
52.59999
  0
LINE
  8
0
  6
CONTINUOUS
 62
     7
 10
-172.6368
 20
52.6
 11
-172.4761
 21
52.00001
  0
LINE
  8
0
  6
CONTINUOUS
 62
     7
 10
-170.3868
 20
52.60002
 11
-170.3868
 21
52.00002
  0
LINE
  8
0
  6
CONTINUOUS
 62
     7
 10
-175.4868
 20
52.60002
 11
-175.4868
 21
52.00002
  0
LINE
  8
0
  6
CONTINUOUS
 62
     7
 10
-170.6868
 20
53.29375
 11
-170.6868
 21
52.60002
  0
LINE
  8
0
  6
CONTINUOUS
 62
     7
 10
-175.1868
 20
53.29375
 11
-175.1868
 21
52.59999
  0
LINE
  8
0
  6
CONTINUOUS
 62
     7
 10
-171.111
 20
54.00002
 11
-170.9368
 21
54.00002
  0
LINE
  8
0
  6
CENTER
 62
     2
 10
-190.9368
 20
57.00002
 11
-190.9368
 21
48.00002
  0
LINE
  8
0
  6
CONTINUOUS
 62
     7
 10
-149.4368
 20
54.8
 11
-149.4368
 21
53.8
  0
LINE
  8
0
  6
CONTINUOUS
 62
     7
 10
-150.9368
 20
47.8
 11
-150.9368
 21
46.8
  0
LINE
  8
0
  6
CONTINUOUS
 62
     7
 10
-168.4368
 20
53.3
 11
-168.4368
 21
52.8
  0
LINE
  8
0
  6
CONTINUOUS
 62
     7
 10
-149.4368
 20
46.8
 11
-150.9368
 21
46.8
  0
LINE
  8
0
  6
CONTINUOUS
 62
     7
 10
-150.9368
 20
47.8
 11
-157.4368
 21
47.8
  0
LINE
  8
0
  6
CONTINUOUS
 62
     7
 10
-149.4368
 20
49.2
 11
-160.8368
 21
49.2
  0
LINE
  8
0
  6
CONTINUOUS
 62
     7
 10
-149.4368
 20
51.00002
 11
-160.8368
 21
51.00002
  0
LINE
  8
0
  6
CONTINUOUS
 62
     7
 10
-167.9368
 20
53.8
 11
-157.1081
 21
53.8
  0
LINE
  8
0
  6
CONTINUOUS
 62
     7
 10
-149.4368
 20
54.8
 11
-151.4368
 21
54.8
  0
LINE
  8
0
  6
CONTINUOUS
 62
     7
 10
-149.4368
 20
53.8
 11
-150.9368
 21
53.8
  0
LINE
  8
0
  6
CONTINUOUS
 62
     7
 10
-151.4368
 20
54.79995
 11
-157.108
 21
53.79995
  0
LINE
  8
0
  6
CONTINUOUS
 62
     7
 10
-150.9368
 20
53.79991
 11
-156.6081
 21
52.79991
  0
LINE
  8
0
  6
CONTINUOUS
 62
     7
 10
-160.8368
 20
51.8
 11
-158.9368
 21
51.8
  0
LINE
  8
0
  6
CONTINUOUS
 62
     7
 10
-157.4368
 20
47.8
 11
-157.4368
 21
46.8
  0
LINE
  8
0
  6
CONTINUOUS
 62
     7
 10
-160.8368
 20
52.10002
 11
-160.2368
 21
52.10002
  0
LINE
  8
0
  6
CONTINUOUS
 62
     7
 10
-149.7368
 20
52.1
 11
-149.4368
 21
51.80001
  0
LINE
  8
0
  6
CONTINUOUS
 62
     7
 10
-155.9367
 20
51.79996
 11
-155.6367
 21
52.09996
  0
LINE
  8
0
  6
CONTINUOUS
 62
     7
 10
-160.2368
 20
52.10001
 11
-159.9368
 21
51.80001
  0
LINE
  8
0
  6
CONTINUOUS
 62
     7
 10
-155.6368
 20
52.10002
 11
-149.7368
 21
52.10002
  0
LINE
  8
0
  6
CONTINUOUS
 62
     7
 10
-156.9368
 20
52.8
 11
-156.6081
 21
52.8
  0
LINE
  8
0
  6
CONTINUOUS
 62
     7
 10
-156.9368
 20
51.8
 11
-149.4368
 21
51.8
  0
LINE
  8
0
  6
CONTINUOUS
 62
     7
 10
-149.4368
 20
51.8
 11
-149.4368
 21
46.8
  0
LINE
  8
0
  6
CONTINUOUS
 62
     7
 10
-159.6368
 20
49.2
 11
-159.6368
 21
47.7
  0
LINE
  8
0
  6
CONTINUOUS
 62
     7
 10
-159.6368
 20
47.7
 11
-160.8368
 21
47.7
  0
LINE
  8
0
  6
CENTER
 62
     2
 10
-152.4368
 20
50.3
 11
-126.4368
 21
50.3
  0
LINE
  8
0
  6
CONTINUOUS
 62
     7
 10
-149.4368
 20
49.45
 11
-145.441
 21
49.45
  0
LINE
  8
0
  6
CONTINUOUS
 62
     7
 10
-149.4368
 20
51.15001
 11
-144.9855
 21
51.15001
  0
LINE
  8
0
  6
CONTINUOUS
 62
     7
 10
-139.4368
 20
50.62001
 11
-129.4368
 21
50.62001
  0
LINE
  8
0
  6
CONTINUOUS
 62
     7
 10
-139.4368
 20
49.98
 11
-129.4368
 21
49.98
  0
LINE
  8
0
  6
CONTINUOUS
 62
     7
 10
-139.4368
 20
51.15001
 11
-139.4368
 21
49.45
  0
LINE
  8
0
  6
CONTINUOUS
 62
     7
 10
-129.4368
 20
50.62001
 11
-129.4368
 21
49.98
  0
LINE
  8
0
  6
PHANTOM
 62
     2
 10
-145.9769
 20
47.45
 11
-144.4496
 21
53.15002
  0
LINE
  8
0
  6
PHANTOM
 62
     2
 10
-144.4239
 20
47.45
 11
-142.8966
 21
53.15
  0
LINE
  8
0
  6
CONTINUOUS
 62
     7
 10
-143.4326
 20
51.15001
 11
-139.4368
 21
51.15001
  0
LINE
  8
0
  6
CONTINUOUS
 62
     7
 10
-143.8881
 20
49.45
 11
-139.4368
 21
49.45
  0
LINE
  8
0
  6
CENTER
 62
     2
 10
-42.81229
 20
57.59712
 11
-42.81229
 21
-13.44551
  0
LINE
  8
0
  6
CONTINUOUS
 62
     7
 10
-33.81229
 20
24.80006
 11
-33.81229
 21
-32.29994
  0
LINE
  8
0
  6
CONTINUOUS
 62
     7
 10
-51.81229
 20
24.80006
 11
-51.81229
 21
-32.29994
  0
LINE
  8
0
  6
CONTINUOUS
 62
     7
 10
-51.81229
 20
24.80006
 11
-33.81229
 21
24.80006
  0
LINE
  8
0
  6
CENTER
 62
     2
 10
-45.73399
 20
22.30006
 11
-39.90259
 21
22.30006
  0
LINE
  8
0
  6
CENTER
 62
     2
 10
-40.65889
 20
1.60007
 11
-33.22792
 21
1.60007
  0
LINE
  8
0
  6
CENTER
 62
     2
 10
-36.31229
 20
6.19136
 11
-36.31229
 21
-2.8166
  0
LINE
  8
0
  6
CONTINUOUS
 62
     7
 10
-34.81229
 20
25.80003
 11
-33.8123
 21
24.80003
  0
LINE
  8
0
  6
CONTINUOUS
 62
     7
 10
-50.81227
 20
25.80005
 11
-51.81227
 21
24.80005
  0
LINE
  8
0
  6
CONTINUOUS
 62
     7
 10
-51.81229
 20
7.60008
 11
-33.81229
 21
7.60008
  0
LINE
  8
0
  6
CENTER
 62
     2
 10
-48.81229
 20
-28.05698
 11
-48.81229
 21
-34.4863
  0
LINE
  8
0
  6
CENTER
 62
     2
 10
-42.81229
 20
-15.80502
 11
-42.81229
 21
-34.01518
  0
LINE
  8
0
  6
CONTINUOUS
 62
     7
 10
-51.81229
 20
-24.39993
 11
-33.81229
 21
-24.39993
  0
LINE
  8
0
  6
CONTINUOUS
 62
     7
 10
-51.31229
 20
-32.79994
 11
-34.31229
 21
-32.79994
  0
LINE
  8
0
  6
CONTINUOUS
 62
     7
 10
-51.31229
 20
-29.39993
 11
-46.11229
 21
-29.39993
  0
LINE
  8
0
  6
CONTINUOUS
 62
     7
 10
-45.61229
 20
-29.89993
 11
-45.61229
 21
-32.29994
  0
LINE
  8
0
  6
CONTINUOUS
 62
     7
 10
-46.01227
 20
-30.57176
 11
-46.01227
 21
-29.39995
  0
LINE
  8
0
  6
CONTINUOUS
 62
     7
 10
-51.61227
 20
-30.57176
 11
-51.61227
 21
-29.39995
  0
LINE
  8
0
  6
CENTER
 62
     2
 10
-49.31229
 20
-13.98112
 11
-49.31229
 21
-22.43755
  0
LINE
  8
0
  6
CENTER
 62
     2
 10
-52.38739
 20
-18.39993
 11
-45.29492
 21
-18.39993
  0
LINE
  8
0
  6
CENTER
 62
     2
 10
-49.11493
 20
-6.39993
 11
-36.60519
 21
-6.39993
  0
LINE
  8
0
  6
CONTINUOUS
 62
     7
 10
-50.81229
 20
25.80006
 11
-34.81229
 21
25.80006
  0
LINE
  8
0
  6
CONTINUOUS
 62
     7
 10
-50.31229
 20
52.00008
 11
-50.31229
 21
25.80006
  0
LINE
  8
0
  6
CONTINUOUS
 62
     7
 10
-35.31229
 20
52.00008
 11
-35.31229
 21
25.80006
  0
LINE
  8
0
  6
CONTINUOUS
 62
     7
 10
-50.31229
 20
51.00008
 11
-49.81229
 21
51.00008
  0
LINE
  8
0
  6
CONTINUOUS
 62
     7
 10
-35.81229
 20
52.80006
 11
-35.81229
 21
46.80006
  0
LINE
  8
0
  6
CONTINUOUS
 62
     7
 10
-49.81229
 20
52.80006
 11
-49.81229
 21
46.80006
  0
LINE
  8
0
  6
CONTINUOUS
 62
     7
 10
-49.81229
 20
52.80006
 11
-35.81229
 21
52.80006
  0
LINE
  8
0
  6
CONTINUOUS
 62
     7
 10
-49.81229
 20
46.80006
 11
-35.81229
 21
46.80006
  0
LINE
  8
0
  6
CONTINUOUS
 62
     7
 10
-35.81229
 20
51.00008
 11
-35.31229
 21
51.00008
  0
LINE
  8
0
  6
CONTINUOUS
 62
     7
 10
-49.81229
 20
46.00005
 11
-49.81229
 21
26.60005
  0
LINE
  8
0
  6
CONTINUOUS
 62
     7
 10
-35.81229
 20
46.00005
 11
-35.81229
 21
26.60005
  0
LINE
  8
0
  6
CONTINUOUS
 62
     7
 10
-48.31229
 20
27.30006
 11
-37.31229
 21
27.30006
  0
LINE
  8
0
  6
CONTINUOUS
 62
     7
 10
-48.31229
 20
35.80006
 11
-37.31229
 21
35.80006
  0
LINE
  8
0
  6
CONTINUOUS
 62
     7
 10
-48.31229
 20
35.80006
 11
-48.31229
 21
27.30006
  0
LINE
  8
0
  6
CONTINUOUS
 62
     7
 10
-37.31229
 20
35.80006
 11
-37.31229
 21
27.30006
  0
LINE
  8
0
  6
CONTINUOUS
 62
     7
 10
-44.81229
 20
39.30006
 11
-40.81229
 21
39.30006
  0
LINE
  8
0
  6
CONTINUOUS
 62
     7
 10
-44.81229
 20
37.30006
 11
-40.81229
 21
37.30006
  0
LINE
  8
0
  6
CONTINUOUS
 62
     7
 10
-44.81229
 20
39.30006
 11
-44.81229
 21
37.30006
  0
LINE
  8
0
  6
CONTINUOUS
 62
     7
 10
-40.81229
 20
39.30006
 11
-40.81229
 21
37.30006
  0
LINE
  8
0
  6
CONTINUOUS
 62
     7
 10
-45.31229
 20
39.80006
 11
-40.31229
 21
39.80006
  0
LINE
  8
0
  6
CONTINUOUS
 62
     7
 10
-45.31229
 20
39.80006
 11
-45.31229
 21
36.80006
  0
LINE
  8
0
  6
CONTINUOUS
 62
     7
 10
-45.31229
 20
36.80006
 11
-40.31229
 21
36.80006
  0
LINE
  8
0
  6
CONTINUOUS
 62
     7
 10
-40.31229
 20
39.80006
 11
-40.31229
 21
36.80006
  0
LINE
  8
0
  6
CONTINUOUS
 62
     7
 10
-44.81231
 20
39.30008
 11
-45.3123
 21
39.80006
  0
LINE
  8
0
  6
CONTINUOUS
 62
     7
 10
-40.81228
 20
39.3001
 11
-40.31229
 21
39.80009
  0
LINE
  8
0
  6
CONTINUOUS
 62
     7
 10
-40.81231
 20
37.30007
 11
-40.31232
 21
36.80008
  0
LINE
  8
0
  6
CONTINUOUS
 62
     7
 10
-44.81229
 20
37.30009
 11
-45.31229
 21
36.80008
  0
LINE
  8
0
  6
CONTINUOUS
 62
     7
 10
-49.31229
 20
54.00008
 11
-49.13805
 21
54.00008
  0
LINE
  8
0
  6
CONTINUOUS
 62
     7
 10
-50.31229
 20
52.00008
 11
-49.81229
 21
52.00008
  0
LINE
  8
0
  6
CONTINUOUS
 62
     7
 10
-50.31226
 20
52.00008
 11
-49.31226
 21
54.00008
  0
LINE
  8
0
  6
CONTINUOUS
 62
     7
 10
-35.31229
 20
52.00006
 11
-36.3123
 21
54.00008
  0
LINE
  8
0
  6
CENTER
 62
     2
 10
-47.31229
 20
57.00008
 11
-47.31229
 21
48.00008
  0
LINE
  8
0
  6
CONTINUOUS
 62
     7
 10
-49.81229
 20
52.60008
 11
-49.86229
 21
52.60008
  0
LINE
  8
0
  6
CONTINUOUS
 62
     7
 10
-49.86229
 20
52.60008
 11
-49.86229
 21
52.00008
  0
LINE
  8
0
  6
CONTINUOUS
 62
     7
 10
-35.81229
 20
52.00008
 11
-35.31229
 21
52.00008
  0
LINE
  8
0
  6
CONTINUOUS
 62
     7
 10
-49.56227
 20
53.29381
 11
-49.56227
 21
52.80006
  0
LINE
  8
0
  6
CONTINUOUS
 62
     7
 10
-48.51228
 20
49.20006
 11
-46.81229
 21
49.20006
  0
LINE
  8
0
  6
CONTINUOUS
 62
     7
 10
-48.51228
 20
51.20006
 11
-47.01228
 21
51.20006
  0
LINE
  8
0
  6
CONTINUOUS
 62
     7
 10
-38.61229
 20
52.80006
 11
-38.61229
 21
51.20006
  0
LINE
  8
0
  6
CONTINUOUS
 62
     7
 10
-47.01228
 20
52.80006
 11
-47.01228
 21
51.20006
  0
LINE
  8
0
  6
CONTINUOUS
 62
     7
 10
-37.11229
 20
51.20006
 11
-37.11229
 21
49.20006
  0
LINE
  8
0
  6
CONTINUOUS
 62
     7
 10
-48.51228
 20
51.20006
 11
-48.51228
 21
49.20006
  0
LINE
  8
0
  6
CONTINUOUS
 62
     7
 10
-47.01228
 20
49.20006
 11
-47.01228
 21
46.80006
  0
LINE
  8
0
  6
CONTINUOUS
 62
     7
 10
-38.61229
 20
49.20006
 11
-38.61229
 21
46.80006
  0
LINE
  8
0
  6
CONTINUOUS
 62
     7
 10
-38.61229
 20
51.20006
 11
-37.11229
 21
51.20006
  0
LINE
  8
0
  6
CONTINUOUS
 62
     7
 10
-38.81229
 20
49.20006
 11
-37.11229
 21
49.20006
  0
LINE
  8
0
  6
CENTER
 62
     2
 10
-38.31229
 20
57.00008
 11
-38.31229
 21
48.00008
  0
LINE
  8
0
  6
CONTINUOUS
 62
     7
 10
-48.31229
 20
51.00008
 11
-46.81229
 21
51.00008
  0
LINE
  8
0
  6
CONTINUOUS
 62
     7
 10
-46.81229
 20
53.80006
 11
-38.81229
 21
53.80006
  0
LINE
  8
0
  6
CONTINUOUS
 62
     7
 10
-48.31229
 20
51.00008
 11
-48.31229
 21
49.20006
  0
LINE
  8
0
  6
CONTINUOUS
 62
     7
 10
-37.31229
 20
51.00008
 11
-37.31229
 21
49.20006
  0
LINE
  8
0
  6
CONTINUOUS
 62
     7
 10
-46.81218
 20
51.79998
 11
-46.51218
 21
52.09999
  0
LINE
  8
0
  6
CONTINUOUS
 62
     7
 10
-38.81233
 20
51.8
 11
-39.11232
 21
52.09999
  0
LINE
  8
0
  6
CONTINUOUS
 62
     7
 10
-46.81229
 20
49.20006
 11
-46.81229
 21
46.80006
  0
LINE
  8
0
  6
CONTINUOUS
 62
     7
 10
-38.81229
 20
49.20006
 11
-38.81229
 21
46.80006
  0
LINE
  8
0
  6
CONTINUOUS
 62
     7
 10
-38.81229
 20
51.00008
 11
-37.31229
 21
51.00008
  0
LINE
  8
0
  6
CENTER
 62
     2
 10
-46.76228
 20
50.30006
 11
-38.86229
 21
50.30006
  0
LINE
  8
0
  6
CENTER
 62
     2
 10
-45.31229
 20
51.65007
 11
-45.31229
 21
48.85005
  0
LINE
  8
0
  6
CENTER
 62
     2
 10
-40.31229
 20
51.65007
 11
-40.31229
 21
48.85005
  0
LINE
  8
0
  6
CONTINUOUS
 62
     7
 10
-46.26228
 20
51.25008
 11
-44.36229
 21
51.25008
  0
LINE
  8
0
  6
CONTINUOUS
 62
     7
 10
-46.26228
 20
49.35008
 11
-44.36229
 21
49.35008
  0
LINE
  8
0
  6
CONTINUOUS
 62
     7
 10
-46.26228
 20
51.45006
 11
-46.26228
 21
49.35008
  0
LINE
  8
0
  6
CONTINUOUS
 62
     7
 10
-44.36229
 20
51.45006
 11
-44.36229
 21
49.35008
  0
LINE
  8
0
  6
CONTINUOUS
 62
     7
 10
-43.76228
 20
51.45006
 11
-43.76228
 21
49.35008
  0
LINE
  8
0
  6
CONTINUOUS
 62
     7
 10
-41.86229
 20
51.45006
 11
-41.86229
 21
49.35008
  0
LINE
  8
0
  6
CONTINUOUS
 62
     7
 10
-39.36229
 20
51.45006
 11
-39.36229
 21
49.35008
  0
LINE
  8
0
  6
CONTINUOUS
 62
     7
 10
-41.26228
 20
51.45006
 11
-41.26228
 21
49.35008
  0
LINE
  8
0
  6
CONTINUOUS
 62
     7
 10
-43.76228
 20
51.25008
 11
-41.86229
 21
51.25008
  0
LINE
  8
0
  6
CONTINUOUS
 62
     7
 10
-43.76228
 20
49.35008
 11
-41.86229
 21
49.35008
  0
LINE
  8
0
  6
CONTINUOUS
 62
     7
 10
-41.26228
 20
49.35008
 11
-39.36229
 21
49.35008
  0
LINE
  8
0
  6
CONTINUOUS
 62
     7
 10
-41.26228
 20
51.25008
 11
-39.36229
 21
51.25008
  0
LINE
  8
0
  6
CONTINUOUS
 62
     7
 10
-47.01228
 20
51.80006
 11
-38.61229
 21
51.80006
  0
LINE
  8
0
  6
CONTINUOUS
 62
     7
 10
-46.51228
 20
52.10005
 11
-39.11229
 21
52.10005
  0
LINE
  8
0
  6
CONTINUOUS
 62
     7
 10
-46.81229
 20
54.80006
 11
-38.81229
 21
54.80006
  0
LINE
  8
0
  6
CONTINUOUS
 62
     7
 10
-38.81229
 20
54.80006
 11
-38.81229
 21
51.00008
  0
LINE
  8
0
  6
CONTINUOUS
 62
     7
 10
-46.81229
 20
54.80006
 11
-46.81229
 21
51.00008
  0
LINE
  8
0
  6
CONTINUOUS
 62
     7
 10
-46.26228
 20
51.45006
 11
-44.36229
 21
51.45006
  0
LINE
  8
0
  6
CONTINUOUS
 62
     7
 10
-43.76228
 20
51.45006
 11
-41.86229
 21
51.45006
  0
LINE
  8
0
  6
CONTINUOUS
 62
     7
 10
-41.26228
 20
51.45006
 11
-39.36229
 21
51.45006
  0
LINE
  8
0
  6
CONTINUOUS
 62
     7
 10
-45.81229
 20
49.05006
 11
-44.81229
 21
49.05006
  0
LINE
  8
0
  6
CONTINUOUS
 62
     7
 10
-43.31229
 20
49.05006
 11
-42.31229
 21
49.05006
  0
LINE
  8
0
  6
CONTINUOUS
 62
     7
 10
-40.81229
 20
49.05006
 11
-39.81229
 21
49.05006
  0
LINE
  8
0
  6
CONTINUOUS
 62
     7
 10
-45.81229
 20
49.35008
 11
-45.81229
 21
49.05006
  0
LINE
  8
0
  6
CONTINUOUS
 62
     7
 10
-44.81229
 20
49.35008
 11
-44.81229
 21
49.05006
  0
LINE
  8
0
  6
CONTINUOUS
 62
     7
 10
-43.31229
 20
49.35008
 11
-43.31229
 21
49.05006
  0
LINE
  8
0
  6
CONTINUOUS
 62
     7
 10
-42.31229
 20
49.35008
 11
-42.31229
 21
49.05006
  0
LINE
  8
0
  6
CONTINUOUS
 62
     7
 10
-39.81229
 20
49.35008
 11
-39.81229
 21
49.05006
  0
LINE
  8
0
  6
CONTINUOUS
 62
     7
 10
-40.81229
 20
49.35008
 11
-40.81229
 21
49.05006
  0
LINE
  8
0
  6
CONTINUOUS
 62
     7
 10
-45.81229
 20
47.92506
 11
-44.81229
 21
47.92506
  0
LINE
  8
0
  6
CONTINUOUS
 62
     7
 10
-45.31229
 20
48.42506
 11
-45.31229
 21
47.42506
  0
LINE
  8
0
  6
CONTINUOUS
 62
     7
 10
-40.81229
 20
47.92506
 11
-39.81229
 21
47.92506
  0
LINE
  8
0
  6
CONTINUOUS
 62
     7
 10
-36.3123
 20
54.00005
 11
-38.81229
 21
54.00005
  0
LINE
  8
0
  6
CENTER
 62
     2
 10
-46.81229
 20
38.30006
 11
-38.81229
 21
38.30006
  0
LINE
  8
0
  6
CENTER
 62
     2
 10
-307.0614
 20
-22.38467
 11
-307.0614
 21
-36.44983
  0
LINE
  8
0
  6
CENTER
 62
     2
 10
-300.5614
 20
-15.73993
 11
-300.5614
 21
-21.19139
  0
LINE
  8
0
  6
CENTER
 62
     2
 10
-303.1682
 20
-18.39983
 11
-298.0614
 21
-18.39983
  0
LINE
  8
0
  6
CONTINUOUS
 62
     7
 10
-310.2614
 20
-30.57167
 11
-310.2614
 21
-29.39983
  0
LINE
  8
0
  6
CONTINUOUS
 62
     7
 10
-315.8614
 20
-30.57164
 11
-315.8614
 21
-29.39983
  0
LINE
  8
0
  6
CONTINUOUS
 62
     7
 10
-315.5614
 20
-29.39983
 11
-310.3614
 21
-29.39983
  0
LINE
  8
0
  6
CONTINUOUS
 62
     7
 10
-309.8614
 20
-29.89983
 11
-309.8614
 21
-32.29984
  0
LINE
  8
0
  6
CENTER
 62
     2
 10
-313.0614
 20
-28.40111
 11
-313.0614
 21
-33.75923
  0
LINE
  8
0
  6
CONTINUOUS
 62
     7
 10
-315.5614
 20
-32.79984
 11
-298.5614
 21
-32.79984
  0
LINE
  8
0
  6
CONTINUOUS
 62
     7
 10
-316.0614
 20
-24.39983
 11
-298.0614
 21
-24.39983
  0
LINE
  8
0
  6
CENTER
 62
     2
 10
-306.5614
 20
6.13939
 11
-306.5614
 21
-19.43483
  0
LINE
  8
0
  6
CONTINUOUS
 62
     7
 10
-307.5791
 20
15.56839
 11
-305.1296
 21
18.01789
  0
LINE
  8
0
  6
CONTINUOUS
 62
     7
 10
-308.9933
 20
16.9826
 11
-306.5438
 21
19.43209
  0
LINE
  8
0
  6
CONTINUOUS
 62
     7
 10
-307.5791
 20
19.43198
 11
-305.1296
 21
16.98248
  0
LINE
  8
0
  6
CONTINUOUS
 62
     7
 10
-308.9933
 20
18.01772
 11
-306.5438
 21
15.56823
  0
LINE
  8
0
  6
CONTINUOUS
 62
     7
 10
-308.4757
 20
18.91436
 11
-305.6472
 21
16.08593
  0
LINE
  8
0
  6
CONTINUOUS
 62
     7
 10
-308.4757
 20
16.08599
 11
-305.6472
 21
18.91442
  0
LINE
  8
0
  6
CONTINUOUS
 62
     7
 10
-316.0614
 20
24.80016
 11
-298.0614
 21
24.80016
  0
LINE
  8
0
  6
CONTINUOUS
 62
     7
 10
-316.0614
 20
7.60017
 11
-298.0614
 21
7.60017
  0
LINE
  8
0
  6
CONTINUOUS
 62
     7
 10
-298.0614
 20
24.80016
 11
-298.0614
 21
-32.29984
  0
LINE
  8
0
  6
CONTINUOUS
 62
     7
 10
-316.0614
 20
24.80016
 11
-316.0614
 21
-32.29984
  0
LINE
  8
0
  6
CONTINUOUS
 62
     7
 10
-315.0613
 20
25.80017
 11
-316.0613
 21
24.80017
  0
LINE
  8
0
  6
CONTINUOUS
 62
     7
 10
-299.0614
 20
25.80023
 11
-298.0614
 21
24.80025
  0
LINE
  8
0
  6
CENTER
 62
     2
 10
-313.2701
 20
-13.39983
 11
-300.7259
 21
-13.39983
  0
LINE
  8
0
  6
CENTER
 62
     2
 10
-312.7823
 20
-0.19983
 11
-300.7259
 21
-0.19983
  0
LINE
  8
0
  6
CENTER
 62
     2
 10
-313.5614
 20
4.35167
 11
-313.5614
 21
-0.81406
  0
LINE
  8
0
  6
CENTER
 62
     2
 10
-316.0614
 20
1.60017
 11
-311.0657
 21
1.60017
  0
LINE
  8
0
  6
CENTER
 62
     2
 10
-310.8254
 20
17.50017
 11
-303.2571
 21
17.50017
  0
LINE
  8
0
  6
CONTINUOUS
 62
     7
 10
-315.0614
 20
25.80016
 11
-299.0614
 21
25.80016
  0
LINE
  8
0
  6
CENTER
 62
     2
 10
-307.0614
 20
57.38383
 11
-307.0614
 21
-19.41025
  0
LINE
  8
0
  6
CONTINUOUS
 62
     7
 10
-314.5614
 20
52.00017
 11
-314.5614
 21
25.80016
  0
LINE
  8
0
  6
CONTINUOUS
 62
     7
 10
-314.5614
 20
51.00017
 11
-299.5614
 21
51.00017
  0
LINE
  8
0
  6
CONTINUOUS
 62
     7
 10
-299.5614
 20
52.00017
 11
-299.5614
 21
25.80016
  0
LINE
  8
0
  6
CONTINUOUS
 62
     7
 10
-314.5614
 20
52.00017
 11
-299.5614
 21
52.00017
  0
LINE
  8
0
  6
CONTINUOUS
 62
     7
 10
-313.5614
 20
54.00017
 11
-313.3871
 21
54.00017
  0
LINE
  8
0
  6
CONTINUOUS
 62
     7
 10
-299.5614
 20
52.00016
 11
-300.5613
 21
54.00015
  0
LINE
  8
0
  6
CONTINUOUS
 62
     7
 10
-314.5612
 20
52.0001
 11
-313.5612
 21
54.0001
  0
LINE
  8
0
  6
CONTINUOUS
 62
     7
 10
-308.5614
 20
54.00017
 11
-308.5614
 21
52.00017
  0
LINE
  8
0
  6
CENTER
 62
     2
 10
-311.5614
 20
57.00017
 11
-311.5614
 21
49.00017
  0
LINE
  8
0
  6
CONTINUOUS
 62
     7
 10
-309.0114
 20
52.60014
 11
-314.1114
 21
52.60014
  0
LINE
  8
0
  6
CONTINUOUS
 62
     7
 10
-309.0114
 20
52.60014
 11
-309.0114
 21
52.00017
  0
LINE
  8
0
  6
CONTINUOUS
 62
     7
 10
-314.1114
 20
52.60014
 11
-314.1114
 21
52.00017
  0
LINE
  8
0
  6
CONTINUOUS
 62
     7
 10
-309.3114
 20
53.2939
 11
-309.3114
 21
52.60014
  0
LINE
  8
0
  6
CONTINUOUS
 62
     7
 10
-313.8114
 20
53.2939
 11
-313.8114
 21
52.60014
  0
LINE
  8
0
  6
CONTINUOUS
 62
     7
 10
-309.7357
 20
54.00017
 11
-300.5614
 21
54.00017
  0
LINE
  8
0
  6
CENTER
 62
     2
 10
-302.5614
 20
57.00017
 11
-302.5614
 21
49.00017
  0
LINE
  8
0
  6
CONTINUOUS
 62
     7
 10
-311.0614
 20
54.80016
 11
-303.0614
 21
54.80016
  0
LINE
  8
0
  6
CONTINUOUS
 62
     7
 10
-311.0614
 20
54.80016
 11
-311.0614
 21
54.27928
  0
LINE
  8
0
  6
CONTINUOUS
 62
     7
 10
-303.0614
 20
54.80016
 11
-303.0614
 21
54.27928
  0
LINE
  8
0
  6
CONTINUOUS
 62
     7
 10
-313.5614
 20
48.00017
 11
-300.5614
 21
48.00017
  0
LINE
  8
0
  6
CONTINUOUS
 62
     7
 10
-313.5614
 20
44.00017
 11
-300.5614
 21
44.00017
  0
LINE
  8
0
  6
CONTINUOUS
 62
     7
 10
-300.5614
 20
48.00017
 11
-300.5614
 21
44.00017
  0
LINE
  8
0
  6
CONTINUOUS
 62
     7
 10
-313.5614
 20
48.00017
 11
-313.5614
 21
44.00017
  0
LINE
  8
0
  6
CONTINUOUS
 62
     7
 10
-312.8493
 20
47.10695
 11
-310.5076
 21
47.10695
  0
LINE
  8
0
  6
CONTINUOUS
 62
     7
 10
-312.8493
 20
45.03035
 11
-310.8611
 21
45.03035
  0
LINE
  8
0
  6
CONTINUOUS
 62
     7
 10
-312.8493
 20
44.50017
 11
-310.1542
 21
44.50017
  0
LINE
  8
0
  6
CONTINUOUS
 62
     7
 10
-312.8493
 20
46.57677
 11
-310.8611
 21
46.57677
  0
LINE
  8
0
  6
CONTINUOUS
 62
     7
 10
-312.8493
 20
47.10695
 11
-312.8493
 21
46.57677
  0
LINE
  8
0
  6
CONTINUOUS
 62
     7
 10
-310.1542
 20
46.75349
 11
-310.1542
 21
44.50017
  0
LINE
  8
0
  6
CONTINUOUS
 62
     7
 10
-310.8611
 20
46.57677
 11
-310.8611
 21
45.03035
  0
LINE
  8
0
  6
CONTINUOUS
 62
     7
 10
-309.7565
 20
47.10695
 11
-309.7565
 21
46.57677
  0
LINE
  8
0
  6
CONTINUOUS
 62
     7
 10
-307.2382
 20
46.57677
 11
-307.2382
 21
44.85362
  0
LINE
  8
0
  6
CONTINUOUS
 62
     7
 10
-307.9451
 20
46.57677
 11
-307.9451
 21
45.03035
  0
LINE
  8
0
  6
CONTINUOUS
 62
     7
 10
-312.8493
 20
45.03035
 11
-312.8493
 21
44.50017
  0
LINE
  8
0
  6
CONTINUOUS
 62
     7
 10
-309.7565
 20
47.10695
 11
-309.058
 21
47.10695
  0
LINE
  8
0
  6
CONTINUOUS
 62
     7
 10
-309.7565
 20
44.50017
 11
-309.2076
 21
44.50017
  0
LINE
  8
0
  6
CONTINUOUS
 62
     7
 10
-309.7563
 20
44.50008
 11
-309.1999
 21
46.57667
  0
LINE
  8
0
  6
CONTINUOUS
 62
     7
 10
-309.7565
 20
46.57677
 11
-309.2001
 21
46.57677
  0
LINE
  8
0
  6
CONTINUOUS
 62
     7
 10
-309.2077
 20
44.50016
 11
-308.6513
 21
46.57674
  0
LINE
  8
0
  6
CONTINUOUS
 62
     7
 10
-308.4753
 20
45.03035
 11
-307.9451
 21
45.03035
  0
LINE
  8
0
  6
CONTINUOUS
 62
     7
 10
-308.4755
 20
45.03029
 11
-308.3334
 21
44.5001
  0
LINE
  8
0
  6
CONTINUOUS
 62
     7
 10
-308.3332
 20
44.50017
 11
-307.5916
 21
44.50017
  0
LINE
  8
0
  6
CONTINUOUS
 62
     7
 10
-308.6512
 20
46.57677
 11
-307.9451
 21
46.57677
  0
LINE
  8
0
  6
CONTINUOUS
 62
     7
 10
-308.5092
 20
47.10695
 11
-307.7683
 21
47.10695
  0
LINE
  8
0
  6
CONTINUOUS
 62
     7
 10
-309.0579
 20
47.10695
 11
-308.9526
 21
47.50019
  0
LINE
  8
0
  6
CONTINUOUS
 62
     7
 10
-308.5089
 20
47.10691
 11
-308.4035
 21
47.50013
  0
LINE
  8
0
  6
CONTINUOUS
 62
     7
 10
-306.7963
 20
47.10695
 11
-305.9568
 21
47.10695
  0
LINE
  8
0
  6
CONTINUOUS
 62
     7
 10
-306.7963
 20
46.57677
 11
-304.7346
 21
46.57677
  0
LINE
  8
0
  6
CONTINUOUS
 62
     7
 10
-305.9568
 20
44.50017
 11
-305.2499
 21
44.50017
  0
LINE
  8
0
  6
CONTINUOUS
 62
     7
 10
-306.7963
 20
47.10695
 11
-306.7963
 21
46.57677
  0
LINE
  8
0
  6
CONTINUOUS
 62
     7
 10
-304.1895
 20
45.61537
 11
-304.1895
 21
45.03035
  0
LINE
  8
0
  6
CONTINUOUS
 62
     7
 10
-306.7962
 20
45.03012
 11
-305.9567
 21
45.42159
  0
LINE
  8
0
  6
CONTINUOUS
 62
     7
 10
-306.7963
 20
45.6153
 11
-304.7346
 21
46.57669
  0
LINE
  8
0
  6
CONTINUOUS
 62
     7
 10
-306.7963
 20
45.61537
 11
-306.7963
 21
45.03035
  0
LINE
  8
0
  6
CONTINUOUS
 62
     7
 10
-305.25
 20
45.52483
 11
-304.1895
 21
45.03036
  0
LINE
  8
0
  6
CONTINUOUS
 62
     7
 10
-304.8655
 20
45.9306
 11
-304.1894
 21
45.61531
  0
LINE
  8
0
  6
CONTINUOUS
 62
     7
 10
-304.1895
 20
46.75349
 11
-304.1895
 21
46.47112
  0
LINE
  8
0
  6
CONTINUOUS
 62
     7
 10
-305.9568
 20
47.50017
 11
-305.9568
 21
47.10695
  0
LINE
  8
0
  6
CONTINUOUS
 62
     7
 10
-305.2499
 20
47.50017
 11
-305.2499
 21
47.10695
  0
LINE
  8
0
  6
CONTINUOUS
 62
     7
 10
-305.2499
 20
47.10695
 11
-304.543
 21
47.10695
  0
LINE
  8
0
  6
CONTINUOUS
 62
     7
 10
-305.9568
 20
45.4218
 11
-305.9568
 21
44.50017
  0
LINE
  8
0
  6
CONTINUOUS
 62
     7
 10
-305.2499
 20
45.52483
 11
-305.2499
 21
44.50017
  0
LINE
  8
0
  6
CONTINUOUS
 62
     7
 10
-304.8655
 20
45.93039
 11
-304.3934
 21
46.15051
  0
LINE
  8
0
  6
CONTINUOUS
 62
     7
 10
-301.8036
 20
47.34111
 11
-301.2735
 21
47.34111
  0
LINE
  8
0
  6
CONTINUOUS
 62
     7
 10
-303.9686
 20
46.24593
 11
-303.9686
 21
45.67534
  0
LINE
  8
0
  6
CONTINUOUS
 62
     7
 10
-301.2735
 20
47.34111
 11
-301.2735
 21
47.10695
  0
LINE
  8
0
  6
CONTINUOUS
 62
     7
 10
-301.8036
 20
47.34111
 11
-301.8036
 21
47.22685
  0
LINE
  8
0
  6
CONTINUOUS
 62
     7
 10
-302.5106
 20
46.2552
 11
-302.5106
 21
44.50017
  0
LINE
  8
0
  6
CONTINUOUS
 62
     7
 10
-303.9685
 20
46.2459
 11
-301.915
 21
47.06262
  0
LINE
  8
0
  6
CONTINUOUS
 62
     7
 10
-303.9687
 20
45.67544
 11
-302.5107
 21
46.25534
  0
LINE
  8
0
  6
CONTINUOUS
 62
     7
 10
-302.5106
 20
44.50017
 11
-301.8036
 21
44.50017
  0
LINE
  8
0
  6
CONTINUOUS
 62
     7
 10
-301.8036
 20
46.53636
 11
-301.8036
 21
44.50017
  0
LINE
  8
0
  6
CONTINUOUS
 62
     7
 10
-301.8034
 20
46.53623
 11
-301.6075
 21
46.61415
  0
LINE
  8
0
  6
CONTINUOUS
 62
     7
 10
-308.9527
 20
47.50017
 11
-308.4038
 21
47.50017
  0
LINE
  8
0
  6
CONTINUOUS
 62
     7
 10
-307.5253
 20
47.50017
 11
-307.2993
 21
47.50017
  0
LINE
  8
0
  6
CONTINUOUS
 62
     7
 10
-305.9568
 20
47.50017
 11
-305.2499
 21
47.50017
  0
LINE
  8
0
  6
CONTINUOUS
 62
     7
 10
-307.5253
 20
47.14671
 11
-307.2993
 21
47.14671
  0
LINE
  8
0
  6
CONTINUOUS
 62
     7
 10
-307.5253
 20
47.50017
 11
-307.5253
 21
47.14671
  0
LINE
  8
0
  6
CONTINUOUS
 62
     7
 10
-307.2993
 20
47.50017
 11
-307.2993
 21
47.14671
  0
LINE
  8
0
  6
CONTINUOUS
 62
     7
 10
-307.1416
 20
47.50017
 11
-307.1416
 21
47.14671
  0
LINE
  8
0
  6
CONTINUOUS
 62
     7
 10
-306.9156
 20
47.50017
 11
-306.9156
 21
47.14671
  0
LINE
  8
0
  6
CONTINUOUS
 62
     7
 10
-307.1416
 20
47.50017
 11
-306.9156
 21
47.50017
  0
LINE
  8
0
  6
CONTINUOUS
 62
     7
 10
-307.1416
 20
47.14671
 11
-306.9156
 21
47.14671
  0
LINE
  8
0
  6
CENTER
 62
     2
 10
-175.9642
 20
-184.179
 11
-169.1067
 21
-184.179
  0
LINE
  8
0
  6
CENTER
 62
     2
 10
-194.5854
 20
-174.179
 11
-188.0624
 21
-174.179
  0
LINE
  8
0
  6
CENTER
 62
     2
 10
-172.4368
 20
-180.7817
 11
-172.4368
 21
-187.3604
  0
LINE
  8
0
  6
CENTER
 62
     2
 10
-191.4368
 20
-170.8578
 11
-191.4368
 21
-177.6038
  0
LINE
  8
0
  6
CONTINUOUS
 62
     7
 10
-171.0125
 20
-174.0276
 11
-170.5883
 21
-174.4518
  0
LINE
  8
0
  6
CONTINUOUS
 62
     7
 10
-170.5882
 20
-172.7548
 11
-170.164
 21
-172.3305
  0
LINE
  8
0
  6
CONTINUOUS
 62
     7
 10
-171.0125
 20
-172.3305
 11
-170.5882
 21
-171.9063
  0
LINE
  8
0
  6
CONTINUOUS
 62
     7
 10
-172.2854
 20
-171.9064
 11
-171.8611
 21
-172.3306
  0
LINE
  8
0
  6
CONTINUOUS
 62
     7
 10
-172.7096
 20
-172.3305
 11
-172.2853
 21
-172.7548
  0
LINE
  8
0
  6
CONTINUOUS
 62
     7
 10
-170.5883
 20
-171.9063
 11
-170.164
 21
-172.3306
  0
LINE
  8
0
  6
CONTINUOUS
 62
     7
 10
-172.7096
 20
-174.0276
 11
-172.2853
 21
-174.4519
  0
LINE
  8
0
  6
CONTINUOUS
 62
     7
 10
-170.5883
 20
-173.6035
 11
-170.1641
 21
-174.0277
  0
LINE
  8
0
  6
CENTER
 62
     2
 10
-181.9368
 20
-167.429
 11
-181.9368
 21
-191.4065
  0
LINE
  8
0
  6
CENTER
 62
     2
 10
-197.833
 20
-179.179
 11
-147.3366
 21
-179.179
  0
LINE
  8
0
  6
CONTINUOUS
 62
     7
 10
-194.9368
 20
-188.179
 11
-168.9368
 21
-188.179
  0
LINE
  8
0
  6
CONTINUOUS
 62
     7
 10
-194.9368
 20
-170.179
 11
-168.9368
 21
-170.179
  0
LINE
  8
0
  6
CONTINUOUS
 62
     7
 10
-168.4368
 20
-170.679
 11
-168.4368
 21
-187.679
  0
LINE
  8
0
  6
CONTINUOUS
 62
     7
 10
-195.4368
 20
-170.679
 11
-195.4368
 21
-187.679
  0
LINE
  8
0
  6
CENTER
 62
     2
 10
-175.5746
 20
-173.179
 11
-167.2668
 21
-173.179
  0
LINE
  8
0
  6
CENTER
 62
     2
 10
-196.6157
 20
-185.179
 11
-188.2688
 21
-185.179
  0
LINE
  8
0
  6
CENTER
 62
     2
 10
-192.4368
 20
-181.1467
 11
-192.4368
 21
-189.0888
  0
LINE
  8
0
  6
CENTER
 62
     2
 10
-171.4368
 20
-169.322
 11
-171.4368
 21
-177.0463
  0
LINE
  8
0
  6
CONTINUOUS
 62
     7
 10
-189.2367
 20
-185.179
 11
-189.2367
 21
-187.679
  0
LINE
  8
0
  6
CONTINUOUS
 62
     7
 10
-194.9368
 20
-181.979
 11
-192.4368
 21
-181.979
  0
LINE
  8
0
  6
CONTINUOUS
 62
     7
 10
-171.4368
 20
-176.379
 11
-168.9368
 21
-176.379
  0
LINE
  8
0
  6
CONTINUOUS
 62
     7
 10
-174.6368
 20
-170.679
 11
-174.6368
 21
-173.179
  0
LINE
  8
0
  6
CONTINUOUS
 62
     7
 10
-193.7095
 20
-184.3305
 11
-193.2853
 21
-183.9063
  0
LINE
  8
0
  6
CONTINUOUS
 62
     7
 10
-191.5882
 20
-186.4518
 11
-191.1639
 21
-186.0276
  0
LINE
  8
0
  6
CONTINUOUS
 62
     7
 10
-193.7095
 20
-186.0275
 11
-193.2853
 21
-185.6033
  0
LINE
  8
0
  6
CONTINUOUS
 62
     7
 10
-193.2852
 20
-186.4518
 11
-192.861
 21
-186.0276
  0
LINE
  8
0
  6
CONTINUOUS
 62
     7
 10
-193.7096
 20
-186.0276
 11
-193.2853
 21
-186.4518
  0
LINE
  8
0
  6
CONTINUOUS
 62
     7
 10
-191.5883
 20
-183.9063
 11
-191.164
 21
-184.3306
  0
LINE
  8
0
  6
CONTINUOUS
 62
     7
 10
-193.7096
 20
-184.3306
 11
-193.2854
 21
-184.7549
  0
LINE
  8
0
  6
CONTINUOUS
 62
     7
 10
-193.2854
 20
-183.9064
 11
-192.8611
 21
-184.3306
  0
LINE
  8
0
  6
CONTINUOUS
 62
     7
 10
-192.0125
 20
-184.3305
 11
-191.5882
 21
-183.9062
  0
LINE
  8
0
  6
CONTINUOUS
 62
     7
 10
-191.5882
 20
-184.7548
 11
-191.1639
 21
-184.3305
  0
LINE
  8
0
  6
CONTINUOUS
 62
     7
 10
-192.0126
 20
-186.0276
 11
-191.5883
 21
-186.4519
  0
LINE
  8
0
  6
CONTINUOUS
 62
     7
 10
-191.5883
 20
-185.6034
 11
-191.1641
 21
-186.0277
  0
LINE
  8
0
  6
CONTINUOUS
 62
     7
 10
-172.7095
 20
-172.3306
 11
-172.2852
 21
-171.9063
  0
LINE
  8
0
  6
CONTINUOUS
 62
     7
 10
-170.5882
 20
-174.4519
 11
-170.1639
 21
-174.0276
  0
LINE
  8
0
  6
CONTINUOUS
 62
     7
 10
-172.7095
 20
-174.0276
 11
-172.2853
 21
-173.6033
  0
LINE
  8
0
  6
CONTINUOUS
 62
     7
 10
-172.2853
 20
-174.4518
 11
-171.861
 21
-174.0276
  0
LINE
  8
0
  6
CONTINUOUS
 62
     7
 10
-159.9368
 20
-172.979
 11
-159.9368
 21
-185.379
  0
LINE
  8
0
  6
CONTINUOUS
 62
     7
 10
-168.4368
 20
-186.179
 11
-160.7367
 21
-186.179
  0
LINE
  8
0
  6
CONTINUOUS
 62
     7
 10
-168.4368
 20
-172.179
 11
-160.7367
 21
-172.179
  0
LINE
  8
0
  6
CONTINUOUS
 62
     7
 10
-149.4368
 20
-173.679
 11
-149.4368
 21
-184.679
  0
LINE
  8
0
  6
CONTINUOUS
 62
     7
 10
-159.9368
 20
-183.179
 11
-149.4368
 21
-183.179
  0
LINE
  8
0
  6
CONTINUOUS
 62
     7
 10
-159.9368
 20
-175.179
 11
-149.4368
 21
-175.179
  0
LINE
  8
0
  6
CONTINUOUS
 62
     7
 10
-159.9368
 20
-173.679
 11
-149.4368
 21
-173.679
  0
LINE
  8
0
  6
CONTINUOUS
 62
     7
 10
-159.9368
 20
-184.679
 11
-149.4368
 21
-184.679
  0
LINE
  8
0
  6
CENTER
 62
     2
 10
-152.4368
 20
-176.679
 11
-126.4368
 21
-176.679
  0
LINE
  8
0
  6
CENTER
 62
     2
 10
-152.4368
 20
-181.679
 11
-126.4368
 21
-181.679
  0
LINE
  8
0
  6
CONTINUOUS
 62
     7
 10
-139.4368
 20
-175.829
 11
-139.4368
 21
-177.529
  0
LINE
  8
0
  6
CONTINUOUS
 62
     7
 10
-129.4368
 20
-176.359
 11
-129.4368
 21
-176.999
  0
LINE
  8
0
  6
CONTINUOUS
 62
     7
 10
-139.4368
 20
-181.999
 11
-129.4368
 21
-181.999
  0
LINE
  8
0
  6
CONTINUOUS
 62
     7
 10
-139.4368
 20
-181.359
 11
-129.4368
 21
-181.359
  0
LINE
  8
0
  6
CONTINUOUS
 62
     7
 10
-139.4368
 20
-176.999
 11
-129.4368
 21
-176.999
  0
LINE
  8
0
  6
CONTINUOUS
 62
     7
 10
-139.4368
 20
-176.359
 11
-129.4368
 21
-176.359
  0
LINE
  8
0
  6
CONTINUOUS
 62
     7
 10
-149.4368
 20
-177.529
 11
-144.7711
 21
-177.529
  0
LINE
  8
0
  6
CONTINUOUS
 62
     7
 10
-149.4368
 20
-175.829
 11
-144.3156
 21
-175.829
  0
LINE
  8
0
  6
CONTINUOUS
 62
     7
 10
-149.4368
 20
-180.829
 11
-145.6553
 21
-180.829
  0
LINE
  8
0
  6
CONTINUOUS
 62
     7
 10
-149.4368
 20
-182.529
 11
-146.1108
 21
-182.529
  0
LINE
  8
0
  6
CONTINUOUS
 62
     7
 10
-139.4368
 20
-180.829
 11
-139.4368
 21
-182.529
  0
LINE
  8
0
  6
CONTINUOUS
 62
     7
 10
-129.4368
 20
-181.359
 11
-129.4368
 21
-181.999
  0
LINE
  8
0
  6
CONTINUOUS
 62
     7
 10
-150.9368
 20
-175.179
 11
-150.9368
 21
-183.179
  0
LINE
  8
0
  6
CONTINUOUS
 62
     7
 10
-157.4368
 20
-175.179
 11
-157.4368
 21
-183.179
  0
LINE
  8
0
  6
PHANTOM
 62
     2
 10
-145.0938
 20
-184.529
 11
-142.2268
 21
-173.829
  0
LINE
  8
0
  6
PHANTOM
 62
     2
 10
-146.6467
 20
-184.529
 11
-143.7796
 21
-173.829
  0
LINE
  8
0
  6
CONTINUOUS
 62
     7
 10
-142.7627
 20
-175.829
 11
-139.4368
 21
-175.829
  0
LINE
  8
0
  6
CONTINUOUS
 62
     7
 10
-143.2182
 20
-177.529
 11
-139.4368
 21
-177.529
  0
LINE
  8
0
  6
CONTINUOUS
 62
     7
 10
-144.1024
 20
-180.829
 11
-139.4368
 21
-180.829
  0
LINE
  8
0
  6
CONTINUOUS
 62
     7
 10
-144.5579
 20
-182.529
 11
-139.4368
 21
-182.529
  0
LINE
  8
0
  6
CENTER
 62
     2
 10
168.9372
 20
152.6736
 11
168.9372
 21
101.6599
  0
LINE
  8
0
  6
CENTER
 62
     2
 10
157.1872
 20
136.7773
 11
181.1646
 21
136.7773
  0
LINE
  8
0
  6
CONTINUOUS
 62
     7
 10
176.4372
 20
124.7773
 11
161.4372
 21
124.7773
  0
LINE
  8
0
  6
CONTINUOUS
 62
     7
 10
175.9372
 20
115.6773
 11
172.9372
 21
115.6773
  0
LINE
  8
0
  6
CONTINUOUS
 62
     7
 10
167.4372
 20
127.7773
 11
167.4372
 21
124.7773
  0
LINE
  8
0
  6
CONTINUOUS
 62
     7
 10
170.4372
 20
145.7773
 11
170.4372
 21
148.7773
  0
LINE
  8
0
  6
CONTINUOUS
 62
     7
 10
173.4372
 20
142.7773
 11
176.4372
 21
142.7773
  0
LINE
  8
0
  6
CONTINUOUS
 62
     7
 10
164.4372
 20
130.7773
 11
161.4372
 21
130.7773
  0
LINE
  8
0
  6
CONTINUOUS
 62
     7
 10
170.4372
 20
147.7773
 11
162.4372
 21
147.7773
  0
LINE
  8
0
  6
CONTINUOUS
 62
     7
 10
175.4372
 20
125.7773
 11
167.4372
 21
125.7773
  0
LINE
  8
0
  6
CONTINUOUS
 62
     7
 10
175.4372
 20
142.7773
 11
175.4372
 21
125.7773
  0
LINE
  8
0
  6
CONTINUOUS
 62
     7
 10
162.4372
 20
147.7773
 11
162.4372
 21
130.7773
  0
LINE
  8
0
  6
CONTINUOUS
 62
     7
 10
162.2073
 20
127.4774
 11
161.9049
 21
127.4774
  0
LINE
  8
0
  6
CONTINUOUS
 62
     7
 10
162.2073
 20
128.0773
 11
161.9049
 21
128.0773
  0
LINE
  8
0
  6
CONTINUOUS
 62
     7
 10
161.9292
 20
128.2381
 11
162.2348
 21
128.2381
  0
LINE
  8
0
  6
CONTINUOUS
 62
     7
 10
175.6671
 20
146.0773
 11
175.9695
 21
146.0773
  0
LINE
  8
0
  6
CONTINUOUS
 62
     7
 10
175.6671
 20
145.4773
 11
175.9695
 21
145.4773
  0
LINE
  8
0
  6
CONTINUOUS
 62
     7
 10
175.9452
 20
145.3166
 11
175.6395
 21
145.3166
  0
LINE
  8
0
  6
CONTINUOUS
 62
     7
 10
163.7018
 20
128.8804
 11
164.0695
 21
128.5127
  0
LINE
  8
0
  6
CONTINUOUS
 62
     7
 10
163.3341
 20
128.5127
 11
163.7018
 21
128.145
  0
LINE
  8
0
  6
CONTINUOUS
 62
     7
 10
163.7017
 20
128.8805
 11
163.334
 21
128.5128
  0
LINE
  8
0
  6
CONTINUOUS
 62
     7
 10
165.5402
 20
127.042
 11
165.1725
 21
126.6743
  0
LINE
  8
0
  6
CONTINUOUS
 62
     7
 10
165.8336
 20
129.5416
 11
164.8048
 21
128.5128
  0
LINE
  8
0
  6
CONTINUOUS
 62
     7
 10
166.2013
 20
129.1739
 11
165.1725
 21
128.1451
  0
LINE
  8
0
  6
CONTINUOUS
 62
     7
 10
165.1726
 20
127.4096
 11
165.5403
 21
127.0419
  0
LINE
  8
0
  6
CONTINUOUS
 62
     7
 10
164.8049
 20
127.0419
 11
165.1726
 21
126.6742
  0
LINE
  8
0
  6
CONTINUOUS
 62
     7
 10
163.7017
 20
127.4097
 11
162.6729
 21
126.381
  0
LINE
  8
0
  6
CONTINUOUS
 62
     7
 10
164.0694
 20
127.042
 11
163.0406
 21
126.0132
  0
LINE
  8
0
  6
CONTINUOUS
 62
     7
 10
172.7018
 20
146.8804
 11
173.0695
 21
146.5127
  0
LINE
  8
0
  6
CONTINUOUS
 62
     7
 10
172.3341
 20
146.5127
 11
172.7018
 21
146.145
  0
LINE
  8
0
  6
CONTINUOUS
 62
     7
 10
172.7018
 20
146.8805
 11
172.3341
 21
146.5128
  0
LINE
  8
0
  6
CONTINUOUS
 62
     7
 10
174.5402
 20
145.042
 11
174.1725
 21
144.6743
  0
LINE
  8
0
  6
CONTINUOUS
 62
     7
 10
174.8336
 20
147.5416
 11
173.8049
 21
146.5128
  0
LINE
  8
0
  6
CONTINUOUS
 62
     7
 10
175.2013
 20
147.1739
 11
174.1725
 21
146.1451
  0
LINE
  8
0
  6
CONTINUOUS
 62
     7
 10
174.1726
 20
145.4097
 11
174.5403
 21
145.042
  0
LINE
  8
0
  6
CONTINUOUS
 62
     7
 10
173.8049
 20
145.0419
 11
174.1726
 21
144.6743
  0
LINE
  8
0
  6
CONTINUOUS
 62
     7
 10
172.7018
 20
145.4097
 11
171.673
 21
144.3809
  0
LINE
  8
0
  6
CONTINUOUS
 62
     7
 10
173.0694
 20
145.042
 11
172.0406
 21
144.0132
  0
LINE
  8
0
  6
CONTINUOUS
 62
     7
 10
172.9372
 20
106.2773
 11
164.9372
 21
106.2773
  0
LINE
  8
0
  6
CONTINUOUS
 62
     7
 10
172.9372
 20
111.9486
 11
164.9372
 21
111.9486
  0
LINE
  8
0
  6
CONTINUOUS
 62
     7
 10
172.9372
 20
123.2773
 11
164.9372
 21
123.2773
  0
LINE
  8
0
  6
CONTINUOUS
 62
     7
 10
164.7372
 20
124.7773
 11
164.7372
 21
121.2773
  0
LINE
  8
0
  6
CONTINUOUS
 62
     7
 10
173.1372
 20
124.7773
 11
173.1372
 21
121.2773
  0
LINE
  8
0
  6
CONTINUOUS
 62
     7
 10
173.1372
 20
121.2773
 11
172.9372
 21
121.2773
  0
LINE
  8
0
  6
CONTINUOUS
 62
     7
 10
173.1372
 20
120.2773
 11
172.9372
 21
120.2773
  0
LINE
  8
0
  6
CONTINUOUS
 62
     7
 10
164.7372
 20
120.2773
 11
164.7372
 21
115.6773
  0
LINE
  8
0
  6
CONTINUOUS
 62
     7
 10
173.1372
 20
120.2773
 11
173.1372
 21
115.6773
  0
LINE
  8
0
  6
CONTINUOUS
 62
     7
 10
164.9372
 20
115.6773
 11
161.9372
 21
115.6773
  0
LINE
  8
0
  6
CONTINUOUS
 62
     7
 10
164.9372
 20
120.2773
 11
164.7372
 21
120.2773
  0
LINE
  8
0
  6
CONTINUOUS
 62
     7
 10
164.9372
 20
121.2773
 11
164.7372
 21
121.2773
  0
LINE
  8
0
  6
CENTER
 62
     2
 10
168.4372
 20
127.7773
 11
160.4372
 21
127.7773
  0
LINE
  8
0
  6
CENTER
 62
     2
 10
177.4372
 20
145.7773
 11
169.4372
 21
145.7773
  0
LINE
  8
0
  6
CENTER
 62
     2
 10
173.4372
 20
149.7773
 11
173.4372
 21
141.7773
  0
LINE
  8
0
  6
CENTER
 62
     2
 10
164.4372
 20
131.7773
 11
164.4372
 21
123.7773
  0
LINE
  8
0
  6
CONTINUOUS
 62
     7
 10
176.4372
 20
148.2773
 11
176.4372
 21
124.7773
  0
LINE
  8
0
  6
CONTINUOUS
 62
     7
 10
175.9372
 20
148.7773
 11
161.9372
 21
148.7773
  0
LINE
  8
0
  6
CONTINUOUS
 62
     7
 10
161.4372
 20
148.2773
 11
161.4372
 21
124.7773
  0
LINE
  8
0
  6
CONTINUOUS
 62
     7
 10
175.9372
 20
124.7773
 11
175.9372
 21
115.5773
  0
LINE
  8
0
  6
CONTINUOUS
 62
     7
 10
175.1372
 20
114.7773
 11
174.4372
 21
114.7773
  0
LINE
  8
0
  6
CONTINUOUS
 62
     7
 10
163.4372
 20
114.7773
 11
162.7372
 21
114.7773
  0
LINE
  8
0
  6
CONTINUOUS
 62
     7
 10
161.9372
 20
124.7773
 11
161.9372
 21
115.5773
  0
LINE
  8
0
  6
CONTINUOUS
 62
     7
 10
163.4372
 20
115.6773
 11
163.4372
 21
104.2773
  0
LINE
  8
0
  6
CONTINUOUS
 62
     7
 10
174.4372
 20
104.2773
 11
163.4372
 21
104.2773
  0
LINE
  8
0
  6
CONTINUOUS
 62
     7
 10
174.4372
 20
115.6773
 11
174.4372
 21
104.2773
  0
LINE
  8
0
  6
CONTINUOUS
 62
     7
 10
172.9372
 20
123.2773
 11
172.9372
 21
104.2773
  0
LINE
  8
0
  6
CONTINUOUS
 62
     7
 10
164.9372
 20
123.2773
 11
164.9372
 21
104.2773
  0
LINE
  8
0
  6
CONTINUOUS
 62
     7
 10
172.2872
 20
104.2773
 11
172.2872
 21
99.15616
  0
LINE
  8
0
  6
CONTINUOUS
 62
     7
 10
170.5872
 20
104.2773
 11
170.5872
 21
99.61169
  0
LINE
  8
0
  6
CENTER
 62
     2
 10
171.4372
 20
107.2773
 11
171.4372
 21
81.27734
  0
LINE
  8
0
  6
CONTINUOUS
 62
     7
 10
171.7572
 20
94.27734
 11
171.7572
 21
84.27734
  0
LINE
  8
0
  6
CONTINUOUS
 62
     7
 10
172.2872
 20
94.27734
 11
170.5872
 21
94.27734
  0
LINE
  8
0
  6
CONTINUOUS
 62
     7
 10
171.7572
 20
84.27734
 11
171.1172
 21
84.27734
  0
LINE
  8
0
  6
CONTINUOUS
 62
     7
 10
171.1172
 20
94.27734
 11
171.1172
 21
84.27734
  0
LINE
  8
0
  6
CONTINUOUS
 62
     7
 10
166.7572
 20
94.27734
 11
166.7572
 21
84.27734
  0
LINE
  8
0
  6
CONTINUOUS
 62
     7
 10
166.7572
 20
84.27734
 11
166.1172
 21
84.27734
  0
LINE
  8
0
  6
CONTINUOUS
 62
     7
 10
166.1172
 20
94.27734
 11
166.1172
 21
84.27734
  0
LINE
  8
0
  6
CENTER
 62
     2
 10
166.4372
 20
107.2773
 11
166.4372
 21
81.27734
  0
LINE
  8
0
  6
CONTINUOUS
 62
     7
 10
167.2872
 20
104.2773
 11
167.2872
 21
100.4959
  0
LINE
  8
0
  6
CONTINUOUS
 62
     7
 10
167.2872
 20
94.27734
 11
165.5872
 21
94.27734
  0
LINE
  8
0
  6
CONTINUOUS
 62
     7
 10
165.5872
 20
104.2773
 11
165.5872
 21
100.9514
  0
LINE
  8
0
  6
PHANTOM
 62
     2
 10
163.5872
 20
101.4873
 11
174.2872
 21
98.62026
  0
LINE
  8
0
  6
PHANTOM
 62
     2
 10
163.5872
 20
99.93444
 11
174.2872
 21
97.06738
  0
LINE
  8
0
  6
CONTINUOUS
 62
     7
 10
172.2872
 20
97.60327
 11
172.2872
 21
94.27734
  0
LINE
  8
0
  6
CONTINUOUS
 62
     7
 10
170.5872
 20
98.05878
 11
170.5872
 21
94.27734
  0
LINE
  8
0
  6
CONTINUOUS
 62
     7
 10
167.2872
 20
98.94299
 11
167.2872
 21
94.27734
  0
LINE
  8
0
  6
CONTINUOUS
 62
     7
 10
165.5872
 20
99.3985
 11
165.5872
 21
94.27734
  0
LINE
  8
0
  6
CONTINUOUS
 62
     7
 10
161.9372
 20
124.2773
 11
160.9372
 21
124.2773
  0
LINE
  8
0
  6
CONTINUOUS
 62
     7
 10
175.9372
 20
123.2773
 11
177.4372
 21
123.2773
  0
LINE
  8
0
  6
CONTINUOUS
 62
     7
 10
177.9372
 20
149.7773
 11
177.9372
 21
123.7773
  0
LINE
  8
0
  6
CONTINUOUS
 62
     7
 10
159.9372
 20
149.7773
 11
159.9372
 21
123.7773
  0
LINE
  8
0
  6
CONTINUOUS
 62
     7
 10
160.4372
 20
123.2773
 11
161.9372
 21
123.2773
  0
LINE
  8
0
  6
CONTINUOUS
 62
     7
 10
160.4372
 20
150.2773
 11
177.4372
 21
150.2773
  0
LINE
  8
0
  6
CONTINUOUS
 62
     7
 10
176.9372
 20
149.2773
 11
176.9372
 21
124.2773
  0
LINE
  8
0
  6
CONTINUOUS
 62
     7
 10
160.9372
 20
149.2773
 11
160.9372
 21
124.2773
  0
LINE
  8
0
  6
CONTINUOUS
 62
     7
 10
176.9372
 20
149.2773
 11
160.9372
 21
149.2773
  0
LINE
  8
0
  6
CONTINUOUS
 62
     7
 10
176.9372
 20
124.2773
 11
175.9372
 21
124.2773
  0
LINE
  8
0
  6
CONTINUOUS
 62
     7
 10
160.9373
 20
124.2772
 11
160.0837
 21
123.4236
  0
LINE
  8
0
  6
CONTINUOUS
 62
     7
 10
160.9371
 20
149.2774
 11
160.0836
 21
150.1309
  0
LINE
  8
0
  6
CONTINUOUS
 62
     7
 10
176.9371
 20
124.2774
 11
177.7907
 21
123.4238
  0
LINE
  8
0
  6
CONTINUOUS
 62
     7
 10
176.9371
 20
149.2774
 11
177.7907
 21
150.131
  0
LINE
  8
0
  6
CENTER
 62
     2
 10
173.9369
 20
-166.2065
 11
173.9369
 21
-159.349
  0
LINE
  8
0
  6
CENTER
 62
     2
 10
163.9369
 20
-184.8278
 11
163.9369
 21
-178.3048
  0
LINE
  8
0
  6
CENTER
 62
     2
 10
170.5396
 20
-162.6791
 11
177.1183
 21
-162.6791
  0
LINE
  8
0
  6
CENTER
 62
     2
 10
160.6157
 20
-181.6791
 11
167.3617
 21
-181.6791
  0
LINE
  8
0
  6
CONTINUOUS
 62
     7
 10
163.7855
 20
-161.2549
 11
164.2097
 21
-160.8306
  0
LINE
  8
0
  6
CONTINUOUS
 62
     7
 10
162.5126
 20
-160.8306
 11
162.0884
 21
-160.4064
  0
LINE
  8
0
  6
CONTINUOUS
 62
     7
 10
162.0884
 20
-161.2549
 11
161.6642
 21
-160.8306
  0
LINE
  8
0
  6
CONTINUOUS
 62
     7
 10
161.6641
 20
-162.5276
 11
162.0884
 21
-162.1034
  0
LINE
  8
0
  6
CONTINUOUS
 62
     7
 10
162.0884
 20
-162.9519
 11
162.5127
 21
-162.5277
  0
LINE
  8
0
  6
CONTINUOUS
 62
     7
 10
161.6641
 20
-160.8306
 11
162.0884
 21
-160.4063
  0
LINE
  8
0
  6
CONTINUOUS
 62
     7
 10
163.7855
 20
-162.9519
 11
164.2097
 21
-162.5276
  0
LINE
  8
0
  6
CONTINUOUS
 62
     7
 10
163.3612
 20
-160.8306
 11
163.7855
 21
-160.4063
  0
LINE
  8
0
  6
CENTER
 62
     2
 10
157.1869
 20
-172.1791
 11
181.1644
 21
-172.1791
  0
LINE
  8
0
  6
CENTER
 62
     2
 10
168.9369
 20
-188.0753
 11
168.9369
 21
-137.1663
  0
LINE
  8
0
  6
CONTINUOUS
 62
     7
 10
177.9369
 20
-185.1791
 11
177.9369
 21
-159.1791
  0
LINE
  8
0
  6
CONTINUOUS
 62
     7
 10
159.9369
 20
-185.1791
 11
159.9369
 21
-159.1791
  0
LINE
  8
0
  6
CONTINUOUS
 62
     7
 10
160.4369
 20
-158.6791
 11
177.4369
 21
-158.6791
  0
LINE
  8
0
  6
CONTINUOUS
 62
     7
 10
160.4369
 20
-185.6791
 11
177.4369
 21
-185.6791
  0
LINE
  8
0
  6
CENTER
 62
     2
 10
162.9369
 20
-165.8169
 11
162.9369
 21
-157.5092
  0
LINE
  8
0
  6
CENTER
 62
     2
 10
174.9369
 20
-186.8581
 11
174.9369
 21
-178.5112
  0
LINE
  8
0
  6
CENTER
 62
     2
 10
170.9046
 20
-182.6791
 11
178.8467
 21
-182.6791
  0
LINE
  8
0
  6
CENTER
 62
     2
 10
159.0798
 20
-161.6791
 11
166.8042
 21
-161.6791
  0
LINE
  8
0
  6
CONTINUOUS
 62
     7
 10
174.9369
 20
-179.4791
 11
177.4369
 21
-179.4791
  0
LINE
  8
0
  6
CONTINUOUS
 62
     7
 10
171.7369
 20
-185.1791
 11
171.7369
 21
-182.6791
  0
LINE
  8
0
  6
CONTINUOUS
 62
     7
 10
166.1369
 20
-161.6791
 11
166.1369
 21
-159.1791
  0
LINE
  8
0
  6
CONTINUOUS
 62
     7
 10
160.4369
 20
-164.8791
 11
162.9369
 21
-164.8791
  0
LINE
  8
0
  6
CONTINUOUS
 62
     7
 10
174.0883
 20
-183.9519
 11
173.6641
 21
-183.5277
  0
LINE
  8
0
  6
CONTINUOUS
 62
     7
 10
176.2097
 20
-181.8307
 11
175.7854
 21
-181.4064
  0
LINE
  8
0
  6
CONTINUOUS
 62
     7
 10
175.7854
 20
-183.9519
 11
175.3611
 21
-183.5277
  0
LINE
  8
0
  6
CONTINUOUS
 62
     7
 10
176.2097
 20
-183.5276
 11
175.7854
 21
-183.1033
  0
LINE
  8
0
  6
CONTINUOUS
 62
     7
 10
175.7854
 20
-183.9519
 11
176.2097
 21
-183.5277
  0
LINE
  8
0
  6
CONTINUOUS
 62
     7
 10
173.6642
 20
-181.8306
 11
174.0884
 21
-181.4063
  0
LINE
  8
0
  6
CONTINUOUS
 62
     7
 10
174.0884
 20
-183.9519
 11
174.5126
 21
-183.5276
  0
LINE
  8
0
  6
CONTINUOUS
 62
     7
 10
173.6642
 20
-183.5277
 11
174.0884
 21
-183.1034
  0
LINE
  8
0
  6
CONTINUOUS
 62
     7
 10
174.0884
 20
-182.2549
 11
173.6641
 21
-181.8306
  0
LINE
  8
0
  6
CONTINUOUS
 62
     7
 10
174.5126
 20
-181.8306
 11
174.0884
 21
-181.4063
  0
LINE
  8
0
  6
CONTINUOUS
 62
     7
 10
175.7854
 20
-182.2548
 11
176.2097
 21
-181.8306
  0
LINE
  8
0
  6
CONTINUOUS
 62
     7
 10
175.3613
 20
-181.8306
 11
175.7855
 21
-181.4063
  0
LINE
  8
0
  6
CONTINUOUS
 62
     7
 10
162.0884
 20
-162.952
 11
161.6641
 21
-162.5277
  0
LINE
  8
0
  6
CONTINUOUS
 62
     7
 10
164.2097
 20
-160.8306
 11
163.7854
 21
-160.4063
  0
LINE
  8
0
  6
CONTINUOUS
 62
     7
 10
163.7855
 20
-162.9519
 11
163.3612
 21
-162.5276
  0
LINE
  8
0
  6
CONTINUOUS
 62
     7
 10
164.2097
 20
-162.5277
 11
163.7854
 21
-162.1034
  0
LINE
  8
0
  6
CONTINUOUS
 62
     7
 10
175.9369
 20
-158.6791
 11
175.9369
 21
-150.9791
  0
LINE
  8
0
  6
CONTINUOUS
 62
     7
 10
161.9369
 20
-158.6791
 11
161.9369
 21
-150.9791
  0
LINE
  8
0
  6
CONTINUOUS
 62
     7
 10
163.4369
 20
-139.6791
 11
174.4369
 21
-139.6791
  0
LINE
  8
0
  6
CONTINUOUS
 62
     7
 10
172.9369
 20
-150.1791
 11
172.9369
 21
-139.6791
  0
LINE
  8
0
  6
CONTINUOUS
 62
     7
 10
164.9369
 20
-150.1791
 11
164.9369
 21
-139.6791
  0
LINE
  8
0
  6
CONTINUOUS
 62
     7
 10
163.4369
 20
-150.1791
 11
163.4369
 21
-139.6791
  0
LINE
  8
0
  6
CONTINUOUS
 62
     7
 10
174.4369
 20
-150.1791
 11
174.4369
 21
-139.6791
  0
LINE
  8
0
  6
CONTINUOUS
 62
     7
 10
162.7369
 20
-150.1791
 11
175.1369
 21
-150.1791
  0
LINE
  8
0
  6
CENTER
 62
     2
 10
166.4369
 20
-142.6791
 11
166.4369
 21
-116.6791
  0
LINE
  8
0
  6
CENTER
 62
     2
 10
171.4369
 20
-142.6791
 11
171.4369
 21
-116.6791
  0
LINE
  8
0
  6
CONTINUOUS
 62
     7
 10
165.5869
 20
-129.6791
 11
167.2869
 21
-129.6791
  0
LINE
  8
0
  6
CONTINUOUS
 62
     7
 10
166.1169
 20
-119.6791
 11
166.7569
 21
-119.6791
  0
LINE
  8
0
  6
CONTINUOUS
 62
     7
 10
171.7569
 20
-129.6791
 11
171.7569
 21
-119.6791
  0
LINE
  8
0
  6
CONTINUOUS
 62
     7
 10
171.1169
 20
-129.6791
 11
171.1169
 21
-119.6791
  0
LINE
  8
0
  6
CONTINUOUS
 62
     7
 10
166.7569
 20
-129.6791
 11
166.7569
 21
-119.6791
  0
LINE
  8
0
  6
CONTINUOUS
 62
     7
 10
166.1169
 20
-129.6791
 11
166.1169
 21
-119.6791
  0
LINE
  8
0
  6
CONTINUOUS
 62
     7
 10
167.2869
 20
-139.6791
 11
167.2869
 21
-135.0134
  0
LINE
  8
0
  6
CONTINUOUS
 62
     7
 10
165.5869
 20
-139.6791
 11
165.5869
 21
-134.5579
  0
LINE
  8
0
  6
CONTINUOUS
 62
     7
 10
170.5869
 20
-139.6791
 11
170.5869
 21
-135.8977
  0
LINE
  8
0
  6
CONTINUOUS
 62
     7
 10
172.2869
 20
-139.6791
 11
172.2869
 21
-136.3532
  0
LINE
  8
0
  6
CONTINUOUS
 62
     7
 10
170.5869
 20
-129.6791
 11
172.2869
 21
-129.6791
  0
LINE
  8
0
  6
CONTINUOUS
 62
     7
 10
171.1169
 20
-119.6791
 11
171.7569
 21
-119.6791
  0
LINE
  8
0
  6
CONTINUOUS
 62
     7
 10
164.9369
 20
-141.1791
 11
172.9369
 21
-141.1791
  0
LINE
  8
0
  6
CONTINUOUS
 62
     7
 10
164.9369
 20
-147.6791
 11
172.9369
 21
-147.6791
  0
LINE
  8
0
  6
PHANTOM
 62
     2
 10
174.2869
 20
-135.3362
 11
163.5869
 21
-132.4691
  0
LINE
  8
0
  6
PHANTOM
 62
     2
 10
174.2869
 20
-136.8891
 11
163.5869
 21
-134.022
  0
LINE
  8
0
  6
CONTINUOUS
 62
     7
 10
165.5869
 20
-133.005
 11
165.5869
 21
-129.6791
  0
LINE
  8
0
  6
CONTINUOUS
 62
     7
 10
167.2869
 20
-133.4605
 11
167.2869
 21
-129.6791
  0
LINE
  8
0
  6
CONTINUOUS
 62
     7
 10
170.5869
 20
-134.3448
 11
170.5869
 21
-129.6791
  0
LINE
  8
0
  6
CONTINUOUS
 62
     7
 10
172.2869
 20
-134.8003
 11
172.2869
 21
-129.6791
  0
LINE
  8
0
  6
CENTER
 62
     2
 10
55.31206
 20
57.35025
 11
55.31206
 21
-35.45506
  0
LINE
  8
0
  6
CONTINUOUS
 62
     7
 10
68.81206
 20
24.80025
 11
68.81206
 21
-32.29974
  0
LINE
  8
0
  6
CONTINUOUS
 62
     7
 10
42.81237
 20
25.79988
 11
41.8124
 21
24.7999
  0
LINE
  8
0
  6
CONTINUOUS
 62
     7
 10
67.81209
 20
25.80025
 11
68.81207
 21
24.80027
  0
LINE
  8
0
  6
CONTINUOUS
 62
     7
 10
42.81206
 20
25.80025
 11
76.51207
 21
25.80025
  0
LINE
  8
0
  6
CONTINUOUS
 62
     7
 10
41.81206
 20
24.80025
 11
68.81206
 21
24.80025
  0
LINE
  8
0
  6
CONTINUOUS
 62
     7
 10
42.31206
 20
-32.79974
 11
68.31206
 21
-32.79974
  0
LINE
  8
0
  6
CONTINUOUS
 62
     7
 10
65.81206
 20
-16.74144
 11
68.81206
 21
-16.74144
  0
LINE
  8
0
  6
CONTINUOUS
 62
     7
 10
65.81206
 20
-20.05806
 11
68.81206
 21
-20.05806
  0
LINE
  8
0
  6
CONTINUOUS
 62
     7
 10
65.81206
 20
-16.74144
 11
65.81206
 21
-20.05806
  0
LINE
  8
0
  6
CENTER
 62
     2
 10
64.17534
 20
-18.39975
 11
70.3275
 21
-18.39975
  0
LINE
  8
0
  6
CONTINUOUS
 62
     7
 10
41.81206
 20
24.80025
 11
41.81206
 21
-32.29974
  0
LINE
  8
0
  6
CONTINUOUS
 62
     7
 10
41.81206
 20
-24.39975
 11
68.81206
 21
-24.39975
  0
LINE
  8
0
  6
CONTINUOUS
 62
     7
 10
41.81206
 20
7.60025
 11
68.81206
 21
7.60025
  0
LINE
  8
0
  6
CONTINUOUS
 62
     7
 10
43.31206
 20
51.00024
 11
67.31206
 21
51.00024
  0
LINE
  8
0
  6
CONTINUOUS
 62
     7
 10
43.31206
 20
52.00024
 11
43.31206
 21
25.80025
  0
LINE
  8
0
  6
CONTINUOUS
 62
     7
 10
67.31206
 20
52.80026
 11
67.31206
 21
25.80025
  0
LINE
  8
0
  6
CONTINUOUS
 62
     7
 10
77.31206
 20
46.00024
 11
77.31206
 21
26.60025
  0
LINE
  8
0
  6
CONTINUOUS
 62
     7
 10
67.31206
 20
52.80026
 11
78.31206
 21
52.80026
  0
LINE
  8
0
  6
CONTINUOUS
 62
     7
 10
76.41203
 20
52.80026
 11
76.41203
 21
46.80026
  0
LINE
  8
0
  6
CONTINUOUS
 62
     7
 10
67.31206
 20
46.80026
 11
79.81206
 21
46.80026
  0
LINE
  8
0
  6
CONTINUOUS
 62
     7
 10
44.31206
 20
54.00024
 11
62.48631
 21
54.00024
  0
LINE
  8
0
  6
CONTINUOUS
 62
     7
 10
43.31206
 20
52.00024
 11
67.31206
 21
52.00024
  0
LINE
  8
0
  6
CONTINUOUS
 62
     7
 10
43.31207
 20
52.00025
 11
44.31206
 21
54.00023
  0
LINE
  8
0
  6
CONTINUOUS
 62
     7
 10
67.31208
 20
52.00032
 11
66.3121
 21
54.00028
  0
LINE
  8
0
  6
CONTINUOUS
 62
     7
 10
61.31206
 20
54.00024
 11
61.31206
 21
52.00024
  0
LINE
  8
0
  6
CENTER
 62
     2
 10
64.31206
 20
57.00024
 11
64.31206
 21
48.00024
  0
LINE
  8
0
  6
CONTINUOUS
 62
     7
 10
66.86205
 20
52.60025
 11
61.76207
 21
52.60025
  0
LINE
  8
0
  6
CONTINUOUS
 62
     7
 10
64.01207
 20
52.00026
 11
63.85131
 21
52.60025
  0
LINE
  8
0
  6
CONTINUOUS
 62
     7
 10
64.61182
 20
52.60023
 11
64.77258
 21
52.00025
  0
LINE
  8
0
  6
CONTINUOUS
 62
     7
 10
66.86205
 20
52.60025
 11
66.86205
 21
52.00024
  0
LINE
  8
0
  6
CONTINUOUS
 62
     7
 10
61.76207
 20
52.60025
 11
61.76207
 21
52.00024
  0
LINE
  8
0
  6
CONTINUOUS
 62
     7
 10
66.56206
 20
53.29401
 11
66.56206
 21
52.60025
  0
LINE
  8
0
  6
CONTINUOUS
 62
     7
 10
62.06206
 20
53.29401
 11
62.06206
 21
52.60025
  0
LINE
  8
0
  6
CONTINUOUS
 62
     7
 10
66.1378
 20
54.00024
 11
66.31206
 21
54.00024
  0
LINE
  8
0
  6
CENTER
 62
     2
 10
46.31206
 20
57.00024
 11
46.31206
 21
48.00024
  0
LINE
  8
0
  6
CONTINUOUS
 62
     7
 10
87.81206
 20
54.80026
 11
87.81206
 21
53.80026
  0
LINE
  8
0
  6
CONTINUOUS
 62
     7
 10
86.31206
 20
47.80026
 11
86.31206
 21
46.80026
  0
LINE
  8
0
  6
CONTINUOUS
 62
     7
 10
68.81206
 20
53.30026
 11
68.81206
 21
52.80026
  0
LINE
  8
0
  6
CONTINUOUS
 62
     7
 10
87.81206
 20
46.80026
 11
86.31206
 21
46.80026
  0
LINE
  8
0
  6
CONTINUOUS
 62
     7
 10
86.31206
 20
47.80026
 11
79.81206
 21
47.80026
  0
LINE
  8
0
  6
CONTINUOUS
 62
     7
 10
87.81206
 20
49.20026
 11
76.41203
 21
49.20026
  0
LINE
  8
0
  6
CONTINUOUS
 62
     7
 10
87.81206
 20
51.00024
 11
76.41203
 21
51.00024
  0
LINE
  8
0
  6
CONTINUOUS
 62
     7
 10
69.31206
 20
53.80026
 11
80.14079
 21
53.80026
  0
LINE
  8
0
  6
CONTINUOUS
 62
     7
 10
87.81206
 20
54.80026
 11
85.81206
 21
54.80026
  0
LINE
  8
0
  6
CONTINUOUS
 62
     7
 10
87.81206
 20
53.80026
 11
86.31206
 21
53.80026
  0
LINE
  8
0
  6
CONTINUOUS
 62
     7
 10
85.81204
 20
54.80019
 11
80.14075
 21
53.80019
  0
LINE
  8
0
  6
CONTINUOUS
 62
     7
 10
86.31205
 20
53.80015
 11
80.64082
 21
52.80016
  0
LINE
  8
0
  6
CONTINUOUS
 62
     7
 10
76.41203
 20
51.80026
 11
78.31206
 21
51.80026
  0
LINE
  8
0
  6
CONTINUOUS
 62
     7
 10
79.81206
 20
47.80026
 11
79.81206
 21
46.80026
  0
LINE
  8
0
  6
CONTINUOUS
 62
     7
 10
76.41203
 20
52.10025
 11
77.01207
 21
52.10025
  0
LINE
  8
0
  6
CONTINUOUS
 62
     7
 10
87.51202
 20
52.10027
 11
87.81201
 21
51.80028
  0
LINE
  8
0
  6
CONTINUOUS
 62
     7
 10
81.31208
 20
51.80024
 11
81.61208
 21
52.10024
  0
LINE
  8
0
  6
CONTINUOUS
 62
     7
 10
77.01208
 20
52.10023
 11
77.31211
 21
51.80019
  0
LINE
  8
0
  6
CONTINUOUS
 62
     7
 10
81.61205
 20
52.10025
 11
87.51207
 21
52.10025
  0
LINE
  8
0
  6
CONTINUOUS
 62
     7
 10
80.31206
 20
52.80026
 11
80.64079
 21
52.80026
  0
LINE
  8
0
  6
CONTINUOUS
 62
     7
 10
80.31206
 20
51.80026
 11
87.81206
 21
51.80026
  0
LINE
  8
0
  6
CONTINUOUS
 62
     7
 10
87.81206
 20
51.80026
 11
87.81206
 21
46.80026
  0
LINE
  8
0
  6
CONTINUOUS
 62
     7
 10
77.61205
 20
49.20026
 11
77.61205
 21
47.70026
  0
LINE
  8
0
  6
CONTINUOUS
 62
     7
 10
77.61205
 20
47.70026
 11
76.41203
 21
47.70026
  0
LINE
  8
0
  6
CENTER
 62
     2
 10
84.81206
 20
50.30026
 11
110.8121
 21
50.30026
  0
LINE
  8
0
  6
CONTINUOUS
 62
     7
 10
87.81206
 20
49.45026
 11
91.80785
 21
49.45026
  0
LINE
  8
0
  6
CONTINUOUS
 62
     7
 10
87.81206
 20
51.15027
 11
92.26335
 21
51.15027
  0
LINE
  8
0
  6
CONTINUOUS
 62
     7
 10
97.81206
 20
50.62024
 11
107.8121
 21
50.62024
  0
LINE
  8
0
  6
CONTINUOUS
 62
     7
 10
97.81206
 20
49.98026
 11
107.8121
 21
49.98026
  0
LINE
  8
0
  6
CONTINUOUS
 62
     7
 10
97.81206
 20
51.15027
 11
97.81206
 21
49.45026
  0
LINE
  8
0
  6
CONTINUOUS
 62
     7
 10
107.8121
 20
50.62024
 11
107.8121
 21
49.98026
  0
LINE
  8
0
  6
PHANTOM
 62
     2
 10
91.27196
 20
47.45024
 11
92.79927
 21
53.15025
  0
LINE
  8
0
  6
PHANTOM
 62
     2
 10
92.82484
 20
47.45026
 11
94.35215
 21
53.15027
  0
LINE
  8
0
  6
CONTINUOUS
 62
     7
 10
93.81627
 20
51.15027
 11
97.81206
 21
51.15027
  0
LINE
  8
0
  6
CONTINUOUS
 62
     7
 10
93.36076
 20
49.45026
 11
97.81206
 21
49.45026
  0
LINE
  8
0
  6
CONTINUOUS
 62
     7
 10
62.61205
 20
-29.89975
 11
62.61205
 21
-32.29974
  0
LINE
  8
0
  6
CONTINUOUS
 62
     7
 10
63.11205
 20
-29.39975
 11
68.31206
 21
-29.39975
  0
LINE
  8
0
  6
CONTINUOUS
 62
     7
 10
63.01207
 20
-30.57158
 11
63.01207
 21
-29.39975
  0
LINE
  8
0
  6
CENTER
 62
     2
 10
65.81206
 20
-28.52446
 11
65.81206
 21
-33.97197
  0
LINE
  8
0
  6
CONTINUOUS
 62
     7
 10
68.61205
 20
-30.57158
 11
68.61205
 21
-29.39975
  0
LINE
  8
0
  6
CENTER
 62
     2
 10
285.5612
 20
57.35019
 11
285.5612
 21
-35.45512
  0
LINE
  8
0
  6
CONTINUOUS
 62
     7
 10
272.0612
 20
24.80019
 11
272.0612
 21
-32.2998
  0
LINE
  8
0
  6
CONTINUOUS
 62
     7
 10
299.0612
 20
24.80019
 11
299.0612
 21
-32.2998
  0
LINE
  8
0
  6
CONTINUOUS
 62
     7
 10
298.0611
 20
25.80013
 11
299.0611
 21
24.80013
  0
LINE
  8
0
  6
CONTINUOUS
 62
     7
 10
273.0611
 20
25.80019
 11
272.0611
 21
24.80019
  0
LINE
  8
0
  6
CONTINUOUS
 62
     7
 10
298.0612
 20
25.80019
 11
264.3611
 21
25.80019
  0
LINE
  8
0
  6
CONTINUOUS
 62
     7
 10
299.0612
 20
24.80019
 11
272.0612
 21
24.80019
  0
LINE
  8
0
  6
CONTINUOUS
 62
     7
 10
298.5612
 20
-32.7998
 11
272.5612
 21
-32.7998
  0
LINE
  8
0
  6
CONTINUOUS
 62
     7
 10
275.0612
 20
3.2585
 11
272.0612
 21
3.2585
  0
LINE
  8
0
  6
CONTINUOUS
 62
     7
 10
275.0612
 20
-0.05812
 11
272.0612
 21
-0.05812
  0
LINE
  8
0
  6
CONTINUOUS
 62
     7
 10
275.0612
 20
3.2585
 11
275.0612
 21
-0.05812
  0
LINE
  8
0
  6
CENTER
 62
     2
 10
270.8898
 20
1.60019
 11
276.5432
 21
1.60019
  0
LINE
  8
0
  6
CONTINUOUS
 62
     7
 10
299.0612
 20
7.60019
 11
272.0612
 21
7.60019
  0
LINE
  8
0
  6
CONTINUOUS
 62
     7
 10
299.0612
 20
-24.39981
 11
272.0612
 21
-24.39981
  0
LINE
  8
0
  6
CONTINUOUS
 62
     7
 10
297.5612
 20
51.00018
 11
273.5612
 21
51.00018
  0
LINE
  8
0
  6
CONTINUOUS
 62
     7
 10
297.5612
 20
52.00018
 11
297.5612
 21
25.80019
  0
LINE
  8
0
  6
CONTINUOUS
 62
     7
 10
273.5612
 20
52.8002
 11
273.5612
 21
25.80019
  0
LINE
  8
0
  6
CONTINUOUS
 62
     7
 10
263.5612
 20
46.00018
 11
263.5612
 21
26.60019
  0
LINE
  8
0
  6
CONTINUOUS
 62
     7
 10
273.5612
 20
52.8002
 11
262.5612
 21
52.8002
  0
LINE
  8
0
  6
CONTINUOUS
 62
     7
 10
264.4611
 20
52.8002
 11
264.4611
 21
46.8002
  0
LINE
  8
0
  6
CONTINUOUS
 62
     7
 10
273.5612
 20
46.8002
 11
261.0612
 21
46.8002
  0
LINE
  8
0
  6
CONTINUOUS
 62
     7
 10
274.5612
 20
54.00018
 11
292.7354
 21
54.00018
  0
LINE
  8
0
  6
CONTINUOUS
 62
     7
 10
297.5612
 20
52.00018
 11
273.5612
 21
52.00018
  0
LINE
  8
0
  6
CONTINUOUS
 62
     7
 10
273.5612
 20
52.00016
 11
274.5612
 21
54.00016
  0
LINE
  8
0
  6
CONTINUOUS
 62
     7
 10
297.5612
 20
52.00018
 11
296.5612
 21
54.0002
  0
LINE
  8
0
  6
CONTINUOUS
 62
     7
 10
291.5612
 20
54.00018
 11
291.5612
 21
52.00018
  0
LINE
  8
0
  6
CENTER
 62
     2
 10
294.5612
 20
57.00018
 11
294.5612
 21
48.00018
  0
LINE
  8
0
  6
CONTINUOUS
 62
     7
 10
297.1111
 20
52.60019
 11
292.0112
 21
52.60019
  0
LINE
  8
0
  6
CONTINUOUS
 62
     7
 10
294.2613
 20
52.00022
 11
294.1005
 21
52.6002
  0
LINE
  8
0
  6
CONTINUOUS
 62
     7
 10
294.8612
 20
52.6002
 11
295.022
 21
52.00018
  0
LINE
  8
0
  6
CONTINUOUS
 62
     7
 10
297.1111
 20
52.60019
 11
297.1111
 21
52.00018
  0
LINE
  8
0
  6
CONTINUOUS
 62
     7
 10
292.0112
 20
52.60019
 11
292.0112
 21
52.00018
  0
LINE
  8
0
  6
CONTINUOUS
 62
     7
 10
296.8112
 20
53.29395
 11
296.8112
 21
52.60019
  0
LINE
  8
0
  6
CONTINUOUS
 62
     7
 10
292.3112
 20
53.29395
 11
292.3112
 21
52.60019
  0
LINE
  8
0
  6
CONTINUOUS
 62
     7
 10
296.3869
 20
54.00018
 11
296.5612
 21
54.00018
  0
LINE
  8
0
  6
CENTER
 62
     2
 10
276.5612
 20
57.00018
 11
276.5612
 21
48.00018
  0
LINE
  8
0
  6
CONTINUOUS
 62
     7
 10
253.0611
 20
54.8002
 11
253.0611
 21
53.8002
  0
LINE
  8
0
  6
CONTINUOUS
 62
     7
 10
254.5611
 20
47.8002
 11
254.5611
 21
46.8002
  0
LINE
  8
0
  6
CONTINUOUS
 62
     7
 10
272.0612
 20
53.3002
 11
272.0612
 21
52.8002
  0
LINE
  8
0
  6
CONTINUOUS
 62
     7
 10
253.0611
 20
46.8002
 11
254.5611
 21
46.8002
  0
LINE
  8
0
  6
CONTINUOUS
 62
     7
 10
254.5611
 20
47.8002
 11
261.0612
 21
47.8002
  0
LINE
  8
0
  6
CONTINUOUS
 62
     7
 10
253.0611
 20
49.2002
 11
264.4611
 21
49.2002
  0
LINE
  8
0
  6
CONTINUOUS
 62
     7
 10
253.0611
 20
51.00018
 11
264.4611
 21
51.00018
  0
LINE
  8
0
  6
CONTINUOUS
 62
     7
 10
271.5612
 20
53.8002
 11
260.7324
 21
53.8002
  0
LINE
  8
0
  6
CONTINUOUS
 62
     7
 10
253.0611
 20
54.8002
 11
255.0611
 21
54.8002
  0
LINE
  8
0
  6
CONTINUOUS
 62
     7
 10
253.0611
 20
53.8002
 11
254.5611
 21
53.8002
  0
LINE
  8
0
  6
CONTINUOUS
 62
     7
 10
255.0611
 20
54.80014
 11
260.7324
 21
53.80014
  0
LINE
  8
0
  6
CONTINUOUS
 62
     7
 10
254.5611
 20
53.80014
 11
260.2324
 21
52.80014
  0
LINE
  8
0
  6
CONTINUOUS
 62
     7
 10
264.4611
 20
51.8002
 11
262.5612
 21
51.8002
  0
LINE
  8
0
  6
CONTINUOUS
 62
     7
 10
261.0612
 20
47.8002
 11
261.0612
 21
46.8002
  0
LINE
  8
0
  6
CONTINUOUS
 62
     7
 10
264.4611
 20
52.10019
 11
263.8611
 21
52.10019
  0
LINE
  8
0
  6
CONTINUOUS
 62
     7
 10
253.3613
 20
52.09997
 11
253.0614
 21
51.79997
  0
LINE
  8
0
  6
CONTINUOUS
 62
     7
 10
259.5611
 20
51.80012
 11
259.2611
 21
52.10013
  0
LINE
  8
0
  6
CONTINUOUS
 62
     7
 10
263.8611
 20
52.10029
 11
263.5611
 21
51.80029
  0
LINE
  8
0
  6
CONTINUOUS
 62
     7
 10
259.2612
 20
52.10019
 11
253.3611
 21
52.10019
  0
LINE
  8
0
  6
CONTINUOUS
 62
     7
 10
260.5612
 20
52.8002
 11
260.2324
 21
52.8002
  0
LINE
  8
0
  6
CONTINUOUS
 62
     7
 10
260.5612
 20
51.8002
 11
253.0611
 21
51.8002
  0
LINE
  8
0
  6
CONTINUOUS
 62
     7
 10
253.0611
 20
51.8002
 11
253.0611
 21
46.8002
  0
LINE
  8
0
  6
CONTINUOUS
 62
     7
 10
263.2612
 20
49.2002
 11
263.2612
 21
47.7002
  0
LINE
  8
0
  6
CONTINUOUS
 62
     7
 10
263.2612
 20
47.7002
 11
264.4611
 21
47.7002
  0
LINE
  8
0
  6
CENTER
 62
     2
 10
256.0612
 20
50.3002
 11
230.0611
 21
50.3002
  0
LINE
  8
0
  6
CONTINUOUS
 62
     7
 10
253.0611
 20
49.4502
 11
248.6098
 21
49.4502
  0
LINE
  8
0
  6
CONTINUOUS
 62
     7
 10
253.0611
 20
51.15021
 11
249.0654
 21
51.15021
  0
LINE
  8
0
  6
CONTINUOUS
 62
     7
 10
243.0611
 20
50.62018
 11
233.0611
 21
50.62018
  0
LINE
  8
0
  6
CONTINUOUS
 62
     7
 10
243.0611
 20
49.98019
 11
233.0611
 21
49.98019
  0
LINE
  8
0
  6
CONTINUOUS
 62
     7
 10
243.0611
 20
51.15021
 11
243.0611
 21
49.4502
  0
LINE
  8
0
  6
CONTINUOUS
 62
     7
 10
233.0611
 20
50.62018
 11
233.0611
 21
49.98019
  0
LINE
  8
0
  6
PHANTOM
 62
     2
 10
249.6012
 20
53.15021
 11
248.0739
 21
47.45021
  0
LINE
  8
0
  6
PHANTOM
 62
     2
 10
248.0483
 20
53.1502
 11
246.521
 21
47.45019
  0
LINE
  8
0
  6
CONTINUOUS
 62
     7
 10
247.0569
 20
49.4502
 11
243.0611
 21
49.4502
  0
LINE
  8
0
  6
CONTINUOUS
 62
     7
 10
247.5124
 20
51.15021
 11
243.0611
 21
51.15021
  0
LINE
  8
0
  6
CONTINUOUS
 62
     7
 10
292.8611
 20
-29.89981
 11
292.8611
 21
-32.2998
  0
LINE
  8
0
  6
CONTINUOUS
 62
     7
 10
293.3611
 20
-29.39981
 11
298.5612
 21
-29.39981
  0
LINE
  8
0
  6
CONTINUOUS
 62
     7
 10
293.2612
 20
-30.57164
 11
293.2612
 21
-29.39981
  0
LINE
  8
0
  6
CENTER
 62
     2
 10
296.0612
 20
-28.52452
 11
296.0612
 21
-33.97203
  0
LINE
  8
0
  6
CONTINUOUS
 62
     7
 10
298.8611
 20
-30.57164
 11
298.8611
 21
-29.39981
  0
LINE
  8
0
  6
CENTER
 62
     2
 10
168.9368
 20
57.17673
 11
168.9368
 21
-35.80431
  0
LINE
  8
0
  6
CONTINUOUS
 62
     7
 10
177.9368
 20
24.80002
 11
177.9368
 21
-32.29999
  0
LINE
  8
0
  6
CONTINUOUS
 62
     7
 10
159.9368
 20
24.80002
 11
159.9368
 21
-32.29999
  0
LINE
  8
0
  6
CONTINUOUS
 62
     7
 10
159.9368
 20
7.60002
 11
177.9368
 21
7.60002
  0
LINE
  8
0
  6
CONTINUOUS
 62
     7
 10
160.9368
 20
25.80003
 11
159.9368
 21
24.80003
  0
LINE
  8
0
  6
CONTINUOUS
 62
     7
 10
176.9367
 20
25.80001
 11
177.9368
 21
24.79997
  0
LINE
  8
0
  6
CENTER
 62
     2
 10
175.4368
 20
6.19131
 11
175.4368
 21
-2.81665
  0
LINE
  8
0
  6
CENTER
 62
     2
 10
171.0902
 20
1.60002
 11
178.5212
 21
1.60002
  0
LINE
  8
0
  6
CENTER
 62
     2
 10
166.0151
 20
22.30002
 11
171.8465
 21
22.30002
  0
LINE
  8
0
  6
CONTINUOUS
 62
     7
 10
160.9368
 20
25.80002
 11
176.9368
 21
25.80002
  0
LINE
  8
0
  6
CONTINUOUS
 62
     7
 10
159.9368
 20
24.80002
 11
177.9368
 21
24.80002
  0
LINE
  8
0
  6
CONTINUOUS
 62
     7
 10
159.9368
 20
-24.39998
 11
177.9368
 21
-24.39998
  0
LINE
  8
0
  6
CONTINUOUS
 62
     7
 10
160.4368
 20
-32.79999
 11
177.4368
 21
-32.79999
  0
LINE
  8
0
  6
CENTER
 62
     2
 10
159.2323
 20
-18.39998
 11
167.0788
 21
-18.39998
  0
LINE
  8
0
  6
CENTER
 62
     2
 10
162.4368
 20
-13.95908
 11
162.4368
 21
-22.55298
  0
LINE
  8
0
  6
CONTINUOUS
 62
     7
 10
161.4368
 20
52.00003
 11
161.4368
 21
25.80002
  0
LINE
  8
0
  6
CONTINUOUS
 62
     7
 10
176.4368
 20
52.00003
 11
176.4368
 21
25.80002
  0
LINE
  8
0
  6
CONTINUOUS
 62
     7
 10
161.4368
 20
51.00003
 11
161.9368
 21
51.00003
  0
LINE
  8
0
  6
CONTINUOUS
 62
     7
 10
175.9368
 20
52.80002
 11
175.9368
 21
46.80002
  0
LINE
  8
0
  6
CONTINUOUS
 62
     7
 10
161.9368
 20
52.80002
 11
161.9368
 21
46.80002
  0
LINE
  8
0
  6
CONTINUOUS
 62
     7
 10
161.9368
 20
52.80002
 11
175.9368
 21
52.80002
  0
LINE
  8
0
  6
CONTINUOUS
 62
     7
 10
161.9368
 20
46.80002
 11
175.9368
 21
46.80002
  0
LINE
  8
0
  6
CONTINUOUS
 62
     7
 10
175.9368
 20
51.00003
 11
176.4368
 21
51.00003
  0
LINE
  8
0
  6
CONTINUOUS
 62
     7
 10
161.9368
 20
46.00003
 11
161.9368
 21
26.60002
  0
LINE
  8
0
  6
CONTINUOUS
 62
     7
 10
175.9368
 20
46.00003
 11
175.9368
 21
26.60002
  0
LINE
  8
0
  6
CONTINUOUS
 62
     7
 10
163.4368
 20
27.30002
 11
174.4368
 21
27.30002
  0
LINE
  8
0
  6
CONTINUOUS
 62
     7
 10
163.4368
 20
35.80002
 11
174.4368
 21
35.80002
  0
LINE
  8
0
  6
CONTINUOUS
 62
     7
 10
163.4368
 20
35.80002
 11
163.4368
 21
27.30002
  0
LINE
  8
0
  6
CONTINUOUS
 62
     7
 10
174.4368
 20
35.80002
 11
174.4368
 21
27.30002
  0
LINE
  8
0
  6
CONTINUOUS
 62
     7
 10
166.9368
 20
39.30002
 11
170.9368
 21
39.30002
  0
LINE
  8
0
  6
CONTINUOUS
 62
     7
 10
166.9368
 20
37.30002
 11
170.9368
 21
37.30002
  0
LINE
  8
0
  6
CONTINUOUS
 62
     7
 10
166.9368
 20
39.30002
 11
166.9368
 21
37.30002
  0
LINE
  8
0
  6
CONTINUOUS
 62
     7
 10
170.9368
 20
39.30002
 11
170.9368
 21
37.30002
  0
LINE
  8
0
  6
CONTINUOUS
 62
     7
 10
166.4368
 20
39.80002
 11
171.4368
 21
39.80002
  0
LINE
  8
0
  6
CONTINUOUS
 62
     7
 10
166.4368
 20
39.80002
 11
166.4368
 21
36.80002
  0
LINE
  8
0
  6
CONTINUOUS
 62
     7
 10
166.4368
 20
36.80002
 11
171.4368
 21
36.80002
  0
LINE
  8
0
  6
CONTINUOUS
 62
     7
 10
171.4368
 20
39.80002
 11
171.4368
 21
36.80002
  0
LINE
  8
0
  6
CONTINUOUS
 62
     7
 10
166.9368
 20
39.30003
 11
166.4368
 21
39.80002
  0
LINE
  8
0
  6
CONTINUOUS
 62
     7
 10
170.9368
 20
39.29998
 11
171.4368
 21
39.79999
  0
LINE
  8
0
  6
CONTINUOUS
 62
     7
 10
170.9368
 20
37.30005
 11
171.4368
 21
36.80002
  0
LINE
  8
0
  6
CONTINUOUS
 62
     7
 10
166.9368
 20
37.3
 11
166.4368
 21
36.79999
  0
LINE
  8
0
  6
CONTINUOUS
 62
     7
 10
162.4368
 20
54.00003
 11
162.611
 21
54.00003
  0
LINE
  8
0
  6
CONTINUOUS
 62
     7
 10
161.4368
 20
52.00003
 11
161.9368
 21
52.00003
  0
LINE
  8
0
  6
CONTINUOUS
 62
     7
 10
161.4368
 20
52.00002
 11
162.4368
 21
54.00002
  0
LINE
  8
0
  6
CONTINUOUS
 62
     7
 10
176.4368
 20
52.00003
 11
175.4368
 21
54.00002
  0
LINE
  8
0
  6
CENTER
 62
     2
 10
164.4368
 20
57.00003
 11
164.4368
 21
48.00003
  0
LINE
  8
0
  6
CONTINUOUS
 62
     7
 10
161.9368
 20
52.60004
 11
161.8868
 21
52.60004
  0
LINE
  8
0
  6
CONTINUOUS
 62
     7
 10
161.8868
 20
52.60004
 11
161.8868
 21
52.00003
  0
LINE
  8
0
  6
CONTINUOUS
 62
     7
 10
175.9368
 20
52.00003
 11
176.4368
 21
52.00003
  0
LINE
  8
0
  6
CONTINUOUS
 62
     7
 10
162.1868
 20
53.29376
 11
162.1868
 21
52.80002
  0
LINE
  8
0
  6
CONTINUOUS
 62
     7
 10
163.2368
 20
49.20001
 11
164.9368
 21
49.20001
  0
LINE
  8
0
  6
CONTINUOUS
 62
     7
 10
163.2368
 20
51.20001
 11
164.7368
 21
51.20001
  0
LINE
  8
0
  6
CONTINUOUS
 62
     7
 10
173.1368
 20
52.80002
 11
173.1368
 21
51.20001
  0
LINE
  8
0
  6
CONTINUOUS
 62
     7
 10
164.7368
 20
52.80002
 11
164.7368
 21
51.20001
  0
LINE
  8
0
  6
CONTINUOUS
 62
     7
 10
174.6368
 20
51.20001
 11
174.6368
 21
49.20001
  0
LINE
  8
0
  6
CONTINUOUS
 62
     7
 10
163.2368
 20
51.20001
 11
163.2368
 21
49.20001
  0
LINE
  8
0
  6
CONTINUOUS
 62
     7
 10
164.7368
 20
49.20001
 11
164.7368
 21
46.80002
  0
LINE
  8
0
  6
CONTINUOUS
 62
     7
 10
173.1368
 20
49.20001
 11
173.1368
 21
46.80002
  0
LINE
  8
0
  6
CONTINUOUS
 62
     7
 10
173.1368
 20
51.20001
 11
174.6368
 21
51.20001
  0
LINE
  8
0
  6
CONTINUOUS
 62
     7
 10
172.9368
 20
49.20001
 11
174.6368
 21
49.20001
  0
LINE
  8
0
  6
CENTER
 62
     2
 10
173.4368
 20
57.00003
 11
173.4368
 21
48.00003
  0
LINE
  8
0
  6
CONTINUOUS
 62
     7
 10
163.4368
 20
51.00003
 11
164.9368
 21
51.00003
  0
LINE
  8
0
  6
CONTINUOUS
 62
     7
 10
164.9368
 20
53.80002
 11
172.9368
 21
53.80002
  0
LINE
  8
0
  6
CONTINUOUS
 62
     7
 10
163.4368
 20
51.00003
 11
163.4368
 21
49.20001
  0
LINE
  8
0
  6
CONTINUOUS
 62
     7
 10
174.4368
 20
51.00003
 11
174.4368
 21
49.20001
  0
LINE
  8
0
  6
CONTINUOUS
 62
     7
 10
164.9369
 20
51.79991
 11
165.2369
 21
52.09991
  0
LINE
  8
0
  6
CONTINUOUS
 62
     7
 10
172.9368
 20
51.80003
 11
172.6368
 21
52.10003
  0
LINE
  8
0
  6
CONTINUOUS
 62
     7
 10
164.9368
 20
49.20001
 11
164.9368
 21
46.80002
  0
LINE
  8
0
  6
CONTINUOUS
 62
     7
 10
172.9368
 20
49.20001
 11
172.9368
 21
46.80002
  0
LINE
  8
0
  6
CONTINUOUS
 62
     7
 10
172.9368
 20
51.00003
 11
174.4368
 21
51.00003
  0
LINE
  8
0
  6
CENTER
 62
     2
 10
164.9868
 20
50.30002
 11
172.8868
 21
50.30002
  0
LINE
  8
0
  6
CENTER
 62
     2
 10
166.4368
 20
51.65002
 11
166.4368
 21
48.85004
  0
LINE
  8
0
  6
CENTER
 62
     2
 10
171.4368
 20
51.65002
 11
171.4368
 21
48.85004
  0
LINE
  8
0
  6
CONTINUOUS
 62
     7
 10
165.4868
 20
51.25003
 11
167.3868
 21
51.25003
  0
LINE
  8
0
  6
CONTINUOUS
 62
     7
 10
165.4868
 20
49.35004
 11
167.3868
 21
49.35004
  0
LINE
  8
0
  6
CONTINUOUS
 62
     7
 10
165.4868
 20
51.45001
 11
165.4868
 21
49.35004
  0
LINE
  8
0
  6
CONTINUOUS
 62
     7
 10
167.3868
 20
51.45001
 11
167.3868
 21
49.35004
  0
LINE
  8
0
  6
CONTINUOUS
 62
     7
 10
167.9868
 20
51.45001
 11
167.9868
 21
49.35004
  0
LINE
  8
0
  6
CONTINUOUS
 62
     7
 10
169.8868
 20
51.45001
 11
169.8868
 21
49.35004
  0
LINE
  8
0
  6
CONTINUOUS
 62
     7
 10
172.3868
 20
51.45001
 11
172.3868
 21
49.35004
  0
LINE
  8
0
  6
CONTINUOUS
 62
     7
 10
170.4868
 20
51.45001
 11
170.4868
 21
49.35004
  0
LINE
  8
0
  6
CONTINUOUS
 62
     7
 10
167.9868
 20
51.25003
 11
169.8868
 21
51.25003
  0
LINE
  8
0
  6
CONTINUOUS
 62
     7
 10
167.9868
 20
49.35004
 11
169.8868
 21
49.35004
  0
LINE
  8
0
  6
CONTINUOUS
 62
     7
 10
170.4868
 20
49.35004
 11
172.3868
 21
49.35004
  0
LINE
  8
0
  6
CONTINUOUS
 62
     7
 10
170.4868
 20
51.25003
 11
172.3868
 21
51.25003
  0
LINE
  8
0
  6
CONTINUOUS
 62
     7
 10
164.7368
 20
51.80002
 11
173.1368
 21
51.80002
  0
LINE
  8
0
  6
CONTINUOUS
 62
     7
 10
165.2368
 20
52.10004
 11
172.6368
 21
52.10004
  0
LINE
  8
0
  6
CONTINUOUS
 62
     7
 10
164.9368
 20
54.80002
 11
172.9368
 21
54.80002
  0
LINE
  8
0
  6
CONTINUOUS
 62
     7
 10
172.9368
 20
54.80002
 11
172.9368
 21
51.00003
  0
LINE
  8
0
  6
CONTINUOUS
 62
     7
 10
164.9368
 20
54.80002
 11
164.9368
 21
51.00003
  0
LINE
  8
0
  6
CONTINUOUS
 62
     7
 10
165.4868
 20
51.45001
 11
167.3868
 21
51.45001
  0
LINE
  8
0
  6
CONTINUOUS
 62
     7
 10
167.9868
 20
51.45001
 11
169.8868
 21
51.45001
  0
LINE
  8
0
  6
CONTINUOUS
 62
     7
 10
170.4868
 20
51.45001
 11
172.3868
 21
51.45001
  0
LINE
  8
0
  6
CONTINUOUS
 62
     7
 10
165.9368
 20
49.05002
 11
166.9368
 21
49.05002
  0
LINE
  8
0
  6
CONTINUOUS
 62
     7
 10
168.4368
 20
49.05002
 11
169.4368
 21
49.05002
  0
LINE
  8
0
  6
CONTINUOUS
 62
     7
 10
170.9368
 20
49.05002
 11
171.9368
 21
49.05002
  0
LINE
  8
0
  6
CONTINUOUS
 62
     7
 10
165.9368
 20
49.35004
 11
165.9368
 21
49.05002
  0
LINE
  8
0
  6
CONTINUOUS
 62
     7
 10
166.9368
 20
49.35004
 11
166.9368
 21
49.05002
  0
LINE
  8
0
  6
CONTINUOUS
 62
     7
 10
168.4368
 20
49.35004
 11
168.4368
 21
49.05002
  0
LINE
  8
0
  6
CONTINUOUS
 62
     7
 10
169.4368
 20
49.35004
 11
169.4368
 21
49.05002
  0
LINE
  8
0
  6
CONTINUOUS
 62
     7
 10
171.9368
 20
49.35004
 11
171.9368
 21
49.05002
  0
LINE
  8
0
  6
CONTINUOUS
 62
     7
 10
170.9368
 20
49.35004
 11
170.9368
 21
49.05002
  0
LINE
  8
0
  6
CONTINUOUS
 62
     7
 10
165.9368
 20
47.92502
 11
166.9368
 21
47.92502
  0
LINE
  8
0
  6
CONTINUOUS
 62
     7
 10
166.4368
 20
48.42502
 11
166.4368
 21
47.42502
  0
LINE
  8
0
  6
CONTINUOUS
 62
     7
 10
170.9368
 20
47.92502
 11
171.9368
 21
47.92502
  0
LINE
  8
0
  6
CONTINUOUS
 62
     7
 10
175.4368
 20
54.0
 11
172.9368
 21
54.0
  0
LINE
  8
0
  6
CENTER
 62
     2
 10
164.9368
 20
38.30002
 11
172.9368
 21
38.30002
  0
LINE
  8
0
  6
CONTINUOUS
 62
     7
 10
166.1368
 20
-29.89998
 11
166.1368
 21
-32.29999
  0
LINE
  8
0
  6
CONTINUOUS
 62
     7
 10
165.6368
 20
-29.39998
 11
160.4368
 21
-29.39998
  0
LINE
  8
0
  6
CONTINUOUS
 62
     7
 10
160.1368
 20
-30.57181
 11
160.1368
 21
-29.39998
  0
LINE
  8
0
  6
CENTER
 62
     2
 10
162.9368
 20
-28.52469
 11
162.9368
 21
-33.9722
  0
LINE
  8
0
  6
CONTINUOUS
 62
     7
 10
165.7368
 20
-30.57181
 11
165.7368
 21
-29.39999
  0
ARC
  8
0
  6
CONTINUOUS
 62
     7
 10
273.0354
 20
-235.0457
 40
2.21188
 50
0.0
 51
89.99999
  0
ARC
  8
0
  6
CONTINUOUS
 62
     7
 10
291.2836
 20
-246.9346
 40
2.2119
 50
270.0
 51
0.0
  0
ARC
  8
0
  6
CONTINUOUS
 62
     7
 10
290.1776
 20
-236.1516
 40
3.31784
 50
0.0
 51
89.99999
  0
ARC
  8
0
  6
CONTINUOUS
 62
     7
 10
310.3611
 20
-236.8128
 40
2.21189
 50
295.0
 51
0.0
  0
ARC
  8
0
  6
CONTINUOUS
 62
     7
 10
310.3611
 20
-235.0457
 40
2.21188
 50
0.0
 51
89.99999
  0
ARC
  8
0
  6
CONTINUOUS
 62
     7
 10
327.5034
 20
-232.8338
 40
3.31784
 50
291.6884
 51
0.0
  0
ARC
  8
0
  6
CONTINUOUS
 62
     7
 10
326.3973
 20
-232.0834
 40
1.10595
 50
291.689
 51
0.0
  0
ARC
  8
0
  6
CONTINUOUS
 62
     7
 10
-194.9368
 20
135.2775
 40
0.5
 50
180.0
 51
270.0
  0
ARC
  8
0
  6
CONTINUOUS
 62
     7
 10
-168.9368
 20
135.2775
 40
0.5
 50
270.0
 51
0.0
  0
ARC
  8
0
  6
CONTINUOUS
 62
     7
 10
-168.9368
 20
152.2775
 40
0.5
 50
0.0
 51
89.99999
  0
ARC
  8
0
  6
CONTINUOUS
 62
     7
 10
-194.9368
 20
152.2775
 40
0.5
 50
89.99999
 51
180.0
  0
ARC
  8
0
  6
CONTINUOUS
 62
     7
 10
-172.9368
 20
139.2775
 40
3.0
 50
89.99999
 51
180.0
  0
ARC
  8
0
  6
CONTINUOUS
 62
     7
 10
-190.9368
 20
148.2775
 40
3.0
 50
270.0
 51
0.0
  0
ARC
  8
0
  6
CONTINUOUS
 62
     7
 10
-172.9368
 20
139.2775
 40
2.55
 50
276.7564
 51
263.2436
  0
ARC
  8
0
  6
CONTINUOUS
 62
     7
 10
-190.9368
 20
148.2775
 40
2.55
 50
96.7564
 51
83.24359
  0
CIRCLE
  8
0
  6
CONTINUOUS
 62
     7
 10
-172.9368
 20
139.2775
 40
2.25
  0
ARC
  8
0
  6
CONTINUOUS
 62
     7
 10
-172.9368
 20
140.3806
 40
0.51999
 50
225.0
 51
315.0
  0
ARC
  8
0
  6
CONTINUOUS
 62
     7
 10
-174.0399
 20
139.2775
 40
0.51999
 50
315.0
 51
45.0
  0
ARC
  8
0
  6
CONTINUOUS
 62
     7
 10
-171.8337
 20
139.2775
 40
0.51999
 50
135.0
 51
225.0
  0
ARC
  8
0
  6
CONTINUOUS
 62
     7
 10
-172.9368
 20
138.1744
 40
0.51999
 50
45.0
 51
135.0
  0
CIRCLE
  8
0
  6
CONTINUOUS
 62
     7
 10
-190.9368
 20
148.2775
 40
2.25
  0
ARC
  8
0
  6
CONTINUOUS
 62
     7
 10
-190.9368
 20
149.3806
 40
0.51999
 50
225.0
 51
315.0
  0
ARC
  8
0
  6
CONTINUOUS
 62
     7
 10
-192.0399
 20
148.2775
 40
0.51999
 50
315.0
 51
45.0
  0
ARC
  8
0
  6
CONTINUOUS
 62
     7
 10
-189.8337
 20
148.2775
 40
0.51999
 50
135.0
 51
225.0
  0
ARC
  8
0
  6
CONTINUOUS
 62
     7
 10
-190.9368
 20
147.1744
 40
0.51999
 50
45.0
 51
135.0
  0
ARC
  8
0
  6
CONTINUOUS
 62
     7
 10
-193.4368
 20
150.7775
 40
0.5
 50
89.99999
 51
180.0
  0
ARC
  8
0
  6
CONTINUOUS
 62
     7
 10
-193.4368
 20
136.7775
 40
0.5
 50
180.0
 51
270.0
  0
ARC
  8
0
  6
CONTINUOUS
 62
     7
 10
-160.7368
 20
149.9775
 40
0.8
 50
0.0
 51
89.99999
  0
ARC
  8
0
  6
CONTINUOUS
 62
     7
 10
-160.7368
 20
137.5775
 40
0.8
 50
270.0
 51
0.0
  0
CIRCLE
  8
0
  6
CONTINUOUS
 62
     7
 10
-174.4368
 20
1.60001
 40
1.6
  0
ARC
  8
0
  6
CONTINUOUS
 62
     7
 10
-194.9368
 20
-32.3
 40
0.5
 50
180.0
 51
270.0
  0
ARC
  8
0
  6
CONTINUOUS
 62
     7
 10
-168.9368
 20
-32.3
 40
0.5
 50
270.0
 51
0.0
  0
ARC
  8
0
  6
CONTINUOUS
 62
     7
 10
-174.1368
 20
-29.89999
 40
0.5
 50
89.99999
 51
180.0
  0
ARC
  8
0
  6
CONTINUOUS
 62
     7
 10
-175.1368
 20
-32.3
 40
0.5
 50
270.0
 51
0.0
  0
ARC
  8
0
  6
CONTINUOUS
 62
     7
 10
-168.9368
 20
-28.89999
 40
0.5
 50
270.0
 51
0.0
  0
CIRCLE
  8
0
  6
CONTINUOUS
 62
     7
 10
-174.4368
 20
-18.39999
 40
1.6
  0
ARC
  8
0
  6
CONTINUOUS
 62
     7
 10
-171.4368
 20
-26.79999
 40
5.0
 50
240.5077
 51
299.4923
  0
ARC
  8
0
  6
CONTINUOUS
 62
     7
 10
-173.5701
 20
-30.57182
 40
0.66667
 50
180.0
 51
240.5079
  0
ARC
  8
0
  6
CONTINUOUS
 62
     7
 10
-169.3035
 20
-30.57182
 40
0.66666
 50
299.4921
 51
0.0
  0
ARC
  8
0
  6
CONTINUOUS
 62
     7
 10
-160.7368
 20
46.00002
 40
0.8
 50
0.0
 51
89.99999
  0
ARC
  8
0
  6
CONTINUOUS
 62
     7
 10
-160.7368
 20
26.60002
 40
0.8
 50
270.0
 51
0.0
  0
ARC
  8
0
  6
CONTINUOUS
 62
     7
 10
-172.9368
 20
48.3
 40
6.0
 50
73.80861
 51
106.1912
  0
ARC
  8
0
  6
CONTINUOUS
 62
     7
 10
-171.4868
 20
53.29375
 40
0.8
 50
0.0
 51
73.8082
  0
ARC
  8
0
  6
CONTINUOUS
 62
     7
 10
-174.3868
 20
53.29375
 40
0.8
 50
106.1918
 51
180.0
  0
ARC
  8
0
  6
CONTINUOUS
 62
     7
 10
-190.9368
 20
48.3
 40
6.0
 50
73.80861
 51
106.1912
  0
ARC
  8
0
  6
CONTINUOUS
 62
     7
 10
-192.3868
 20
53.29375
 40
0.8
 50
106.1918
 51
118.0138
  0
ARC
  8
0
  6
CONTINUOUS
 62
     7
 10
-189.4868
 20
53.29375
 40
0.8
 50
61.98621
 51
73.8082
  0
ARC
  8
0
  6
CONTINUOUS
 62
     7
 10
-167.9368
 20
53.3
 40
0.5
 50
89.99999
 51
180.0
  0
ARC
  8
0
  6
CONTINUOUS
 62
     7
 10
-156.9368
 20
52.3
 40
0.5
 50
89.99999
 51
270.0
  0
ARC
  8
0
  6
CONTINUOUS
 62
     7
 10
-158.9368
 20
52.3
 40
0.5
 50
270.0
 51
89.99999
  0
ARC
  8
0
  6
CONTINUOUS
 62
     7
 10
-49.31229
 20
-18.39993
 40
3.0
 50
213.5573
 51
0.0
  0
ARC
  8
0
  6
CONTINUOUS
 62
     7
 10
-49.31229
 20
-18.39993
 40
3.0
 50
0.0
 51
146.4427
  0
ARC
  8
0
  6
CONTINUOUS
 62
     7
 10
-48.81229
 20
-26.79993
 40
5.0
 50
240.5076
 51
299.4923
  0
ARC
  8
0
  6
CONTINUOUS
 62
     7
 10
-50.94562
 20
-30.57176
 40
0.66667
 50
180.0
 51
240.5076
  0
ARC
  8
0
  6
CONTINUOUS
 62
     7
 10
-46.67896
 20
-30.57176
 40
0.66667
 50
299.4924
 51
0.0
  0
ARC
  8
0
  6
CONTINUOUS
 62
     7
 10
-45.11229
 20
-32.29994
 40
0.5
 50
180.0
 51
270.0
  0
ARC
  8
0
  6
CONTINUOUS
 62
     7
 10
-51.31229
 20
-32.29994
 40
0.5
 50
180.0
 51
270.0
  0
ARC
  8
0
  6
CONTINUOUS
 62
     7
 10
-46.11229
 20
-29.89993
 40
0.5
 50
0.0
 51
89.99999
  0
ARC
  8
0
  6
CONTINUOUS
 62
     7
 10
-34.31229
 20
-32.29994
 40
0.5
 50
270.0
 51
0.0
  0
CIRCLE
  8
0
  6
CONTINUOUS
 62
     7
 10
-36.31229
 20
1.60007
 40
1.6
  0
ARC
  8
0
  6
CONTINUOUS
 62
     7
 10
-36.31229
 20
1.60007
 40
3.0
 50
33.55732
 51
326.4427
  0
CIRCLE
  8
0
  6
CONTINUOUS
 62
     7
 10
-42.81229
 20
22.30006
 40
1.65
  0
CIRCLE
  8
0
  6
CONTINUOUS
 62
     7
 10
-42.81229
 20
-6.39993
 40
4.86435
  0
CIRCLE
  8
0
  6
CONTINUOUS
 62
     7
 10
-42.81229
 20
-6.39993
 40
4.28325
  0
ARC
  8
0
  6
CONTINUOUS
 62
     7
 10
-51.31229
 20
-28.89993
 40
0.5
 50
180.0
 51
270.0
  0
CIRCLE
  8
0
  6
CONTINUOUS
 62
     7
 10
-49.31229
 20
-18.39993
 40
1.6
  0
ARC
  8
0
  6
CONTINUOUS
 62
     7
 10
-49.01228
 20
46.00005
 40
0.8
 50
89.99999
 51
180.0
  0
ARC
  8
0
  6
CONTINUOUS
 62
     7
 10
-36.61229
 20
46.00005
 40
0.8
 50
0.0
 51
89.99999
  0
ARC
  8
0
  6
CONTINUOUS
 62
     7
 10
-49.01228
 20
26.60005
 40
0.8
 50
180.0
 51
270.0
  0
ARC
  8
0
  6
CONTINUOUS
 62
     7
 10
-36.61229
 20
26.60005
 40
0.8
 50
270.0
 51
0.0
  0
ARC
  8
0
  6
CONTINUOUS
 62
     7
 10
-47.31229
 20
48.30006
 40
6.0
 50
85.2198
 51
106.1913
  0
ARC
  8
0
  6
CONTINUOUS
 62
     7
 10
-48.76228
 20
53.29381
 40
0.8
 50
106.1913
 51
180.0
  0
ARC
  8
0
  6
CONTINUOUS
 62
     7
 10
-38.31229
 20
48.30003
 40
6.0
 50
73.80865
 51
94.78023
  0
ARC
  8
0
  6
CONTINUOUS
 62
     7
 10
-36.86229
 20
53.29381
 40
0.8
 50
61.98621
 51
73.80872
  0
CIRCLE
  8
0
  6
CONTINUOUS
 62
     7
 10
-45.31229
 20
50.30006
 40
0.85
  0
CIRCLE
  8
0
  6
CONTINUOUS
 62
     7
 10
-40.31229
 20
50.30006
 40
0.85
  0
ARC
  8
0
  6
CONTINUOUS
 62
     7
 10
-42.81229
 20
47.92506
 40
0.5
 50
45.0
 51
315.0
  0
CIRCLE
  8
0
  6
CONTINUOUS
 62
     7
 10
-300.5614
 20
-18.39983
 40
1.6
  0
ARC
  8
0
  6
CONTINUOUS
 62
     7
 10
-310.928
 20
-30.57166
 40
0.66667
 50
299.4933
 51
0.0
  0
ARC
  8
0
  6
CONTINUOUS
 62
     7
 10
-315.1948
 20
-30.57166
 40
0.66666
 50
180.0
 51
240.5067
  0
ARC
  8
0
  6
CONTINUOUS
 62
     7
 10
-313.0614
 20
-26.79982
 40
5.00001
 50
240.5075
 51
299.4925
  0
ARC
  8
0
  6
CONTINUOUS
 62
     7
 10
-309.3614
 20
-32.29984
 40
0.5
 50
180.0
 51
270.0
  0
ARC
  8
0
  6
CONTINUOUS
 62
     7
 10
-315.5614
 20
-28.89983
 40
0.5
 50
180.0
 51
270.0
  0
CIRCLE
  8
0
  6
CONTINUOUS
 62
     7
 10
-313.5614
 20
1.60017
 40
1.6
  0
CIRCLE
  8
0
  6
CONTINUOUS
 62
     7
 10
-307.0614
 20
17.50017
 40
2.65
  0
CIRCLE
  8
0
  6
CONTINUOUS
 62
     7
 10
-306.5614
 20
-0.19983
 40
4.86435
  0
CIRCLE
  8
0
  6
CONTINUOUS
 62
     7
 10
-306.5614
 20
-0.19983
 40
4.28325
  0
CIRCLE
  8
0
  6
CONTINUOUS
 62
     7
 10
-307.0614
 20
-13.39983
 40
4.86435
  0
CIRCLE
  8
0
  6
CONTINUOUS
 62
     7
 10
-307.0614
 20
-13.39983
 40
4.28325
  0
CIRCLE
  8
0
  6
CONTINUOUS
 62
     7
 10
-307.0614
 20
17.50017
 40
2.0
  0
ARC
  8
0
  6
CONTINUOUS
 62
     7
 10
-315.5614
 20
-32.29984
 40
0.5
 50
180.0
 51
270.0
  0
ARC
  8
0
  6
CONTINUOUS
 62
     7
 10
-298.5614
 20
-32.29984
 40
0.5
 50
270.0
 51
0.0
  0
ARC
  8
0
  6
CONTINUOUS
 62
     7
 10
-310.3614
 20
-29.89983
 40
0.5
 50
0.0
 51
89.99999
  0
ARC
  8
0
  6
CONTINUOUS
 62
     7
 10
-311.5614
 20
48.30016
 40
6.0
 50
73.80876
 51
106.1912
  0
ARC
  8
0
  6
CONTINUOUS
 62
     7
 10
-310.1114
 20
53.2939
 40
0.79999
 50
0.0
 51
73.8082
  0
ARC
  8
0
  6
CONTINUOUS
 62
     7
 10
-313.0114
 20
53.2939
 40
0.8
 50
106.1918
 51
180.0
  0
ARC
  8
0
  6
CONTINUOUS
 62
     7
 10
-302.5614
 20
48.30016
 40
6.0
 50
73.80876
 51
106.1912
  0
ARC
  8
0
  6
CONTINUOUS
 62
     7
 10
-304.0114
 20
53.2939
 40
0.8
 50
106.1918
 51
118.0148
  0
ARC
  8
0
  6
CONTINUOUS
 62
     7
 10
-301.1114
 20
53.2939
 40
0.80001
 50
61.98524
 51
73.8082
  0
ARC
  8
0
  6
CONTINUOUS
 62
     7
 10
-310.5076
 20
46.75349
 40
0.35345
 50
0.0
 51
89.99999
  0
ARC
  8
0
  6
CONTINUOUS
 62
     7
 10
-307.5916
 20
44.85362
 40
0.35346
 50
270.0
 51
0.0
  0
ARC
  8
0
  6
CONTINUOUS
 62
     7
 10
-307.7683
 20
46.57677
 40
0.53018
 50
0.0
 51
89.99999
  0
ARC
  8
0
  6
CONTINUOUS
 62
     7
 10
-304.543
 20
46.75349
 40
0.35345
 50
0.0
 51
89.99999
  0
ARC
  8
0
  6
CONTINUOUS
 62
     7
 10
-304.543
 20
46.47112
 40
0.35347
 50
295.0005
 51
0.0
  0
ARC
  8
0
  6
CONTINUOUS
 62
     7
 10
-301.8036
 20
47.10695
 40
0.53019
 50
291.6869
 51
0.0
  0
ARC
  8
0
  6
CONTINUOUS
 62
     7
 10
-301.9804
 20
47.22685
 40
0.17673
 50
291.687
 51
0.0
  0
CIRCLE
  8
0
  6
CONTINUOUS
 62
     7
 10
-172.4368
 20
-184.179
 40
1.5
  0
CIRCLE
  8
0
  6
CONTINUOUS
 62
     7
 10
-191.4368
 20
-174.179
 40
1.5
  0
CIRCLE
  8
0
  6
CONTINUOUS
 62
     7
 10
-191.4368
 20
-174.179
 40
1.0
  0
ARC
  8
0
  6
CONTINUOUS
 62
     7
 10
-194.9368
 20
-170.679
 40
0.5
 50
89.99999
 51
180.0
  0
ARC
  8
0
  6
CONTINUOUS
 62
     7
 10
-168.9368
 20
-170.679
 40
0.5
 50
0.0
 51
89.99999
  0
ARC
  8
0
  6
CONTINUOUS
 62
     7
 10
-168.9368
 20
-187.679
 40
0.5
 50
270.0
 51
0.0
  0
ARC
  8
0
  6
CONTINUOUS
 62
     7
 10
-194.9368
 20
-187.679
 40
0.5
 50
180.0
 51
270.0
  0
ARC
  8
0
  6
CONTINUOUS
 62
     7
 10
-171.4368
 20
-173.179
 40
3.2
 50
180.0
 51
270.0
  0
ARC
  8
0
  6
CONTINUOUS
 62
     7
 10
-192.4368
 20
-185.179
 40
3.2
 50
0.0
 51
89.99999
  0
ARC
  8
0
  6
CONTINUOUS
 62
     7
 10
-194.9368
 20
-181.479
 40
0.5
 50
180.0
 51
270.0
  0
ARC
  8
0
  6
CONTINUOUS
 62
     7
 10
-188.7367
 20
-187.679
 40
0.5
 50
180.0
 51
270.0
  0
ARC
  8
0
  6
CONTINUOUS
 62
     7
 10
-175.1368
 20
-170.679
 40
0.5
 50
0.0
 51
89.99999
  0
ARC
  8
0
  6
CONTINUOUS
 62
     7
 10
-168.9368
 20
-176.879
 40
0.5
 50
0.0
 51
89.99999
  0
CIRCLE
  8
0
  6
CONTINUOUS
 62
     7
 10
-192.4368
 20
-185.179
 40
2.8
  0
ARC
  8
0
  6
CONTINUOUS
 62
     7
 10
-192.4368
 20
-183.9063
 40
0.60001
 50
225.0
 51
315.0
  0
ARC
  8
0
  6
CONTINUOUS
 62
     7
 10
-193.7095
 20
-185.179
 40
0.60001
 50
315.0
 51
45.0
  0
ARC
  8
0
  6
CONTINUOUS
 62
     7
 10
-191.164
 20
-185.179
 40
0.60001
 50
135.0
 51
225.0
  0
ARC
  8
0
  6
CONTINUOUS
 62
     7
 10
-192.4368
 20
-186.4518
 40
0.60001
 50
45.0
 51
135.0
  0
CIRCLE
  8
0
  6
CONTINUOUS
 62
     7
 10
-171.4368
 20
-173.179
 40
2.8
  0
ARC
  8
0
  6
CONTINUOUS
 62
     7
 10
-171.4368
 20
-171.9063
 40
0.60001
 50
225.0
 51
315.0
  0
ARC
  8
0
  6
CONTINUOUS
 62
     7
 10
-172.7095
 20
-173.179
 40
0.60001
 50
315.0
 51
45.0
  0
ARC
  8
0
  6
CONTINUOUS
 62
     7
 10
-170.164
 20
-173.179
 40
0.60001
 50
135.0
 51
225.0
  0
ARC
  8
0
  6
CONTINUOUS
 62
     7
 10
-171.4368
 20
-174.4518
 40
0.60001
 50
45.0
 51
135.0
  0
CIRCLE
  8
0
  6
CONTINUOUS
 62
     7
 10
-191.4368
 20
-174.179
 40
2.35
  0
CIRCLE
  8
0
  6
CONTINUOUS
 62
     7
 10
-172.4368
 20
-184.179
 40
2.35
  0
CIRCLE
  8
0
  6
CONTINUOUS
 62
     7
 10
-172.4368
 20
-184.179
 40
1.0
  0
ARC
  8
0
  6
CONTINUOUS
 62
     7
 10
-160.7367
 20
-172.979
 40
0.8
 50
0.0
 51
89.99999
  0
ARC
  8
0
  6
CONTINUOUS
 62
     7
 10
-160.7367
 20
-185.379
 40
0.8
 50
270.0
 51
0.0
  0
ARC
  8
0
  6
CONTINUOUS
 62
     7
 10
164.4372
 20
127.7773
 40
3.0
 50
0.0
 51
89.99999
  0
ARC
  8
0
  6
CONTINUOUS
 62
     7
 10
173.4372
 20
145.7773
 40
3.0
 50
180.0
 51
270.0
  0
ARC
  8
0
  6
CONTINUOUS
 62
     7
 10
164.4372
 20
127.7773
 40
2.55
 50
186.7564
 51
173.2436
  0
ARC
  8
0
  6
CONTINUOUS
 62
     7
 10
173.4372
 20
145.7773
 40
2.55
 50
6.75641
 51
353.2436
  0
CIRCLE
  8
0
  6
CONTINUOUS
 62
     7
 10
164.4372
 20
127.7773
 40
2.25
  0
ARC
  8
0
  6
CONTINUOUS
 62
     7
 10
165.5403
 20
127.7773
 40
0.51999
 50
135.0
 51
225.0006
  0
ARC
  8
0
  6
CONTINUOUS
 62
     7
 10
164.4372
 20
128.8804
 40
0.51999
 50
225.0
 51
315.0
  0
ARC
  8
0
  6
CONTINUOUS
 62
     7
 10
164.4372
 20
126.6743
 40
0.52
 50
45.0006
 51
134.9994
  0
ARC
  8
0
  6
CONTINUOUS
 62
     7
 10
163.3341
 20
127.7773
 40
0.52
 50
314.9994
 51
45.0
  0
CIRCLE
  8
0
  6
CONTINUOUS
 62
     7
 10
173.4372
 20
145.7773
 40
2.25
  0
ARC
  8
0
  6
CONTINUOUS
 62
     7
 10
174.5403
 20
145.7773
 40
0.51999
 50
135.0
 51
225.0
  0
ARC
  8
0
  6
CONTINUOUS
 62
     7
 10
173.4372
 20
146.8804
 40
0.51999
 50
225.0
 51
315.0
  0
ARC
  8
0
  6
CONTINUOUS
 62
     7
 10
173.4372
 20
144.6743
 40
0.51999
 50
45.0
 51
135.0
  0
ARC
  8
0
  6
CONTINUOUS
 62
     7
 10
172.3341
 20
145.7773
 40
0.51999
 50
315.0
 51
45.0
  0
ARC
  8
0
  6
CONTINUOUS
 62
     7
 10
175.9372
 20
148.2773
 40
0.5
 50
0.0
 51
89.99999
  0
ARC
  8
0
  6
CONTINUOUS
 62
     7
 10
161.9372
 20
148.2773
 40
0.5
 50
89.99999
 51
180.0
  0
ARC
  8
0
  6
CONTINUOUS
 62
     7
 10
175.1372
 20
115.5773
 40
0.8
 50
270.0
 51
0.0
  0
ARC
  8
0
  6
CONTINUOUS
 62
     7
 10
162.7372
 20
115.5773
 40
0.8
 50
180.0
 51
270.0
  0
ARC
  8
0
  6
CONTINUOUS
 62
     7
 10
160.4372
 20
149.7773
 40
0.5
 50
89.99999
 51
180.0
  0
ARC
  8
0
  6
CONTINUOUS
 62
     7
 10
160.4372
 20
123.7773
 40
0.5
 50
180.0
 51
270.0
  0
ARC
  8
0
  6
CONTINUOUS
 62
     7
 10
177.4372
 20
123.7773
 40
0.5
 50
270.0
 51
0.0
  0
ARC
  8
0
  6
CONTINUOUS
 62
     7
 10
177.4372
 20
149.7773
 40
0.5
 50
0.0
 51
89.99999
  0
CIRCLE
  8
0
  6
CONTINUOUS
 62
     7
 10
173.9369
 20
-162.6791
 40
1.5
  0
CIRCLE
  8
0
  6
CONTINUOUS
 62
     7
 10
163.9369
 20
-181.6791
 40
1.5
  0
CIRCLE
  8
0
  6
CONTINUOUS
 62
     7
 10
163.9369
 20
-181.6791
 40
1.0
  0
ARC
  8
0
  6
CONTINUOUS
 62
     7
 10
160.4369
 20
-185.1791
 40
0.5
 50
180.0
 51
270.0
  0
ARC
  8
0
  6
CONTINUOUS
 62
     7
 10
160.4369
 20
-159.1791
 40
0.5
 50
89.99999
 51
180.0
  0
ARC
  8
0
  6
CONTINUOUS
 62
     7
 10
177.4369
 20
-159.1791
 40
0.5
 50
0.0
 51
89.99999
  0
ARC
  8
0
  6
CONTINUOUS
 62
     7
 10
177.4369
 20
-185.1791
 40
0.5
 50
270.0
 51
0.0
  0
ARC
  8
0
  6
CONTINUOUS
 62
     7
 10
162.9369
 20
-161.6791
 40
3.2
 50
270.0
 51
0.0
  0
ARC
  8
0
  6
CONTINUOUS
 62
     7
 10
174.9369
 20
-182.6791
 40
3.2
 50
89.99999
 51
180.0
  0
ARC
  8
0
  6
CONTINUOUS
 62
     7
 10
171.2369
 20
-185.1791
 40
0.5
 50
270.0
 51
0.0
  0
ARC
  8
0
  6
CONTINUOUS
 62
     7
 10
177.4369
 20
-178.9791
 40
0.5
 50
270.0
 51
0.0
  0
ARC
  8
0
  6
CONTINUOUS
 62
     7
 10
160.4369
 20
-165.3791
 40
0.5
 50
89.99999
 51
180.0
  0
ARC
  8
0
  6
CONTINUOUS
 62
     7
 10
166.6369
 20
-159.1791
 40
0.5
 50
89.99999
 51
180.0
  0
CIRCLE
  8
0
  6
CONTINUOUS
 62
     7
 10
174.9369
 20
-182.6791
 40
2.8
  0
ARC
  8
0
  6
CONTINUOUS
 62
     7
 10
173.6641
 20
-182.6791
 40
0.60001
 50
315.0
 51
45.0
  0
ARC
  8
0
  6
CONTINUOUS
 62
     7
 10
174.9369
 20
-183.9519
 40
0.60001
 50
45.0
 51
135.0
  0
ARC
  8
0
  6
CONTINUOUS
 62
     7
 10
174.9369
 20
-181.4063
 40
0.60001
 50
225.0
 51
315.0
  0
ARC
  8
0
  6
CONTINUOUS
 62
     7
 10
176.2097
 20
-182.6791
 40
0.60001
 50
135.0
 51
225.0
  0
CIRCLE
  8
0
  6
CONTINUOUS
 62
     7
 10
162.9369
 20
-161.6791
 40
2.8
  0
ARC
  8
0
  6
CONTINUOUS
 62
     7
 10
161.6641
 20
-161.6791
 40
0.60001
 50
315.0
 51
45.0
  0
ARC
  8
0
  6
CONTINUOUS
 62
     7
 10
162.9369
 20
-162.9519
 40
0.60001
 50
45.0
 51
135.0
  0
ARC
  8
0
  6
CONTINUOUS
 62
     7
 10
162.9369
 20
-160.4063
 40
0.60001
 50
225.0
 51
315.0
  0
ARC
  8
0
  6
CONTINUOUS
 62
     7
 10
164.2097
 20
-161.6791
 40
0.60001
 50
135.0
 51
225.0
  0
CIRCLE
  8
0
  6
CONTINUOUS
 62
     7
 10
163.9369
 20
-181.6791
 40
2.35
  0
CIRCLE
  8
0
  6
CONTINUOUS
 62
     7
 10
173.9369
 20
-162.6791
 40
2.35
  0
CIRCLE
  8
0
  6
CONTINUOUS
 62
     7
 10
173.9369
 20
-162.6791
 40
1.0
  0
ARC
  8
0
  6
CONTINUOUS
 62
     7
 10
162.7369
 20
-150.9791
 40
0.8
 50
89.99999
 51
180.0
  0
ARC
  8
0
  6
CONTINUOUS
 62
     7
 10
175.1369
 20
-150.9791
 40
0.8
 50
0.0
 51
89.99999
  0
ARC
  8
0
  6
CONTINUOUS
 62
     7
 10
42.31206
 20
-32.29974
 40
0.5
 50
180.0
 51
270.0
  0
ARC
  8
0
  6
CONTINUOUS
 62
     7
 10
68.31206
 20
-32.29974
 40
0.5
 50
270.0
 51
0.0
  0
ARC
  8
0
  6
CONTINUOUS
 62
     7
 10
76.51207
 20
46.00024
 40
0.8
 50
0.0
 51
89.99999
  0
ARC
  8
0
  6
CONTINUOUS
 62
     7
 10
76.51207
 20
26.60025
 40
0.8
 50
270.0
 51
0.0
  0
ARC
  8
0
  6
CONTINUOUS
 62
     7
 10
64.31206
 20
48.30026
 40
6.0
 50
73.80869
 51
106.1913
  0
ARC
  8
0
  6
CONTINUOUS
 62
     7
 10
65.76207
 20
53.29401
 40
0.8
 50
0.0
 51
73.80872
  0
ARC
  8
0
  6
CONTINUOUS
 62
     7
 10
62.86205
 20
53.29401
 40
0.8
 50
106.1913
 51
180.0
  0
ARC
  8
0
  6
CONTINUOUS
 62
     7
 10
46.31206
 20
48.30023
 40
6.0
 50
73.80865
 51
106.1913
  0
ARC
  8
0
  6
CONTINUOUS
 62
     7
 10
44.86205
 20
53.29398
 40
0.8
 50
106.1913
 51
118.0138
  0
ARC
  8
0
  6
CONTINUOUS
 62
     7
 10
47.76207
 20
53.29398
 40
0.8
 50
61.98621
 51
73.80872
  0
ARC
  8
0
  6
CONTINUOUS
 62
     7
 10
69.31206
 20
53.30026
 40
0.5
 50
89.99999
 51
180.0
  0
ARC
  8
0
  6
CONTINUOUS
 62
     7
 10
80.31206
 20
52.30026
 40
0.5
 50
89.99999
 51
270.0
  0
ARC
  8
0
  6
CONTINUOUS
 62
     7
 10
78.31206
 20
52.30026
 40
0.5
 50
270.0
 51
89.99999
  0
ARC
  8
0
  6
CONTINUOUS
 62
     7
 10
63.11205
 20
-29.89975
 40
0.5
 50
89.99999
 51
180.0
  0
ARC
  8
0
  6
CONTINUOUS
 62
     7
 10
62.11205
 20
-32.29974
 40
0.5
 50
270.0
 51
0.0
  0
ARC
  8
0
  6
CONTINUOUS
 62
     7
 10
63.6787
 20
-30.57158
 40
0.66667
 50
180.0
 51
240.5076
  0
ARC
  8
0
  6
CONTINUOUS
 62
     7
 10
65.81206
 20
-26.79974
 40
5.0
 50
240.5076
 51
299.4923
  0
ARC
  8
0
  6
CONTINUOUS
 62
     7
 10
67.94542
 20
-30.57158
 40
0.66666
 50
299.4921
 51
0.0
  0
ARC
  8
0
  6
CONTINUOUS
 62
     7
 10
68.31206
 20
-28.89975
 40
0.5
 50
270.0
 51
0.0
  0
ARC
  8
0
  6
CONTINUOUS
 62
     7
 10
298.5612
 20
-32.2998
 40
0.5
 50
270.0
 51
0.0
  0
ARC
  8
0
  6
CONTINUOUS
 62
     7
 10
272.5612
 20
-32.2998
 40
0.5
 50
180.0
 51
270.0
  0
ARC
  8
0
  6
CONTINUOUS
 62
     7
 10
264.3611
 20
46.00018
 40
0.8
 50
89.99999
 51
180.0
  0
ARC
  8
0
  6
CONTINUOUS
 62
     7
 10
264.3611
 20
26.60019
 40
0.79999
 50
180.0
 51
270.0
  0
ARC
  8
0
  6
CONTINUOUS
 62
     7
 10
294.5612
 20
48.3002
 40
6.0
 50
73.80876
 51
106.1912
  0
ARC
  8
0
  6
CONTINUOUS
 62
     7
 10
296.0112
 20
53.29395
 40
0.79999
 50
0.0
 51
73.8082
  0
ARC
  8
0
  6
CONTINUOUS
 62
     7
 10
293.1111
 20
53.29395
 40
0.8
 50
106.1918
 51
180.0
  0
ARC
  8
0
  6
CONTINUOUS
 62
     7
 10
276.5612
 20
48.30017
 40
6.0
 50
73.80876
 51
106.1912
  0
ARC
  8
0
  6
CONTINUOUS
 62
     7
 10
275.1111
 20
53.29391
 40
0.8
 50
106.1918
 51
118.0148
  0
ARC
  8
0
  6
CONTINUOUS
 62
     7
 10
278.0112
 20
53.29391
 40
0.80001
 50
61.98524
 51
73.8082
  0
ARC
  8
0
  6
CONTINUOUS
 62
     7
 10
271.5612
 20
53.3002
 40
0.5
 50
0.0
 51
89.99999
  0
ARC
  8
0
  6
CONTINUOUS
 62
     7
 10
260.5612
 20
52.3002
 40
0.5
 50
270.0
 51
89.99999
  0
ARC
  8
0
  6
CONTINUOUS
 62
     7
 10
262.5612
 20
52.3002
 40
0.5
 50
89.99999
 51
270.0
  0
ARC
  8
0
  6
CONTINUOUS
 62
     7
 10
293.3611
 20
-29.89981
 40
0.5
 50
89.99999
 51
180.0
  0
ARC
  8
0
  6
CONTINUOUS
 62
     7
 10
292.3611
 20
-32.2998
 40
0.5
 50
270.0
 51
0.0
  0
ARC
  8
0
  6
CONTINUOUS
 62
     7
 10
293.9278
 20
-30.57164
 40
0.66666
 50
180.0
 51
240.5067
  0
ARC
  8
0
  6
CONTINUOUS
 62
     7
 10
296.0612
 20
-26.7998
 40
5.00001
 50
240.5075
 51
299.4925
  0
ARC
  8
0
  6
CONTINUOUS
 62
     7
 10
298.1945
 20
-30.57164
 40
0.66667
 50
299.4933
 51
0.0
  0
ARC
  8
0
  6
CONTINUOUS
 62
     7
 10
298.5612
 20
-28.89981
 40
0.5
 50
270.0
 51
0.0
  0
CIRCLE
  8
0
  6
CONTINUOUS
 62
     7
 10
175.4368
 20
1.60002
 40
1.6
  0
ARC
  8
0
  6
CONTINUOUS
 62
     7
 10
175.4368
 20
1.60002
 40
3.0
 50
33.55732
 51
326.4427
  0
CIRCLE
  8
0
  6
CONTINUOUS
 62
     7
 10
168.9368
 20
22.30002
 40
1.65
  0
ARC
  8
0
  6
CONTINUOUS
 62
     7
 10
160.4368
 20
-32.29999
 40
0.5
 50
180.0
 51
270.0
  0
ARC
  8
0
  6
CONTINUOUS
 62
     7
 10
177.4368
 20
-32.29999
 40
0.5
 50
270.0
 51
0.0
  0
CIRCLE
  8
0
  6
CONTINUOUS
 62
     7
 10
162.4368
 20
-18.39998
 40
1.6
  0
ARC
  8
0
  6
CONTINUOUS
 62
     7
 10
162.4368
 20
-18.39998
 40
3.0
 50
0.0
 51
146.4427
  0
ARC
  8
0
  6
CONTINUOUS
 62
     7
 10
162.4368
 20
-18.39998
 40
3.0
 50
213.5573
 51
0.0
  0
ARC
  8
0
  6
CONTINUOUS
 62
     7
 10
162.7368
 20
46.00003
 40
0.8
 50
89.99999
 51
180.0
  0
ARC
  8
0
  6
CONTINUOUS
 62
     7
 10
175.1368
 20
46.00003
 40
0.8
 50
0.0
 51
89.99999
  0
ARC
  8
0
  6
CONTINUOUS
 62
     7
 10
162.7368
 20
26.60002
 40
0.8
 50
180.0
 51
270.0
  0
ARC
  8
0
  6
CONTINUOUS
 62
     7
 10
175.1368
 20
26.60002
 40
0.8
 50
270.0
 51
0.0
  0
ARC
  8
0
  6
CONTINUOUS
 62
     7
 10
164.4368
 20
48.30002
 40
6.0
 50
85.2198
 51
106.1914
  0
ARC
  8
0
  6
CONTINUOUS
 62
     7
 10
162.9868
 20
53.29376
 40
0.8
 50
106.1918
 51
180.0
  0
ARC
  8
0
  6
CONTINUOUS
 62
     7
 10
173.4368
 20
48.30002
 40
6.0
 50
73.80862
 51
94.78019
  0
ARC
  8
0
  6
CONTINUOUS
 62
     7
 10
174.8868
 20
53.29376
 40
0.8
 50
61.98621
 51
73.8082
  0
CIRCLE
  8
0
  6
CONTINUOUS
 62
     7
 10
166.4368
 20
50.30002
 40
0.85
  0
CIRCLE
  8
0
  6
CONTINUOUS
 62
     7
 10
171.4368
 20
50.30002
 40
0.85
  0
ARC
  8
0
  6
CONTINUOUS
 62
     7
 10
168.9368
 20
47.92502
 40
0.5
 50
45.00062
 51
314.9994
  0
ARC
  8
0
  6
CONTINUOUS
 62
     7
 10
165.6368
 20
-29.89998
 40
0.5
 50
0.0
 51
89.99999
  0
ARC
  8
0
  6
CONTINUOUS
 62
     7
 10
166.6368
 20
-32.29999
 40
0.5
 50
180.0
 51
270.0
  0
ARC
  8
0
  6
CONTINUOUS
 62
     7
 10
160.8035
 20
-30.57181
 40
0.66667
 50
180.0
 51
240.5079
  0
ARC
  8
0
  6
CONTINUOUS
 62
     7
 10
162.9368
 20
-26.79999
 40
5.0
 50
240.5077
 51
299.4923
  0
ARC
  8
0
  6
CONTINUOUS
 62
     7
 10
165.0701
 20
-30.57181
 40
0.66666
 50
299.4921
 51
0.0
  0
ARC
  8
0
  6
CONTINUOUS
 62
     7
 10
160.4368
 20
-28.89998
 40
0.5
 50
180.0
 51
270.0
  0
TEXT
  8
0
  6
CONTINUOUS
 62
     7
 10
-350.9787
 20
200.5946
 40
8.5
  1
MODEL : 181E1-PLL
 41
0.8
  7
STANDARD
  0
TEXT
  8
0
  6
CONTINUOUS
 62
     7
 10
229.0661
 20
236.2625
 40
8.5
  1
DATE : NOV ,1989
 41
0.8
  7
STANDARD
  0
TEXT
  8
0
  6
CONTINUOUS
 62
     7
 10
-366.8907
 20
235.5575
 40
10.0
  1
180 CONNECTOR,PLL
 41
0.69402
  7
STANDARD
  0
TEXT
  8
0
  6
CONTINUOUS
 62
     7
 10
19.88928
 20
200.5946
 40
8.5
  1
MODEL : A181E1-PLL
 41
0.8
  7
STANDARD
  0
TEXT
  8
0
  6
CONTINUOUS
 62
     7
 10
-42.64371
 20
-15.33993
 40
2.0
  1
A
 41
0.8
  7
STANDARD
  0
TEXT
  8
0
  6
CONTINUOUS
 62
     7
 10
-314.3928
 20
4.66017
 40
2.0
  1
R
 41
0.8
  7
STANDARD
  0
TEXT
  8
0
  6
CONTINUOUS
 62
     7
 10
-306.8928
 20
-21.83983
 40
2.0
  1
P
 41
0.8
  7
STANDARD
  0
ENDSEC
  0
EOF
