  0
SECTION
  2
HEADER
  9
$ACADVER
  1
AC1002
  9
$INSBASE
 10
0.0
 20
0.0
  9
$EXTMIN
 10
-370.8736
 20
-254.5585
  9
$EXTMAX
 10
370.8736
 20
254.5585
  9
$LIMMIN
 10
0.0
 20
0.0
  9
$LIMMAX
 10
12.0
 20
9.0
  9
$VIEWCTR
 10
28.6093211
 20
0.0
  9
$VIEWSIZE
 40
509.117
  9
$SNAPMODE
 70
     0
  9
$SNAPUNIT
 10
1.0
 20
1.0
  9
$SNAPBASE
 10
0.0
 20
0.0
  9
$SNAPANG
 50
0.0
  9
$SNAPSTYLE
 70
     0
  9
$SNAPISOPAIR
 70
     0
  9
$GRIDMODE
 70
     0
  9
$GRIDUNIT
 10
0.0
 20
0.0
  9
$ORTHOMODE
 70
     0
  9
$REGENMODE
 70
     1
  9
$FILLMODE
 70
     1
  9
$QTEXTMODE
 70
     0
  9
$DRAGMODE
 70
     2
  9
$LTSCALE
 40
1.0
  9
$OSMODE
 70
     0
  9
$ATTMODE
 70
     1
  9
$TEXTSIZE
 40
0.2
  9
$TRACEWID
 40
0.05
  9
$TEXTSTYLE
  7
AAA
  9
$CLAYER
  8
0
  9
$CELTYPE
  6
BYLAYER
  9
$CECOLOR
 62
   256
  9
$DIMSCALE
 40
1.0
  9
$DIMASZ
 40
0.18
  9
$DIMEXO
 40
0.0625
  9
$DIMDLI
 40
0.38
  9
$DIMRND
 40
0.0
  9
$DIMDLE
 40
0.0
  9
$DIMEXE
 40
0.18
  9
$DIMTP
 40
0.0
  9
$DIMTM
 40
0.0
  9
$DIMTXT
 40
0.18
  9
$DIMCEN
 40
0.09
  9
$DIMTSZ
 40
0.0
  9
$DIMTOL
 70
     0
  9
$DIMLIM
 70
     0
  9
$DIMTIH
 70
     1
  9
$DIMTOH
 70
     1
  9
$DIMSE1
 70
     0
  9
$DIMSE2
 70
     0
  9
$DIMTAD
 70
     0
  9
$DIMZIN
 70
     0
  9
$DIMBLK
  1

  9
$LUNITS
 70
     2
  9
$LUPREC
 70
     4
  9
$AXISMODE
 70
     0
  9
$AXISUNIT
 10
0.0
 20
0.0
  9
$SKETCHINC
 40
0.1
  9
$FILLETRAD
 40
0.0
  9
$AUNITS
 70
     0
  9
$AUPREC
 70
     0
  9
$MENU
  1
ACAD
  9
$ELEVATION
 40
0.0
  9
$THICKNESS
 40
0.0
  9
$VIEWDIR
 10
0.0
 20
0.0
 30
1.0
  9
$LIMCHECK
 70
     0
  9
$BLIPMODE
 70
     1
  9
$CHAMFERA
 40
0.0
  9
$CHAMFERB
 40
0.0
  9
$FASTZOOM
 70
     1
  9
$SKPOLY
 70
     0
  9
$TDCREATE
 40
2447877.6610185684
  9
$TDUPDATE
 40
2447877.6610185684
  9
$TDINDWG
 40
0.0161111111
  9
$TDUSRTIMER
 40
0.0161111111
  9
$USRTIMER
 70
     1
  9
$ANGBASE
 50
0.0
  9
$ANGDIR
 70
     0
  9
$PDMODE
 70
     0
  9
$PDSIZE
 40
0.0
  9
$PLINEWID
 40
0.0
  9
$COORDS
 70
     0
  9
$USERI1
 70
     0
  9
$USERI2
 70
     0
  9
$USERI3
 70
     0
  9
$USERI4
 70
     0
  9
$USERI5
 70
     0
  9
$USERR1
 40
0.0
  9
$USERR2
 40
0.0
  9
$USERR3
 40
0.0
  9
$USERR4
 40
0.0
  9
$USERR5
 40
0.0
  0
ENDSEC
  0
SECTION
  2
TABLES
  0
TABLE
  2
LTYPE
 70
     3
  0
LTYPE
  2
CONTINUOUS
 70
    64
  3
SOLID
 72
    65
 73
     0
 40
0.0
  0
LTYPE
  2
CENTER
 70
    64
  3
CENTER
 72
    65
 73
     4
 40
2.0
 49
1.25
 49
-0.25
 49
0.25
 49
-0.25
  0
LTYPE
  2
PHANTOM
 70
    64
  3
PHANTOM
 72
    65
 73
     6
 40
2.5
 49
1.25
 49
-0.25
 49
0.25
 49
-0.25
 49
0.25
 49
-0.25
  0
ENDTAB
  0
TABLE
  2
LAYER
 70
     1
  0
LAYER
  2
0
 70
    64
 62
     7
  6
CONTINUOUS
  0
ENDTAB
  0
TABLE
  2
STYLE
 70
     2
  0
STYLE
  2
AAA
 70
     0
 40
0.0
 41
1.0
 50
0.0
 71
     0
 42
0.2
  3
TXT
  4

  0
STYLE
  2
STANDARD
 70
    64
 40
0.0
 41
1.0
 50
0.0
 71
     0
 42
0.2
  3
TXT
  4
BIGFONT
  0
ENDTAB
  0
TABLE
  2
VIEW
 70
     0
  0
ENDTAB
  0
ENDSEC
  0
SECTION
  2
BLOCKS
  0
ENDSEC
  0
SECTION
  2
ENTITIES
  0
POINT
  8
0
  6
CONTINUOUS
 62
     7
 10
-168.4367
 20
150.2774
  0
POINT
  8
0
  6
CONTINUOUS
 62
     7
 10
-195.4367
 20
150.2774
  0
POINT
  8
0
  6
CONTINUOUS
 62
     7
 10
-195.4368
 20
1.60001
  0
POINT
  8
0
  6
CONTINUOUS
 62
     7
 10
-168.4368
 20
1.60001
  0
POINT
  8
0
  6
CONTINUOUS
 62
     7
 10
-168.4368
 20
22.3
  0
POINT
  8
0
  6
CONTINUOUS
 62
     7
 10
-168.4368
 20
-49.10001
  0
POINT
  8
0
  6
CONTINUOUS
 62
     7
 10
-298.0613
 20
1.60013
  0
POINT
  8
0
  6
CONTINUOUS
 62
     7
 10
-313.5613
 20
1.60013
  0
POINT
  8
0
  6
CONTINUOUS
 62
     7
 10
-306.5613
 20
-0.19986
  0
POINT
  8
0
  6
CONTINUOUS
 62
     7
 10
-307.0613
 20
-13.39987
  0
POINT
  8
0
  6
CONTINUOUS
 62
     7
 10
-307.5613
 20
-26.59988
  0
POINT
  8
0
  6
CONTINUOUS
 62
     7
 10
-36.31215
 20
1.60011
  0
POINT
  8
0
  6
CONTINUOUS
 62
     7
 10
-42.81215
 20
-49.09988
  0
POINT
  8
0
  6
CONTINUOUS
 62
     7
 10
-43.31215
 20
-21.3999
  0
POINT
  8
0
  6
CONTINUOUS
 62
     7
 10
-42.31215
 20
-5.3999
  0
POINT
  8
0
  6
CONTINUOUS
 62
     7
 10
-42.81215
 20
22.30011
  0
POINT
  8
0
  6
CONTINUOUS
 62
     7
 10
-195.4367
 20
-185.679
  0
POINT
  8
0
  6
CONTINUOUS
 62
     7
 10
-168.4367
 20
-185.679
  0
POINT
  8
0
  6
CONTINUOUS
 62
     7
 10
68.81203
 20
1.6002
  0
POINT
  8
0
  6
CONTINUOUS
 62
     7
 10
41.81203
 20
1.6002
  0
POINT
  8
0
  6
CONTINUOUS
 62
     7
 10
68.81197
 20
-49.09979
  0
POINT
  8
0
  6
CONTINUOUS
 62
     7
 10
68.81197
 20
22.3002
  0
POINT
  8
0
  6
CONTINUOUS
 62
     7
 10
175.4371
 20
150.2773
  0
POINT
  8
0
  6
CONTINUOUS
 62
     7
 10
175.4368
 20
1.60002
  0
POINT
  8
0
  6
CONTINUOUS
 62
     7
 10
168.9368
 20
-49.09998
  0
POINT
  8
0
  6
CONTINUOUS
 62
     7
 10
168.9368
 20
22.30002
  0
POINT
  8
0
  6
CONTINUOUS
 62
     7
 10
299.0611
 20
1.6001
  0
POINT
  8
0
  6
CONTINUOUS
 62
     7
 10
272.0611
 20
-49.0999
  0
POINT
  8
0
  6
CONTINUOUS
 62
     7
 10
272.0611
 20
22.30009
  0
POINT
  8
0
  6
CONTINUOUS
 62
     7
 10
175.437
 20
-185.6791
  0
LINE
  8
0
  6
CONTINUOUS
 62
     7
 10
218.3292
 20
-225.9564
 11
370.8736
 21
-225.9564
  0
LINE
  8
0
  6
CONTINUOUS
 62
     7
 10
-218.3292
 20
225.9564
 11
-218.3292
 21
254.5585
  0
LINE
  8
0
  6
CONTINUOUS
 62
     7
 10
-370.8736
 20
225.9564
 11
-218.3292
 21
225.9564
  0
LINE
  8
0
  6
CONTINUOUS
 62
     7
 10
-370.8736
 20
254.5585
 11
370.8736
 21
254.5585
  0
LINE
  8
0
  6
CONTINUOUS
 62
     7
 10
-370.8736
 20
-254.5585
 11
370.8736
 21
-254.5585
  0
LINE
  8
0
  6
CONTINUOUS
 62
     7
 10
370.8736
 20
254.5585
 11
370.8736
 21
-254.5585
  0
LINE
  8
0
  6
CONTINUOUS
 62
     7
 10
-370.8736
 20
-254.5585
 11
-370.8736
 21
254.5585
  0
LINE
  8
0
  6
CONTINUOUS
 62
     7
 10
218.3292
 20
-225.9564
 11
218.3292
 21
-254.5585
  0
LINE
  8
0
  6
CONTINUOUS
 62
     7
 10
218.3292
 20
254.5585
 11
218.3292
 21
225.9564
  0
LINE
  8
0
  6
CONTINUOUS
 62
     7
 10
218.3292
 20
225.9564
 11
370.8736
 21
225.9564
  0
LINE
  8
0
  6
CONTINUOUS
 62
     7
 10
258.3816
 20
-232.8337
 11
258.3816
 21
-236.1516
  0
LINE
  8
0
  6
CONTINUOUS
 62
     7
 10
258.3816
 20
-236.1516
 11
270.8235
 21
-236.1516
  0
LINE
  8
0
  6
CONTINUOUS
 62
     7
 10
258.3816
 20
-249.1465
 11
275.2473
 21
-249.1465
  0
LINE
  8
0
  6
CONTINUOUS
 62
     7
 10
258.3816
 20
-245.8286
 11
270.8235
 21
-245.8286
  0
LINE
  8
0
  6
CONTINUOUS
 62
     7
 10
258.3816
 20
-232.8337
 11
273.0354
 21
-232.8337
  0
LINE
  8
0
  6
CONTINUOUS
 62
     7
 10
270.8235
 20
-236.1516
 11
270.8235
 21
-245.8286
  0
LINE
  8
0
  6
CONTINUOUS
 62
     7
 10
275.2473
 20
-235.0457
 11
275.2473
 21
-249.1465
  0
LINE
  8
0
  6
CONTINUOUS
 62
     7
 10
258.3816
 20
-245.8286
 11
258.3816
 21
-249.1465
  0
LINE
  8
0
  6
CONTINUOUS
 62
     7
 10
293.4954
 20
-236.1516
 11
293.4954
 21
-246.9346
  0
LINE
  8
0
  6
CONTINUOUS
 62
     7
 10
277.7357
 20
-232.8337
 11
277.7357
 21
-236.1516
  0
LINE
  8
0
  6
CONTINUOUS
 62
     7
 10
293.9378
 20
-232.585
 11
295.5138
 21
-232.585
  0
LINE
  8
0
  6
CONTINUOUS
 62
     7
 10
293.9378
 20
-230.373
 11
295.5138
 21
-230.373
  0
LINE
  8
0
  6
CONTINUOUS
 62
     7
 10
295.5138
 20
-230.373
 11
295.5138
 21
-232.585
  0
LINE
  8
0
  6
CONTINUOUS
 62
     7
 10
293.9378
 20
-230.373
 11
293.9378
 21
-232.585
  0
LINE
  8
0
  6
CONTINUOUS
 62
     7
 10
293.1083
 20
-230.373
 11
293.1083
 21
-232.585
  0
LINE
  8
0
  6
CONTINUOUS
 62
     7
 10
282.7661
 20
-230.373
 11
286.2009
 21
-230.373
  0
LINE
  8
0
  6
CONTINUOUS
 62
     7
 10
285.5413
 20
-232.8335
 11
286.2006
 21
-230.3727
  0
LINE
  8
0
  6
CONTINUOUS
 62
     7
 10
282.1067
 20
-232.8337
 11
282.766
 21
-230.373
  0
LINE
  8
0
  6
CONTINUOUS
 62
     7
 10
285.5416
 20
-232.8337
 11
290.1776
 21
-232.8337
  0
LINE
  8
0
  6
CONTINUOUS
 62
     7
 10
284.6526
 20
-236.1516
 11
289.0716
 21
-236.1516
  0
LINE
  8
0
  6
CONTINUOUS
 62
     7
 10
286.6429
 20
-249.1465
 11
291.2836
 21
-249.1465
  0
LINE
  8
0
  6
CONTINUOUS
 62
     7
 10
285.7537
 20
-245.8286
 11
286.6427
 21
-249.1463
  0
LINE
  8
0
  6
CONTINUOUS
 62
     7
 10
285.7538
 20
-245.8286
 11
289.0716
 21
-245.8286
  0
LINE
  8
0
  6
CONTINUOUS
 62
     7
 10
281.1707
 20
-249.1466
 11
284.6527
 21
-236.1517
  0
LINE
  8
0
  6
CONTINUOUS
 62
     7
 10
277.7357
 20
-236.1516
 11
281.2177
 21
-236.1516
  0
LINE
  8
0
  6
CONTINUOUS
 62
     7
 10
277.7354
 20
-249.1462
 11
281.2175
 21
-236.1513
  0
LINE
  8
0
  6
CONTINUOUS
 62
     7
 10
277.7357
 20
-249.1465
 11
281.1706
 21
-249.1465
  0
LINE
  8
0
  6
CONTINUOUS
 62
     7
 10
277.7357
 20
-232.8337
 11
282.1067
 21
-232.8337
  0
LINE
  8
0
  6
CONTINUOUS
 62
     7
 10
289.0716
 20
-236.1516
 11
289.0716
 21
-245.8286
  0
LINE
  8
0
  6
CONTINUOUS
 62
     7
 10
291.5323
 20
-230.373
 11
293.1083
 21
-230.373
  0
LINE
  8
0
  6
CONTINUOUS
 62
     7
 10
291.5323
 20
-232.585
 11
293.1083
 21
-232.585
  0
LINE
  8
0
  6
CONTINUOUS
 62
     7
 10
291.5323
 20
-230.373
 11
291.5323
 21
-232.585
  0
LINE
  8
0
  6
CONTINUOUS
 62
     7
 10
301.5135
 20
-230.373
 11
305.9373
 21
-230.373
  0
LINE
  8
0
  6
CONTINUOUS
 62
     7
 10
308.3423
 20
-240.1951
 11
311.2962
 21
-238.8176
  0
LINE
  8
0
  6
CONTINUOUS
 62
     7
 10
305.9373
 20
-242.7344
 11
305.9373
 21
-249.1465
  0
LINE
  8
0
  6
CONTINUOUS
 62
     7
 10
301.5135
 20
-243.379
 11
301.5135
 21
-249.1465
  0
LINE
  8
0
  6
CONTINUOUS
 62
     7
 10
305.9373
 20
-232.8337
 11
310.3611
 21
-232.8337
  0
LINE
  8
0
  6
CONTINUOUS
 62
     7
 10
305.9373
 20
-230.373
 11
305.9373
 21
-232.8337
  0
LINE
  8
0
  6
CONTINUOUS
 62
     7
 10
301.5135
 20
-230.373
 11
301.5135
 21
-232.8337
  0
LINE
  8
0
  6
CONTINUOUS
 62
     7
 10
312.573
 20
-235.0457
 11
312.573
 21
-236.8128
  0
LINE
  8
0
  6
CONTINUOUS
 62
     7
 10
308.3424
 20
-240.195
 11
312.5734
 21
-242.168
  0
LINE
  8
0
  6
CONTINUOUS
 62
     7
 10
305.9373
 20
-242.7343
 11
312.5731
 21
-245.8286
  0
LINE
  8
0
  6
CONTINUOUS
 62
     7
 10
296.2603
 20
-242.1678
 11
296.2603
 21
-245.8286
  0
LINE
  8
0
  6
CONTINUOUS
 62
     7
 10
296.2607
 20
-242.1682
 11
309.1626
 21
-236.1519
  0
LINE
  8
0
  6
CONTINUOUS
 62
     7
 10
296.2603
 20
-245.8286
 11
301.5136
 21
-243.3789
  0
LINE
  8
0
  6
CONTINUOUS
 62
     7
 10
312.573
 20
-242.1678
 11
312.573
 21
-245.8286
  0
LINE
  8
0
  6
CONTINUOUS
 62
     7
 10
296.2603
 20
-232.8337
 11
296.2603
 21
-236.1516
  0
LINE
  8
0
  6
CONTINUOUS
 62
     7
 10
301.5135
 20
-249.1465
 11
305.9373
 21
-249.1465
  0
LINE
  8
0
  6
CONTINUOUS
 62
     7
 10
296.2603
 20
-236.1516
 11
309.1621
 21
-236.1516
  0
LINE
  8
0
  6
CONTINUOUS
 62
     7
 10
296.2603
 20
-232.8337
 11
301.5135
 21
-232.8337
  0
LINE
  8
0
  6
CONTINUOUS
 62
     7
 10
327.504
 20
-236.4047
 11
328.73
 21
-235.9171
  0
LINE
  8
0
  6
CONTINUOUS
 62
     7
 10
327.5034
 20
-236.4044
 11
327.5034
 21
-249.1465
  0
LINE
  8
0
  6
CONTINUOUS
 62
     7
 10
323.0795
 20
-249.1465
 11
327.5034
 21
-249.1465
  0
LINE
  8
0
  6
CONTINUOUS
 62
     7
 10
313.9553
 20
-241.7925
 11
323.0794
 21
-238.1637
  0
LINE
  8
0
  6
CONTINUOUS
 62
     7
 10
313.9555
 20
-238.222
 11
326.8062
 21
-233.1111
  0
LINE
  8
0
  6
CONTINUOUS
 62
     7
 10
323.0795
 20
-238.1638
 11
323.0795
 21
-249.1465
  0
LINE
  8
0
  6
CONTINUOUS
 62
     7
 10
327.5034
 20
-231.3684
 11
327.5034
 21
-232.0834
  0
LINE
  8
0
  6
CONTINUOUS
 62
     7
 10
330.8211
 20
-231.3684
 11
330.8211
 21
-232.8338
  0
LINE
  8
0
  6
CONTINUOUS
 62
     7
 10
313.9554
 20
-238.2219
 11
313.9554
 21
-241.7925
  0
LINE
  8
0
  6
CONTINUOUS
 62
     7
 10
327.5034
 20
-231.3684
 11
330.8211
 21
-231.3684
  0
LINE
  8
0
  6
CONTINUOUS
 62
     7
 10
0.0
 20
254.5585
 11
0.0
 21
-254.5585
  0
LINE
  8
0
  6
CONTINUOUS
 62
     7
 10
-169.4367
 20
136.7774
 11
-169.4367
 21
135.7774
  0
LINE
  8
0
  6
CONTINUOUS
 62
     7
 10
-168.4367
 20
150.7774
 11
-168.4367
 21
152.2774
  0
LINE
  8
0
  6
CENTER
 62
     2
 10
-197.8329
 20
143.7774
 11
-147.2764
 21
143.7774
  0
LINE
  8
0
  6
CONTINUOUS
 62
     7
 10
-194.9367
 20
152.7774
 11
-168.9367
 21
152.7774
  0
LINE
  8
0
  6
CONTINUOUS
 62
     7
 10
-194.9367
 20
134.7774
 11
-168.9367
 21
134.7774
  0
LINE
  8
0
  6
CONTINUOUS
 62
     7
 10
-168.4367
 20
135.2774
 11
-168.4367
 21
136.7774
  0
LINE
  8
0
  6
CONTINUOUS
 62
     7
 10
-195.4367
 20
135.2774
 11
-195.4367
 21
152.2774
  0
LINE
  8
0
  6
CENTER
 62
     2
 10
-181.9367
 20
132.0274
 11
-181.9367
 21
156.0049
  0
LINE
  8
0
  6
CONTINUOUS
 62
     7
 10
-194.4367
 20
151.7774
 11
-169.4367
 21
151.7774
  0
LINE
  8
0
  6
CONTINUOUS
 62
     7
 10
-194.4367
 20
135.7774
 11
-169.4367
 21
135.7774
  0
LINE
  8
0
  6
CONTINUOUS
 62
     7
 10
-194.4367
 20
151.7774
 11
-194.4367
 21
135.7774
  0
LINE
  8
0
  6
CONTINUOUS
 62
     7
 10
-169.4367
 20
151.7774
 11
-169.4367
 21
150.7774
  0
LINE
  8
0
  6
CONTINUOUS
 62
     7
 10
-169.4369
 20
135.7772
 11
-168.5833
 21
134.9237
  0
LINE
  8
0
  6
CONTINUOUS
 62
     7
 10
-194.4367
 20
135.7775
 11
-195.2903
 21
134.9239
  0
LINE
  8
0
  6
CONTINUOUS
 62
     7
 10
-169.4367
 20
151.7775
 11
-168.5832
 21
152.631
  0
LINE
  8
0
  6
CONTINUOUS
 62
     7
 10
-194.4366
 20
151.7776
 11
-195.2901
 21
152.6311
  0
LINE
  8
0
  6
CONTINUOUS
 62
     7
 10
-169.9367
 20
151.2774
 11
-169.9367
 21
136.2774
  0
LINE
  8
0
  6
CONTINUOUS
 62
     7
 10
-160.8367
 20
150.7774
 11
-160.8367
 21
147.7774
  0
LINE
  8
0
  6
CONTINUOUS
 62
     7
 10
-172.9367
 20
142.2774
 11
-169.9367
 21
142.2774
  0
LINE
  8
0
  6
CONTINUOUS
 62
     7
 10
-190.9367
 20
145.2774
 11
-193.9367
 21
145.2774
  0
LINE
  8
0
  6
CONTINUOUS
 62
     7
 10
-187.9367
 20
148.2774
 11
-187.9367
 21
151.2774
  0
LINE
  8
0
  6
CONTINUOUS
 62
     7
 10
-175.9367
 20
139.2774
 11
-175.9367
 21
136.2774
  0
LINE
  8
0
  6
CONTINUOUS
 62
     7
 10
-192.9367
 20
145.2774
 11
-192.9367
 21
137.2774
  0
LINE
  8
0
  6
CONTINUOUS
 62
     7
 10
-170.9367
 20
150.2774
 11
-170.9367
 21
142.2774
  0
LINE
  8
0
  6
CONTINUOUS
 62
     7
 10
-187.9367
 20
150.2774
 11
-170.9367
 21
150.2774
  0
LINE
  8
0
  6
CONTINUOUS
 62
     7
 10
-192.9367
 20
137.2774
 11
-175.9367
 21
137.2774
  0
LINE
  8
0
  6
CONTINUOUS
 62
     7
 10
-172.6367
 20
137.0475
 11
-172.6367
 21
136.7451
  0
LINE
  8
0
  6
CONTINUOUS
 62
     7
 10
-173.2367
 20
137.0475
 11
-173.2367
 21
136.7451
  0
LINE
  8
0
  6
CONTINUOUS
 62
     7
 10
-173.3975
 20
136.7694
 11
-173.3975
 21
137.0751
  0
LINE
  8
0
  6
CONTINUOUS
 62
     7
 10
-191.2367
 20
150.5074
 11
-191.2367
 21
150.8097
  0
LINE
  8
0
  6
CONTINUOUS
 62
     7
 10
-190.6367
 20
150.5074
 11
-190.6367
 21
150.8097
  0
LINE
  8
0
  6
CONTINUOUS
 62
     7
 10
-190.4759
 20
150.7855
 11
-190.4759
 21
150.4798
  0
LINE
  8
0
  6
CONTINUOUS
 62
     7
 10
-174.0397
 20
138.542
 11
-173.672
 21
138.9097
  0
LINE
  8
0
  6
CONTINUOUS
 62
     7
 10
-173.672
 20
138.1743
 11
-173.3044
 21
138.542
  0
LINE
  8
0
  6
CONTINUOUS
 62
     7
 10
-174.0397
 20
138.5421
 11
-173.672
 21
138.1745
  0
LINE
  8
0
  6
CONTINUOUS
 62
     7
 10
-172.2012
 20
140.3807
 11
-171.8335
 21
140.013
  0
LINE
  8
0
  6
CONTINUOUS
 62
     7
 10
-174.7009
 20
140.674
 11
-173.6721
 21
139.6452
  0
LINE
  8
0
  6
CONTINUOUS
 62
     7
 10
-174.3331
 20
141.0418
 11
-173.3043
 21
140.013
  0
LINE
  8
0
  6
CONTINUOUS
 62
     7
 10
-172.569
 20
140.0128
 11
-172.2012
 21
140.3805
  0
LINE
  8
0
  6
CONTINUOUS
 62
     7
 10
-172.2012
 20
139.6451
 11
-171.8335
 21
140.0128
  0
LINE
  8
0
  6
CONTINUOUS
 62
     7
 10
-172.569
 20
138.5421
 11
-171.5402
 21
137.5133
  0
LINE
  8
0
  6
CONTINUOUS
 62
     7
 10
-172.2012
 20
138.9099
 11
-171.1724
 21
137.8811
  0
LINE
  8
0
  6
CONTINUOUS
 62
     7
 10
-192.0398
 20
147.542
 11
-191.6721
 21
147.9098
  0
LINE
  8
0
  6
CONTINUOUS
 62
     7
 10
-191.6721
 20
147.1744
 11
-191.3044
 21
147.542
  0
LINE
  8
0
  6
CONTINUOUS
 62
     7
 10
-192.0397
 20
147.5421
 11
-191.672
 21
147.1744
  0
LINE
  8
0
  6
CONTINUOUS
 62
     7
 10
-190.2012
 20
149.3807
 11
-189.8335
 21
149.013
  0
LINE
  8
0
  6
CONTINUOUS
 62
     7
 10
-192.7007
 20
149.674
 11
-191.6719
 21
148.6452
  0
LINE
  8
0
  6
CONTINUOUS
 62
     7
 10
-192.3331
 20
150.0417
 11
-191.3043
 21
149.0129
  0
LINE
  8
0
  6
CONTINUOUS
 62
     7
 10
-190.569
 20
149.0128
 11
-190.2013
 21
149.3806
  0
LINE
  8
0
  6
CONTINUOUS
 62
     7
 10
-190.2013
 20
148.6451
 11
-189.8336
 21
149.0128
  0
LINE
  8
0
  6
CONTINUOUS
 62
     7
 10
-190.5688
 20
147.5422
 11
-189.5401
 21
146.5134
  0
LINE
  8
0
  6
CONTINUOUS
 62
     7
 10
-190.2012
 20
147.9099
 11
-189.1724
 21
146.8811
  0
LINE
  8
0
  6
CONTINUOUS
 62
     7
 10
-151.4367
 20
147.7774
 11
-151.4367
 21
139.7774
  0
LINE
  8
0
  6
CONTINUOUS
 62
     7
 10
-157.108
 20
147.7774
 11
-157.108
 21
139.7774
  0
LINE
  8
0
  6
CONTINUOUS
 62
     7
 10
-168.4367
 20
147.7774
 11
-168.4367
 21
139.7774
  0
LINE
  8
0
  6
CONTINUOUS
 62
     7
 10
-169.9367
 20
139.5774
 11
-166.4367
 21
139.5774
  0
LINE
  8
0
  6
CONTINUOUS
 62
     7
 10
-169.9367
 20
147.9774
 11
-166.4367
 21
147.9774
  0
LINE
  8
0
  6
CONTINUOUS
 62
     7
 10
-166.4367
 20
147.9774
 11
-166.4367
 21
147.7774
  0
LINE
  8
0
  6
CONTINUOUS
 62
     7
 10
-165.4367
 20
147.9774
 11
-165.4367
 21
147.7774
  0
LINE
  8
0
  6
CONTINUOUS
 62
     7
 10
-165.4367
 20
139.5774
 11
-160.8367
 21
139.5774
  0
LINE
  8
0
  6
CONTINUOUS
 62
     7
 10
-165.4367
 20
147.9774
 11
-160.8367
 21
147.9774
  0
LINE
  8
0
  6
CONTINUOUS
 62
     7
 10
-160.8367
 20
139.7774
 11
-160.8367
 21
136.7774
  0
LINE
  8
0
  6
CONTINUOUS
 62
     7
 10
-165.4367
 20
139.7774
 11
-165.4367
 21
139.5774
  0
LINE
  8
0
  6
CONTINUOUS
 62
     7
 10
-166.4367
 20
139.7774
 11
-166.4367
 21
139.5774
  0
LINE
  8
0
  6
CENTER
 62
     2
 10
-172.9367
 20
143.2774
 11
-172.9367
 21
135.2774
  0
LINE
  8
0
  6
CENTER
 62
     2
 10
-190.9367
 20
152.2774
 11
-190.9367
 21
144.2774
  0
LINE
  8
0
  6
CENTER
 62
     2
 10
-194.9367
 20
148.2774
 11
-186.9367
 21
148.2774
  0
LINE
  8
0
  6
CENTER
 62
     2
 10
-176.9367
 20
139.2774
 11
-168.9367
 21
139.2774
  0
LINE
  8
0
  6
CONTINUOUS
 62
     7
 10
-193.4367
 20
151.2774
 11
-169.9367
 21
151.2774
  0
LINE
  8
0
  6
CONTINUOUS
 62
     7
 10
-193.9367
 20
150.7774
 11
-193.9367
 21
136.7774
  0
LINE
  8
0
  6
CONTINUOUS
 62
     7
 10
-193.4367
 20
136.2774
 11
-169.9367
 21
136.2774
  0
LINE
  8
0
  6
CONTINUOUS
 62
     7
 10
-169.9367
 20
150.7774
 11
-160.7367
 21
150.7774
  0
LINE
  8
0
  6
CONTINUOUS
 62
     7
 10
-159.9367
 20
149.9774
 11
-159.9367
 21
149.2774
  0
LINE
  8
0
  6
CONTINUOUS
 62
     7
 10
-159.9367
 20
138.2774
 11
-159.9367
 21
137.5774
  0
LINE
  8
0
  6
CONTINUOUS
 62
     7
 10
-169.9367
 20
136.7774
 11
-160.7367
 21
136.7774
  0
LINE
  8
0
  6
CONTINUOUS
 62
     7
 10
-160.8367
 20
138.2774
 11
-149.4367
 21
138.2774
  0
LINE
  8
0
  6
CONTINUOUS
 62
     7
 10
-149.4367
 20
149.2774
 11
-149.4367
 21
138.2774
  0
LINE
  8
0
  6
CONTINUOUS
 62
     7
 10
-160.8367
 20
149.2774
 11
-149.4367
 21
149.2774
  0
LINE
  8
0
  6
CONTINUOUS
 62
     7
 10
-168.4367
 20
147.7774
 11
-149.4367
 21
147.7774
  0
LINE
  8
0
  6
CONTINUOUS
 62
     7
 10
-168.4367
 20
139.7774
 11
-149.4367
 21
139.7774
  0
LINE
  8
0
  6
CONTINUOUS
 62
     7
 10
-149.4367
 20
147.1274
 11
-144.3155
 21
147.1274
  0
LINE
  8
0
  6
CONTINUOUS
 62
     7
 10
-149.4367
 20
145.4274
 11
-144.771
 21
145.4274
  0
LINE
  8
0
  6
CENTER
 62
     2
 10
-152.4367
 20
146.2774
 11
-126.4367
 21
146.2774
  0
LINE
  8
0
  6
CONTINUOUS
 62
     7
 10
-139.4367
 20
146.5974
 11
-129.4367
 21
146.5974
  0
LINE
  8
0
  6
CONTINUOUS
 62
     7
 10
-139.4367
 20
147.1274
 11
-139.4367
 21
145.4274
  0
LINE
  8
0
  6
CONTINUOUS
 62
     7
 10
-129.4367
 20
146.5974
 11
-129.4367
 21
145.9574
  0
LINE
  8
0
  6
CONTINUOUS
 62
     7
 10
-139.4367
 20
145.9574
 11
-129.4367
 21
145.9574
  0
LINE
  8
0
  6
CONTINUOUS
 62
     7
 10
-139.4367
 20
141.5974
 11
-129.4367
 21
141.5974
  0
LINE
  8
0
  6
CONTINUOUS
 62
     7
 10
-129.4367
 20
141.5974
 11
-129.4367
 21
140.9574
  0
LINE
  8
0
  6
CONTINUOUS
 62
     7
 10
-139.4367
 20
140.9574
 11
-129.4367
 21
140.9574
  0
LINE
  8
0
  6
CENTER
 62
     2
 10
-152.4367
 20
141.2774
 11
-126.4367
 21
141.2774
  0
LINE
  8
0
  6
CONTINUOUS
 62
     7
 10
-149.4367
 20
142.1274
 11
-145.6553
 21
142.1274
  0
LINE
  8
0
  6
CONTINUOUS
 62
     7
 10
-139.4367
 20
142.1274
 11
-139.4367
 21
140.4274
  0
LINE
  8
0
  6
CONTINUOUS
 62
     7
 10
-149.4367
 20
140.4274
 11
-146.1107
 21
140.4274
  0
LINE
  8
0
  6
PHANTOM
 62
     2
 10
-146.6467
 20
138.4275
 11
-143.7796
 21
149.1275
  0
LINE
  8
0
  6
PHANTOM
 62
     2
 10
-145.0938
 20
138.4274
 11
-142.2267
 21
149.1274
  0
LINE
  8
0
  6
CONTINUOUS
 62
     7
 10
-142.7626
 20
147.1274
 11
-139.4367
 21
147.1274
  0
LINE
  8
0
  6
CONTINUOUS
 62
     7
 10
-143.2182
 20
145.4274
 11
-139.4367
 21
145.4274
  0
LINE
  8
0
  6
CONTINUOUS
 62
     7
 10
-144.1023
 20
142.1274
 11
-139.4367
 21
142.1274
  0
LINE
  8
0
  6
CONTINUOUS
 62
     7
 10
-144.5579
 20
140.4274
 11
-139.4367
 21
140.4274
  0
LINE
  8
0
  6
CENTER
 62
     2
 10
-181.9368
 20
57.15001
 11
-181.9368
 21
-84.14999
  0
LINE
  8
0
  6
CONTINUOUS
 62
     7
 10
-168.4368
 20
24.8
 11
-168.4368
 21
-51.60001
  0
LINE
  8
0
  6
CONTINUOUS
 62
     7
 10
-195.4368
 20
24.8
 11
-195.4368
 21
-51.60001
  0
LINE
  8
0
  6
CONTINUOUS
 62
     7
 10
-195.4368
 20
-34.39999
 11
-168.4368
 21
-34.39999
  0
LINE
  8
0
  6
CONTINUOUS
 62
     7
 10
-195.4368
 20
7.60001
 11
-168.4368
 21
7.60001
  0
LINE
  8
0
  6
CONTINUOUS
 62
     7
 10
-194.4369
 20
25.8001
 11
-195.4369
 21
24.80012
  0
LINE
  8
0
  6
CONTINUOUS
 62
     7
 10
-169.4369
 20
25.79994
 11
-168.4369
 21
24.79994
  0
LINE
  8
0
  6
CONTINUOUS
 62
     7
 10
-171.4368
 20
-26.74167
 11
-168.4368
 21
-26.74167
  0
LINE
  8
0
  6
CONTINUOUS
 62
     7
 10
-171.4368
 20
-30.05832
 11
-168.4368
 21
-30.05832
  0
LINE
  8
0
  6
CONTINUOUS
 62
     7
 10
-171.4368
 20
-26.74167
 11
-171.4368
 21
-30.05832
  0
LINE
  8
0
  6
CONTINUOUS
 62
     7
 10
-194.4367
 20
25.8
 11
-160.7367
 21
25.8
  0
LINE
  8
0
  6
CONTINUOUS
 62
     7
 10
-195.4368
 20
24.8
 11
-168.4368
 21
24.8
  0
LINE
  8
0
  6
CONTINUOUS
 62
     7
 10
-195.4368
 20
-51.60001
 11
-194.4368
 21
-52.59999
  0
LINE
  8
0
  6
CONTINUOUS
 62
     7
 10
-168.4368
 20
-51.59996
 11
-169.4368
 21
-52.59996
  0
LINE
  8
0
  6
CONTINUOUS
 62
     7
 10
-195.4368
 20
-51.60001
 11
-168.4368
 21
-51.60001
  0
LINE
  8
0
  6
CONTINUOUS
 62
     7
 10
-194.4368
 20
-52.60001
 11
-160.7367
 21
-52.60001
  0
LINE
  8
0
  6
CENTER
 62
     2
 10
-174.4368
 20
4.80864
 11
-174.4368
 21
-1.55508
  0
LINE
  8
0
  6
CENTER
 62
     2
 10
-177.4665
 20
-28.39999
 11
-167.453
 21
-28.39999
  0
LINE
  8
0
  6
CENTER
 62
     2
 10
-177.4665
 20
1.60001
 11
-171.3836
 21
1.60001
  0
LINE
  8
0
  6
CENTER
 62
     2
 10
-174.4368
 20
-25.5126
 11
-174.4368
 21
-31.50198
  0
LINE
  8
0
  6
CONTINUOUS
 62
     7
 10
-193.9368
 20
51.0
 11
-169.9368
 21
51.0
  0
LINE
  8
0
  6
CONTINUOUS
 62
     7
 10
-193.9368
 20
52.0
 11
-193.9368
 21
25.8
  0
LINE
  8
0
  6
CONTINUOUS
 62
     7
 10
-169.9368
 20
52.8
 11
-169.9368
 21
25.8
  0
LINE
  8
0
  6
CONTINUOUS
 62
     7
 10
-159.9368
 20
46.0
 11
-159.9368
 21
26.60001
  0
LINE
  8
0
  6
CONTINUOUS
 62
     7
 10
-169.9368
 20
52.8
 11
-158.9368
 21
52.8
  0
LINE
  8
0
  6
CONTINUOUS
 62
     7
 10
-160.8367
 20
52.8
 11
-160.8367
 21
46.8
  0
LINE
  8
0
  6
CONTINUOUS
 62
     7
 10
-169.9368
 20
46.8
 11
-157.4368
 21
46.8
  0
LINE
  8
0
  6
CONTINUOUS
 62
     7
 10
-192.9368
 20
54.0
 11
-174.7625
 21
54.0
  0
LINE
  8
0
  6
CONTINUOUS
 62
     7
 10
-193.9368
 20
52.0
 11
-169.9368
 21
52.0
  0
LINE
  8
0
  6
CONTINUOUS
 62
     7
 10
-193.9367
 20
52.00004
 11
-192.9368
 21
54.00002
  0
LINE
  8
0
  6
CONTINUOUS
 62
     7
 10
-169.9368
 20
51.99996
 11
-170.9368
 21
53.99998
  0
LINE
  8
0
  6
CONTINUOUS
 62
     7
 10
-175.9368
 20
54.0
 11
-175.9368
 21
52.0
  0
LINE
  8
0
  6
CENTER
 62
     2
 10
-172.9368
 20
57.0
 11
-172.9368
 21
48.0
  0
LINE
  8
0
  6
CONTINUOUS
 62
     7
 10
-170.3867
 20
52.60001
 11
-175.4867
 21
52.60001
  0
LINE
  8
0
  6
CONTINUOUS
 62
     7
 10
-173.2367
 20
52.00002
 11
-173.3974
 21
52.60002
  0
LINE
  8
0
  6
CONTINUOUS
 62
     7
 10
-172.6366
 20
52.60011
 11
-172.4758
 21
52.00011
  0
LINE
  8
0
  6
CONTINUOUS
 62
     7
 10
-170.3867
 20
52.60001
 11
-170.3867
 21
52.0
  0
LINE
  8
0
  6
CONTINUOUS
 62
     7
 10
-175.4867
 20
52.60001
 11
-175.4867
 21
52.0
  0
LINE
  8
0
  6
CONTINUOUS
 62
     7
 10
-170.6867
 20
53.29376
 11
-170.6867
 21
52.60001
  0
LINE
  8
0
  6
CONTINUOUS
 62
     7
 10
-175.1867
 20
53.29375
 11
-175.1867
 21
52.60001
  0
LINE
  8
0
  6
CONTINUOUS
 62
     7
 10
-171.111
 20
54.0
 11
-170.9368
 21
54.0
  0
LINE
  8
0
  6
CENTER
 62
     2
 10
-190.9368
 20
57.0
 11
-190.9368
 21
48.0
  0
LINE
  8
0
  6
CONTINUOUS
 62
     7
 10
-149.4368
 20
54.8
 11
-149.4368
 21
53.8
  0
LINE
  8
0
  6
CONTINUOUS
 62
     7
 10
-150.9368
 20
47.8
 11
-150.9368
 21
46.8
  0
LINE
  8
0
  6
CONTINUOUS
 62
     7
 10
-168.4368
 20
53.3
 11
-168.4368
 21
52.8
  0
LINE
  8
0
  6
CONTINUOUS
 62
     7
 10
-149.4368
 20
46.8
 11
-150.9368
 21
46.8
  0
LINE
  8
0
  6
CONTINUOUS
 62
     7
 10
-150.9368
 20
47.8
 11
-157.4368
 21
47.8
  0
LINE
  8
0
  6
CONTINUOUS
 62
     7
 10
-149.4368
 20
49.20001
 11
-160.8367
 21
49.20001
  0
LINE
  8
0
  6
CONTINUOUS
 62
     7
 10
-149.4368
 20
51.0
 11
-160.8367
 21
51.0
  0
LINE
  8
0
  6
CONTINUOUS
 62
     7
 10
-167.9368
 20
53.8
 11
-157.108
 21
53.8
  0
LINE
  8
0
  6
CONTINUOUS
 62
     7
 10
-149.4368
 20
54.8
 11
-151.4368
 21
54.8
  0
LINE
  8
0
  6
CONTINUOUS
 62
     7
 10
-149.4368
 20
53.8
 11
-150.9368
 21
53.8
  0
LINE
  8
0
  6
CONTINUOUS
 62
     7
 10
-151.4368
 20
54.80001
 11
-157.1081
 21
53.80001
  0
LINE
  8
0
  6
CONTINUOUS
 62
     7
 10
-150.9368
 20
53.80002
 11
-156.6081
 21
52.80002
  0
LINE
  8
0
  6
CONTINUOUS
 62
     7
 10
-160.8367
 20
51.8
 11
-158.9368
 21
51.8
  0
LINE
  8
0
  6
CONTINUOUS
 62
     7
 10
-157.4368
 20
47.8
 11
-157.4368
 21
46.8
  0
LINE
  8
0
  6
CONTINUOUS
 62
     7
 10
-160.8367
 20
52.10001
 11
-160.2367
 21
52.10001
  0
LINE
  8
0
  6
CONTINUOUS
 62
     7
 10
-149.7368
 20
52.10001
 11
-149.4368
 21
51.80002
  0
LINE
  8
0
  6
CONTINUOUS
 62
     7
 10
-155.9368
 20
51.8
 11
-155.6368
 21
52.09999
  0
LINE
  8
0
  6
CONTINUOUS
 62
     7
 10
-160.2368
 20
52.10001
 11
-159.9368
 21
51.80001
  0
LINE
  8
0
  6
CONTINUOUS
 62
     7
 10
-155.6367
 20
52.10001
 11
-149.7367
 21
52.10001
  0
LINE
  8
0
  6
CONTINUOUS
 62
     7
 10
-156.9368
 20
52.8
 11
-156.608
 21
52.8
  0
LINE
  8
0
  6
CONTINUOUS
 62
     7
 10
-156.9368
 20
51.8
 11
-149.4368
 21
51.8
  0
LINE
  8
0
  6
CONTINUOUS
 62
     7
 10
-149.4368
 20
51.8
 11
-149.4368
 21
46.8
  0
LINE
  8
0
  6
CONTINUOUS
 62
     7
 10
-159.6367
 20
49.20001
 11
-159.6367
 21
47.70001
  0
LINE
  8
0
  6
CONTINUOUS
 62
     7
 10
-159.6367
 20
47.70001
 11
-160.8367
 21
47.70001
  0
LINE
  8
0
  6
CENTER
 62
     2
 10
-152.4368
 20
50.3
 11
-126.4368
 21
50.3
  0
LINE
  8
0
  6
CONTINUOUS
 62
     7
 10
-149.4368
 20
49.45001
 11
-145.4409
 21
49.45001
  0
LINE
  8
0
  6
CONTINUOUS
 62
     7
 10
-149.4368
 20
51.15001
 11
-144.9855
 21
51.15001
  0
LINE
  8
0
  6
CONTINUOUS
 62
     7
 10
-139.4368
 20
50.62001
 11
-129.4368
 21
50.62001
  0
LINE
  8
0
  6
CONTINUOUS
 62
     7
 10
-139.4368
 20
49.98001
 11
-129.4368
 21
49.98001
  0
LINE
  8
0
  6
CONTINUOUS
 62
     7
 10
-139.4368
 20
51.15001
 11
-139.4368
 21
49.45001
  0
LINE
  8
0
  6
CONTINUOUS
 62
     7
 10
-129.4368
 20
50.62001
 11
-129.4368
 21
49.98001
  0
LINE
  8
0
  6
PHANTOM
 62
     2
 10
-145.9769
 20
47.45002
 11
-144.4496
 21
53.15001
  0
LINE
  8
0
  6
PHANTOM
 62
     2
 10
-144.4239
 20
47.45003
 11
-142.8966
 21
53.15002
  0
LINE
  8
0
  6
CONTINUOUS
 62
     7
 10
-143.4325
 20
51.15001
 11
-139.4368
 21
51.15001
  0
LINE
  8
0
  6
CONTINUOUS
 62
     7
 10
-143.8881
 20
49.45001
 11
-139.4368
 21
49.45001
  0
LINE
  8
0
  6
CONTINUOUS
 62
     7
 10
-193.9368
 20
-77.79999
 11
-169.9368
 21
-77.79999
  0
LINE
  8
0
  6
CONTINUOUS
 62
     7
 10
-193.9368
 20
-78.79999
 11
-193.9368
 21
-52.60001
  0
LINE
  8
0
  6
CONTINUOUS
 62
     7
 10
-169.9368
 20
-79.59998
 11
-169.9368
 21
-52.60001
  0
LINE
  8
0
  6
CONTINUOUS
 62
     7
 10
-159.9368
 20
-72.79999
 11
-159.9368
 21
-53.39999
  0
LINE
  8
0
  6
CONTINUOUS
 62
     7
 10
-169.9368
 20
-79.59998
 11
-158.9368
 21
-79.59998
  0
LINE
  8
0
  6
CONTINUOUS
 62
     7
 10
-160.8367
 20
-79.59998
 11
-160.8367
 21
-73.59998
  0
LINE
  8
0
  6
CONTINUOUS
 62
     7
 10
-169.9368
 20
-73.59998
 11
-157.4368
 21
-73.59998
  0
LINE
  8
0
  6
CONTINUOUS
 62
     7
 10
-170.9368
 20
-80.79999
 11
-189.111
 21
-80.79999
  0
LINE
  8
0
  6
CONTINUOUS
 62
     7
 10
-193.9368
 20
-78.79999
 11
-169.9368
 21
-78.79999
  0
LINE
  8
0
  6
CONTINUOUS
 62
     7
 10
-169.9368
 20
-78.79991
 11
-170.9368
 21
-80.79993
  0
LINE
  8
0
  6
CONTINUOUS
 62
     7
 10
-193.9369
 20
-78.80002
 11
-192.9369
 21
-80.80003
  0
LINE
  8
0
  6
CONTINUOUS
 62
     7
 10
-187.9368
 20
-80.79999
 11
-187.9368
 21
-78.79999
  0
LINE
  8
0
  6
CENTER
 62
     2
 10
-190.9368
 20
-83.79999
 11
-190.9368
 21
-74.79999
  0
LINE
  8
0
  6
CONTINUOUS
 62
     7
 10
-193.4867
 20
-79.39999
 11
-188.3867
 21
-79.39999
  0
LINE
  8
0
  6
CONTINUOUS
 62
     7
 10
-190.6369
 20
-78.80003
 11
-190.4761
 21
-79.40005
  0
LINE
  8
0
  6
CONTINUOUS
 62
     7
 10
-191.237
 20
-79.40003
 11
-191.3977
 21
-78.80005
  0
LINE
  8
0
  6
CONTINUOUS
 62
     7
 10
-193.4867
 20
-79.39999
 11
-193.4867
 21
-78.79999
  0
LINE
  8
0
  6
CONTINUOUS
 62
     7
 10
-188.3867
 20
-79.39999
 11
-188.3867
 21
-78.79999
  0
LINE
  8
0
  6
CONTINUOUS
 62
     7
 10
-193.1868
 20
-80.09375
 11
-193.1868
 21
-79.39999
  0
LINE
  8
0
  6
CONTINUOUS
 62
     7
 10
-188.6868
 20
-80.09375
 11
-188.6868
 21
-79.39999
  0
LINE
  8
0
  6
CONTINUOUS
 62
     7
 10
-192.7625
 20
-80.79999
 11
-192.9368
 21
-80.79999
  0
LINE
  8
0
  6
CENTER
 62
     2
 10
-172.9368
 20
-83.79999
 11
-172.9368
 21
-74.79999
  0
LINE
  8
0
  6
CONTINUOUS
 62
     7
 10
-149.4368
 20
-81.59998
 11
-149.4368
 21
-80.59998
  0
LINE
  8
0
  6
CONTINUOUS
 62
     7
 10
-150.9368
 20
-74.59998
 11
-150.9368
 21
-73.59998
  0
LINE
  8
0
  6
CONTINUOUS
 62
     7
 10
-168.4368
 20
-80.09998
 11
-168.4368
 21
-79.59998
  0
LINE
  8
0
  6
CONTINUOUS
 62
     7
 10
-149.4368
 20
-73.59998
 11
-150.9368
 21
-73.59998
  0
LINE
  8
0
  6
CONTINUOUS
 62
     7
 10
-150.9368
 20
-74.59998
 11
-157.4368
 21
-74.59998
  0
LINE
  8
0
  6
CONTINUOUS
 62
     7
 10
-149.4368
 20
-76.0
 11
-160.8367
 21
-76.0
  0
LINE
  8
0
  6
CONTINUOUS
 62
     7
 10
-149.4368
 20
-77.79999
 11
-160.8367
 21
-77.79999
  0
LINE
  8
0
  6
CONTINUOUS
 62
     7
 10
-167.9368
 20
-80.59998
 11
-157.108
 21
-80.59998
  0
LINE
  8
0
  6
CONTINUOUS
 62
     7
 10
-149.4368
 20
-81.59998
 11
-151.4368
 21
-81.59998
  0
LINE
  8
0
  6
CONTINUOUS
 62
     7
 10
-149.4368
 20
-80.59998
 11
-150.9368
 21
-80.59998
  0
LINE
  8
0
  6
CONTINUOUS
 62
     7
 10
-151.4367
 20
-81.59999
 11
-157.108
 21
-80.59999
  0
LINE
  8
0
  6
CONTINUOUS
 62
     7
 10
-150.9367
 20
-80.59995
 11
-156.608
 21
-79.59995
  0
LINE
  8
0
  6
CONTINUOUS
 62
     7
 10
-160.8367
 20
-78.59998
 11
-158.9368
 21
-78.59998
  0
LINE
  8
0
  6
CONTINUOUS
 62
     7
 10
-157.4368
 20
-74.59998
 11
-157.4368
 21
-73.59998
  0
LINE
  8
0
  6
CONTINUOUS
 62
     7
 10
-160.8367
 20
-78.89999
 11
-160.2367
 21
-78.89999
  0
LINE
  8
0
  6
CONTINUOUS
 62
     7
 10
-149.737
 20
-78.89975
 11
-149.437
 21
-78.59975
  0
LINE
  8
0
  6
CONTINUOUS
 62
     7
 10
-155.9367
 20
-78.59991
 11
-155.6367
 21
-78.8999
  0
LINE
  8
0
  6
CONTINUOUS
 62
     7
 10
-160.2367
 20
-78.90015
 11
-159.9367
 21
-78.60015
  0
LINE
  8
0
  6
CONTINUOUS
 62
     7
 10
-155.6367
 20
-78.89999
 11
-149.7367
 21
-78.89999
  0
LINE
  8
0
  6
CONTINUOUS
 62
     7
 10
-156.9368
 20
-79.59998
 11
-156.608
 21
-79.59998
  0
LINE
  8
0
  6
CONTINUOUS
 62
     7
 10
-156.9368
 20
-78.59998
 11
-149.4368
 21
-78.59998
  0
LINE
  8
0
  6
CONTINUOUS
 62
     7
 10
-149.4368
 20
-78.59998
 11
-149.4368
 21
-73.59998
  0
LINE
  8
0
  6
CONTINUOUS
 62
     7
 10
-159.6367
 20
-76.0
 11
-159.6367
 21
-74.5
  0
LINE
  8
0
  6
CONTINUOUS
 62
     7
 10
-159.6367
 20
-74.5
 11
-160.8367
 21
-74.5
  0
LINE
  8
0
  6
CENTER
 62
     2
 10
-152.4368
 20
-77.09998
 11
-126.4368
 21
-77.09998
  0
LINE
  8
0
  6
CONTINUOUS
 62
     7
 10
-149.4368
 20
-76.25
 11
-144.9855
 21
-76.25
  0
LINE
  8
0
  6
CONTINUOUS
 62
     7
 10
-149.4368
 20
-77.95001
 11
-145.4409
 21
-77.95001
  0
LINE
  8
0
  6
CONTINUOUS
 62
     7
 10
-139.4368
 20
-77.41998
 11
-129.4368
 21
-77.41998
  0
LINE
  8
0
  6
CONTINUOUS
 62
     7
 10
-139.4368
 20
-76.78
 11
-129.4368
 21
-76.78
  0
LINE
  8
0
  6
CONTINUOUS
 62
     7
 10
-139.4368
 20
-77.95001
 11
-139.4368
 21
-76.25
  0
LINE
  8
0
  6
CONTINUOUS
 62
     7
 10
-129.4368
 20
-77.41998
 11
-129.4368
 21
-76.78
  0
LINE
  8
0
  6
PHANTOM
 62
     2
 10
-145.9768
 20
-79.94999
 11
-144.4495
 21
-74.25
  0
LINE
  8
0
  6
PHANTOM
 62
     2
 10
-144.4237
 20
-79.95
 11
-142.8964
 21
-74.24998
  0
LINE
  8
0
  6
CONTINUOUS
 62
     7
 10
-143.4325
 20
-76.25
 11
-139.4368
 21
-76.25
  0
LINE
  8
0
  6
CONTINUOUS
 62
     7
 10
-143.8881
 20
-77.95001
 11
-139.4368
 21
-77.95001
  0
LINE
  8
0
  6
CONTINUOUS
 62
     7
 10
-316.0613
 20
7.60013
 11
-298.0613
 21
7.60013
  0
LINE
  8
0
  6
CENTER
 62
     2
 10
-307.0613
 20
57.58095
 11
-307.0613
 21
-84.34875
  0
LINE
  8
0
  6
CONTINUOUS
 62
     7
 10
-298.0613
 20
24.80013
 11
-298.0613
 21
-51.59988
  0
LINE
  8
0
  6
CONTINUOUS
 62
     7
 10
-316.0613
 20
24.80013
 11
-316.0613
 21
-51.59988
  0
LINE
  8
0
  6
CONTINUOUS
 62
     7
 10
-316.0613
 20
-34.39987
 11
-298.0613
 21
-34.39987
  0
LINE
  8
0
  6
CONTINUOUS
 62
     7
 10
-315.0612
 20
25.80009
 11
-316.0613
 21
24.80006
  0
LINE
  8
0
  6
CONTINUOUS
 62
     7
 10
-299.0613
 20
25.80011
 11
-298.0613
 21
24.80013
  0
LINE
  8
0
  6
CENTER
 62
     2
 10
-313.4094
 20
-26.59988
 11
-301.1439
 21
-26.59988
  0
LINE
  8
0
  6
CENTER
 62
     2
 10
-313.27
 20
-13.39987
 11
-300.7258
 21
-13.39987
  0
LINE
  8
0
  6
CENTER
 62
     2
 10
-312.7822
 20
-0.19986
 11
-300.7258
 21
-0.19986
  0
LINE
  8
0
  6
CENTER
 62
     2
 10
-313.5613
 20
4.35161
 11
-313.5613
 21
-0.81412
  0
LINE
  8
0
  6
CENTER
 62
     2
 10
-300.5613
 20
-25.68158
 11
-300.5613
 21
-31.2077
  0
LINE
  8
0
  6
CENTER
 62
     2
 10
-303.1368
 20
-28.39987
 11
-298.0613
 21
-28.39987
  0
LINE
  8
0
  6
CENTER
 62
     2
 10
-316.0613
 20
1.60013
 11
-311.0656
 21
1.60013
  0
LINE
  8
0
  6
CENTER
 62
     2
 10
-310.8253
 20
17.50012
 11
-303.257
 21
17.50012
  0
LINE
  8
0
  6
CONTINUOUS
 62
     7
 10
-315.0613
 20
25.80013
 11
-299.0613
 21
25.80013
  0
LINE
  8
0
  6
CONTINUOUS
 62
     7
 10
-316.0613
 20
24.80013
 11
-298.0613
 21
24.80013
  0
LINE
  8
0
  6
CONTINUOUS
 62
     7
 10
-308.4755
 20
16.08585
 11
-305.647
 21
18.91428
  0
LINE
  8
0
  6
CONTINUOUS
 62
     7
 10
-308.4756
 20
18.91435
 11
-305.6471
 21
16.08592
  0
LINE
  8
0
  6
CONTINUOUS
 62
     7
 10
-308.9931
 20
18.01781
 11
-306.5436
 21
15.56831
  0
LINE
  8
0
  6
CONTINUOUS
 62
     7
 10
-307.5789
 20
19.432
 11
-305.1294
 21
16.98251
  0
LINE
  8
0
  6
CONTINUOUS
 62
     7
 10
-308.9932
 20
16.98246
 11
-306.5437
 21
19.43195
  0
LINE
  8
0
  6
CONTINUOUS
 62
     7
 10
-307.579
 20
15.56826
 11
-305.1295
 21
18.01776
  0
LINE
  8
0
  6
CONTINUOUS
 62
     7
 10
-316.0613
 20
-51.59986
 11
-315.0613
 21
-52.59986
  0
LINE
  8
0
  6
CONTINUOUS
 62
     7
 10
-298.0612
 20
-51.59986
 11
-299.0612
 21
-52.59988
  0
LINE
  8
0
  6
CONTINUOUS
 62
     7
 10
-316.0613
 20
-51.59988
 11
-298.0613
 21
-51.59988
  0
LINE
  8
0
  6
CONTINUOUS
 62
     7
 10
-299.0612
 20
-52.59988
 11
-315.0612
 21
-52.59988
  0
LINE
  8
0
  6
CENTER
 62
     2
 10
-302.8947
 20
-44.29987
 11
-311.228
 21
-44.29987
  0
LINE
  8
0
  6
CONTINUOUS
 62
     7
 10
-308.4754
 20
-45.71412
 11
-305.647
 21
-42.88568
  0
LINE
  8
0
  6
CONTINUOUS
 62
     7
 10
-308.4755
 20
-42.88565
 11
-305.6471
 21
-45.71407
  0
LINE
  8
0
  6
CONTINUOUS
 62
     7
 10
-307.5789
 20
-42.36805
 11
-305.1295
 21
-44.81755
  0
LINE
  8
0
  6
CONTINUOUS
 62
     7
 10
-308.9932
 20
-43.78226
 11
-306.5437
 21
-46.23176
  0
LINE
  8
0
  6
CONTINUOUS
 62
     7
 10
-308.9931
 20
-44.81757
 11
-306.5436
 21
-42.36808
  0
LINE
  8
0
  6
CONTINUOUS
 62
     7
 10
-307.5789
 20
-46.23179
 11
-305.1294
 21
-43.78229
  0
LINE
  8
0
  6
CENTER
 62
     2
 10
-307.5613
 20
-20.39987
 11
-307.5613
 21
-32.56448
  0
LINE
  8
0
  6
CENTER
 62
     2
 10
-306.5613
 20
5.62314
 11
-306.5613
 21
-6.23349
  0
LINE
  8
0
  6
CONTINUOUS
 62
     7
 10
-314.5613
 20
52.00012
 11
-314.5613
 21
25.80013
  0
LINE
  8
0
  6
CONTINUOUS
 62
     7
 10
-314.5613
 20
51.00012
 11
-299.5613
 21
51.00012
  0
LINE
  8
0
  6
CONTINUOUS
 62
     7
 10
-299.5613
 20
52.00012
 11
-299.5613
 21
25.80013
  0
LINE
  8
0
  6
CONTINUOUS
 62
     7
 10
-314.5613
 20
52.00012
 11
-299.5613
 21
52.00012
  0
LINE
  8
0
  6
CONTINUOUS
 62
     7
 10
-313.5613
 20
54.00012
 11
-313.387
 21
54.00012
  0
LINE
  8
0
  6
CONTINUOUS
 62
     7
 10
-299.5612
 20
52.00011
 11
-300.5612
 21
54.00009
  0
LINE
  8
0
  6
CONTINUOUS
 62
     7
 10
-314.5612
 20
52.00015
 11
-313.5612
 21
54.00014
  0
LINE
  8
0
  6
CONTINUOUS
 62
     7
 10
-308.5613
 20
54.00012
 11
-308.5613
 21
52.00012
  0
LINE
  8
0
  6
CENTER
 62
     2
 10
-311.5613
 20
57.00012
 11
-311.5613
 21
49.00012
  0
LINE
  8
0
  6
CONTINUOUS
 62
     7
 10
-309.0113
 20
52.60011
 11
-314.1113
 21
52.60011
  0
LINE
  8
0
  6
CONTINUOUS
 62
     7
 10
-309.0113
 20
52.60011
 11
-309.0113
 21
52.00012
  0
LINE
  8
0
  6
CONTINUOUS
 62
     7
 10
-314.1113
 20
52.60011
 11
-314.1113
 21
52.00012
  0
LINE
  8
0
  6
CONTINUOUS
 62
     7
 10
-309.3113
 20
53.29385
 11
-309.3113
 21
52.60011
  0
LINE
  8
0
  6
CONTINUOUS
 62
     7
 10
-313.8113
 20
53.29385
 11
-313.8113
 21
52.60011
  0
LINE
  8
0
  6
CONTINUOUS
 62
     7
 10
-309.7355
 20
54.00012
 11
-300.5613
 21
54.00012
  0
LINE
  8
0
  6
CENTER
 62
     2
 10
-302.5613
 20
57.00012
 11
-302.5613
 21
49.00012
  0
LINE
  8
0
  6
CONTINUOUS
 62
     7
 10
-311.0613
 20
54.80013
 11
-303.0613
 21
54.80013
  0
LINE
  8
0
  6
CONTINUOUS
 62
     7
 10
-311.0613
 20
54.80013
 11
-311.0613
 21
54.27924
  0
LINE
  8
0
  6
CONTINUOUS
 62
     7
 10
-303.0613
 20
54.80013
 11
-303.0613
 21
54.27924
  0
LINE
  8
0
  6
CONTINUOUS
 62
     7
 10
-313.5613
 20
48.00012
 11
-300.5613
 21
48.00012
  0
LINE
  8
0
  6
CONTINUOUS
 62
     7
 10
-313.5613
 20
44.00012
 11
-300.5613
 21
44.00012
  0
LINE
  8
0
  6
CONTINUOUS
 62
     7
 10
-300.5613
 20
48.00012
 11
-300.5613
 21
44.00012
  0
LINE
  8
0
  6
CONTINUOUS
 62
     7
 10
-313.5613
 20
48.00012
 11
-313.5613
 21
44.00012
  0
LINE
  8
0
  6
CONTINUOUS
 62
     7
 10
-312.8492
 20
47.1069
 11
-310.5075
 21
47.1069
  0
LINE
  8
0
  6
CONTINUOUS
 62
     7
 10
-312.8492
 20
45.03032
 11
-310.861
 21
45.03032
  0
LINE
  8
0
  6
CONTINUOUS
 62
     7
 10
-312.8492
 20
44.50012
 11
-310.1541
 21
44.50012
  0
LINE
  8
0
  6
CONTINUOUS
 62
     7
 10
-312.8492
 20
46.57672
 11
-310.861
 21
46.57672
  0
LINE
  8
0
  6
CONTINUOUS
 62
     7
 10
-312.8492
 20
47.1069
 11
-312.8492
 21
46.57672
  0
LINE
  8
0
  6
CONTINUOUS
 62
     7
 10
-310.1541
 20
46.75345
 11
-310.1541
 21
44.50012
  0
LINE
  8
0
  6
CONTINUOUS
 62
     7
 10
-310.861
 20
46.57672
 11
-310.861
 21
45.03032
  0
LINE
  8
0
  6
CONTINUOUS
 62
     7
 10
-309.7564
 20
47.1069
 11
-309.7564
 21
46.57672
  0
LINE
  8
0
  6
CONTINUOUS
 62
     7
 10
-307.238
 20
46.57672
 11
-307.238
 21
44.85358
  0
LINE
  8
0
  6
CONTINUOUS
 62
     7
 10
-307.9449
 20
46.57672
 11
-307.9449
 21
45.03032
  0
LINE
  8
0
  6
CONTINUOUS
 62
     7
 10
-312.8492
 20
45.03032
 11
-312.8492
 21
44.50012
  0
LINE
  8
0
  6
CONTINUOUS
 62
     7
 10
-309.7564
 20
47.1069
 11
-309.0579
 21
47.1069
  0
LINE
  8
0
  6
CONTINUOUS
 62
     7
 10
-309.7564
 20
44.50012
 11
-309.2075
 21
44.50012
  0
LINE
  8
0
  6
CONTINUOUS
 62
     7
 10
-309.7565
 20
44.50015
 11
-309.2001
 21
46.57677
  0
LINE
  8
0
  6
CONTINUOUS
 62
     7
 10
-309.7564
 20
46.57672
 11
-309.2
 21
46.57672
  0
LINE
  8
0
  6
CONTINUOUS
 62
     7
 10
-309.2075
 20
44.50007
 11
-308.6511
 21
46.57666
  0
LINE
  8
0
  6
CONTINUOUS
 62
     7
 10
-308.4752
 20
45.03032
 11
-307.9449
 21
45.03032
  0
LINE
  8
0
  6
CONTINUOUS
 62
     7
 10
-308.475
 20
45.03035
 11
-308.333
 21
44.50016
  0
LINE
  8
0
  6
CONTINUOUS
 62
     7
 10
-308.3331
 20
44.50012
 11
-307.5915
 21
44.50012
  0
LINE
  8
0
  6
CONTINUOUS
 62
     7
 10
-308.6511
 20
46.57672
 11
-307.9449
 21
46.57672
  0
LINE
  8
0
  6
CONTINUOUS
 62
     7
 10
-308.509
 20
47.1069
 11
-307.7682
 21
47.1069
  0
LINE
  8
0
  6
CONTINUOUS
 62
     7
 10
-309.0579
 20
47.10695
 11
-308.9525
 21
47.50015
  0
LINE
  8
0
  6
CONTINUOUS
 62
     7
 10
-308.5091
 20
47.1069
 11
-308.4037
 21
47.50014
  0
LINE
  8
0
  6
CONTINUOUS
 62
     7
 10
-306.7962
 20
47.1069
 11
-305.9567
 21
47.1069
  0
LINE
  8
0
  6
CONTINUOUS
 62
     7
 10
-306.7962
 20
46.57672
 11
-304.7345
 21
46.57672
  0
LINE
  8
0
  6
CONTINUOUS
 62
     7
 10
-305.9567
 20
44.50012
 11
-305.2498
 21
44.50012
  0
LINE
  8
0
  6
CONTINUOUS
 62
     7
 10
-306.7962
 20
47.1069
 11
-306.7962
 21
46.57672
  0
LINE
  8
0
  6
CONTINUOUS
 62
     7
 10
-304.1894
 20
45.61533
 11
-304.1894
 21
45.03032
  0
LINE
  8
0
  6
CONTINUOUS
 62
     7
 10
-306.7962
 20
45.03037
 11
-305.9567
 21
45.42183
  0
LINE
  8
0
  6
CONTINUOUS
 62
     7
 10
-306.7962
 20
45.61528
 11
-304.7345
 21
46.57668
  0
LINE
  8
0
  6
CONTINUOUS
 62
     7
 10
-306.7962
 20
45.61533
 11
-306.7962
 21
45.03032
  0
LINE
  8
0
  6
CONTINUOUS
 62
     7
 10
-305.2498
 20
45.52481
 11
-304.1894
 21
45.03033
  0
LINE
  8
0
  6
CONTINUOUS
 62
     7
 10
-304.8654
 20
45.93057
 11
-304.1893
 21
45.61528
  0
LINE
  8
0
  6
CONTINUOUS
 62
     7
 10
-304.1894
 20
46.75345
 11
-304.1894
 21
46.47105
  0
LINE
  8
0
  6
CONTINUOUS
 62
     7
 10
-305.9567
 20
47.50012
 11
-305.9567
 21
47.1069
  0
LINE
  8
0
  6
CONTINUOUS
 62
     7
 10
-305.2498
 20
47.50012
 11
-305.2498
 21
47.1069
  0
LINE
  8
0
  6
CONTINUOUS
 62
     7
 10
-305.2498
 20
47.1069
 11
-304.5428
 21
47.1069
  0
LINE
  8
0
  6
CONTINUOUS
 62
     7
 10
-305.9567
 20
45.42177
 11
-305.9567
 21
44.50012
  0
LINE
  8
0
  6
CONTINUOUS
 62
     7
 10
-305.2498
 20
45.52478
 11
-305.2498
 21
44.50012
  0
LINE
  8
0
  6
CONTINUOUS
 62
     7
 10
-304.8655
 20
45.93052
 11
-304.3934
 21
46.15065
  0
LINE
  8
0
  6
CONTINUOUS
 62
     7
 10
-301.8035
 20
47.34106
 11
-301.2734
 21
47.34106
  0
LINE
  8
0
  6
CONTINUOUS
 62
     7
 10
-303.9685
 20
46.24588
 11
-303.9685
 21
45.67529
  0
LINE
  8
0
  6
CONTINUOUS
 62
     7
 10
-301.2734
 20
47.34106
 11
-301.2734
 21
47.1069
  0
LINE
  8
0
  6
CONTINUOUS
 62
     7
 10
-301.8035
 20
47.34106
 11
-301.8035
 21
47.22681
  0
LINE
  8
0
  6
CONTINUOUS
 62
     7
 10
-302.5104
 20
46.25516
 11
-302.5104
 21
44.50012
  0
LINE
  8
0
  6
CONTINUOUS
 62
     7
 10
-303.9685
 20
46.24584
 11
-301.9149
 21
47.06255
  0
LINE
  8
0
  6
CONTINUOUS
 62
     7
 10
-303.9685
 20
45.67524
 11
-302.5105
 21
46.25512
  0
LINE
  8
0
  6
CONTINUOUS
 62
     7
 10
-302.5104
 20
44.50012
 11
-301.8035
 21
44.50012
  0
LINE
  8
0
  6
CONTINUOUS
 62
     7
 10
-301.8035
 20
46.53632
 11
-301.8035
 21
44.50012
  0
LINE
  8
0
  6
CONTINUOUS
 62
     7
 10
-301.8035
 20
46.53632
 11
-301.6075
 21
46.61425
  0
LINE
  8
0
  6
CONTINUOUS
 62
     7
 10
-308.9526
 20
47.50012
 11
-308.4037
 21
47.50012
  0
LINE
  8
0
  6
CONTINUOUS
 62
     7
 10
-307.5252
 20
47.50012
 11
-307.2992
 21
47.50012
  0
LINE
  8
0
  6
CONTINUOUS
 62
     7
 10
-305.9567
 20
47.50012
 11
-305.2498
 21
47.50012
  0
LINE
  8
0
  6
CONTINUOUS
 62
     7
 10
-307.5252
 20
47.14667
 11
-307.2992
 21
47.14667
  0
LINE
  8
0
  6
CONTINUOUS
 62
     7
 10
-307.5252
 20
47.50012
 11
-307.5252
 21
47.14667
  0
LINE
  8
0
  6
CONTINUOUS
 62
     7
 10
-307.2992
 20
47.50012
 11
-307.2992
 21
47.14667
  0
LINE
  8
0
  6
CONTINUOUS
 62
     7
 10
-307.1415
 20
47.50012
 11
-307.1415
 21
47.14667
  0
LINE
  8
0
  6
CONTINUOUS
 62
     7
 10
-306.9155
 20
47.50012
 11
-306.9155
 21
47.14667
  0
LINE
  8
0
  6
CONTINUOUS
 62
     7
 10
-307.1415
 20
47.50012
 11
-306.9155
 21
47.50012
  0
LINE
  8
0
  6
CONTINUOUS
 62
     7
 10
-307.1415
 20
47.14667
 11
-306.9155
 21
47.14667
  0
LINE
  8
0
  6
CONTINUOUS
 62
     7
 10
-299.5613
 20
-78.79987
 11
-299.5613
 21
-52.59988
  0
LINE
  8
0
  6
CONTINUOUS
 62
     7
 10
-299.5613
 20
-77.79987
 11
-314.5613
 21
-77.79987
  0
LINE
  8
0
  6
CONTINUOUS
 62
     7
 10
-314.5613
 20
-78.79987
 11
-314.5613
 21
-52.59988
  0
LINE
  8
0
  6
CONTINUOUS
 62
     7
 10
-299.5613
 20
-78.79987
 11
-314.5613
 21
-78.79987
  0
LINE
  8
0
  6
CONTINUOUS
 62
     7
 10
-300.5613
 20
-80.79987
 11
-300.7355
 21
-80.79987
  0
LINE
  8
0
  6
CONTINUOUS
 62
     7
 10
-314.5612
 20
-78.79989
 11
-313.5612
 21
-80.7999
  0
LINE
  8
0
  6
CONTINUOUS
 62
     7
 10
-299.5614
 20
-78.79984
 11
-300.5614
 21
-80.79986
  0
LINE
  8
0
  6
CONTINUOUS
 62
     7
 10
-305.5613
 20
-80.79987
 11
-305.5613
 21
-78.79987
  0
LINE
  8
0
  6
CENTER
 62
     2
 10
-302.5613
 20
-83.79987
 11
-302.5613
 21
-75.79987
  0
LINE
  8
0
  6
CONTINUOUS
 62
     7
 10
-305.1113
 20
-79.39984
 11
-300.0113
 21
-79.39984
  0
LINE
  8
0
  6
CONTINUOUS
 62
     7
 10
-305.1113
 20
-79.39984
 11
-305.1113
 21
-78.79987
  0
LINE
  8
0
  6
CONTINUOUS
 62
     7
 10
-300.0113
 20
-79.39984
 11
-300.0113
 21
-78.79987
  0
LINE
  8
0
  6
CONTINUOUS
 62
     7
 10
-304.8113
 20
-80.09363
 11
-304.8113
 21
-79.39987
  0
LINE
  8
0
  6
CONTINUOUS
 62
     7
 10
-300.3113
 20
-80.0936
 11
-300.3113
 21
-79.39987
  0
LINE
  8
0
  6
CONTINUOUS
 62
     7
 10
-304.387
 20
-80.79987
 11
-313.5613
 21
-80.79987
  0
LINE
  8
0
  6
CENTER
 62
     2
 10
-311.5613
 20
-83.79987
 11
-311.5613
 21
-75.79987
  0
LINE
  8
0
  6
CONTINUOUS
 62
     7
 10
-303.0613
 20
-81.59985
 11
-311.0613
 21
-81.59985
  0
LINE
  8
0
  6
CONTINUOUS
 62
     7
 10
-303.0613
 20
-81.59985
 11
-303.0613
 21
-81.07898
  0
LINE
  8
0
  6
CONTINUOUS
 62
     7
 10
-311.0613
 20
-81.59985
 11
-311.0613
 21
-81.07898
  0
LINE
  8
0
  6
CONTINUOUS
 62
     7
 10
-300.5613
 20
-74.79987
 11
-313.5613
 21
-74.79987
  0
LINE
  8
0
  6
CONTINUOUS
 62
     7
 10
-300.5613
 20
-70.79987
 11
-313.5613
 21
-70.79987
  0
LINE
  8
0
  6
CONTINUOUS
 62
     7
 10
-313.5613
 20
-74.79987
 11
-313.5613
 21
-70.79987
  0
LINE
  8
0
  6
CONTINUOUS
 62
     7
 10
-300.5613
 20
-74.79987
 11
-300.5613
 21
-70.79987
  0
LINE
  8
0
  6
CONTINUOUS
 62
     7
 10
-301.2734
 20
-73.90665
 11
-303.6151
 21
-73.90665
  0
LINE
  8
0
  6
CONTINUOUS
 62
     7
 10
-301.2734
 20
-71.83008
 11
-303.2616
 21
-71.83008
  0
LINE
  8
0
  6
CONTINUOUS
 62
     7
 10
-301.2734
 20
-71.29987
 11
-303.9685
 21
-71.29987
  0
LINE
  8
0
  6
CONTINUOUS
 62
     7
 10
-301.2734
 20
-73.37646
 11
-303.2616
 21
-73.37646
  0
LINE
  8
0
  6
CONTINUOUS
 62
     7
 10
-301.2734
 20
-73.90665
 11
-301.2734
 21
-73.37646
  0
LINE
  8
0
  6
CONTINUOUS
 62
     7
 10
-303.9685
 20
-73.55319
 11
-303.9685
 21
-71.29987
  0
LINE
  8
0
  6
CONTINUOUS
 62
     7
 10
-303.2616
 20
-73.37646
 11
-303.2616
 21
-71.83008
  0
LINE
  8
0
  6
CONTINUOUS
 62
     7
 10
-304.3661
 20
-73.90665
 11
-304.3661
 21
-73.37646
  0
LINE
  8
0
  6
CONTINUOUS
 62
     7
 10
-306.8845
 20
-73.37646
 11
-306.8845
 21
-71.65332
  0
LINE
  8
0
  6
CONTINUOUS
 62
     7
 10
-306.1776
 20
-73.37646
 11
-306.1776
 21
-71.83008
  0
LINE
  8
0
  6
CONTINUOUS
 62
     7
 10
-301.2734
 20
-71.83008
 11
-301.2734
 21
-71.29987
  0
LINE
  8
0
  6
CONTINUOUS
 62
     7
 10
-304.3661
 20
-73.90665
 11
-305.0646
 21
-73.90665
  0
LINE
  8
0
  6
CONTINUOUS
 62
     7
 10
-304.3661
 20
-71.29987
 11
-304.915
 21
-71.29987
  0
LINE
  8
0
  6
CONTINUOUS
 62
     7
 10
-304.3662
 20
-71.29987
 11
-304.9227
 21
-73.37645
  0
LINE
  8
0
  6
CONTINUOUS
 62
     7
 10
-304.3661
 20
-73.37646
 11
-304.9225
 21
-73.37646
  0
LINE
  8
0
  6
CONTINUOUS
 62
     7
 10
-304.915
 20
-71.29984
 11
-305.4715
 21
-73.37643
  0
LINE
  8
0
  6
CONTINUOUS
 62
     7
 10
-305.6474
 20
-71.83008
 11
-306.1776
 21
-71.83008
  0
LINE
  8
0
  6
CONTINUOUS
 62
     7
 10
-305.6474
 20
-71.83006
 11
-305.7895
 21
-71.29987
  0
LINE
  8
0
  6
CONTINUOUS
 62
     7
 10
-305.7895
 20
-71.29987
 11
-306.5311
 21
-71.29987
  0
LINE
  8
0
  6
CONTINUOUS
 62
     7
 10
-305.4714
 20
-73.37646
 11
-306.1776
 21
-73.37646
  0
LINE
  8
0
  6
CONTINUOUS
 62
     7
 10
-305.6135
 20
-73.90665
 11
-306.3544
 21
-73.90665
  0
LINE
  8
0
  6
CONTINUOUS
 62
     7
 10
-305.0647
 20
-73.90659
 11
-305.17
 21
-74.29983
  0
LINE
  8
0
  6
CONTINUOUS
 62
     7
 10
-305.6136
 20
-73.90665
 11
-305.7189
 21
-74.29988
  0
LINE
  8
0
  6
CONTINUOUS
 62
     7
 10
-307.3264
 20
-73.90665
 11
-308.1658
 21
-73.90665
  0
LINE
  8
0
  6
CONTINUOUS
 62
     7
 10
-307.3264
 20
-73.37646
 11
-309.3881
 21
-73.37646
  0
LINE
  8
0
  6
CONTINUOUS
 62
     7
 10
-308.1658
 20
-71.29987
 11
-308.8727
 21
-71.29987
  0
LINE
  8
0
  6
CONTINUOUS
 62
     7
 10
-307.3264
 20
-73.90665
 11
-307.3264
 21
-73.37646
  0
LINE
  8
0
  6
CONTINUOUS
 62
     7
 10
-309.9332
 20
-72.41507
 11
-309.9332
 21
-71.83008
  0
LINE
  8
0
  6
CONTINUOUS
 62
     7
 10
-307.3263
 20
-71.82993
 11
-308.1658
 21
-72.2214
  0
LINE
  8
0
  6
CONTINUOUS
 62
     7
 10
-307.3264
 20
-72.41502
 11
-309.3881
 21
-73.37641
  0
LINE
  8
0
  6
CONTINUOUS
 62
     7
 10
-307.3264
 20
-72.41507
 11
-307.3264
 21
-71.83008
  0
LINE
  8
0
  6
CONTINUOUS
 62
     7
 10
-308.8727
 20
-72.3245
 11
-309.9331
 21
-71.83006
  0
LINE
  8
0
  6
CONTINUOUS
 62
     7
 10
-309.2571
 20
-72.73038
 11
-309.9332
 21
-72.41509
  0
LINE
  8
0
  6
CONTINUOUS
 62
     7
 10
-309.9332
 20
-73.55319
 11
-309.9332
 21
-73.27081
  0
LINE
  8
0
  6
CONTINUOUS
 62
     7
 10
-308.1658
 20
-74.29987
 11
-308.1658
 21
-73.90665
  0
LINE
  8
0
  6
CONTINUOUS
 62
     7
 10
-308.8727
 20
-74.29987
 11
-308.8727
 21
-73.90665
  0
LINE
  8
0
  6
CONTINUOUS
 62
     7
 10
-308.8727
 20
-73.90665
 11
-309.5797
 21
-73.90665
  0
LINE
  8
0
  6
CONTINUOUS
 62
     7
 10
-308.1658
 20
-72.2215
 11
-308.1658
 21
-71.29987
  0
LINE
  8
0
  6
CONTINUOUS
 62
     7
 10
-308.8727
 20
-72.32452
 11
-308.8727
 21
-71.29987
  0
LINE
  8
0
  6
CONTINUOUS
 62
     7
 10
-309.2572
 20
-72.73027
 11
-309.7292
 21
-72.95038
  0
LINE
  8
0
  6
CONTINUOUS
 62
     7
 10
-312.319
 20
-74.14081
 11
-312.8492
 21
-74.14081
  0
LINE
  8
0
  6
CONTINUOUS
 62
     7
 10
-310.1541
 20
-73.04562
 11
-310.1541
 21
-72.47504
  0
LINE
  8
0
  6
CONTINUOUS
 62
     7
 10
-312.8492
 20
-74.14081
 11
-312.8492
 21
-73.90665
  0
LINE
  8
0
  6
CONTINUOUS
 62
     7
 10
-312.319
 20
-74.14081
 11
-312.319
 21
-74.02655
  0
LINE
  8
0
  6
CONTINUOUS
 62
     7
 10
-311.6121
 20
-73.0549
 11
-311.6121
 21
-71.29987
  0
LINE
  8
0
  6
CONTINUOUS
 62
     7
 10
-310.1541
 20
-73.04557
 11
-312.2077
 21
-73.8623
  0
LINE
  8
0
  6
CONTINUOUS
 62
     7
 10
-310.1541
 20
-72.47511
 11
-311.6121
 21
-73.05499
  0
LINE
  8
0
  6
CONTINUOUS
 62
     7
 10
-311.6121
 20
-71.29987
 11
-312.319
 21
-71.29987
  0
LINE
  8
0
  6
CONTINUOUS
 62
     7
 10
-312.319
 20
-73.33606
 11
-312.319
 21
-71.29987
  0
LINE
  8
0
  6
CONTINUOUS
 62
     7
 10
-312.3192
 20
-73.33588
 11
-312.5151
 21
-73.4138
  0
LINE
  8
0
  6
CONTINUOUS
 62
     7
 10
-305.17
 20
-74.29987
 11
-305.7189
 21
-74.29987
  0
LINE
  8
0
  6
CONTINUOUS
 62
     7
 10
-306.5974
 20
-74.29987
 11
-306.8234
 21
-74.29987
  0
LINE
  8
0
  6
CONTINUOUS
 62
     7
 10
-308.1658
 20
-74.29987
 11
-308.8727
 21
-74.29987
  0
LINE
  8
0
  6
CONTINUOUS
 62
     7
 10
-306.5974
 20
-73.94641
 11
-306.8234
 21
-73.94641
  0
LINE
  8
0
  6
CONTINUOUS
 62
     7
 10
-306.5974
 20
-74.29987
 11
-306.5974
 21
-73.94641
  0
LINE
  8
0
  6
CONTINUOUS
 62
     7
 10
-306.8234
 20
-74.29987
 11
-306.8234
 21
-73.94641
  0
LINE
  8
0
  6
CONTINUOUS
 62
     7
 10
-306.9811
 20
-74.29987
 11
-306.9811
 21
-73.94641
  0
LINE
  8
0
  6
CONTINUOUS
 62
     7
 10
-307.2071
 20
-74.29987
 11
-307.2071
 21
-73.94641
  0
LINE
  8
0
  6
CONTINUOUS
 62
     7
 10
-306.9811
 20
-74.29987
 11
-307.2071
 21
-74.29987
  0
LINE
  8
0
  6
CONTINUOUS
 62
     7
 10
-306.9811
 20
-73.94641
 11
-307.2071
 21
-73.94641
  0
LINE
  8
0
  6
CENTER
 62
     2
 10
-42.81215
 20
57.42509
 11
-42.81215
 21
-84.3999
  0
LINE
  8
0
  6
CONTINUOUS
 62
     7
 10
-33.81215
 20
24.80011
 11
-33.81215
 21
-51.59988
  0
LINE
  8
0
  6
CONTINUOUS
 62
     7
 10
-51.81215
 20
24.80011
 11
-51.81215
 21
-51.59988
  0
LINE
  8
0
  6
CONTINUOUS
 62
     7
 10
-51.81215
 20
7.60011
 11
-33.81215
 21
7.60011
  0
LINE
  8
0
  6
CONTINUOUS
 62
     7
 10
-51.81215
 20
-34.3999
 11
-33.81215
 21
-34.3999
  0
LINE
  8
0
  6
CONTINUOUS
 62
     7
 10
-50.81223
 20
25.80014
 11
-51.81226
 21
24.80012
  0
LINE
  8
0
  6
CONTINUOUS
 62
     7
 10
-34.81213
 20
25.80002
 11
-33.81216
 21
24.80004
  0
LINE
  8
0
  6
CENTER
 62
     2
 10
-48.89571
 20
-21.3999
 11
-36.73439
 21
-21.3999
  0
LINE
  8
0
  6
CENTER
 62
     2
 10
-48.45961
 20
-5.3999
 11
-36.83131
 21
-5.3999
  0
LINE
  8
0
  6
CENTER
 62
     2
 10
-36.31215
 20
6.19141
 11
-36.31215
 21
-2.81656
  0
LINE
  8
0
  6
CENTER
 62
     2
 10
-49.31215
 20
-24.28714
 11
-49.31215
 21
-32.69177
  0
LINE
  8
0
  6
CENTER
 62
     2
 10
-52.22438
 20
-28.3999
 11
-45.15382
 21
-28.3999
  0
LINE
  8
0
  6
CENTER
 62
     2
 10
-40.65877
 20
1.60011
 11
-33.2278
 21
1.60011
  0
LINE
  8
0
  6
CENTER
 62
     2
 10
-45.7339
 20
22.30011
 11
-39.90248
 21
22.30011
  0
LINE
  8
0
  6
CONTINUOUS
 62
     7
 10
-50.81215
 20
25.80011
 11
-34.81215
 21
25.80011
  0
LINE
  8
0
  6
CONTINUOUS
 62
     7
 10
-51.81215
 20
24.80011
 11
-33.81215
 21
24.80011
  0
LINE
  8
0
  6
CONTINUOUS
 62
     7
 10
-51.81218
 20
-51.59983
 11
-50.81211
 21
-52.59989
  0
LINE
  8
0
  6
CONTINUOUS
 62
     7
 10
-33.81221
 20
-51.59993
 11
-34.81219
 21
-52.59991
  0
LINE
  8
0
  6
CONTINUOUS
 62
     7
 10
-51.81215
 20
-51.59988
 11
-33.81215
 21
-51.59988
  0
LINE
  8
0
  6
CONTINUOUS
 62
     7
 10
-34.81215
 20
-52.59988
 11
-50.81215
 21
-52.59988
  0
LINE
  8
0
  6
CENTER
 62
     2
 10
-39.31215
 20
-49.09988
 11
-45.64552
 21
-49.09988
  0
LINE
  8
0
  6
CENTER
 62
     2
 10
-42.31215
 20
0.93198
 11
-42.31215
 21
-11.54257
  0
LINE
  8
0
  6
CENTER
 62
     2
 10
-43.31215
 20
-15.0968
 11
-43.31215
 21
-27.43198
  0
LINE
  8
0
  6
CENTER
 62
     2
 10
-53.56837
 20
-13.3999
 11
-32.25642
 21
-13.3999
  0
LINE
  8
0
  6
CONTINUOUS
 62
     7
 10
-50.31215
 20
52.00012
 11
-50.31215
 21
25.80011
  0
LINE
  8
0
  6
CONTINUOUS
 62
     7
 10
-35.31215
 20
52.00012
 11
-35.31215
 21
25.80011
  0
LINE
  8
0
  6
CONTINUOUS
 62
     7
 10
-50.31215
 20
51.00012
 11
-49.81215
 21
51.00012
  0
LINE
  8
0
  6
CONTINUOUS
 62
     7
 10
-35.81215
 20
52.80011
 11
-35.81215
 21
46.80011
  0
LINE
  8
0
  6
CONTINUOUS
 62
     7
 10
-49.81215
 20
52.80011
 11
-49.81215
 21
46.80011
  0
LINE
  8
0
  6
CONTINUOUS
 62
     7
 10
-49.81215
 20
52.80011
 11
-35.81215
 21
52.80011
  0
LINE
  8
0
  6
CONTINUOUS
 62
     7
 10
-49.81215
 20
46.80011
 11
-35.81215
 21
46.80011
  0
LINE
  8
0
  6
CONTINUOUS
 62
     7
 10
-35.81215
 20
51.00012
 11
-35.31215
 21
51.00012
  0
LINE
  8
0
  6
CONTINUOUS
 62
     7
 10
-49.81215
 20
46.00012
 11
-49.81215
 21
26.60011
  0
LINE
  8
0
  6
CONTINUOUS
 62
     7
 10
-35.81215
 20
46.00012
 11
-35.81215
 21
26.60011
  0
LINE
  8
0
  6
CONTINUOUS
 62
     7
 10
-48.31215
 20
27.30011
 11
-37.31215
 21
27.30011
  0
LINE
  8
0
  6
CONTINUOUS
 62
     7
 10
-48.31215
 20
35.80011
 11
-37.31215
 21
35.80011
  0
LINE
  8
0
  6
CONTINUOUS
 62
     7
 10
-48.31215
 20
35.80011
 11
-48.31215
 21
27.30011
  0
LINE
  8
0
  6
CONTINUOUS
 62
     7
 10
-37.31215
 20
35.80011
 11
-37.31215
 21
27.30011
  0
LINE
  8
0
  6
CONTINUOUS
 62
     7
 10
-44.81215
 20
39.30011
 11
-40.81215
 21
39.30011
  0
LINE
  8
0
  6
CONTINUOUS
 62
     7
 10
-44.81215
 20
37.30011
 11
-40.81215
 21
37.30011
  0
LINE
  8
0
  6
CONTINUOUS
 62
     7
 10
-44.81215
 20
39.30011
 11
-44.81215
 21
37.30011
  0
LINE
  8
0
  6
CONTINUOUS
 62
     7
 10
-40.81215
 20
39.30011
 11
-40.81215
 21
37.30011
  0
LINE
  8
0
  6
CONTINUOUS
 62
     7
 10
-45.31215
 20
39.80011
 11
-40.31215
 21
39.80011
  0
LINE
  8
0
  6
CONTINUOUS
 62
     7
 10
-45.31215
 20
39.80011
 11
-45.31215
 21
36.80011
  0
LINE
  8
0
  6
CONTINUOUS
 62
     7
 10
-45.31215
 20
36.80011
 11
-40.31215
 21
36.80011
  0
LINE
  8
0
  6
CONTINUOUS
 62
     7
 10
-40.31215
 20
39.80011
 11
-40.31215
 21
36.80011
  0
LINE
  8
0
  6
CONTINUOUS
 62
     7
 10
-44.81221
 20
39.30009
 11
-45.31225
 21
39.80012
  0
LINE
  8
0
  6
CONTINUOUS
 62
     7
 10
-40.81219
 20
39.30009
 11
-40.31216
 21
39.80013
  0
LINE
  8
0
  6
CONTINUOUS
 62
     7
 10
-40.81229
 20
37.29996
 11
-40.3123
 21
36.79997
  0
LINE
  8
0
  6
CONTINUOUS
 62
     7
 10
-44.81227
 20
37.30021
 11
-45.31226
 21
36.80022
  0
LINE
  8
0
  6
CONTINUOUS
 62
     7
 10
-49.31215
 20
54.00012
 11
-49.13795
 21
54.00012
  0
LINE
  8
0
  6
CONTINUOUS
 62
     7
 10
-50.31215
 20
52.00012
 11
-49.81215
 21
52.00012
  0
LINE
  8
0
  6
CONTINUOUS
 62
     7
 10
-50.31226
 20
52.00013
 11
-49.31225
 21
54.00014
  0
LINE
  8
0
  6
CONTINUOUS
 62
     7
 10
-35.31231
 20
52.00002
 11
-36.31232
 21
54.00003
  0
LINE
  8
0
  6
CENTER
 62
     2
 10
-47.31215
 20
57.00012
 11
-47.31215
 21
48.00012
  0
LINE
  8
0
  6
CONTINUOUS
 62
     7
 10
-49.81215
 20
52.60011
 11
-49.8622
 21
52.60011
  0
LINE
  8
0
  6
CONTINUOUS
 62
     7
 10
-49.8622
 20
52.60011
 11
-49.8622
 21
52.00012
  0
LINE
  8
0
  6
CONTINUOUS
 62
     7
 10
-35.81215
 20
52.00012
 11
-35.31215
 21
52.00012
  0
LINE
  8
0
  6
CONTINUOUS
 62
     7
 10
-49.56215
 20
53.29385
 11
-49.56215
 21
52.80011
  0
LINE
  8
0
  6
CONTINUOUS
 62
     7
 10
-48.51216
 20
49.2001
 11
-46.81215
 21
49.2001
  0
LINE
  8
0
  6
CONTINUOUS
 62
     7
 10
-48.51216
 20
51.2001
 11
-47.01216
 21
51.2001
  0
LINE
  8
0
  6
CONTINUOUS
 62
     7
 10
-38.6122
 20
52.80011
 11
-38.6122
 21
51.2001
  0
LINE
  8
0
  6
CONTINUOUS
 62
     7
 10
-47.01216
 20
52.80011
 11
-47.01216
 21
51.2001
  0
LINE
  8
0
  6
CONTINUOUS
 62
     7
 10
-37.1122
 20
51.2001
 11
-37.1122
 21
49.2001
  0
LINE
  8
0
  6
CONTINUOUS
 62
     7
 10
-48.51216
 20
51.2001
 11
-48.51216
 21
49.2001
  0
LINE
  8
0
  6
CONTINUOUS
 62
     7
 10
-47.01216
 20
49.2001
 11
-47.01216
 21
46.80011
  0
LINE
  8
0
  6
CONTINUOUS
 62
     7
 10
-38.6122
 20
49.2001
 11
-38.6122
 21
46.80011
  0
LINE
  8
0
  6
CONTINUOUS
 62
     7
 10
-38.6122
 20
51.2001
 11
-37.1122
 21
51.2001
  0
LINE
  8
0
  6
CONTINUOUS
 62
     7
 10
-38.81215
 20
49.2001
 11
-37.1122
 21
49.2001
  0
LINE
  8
0
  6
CENTER
 62
     2
 10
-38.31215
 20
57.00012
 11
-38.31215
 21
48.00012
  0
LINE
  8
0
  6
CONTINUOUS
 62
     7
 10
-48.31215
 20
51.00012
 11
-46.81215
 21
51.00012
  0
LINE
  8
0
  6
CONTINUOUS
 62
     7
 10
-46.81215
 20
53.80011
 11
-38.81215
 21
53.80011
  0
LINE
  8
0
  6
CONTINUOUS
 62
     7
 10
-48.31215
 20
51.00012
 11
-48.31215
 21
49.2001
  0
LINE
  8
0
  6
CONTINUOUS
 62
     7
 10
-37.31215
 20
51.00012
 11
-37.31215
 21
49.2001
  0
LINE
  8
0
  6
CONTINUOUS
 62
     7
 10
-46.81241
 20
51.80036
 11
-46.51246
 21
52.10032
  0
LINE
  8
0
  6
CONTINUOUS
 62
     7
 10
-38.81249
 20
51.79983
 11
-39.11253
 21
52.09987
  0
LINE
  8
0
  6
CONTINUOUS
 62
     7
 10
-46.81215
 20
49.2001
 11
-46.81215
 21
46.80011
  0
LINE
  8
0
  6
CONTINUOUS
 62
     7
 10
-38.81215
 20
49.2001
 11
-38.81215
 21
46.80011
  0
LINE
  8
0
  6
CONTINUOUS
 62
     7
 10
-38.81215
 20
51.00012
 11
-37.31215
 21
51.00012
  0
LINE
  8
0
  6
CENTER
 62
     2
 10
-46.76216
 20
50.30011
 11
-38.8622
 21
50.30011
  0
LINE
  8
0
  6
CENTER
 62
     2
 10
-45.31215
 20
51.65012
 11
-45.31215
 21
48.85011
  0
LINE
  8
0
  6
CENTER
 62
     2
 10
-40.31215
 20
51.65012
 11
-40.31215
 21
48.85011
  0
LINE
  8
0
  6
CONTINUOUS
 62
     7
 10
-46.26216
 20
51.25012
 11
-44.3622
 21
51.25012
  0
LINE
  8
0
  6
CONTINUOUS
 62
     7
 10
-46.26216
 20
49.35011
 11
-44.3622
 21
49.35011
  0
LINE
  8
0
  6
CONTINUOUS
 62
     7
 10
-46.26216
 20
51.4501
 11
-46.26216
 21
49.35011
  0
LINE
  8
0
  6
CONTINUOUS
 62
     7
 10
-44.3622
 20
51.4501
 11
-44.3622
 21
49.35011
  0
LINE
  8
0
  6
CONTINUOUS
 62
     7
 10
-43.76216
 20
51.4501
 11
-43.76216
 21
49.35011
  0
LINE
  8
0
  6
CONTINUOUS
 62
     7
 10
-41.8622
 20
51.4501
 11
-41.8622
 21
49.35011
  0
LINE
  8
0
  6
CONTINUOUS
 62
     7
 10
-39.3622
 20
51.4501
 11
-39.3622
 21
49.35011
  0
LINE
  8
0
  6
CONTINUOUS
 62
     7
 10
-41.26216
 20
51.4501
 11
-41.26216
 21
49.35011
  0
LINE
  8
0
  6
CONTINUOUS
 62
     7
 10
-43.76216
 20
51.25012
 11
-41.8622
 21
51.25012
  0
LINE
  8
0
  6
CONTINUOUS
 62
     7
 10
-43.76216
 20
49.35011
 11
-41.8622
 21
49.35011
  0
LINE
  8
0
  6
CONTINUOUS
 62
     7
 10
-41.26216
 20
49.35011
 11
-39.3622
 21
49.35011
  0
LINE
  8
0
  6
CONTINUOUS
 62
     7
 10
-41.26216
 20
51.25012
 11
-39.3622
 21
51.25012
  0
LINE
  8
0
  6
CONTINUOUS
 62
     7
 10
-47.01216
 20
51.80011
 11
-38.6122
 21
51.80011
  0
LINE
  8
0
  6
CONTINUOUS
 62
     7
 10
-46.51222
 20
52.10011
 11
-39.1122
 21
52.10011
  0
LINE
  8
0
  6
CONTINUOUS
 62
     7
 10
-46.81215
 20
54.80011
 11
-38.81215
 21
54.80011
  0
LINE
  8
0
  6
CONTINUOUS
 62
     7
 10
-38.81215
 20
54.80011
 11
-38.81215
 21
51.00012
  0
LINE
  8
0
  6
CONTINUOUS
 62
     7
 10
-46.81215
 20
54.80011
 11
-46.81215
 21
51.00012
  0
LINE
  8
0
  6
CONTINUOUS
 62
     7
 10
-46.26216
 20
51.4501
 11
-44.3622
 21
51.4501
  0
LINE
  8
0
  6
CONTINUOUS
 62
     7
 10
-43.76216
 20
51.4501
 11
-41.8622
 21
51.4501
  0
LINE
  8
0
  6
CONTINUOUS
 62
     7
 10
-41.26216
 20
51.4501
 11
-39.3622
 21
51.4501
  0
LINE
  8
0
  6
CONTINUOUS
 62
     7
 10
-45.81215
 20
49.05011
 11
-44.81215
 21
49.05011
  0
LINE
  8
0
  6
CONTINUOUS
 62
     7
 10
-43.31215
 20
49.05011
 11
-42.31215
 21
49.05011
  0
LINE
  8
0
  6
CONTINUOUS
 62
     7
 10
-40.81215
 20
49.05011
 11
-39.81215
 21
49.05011
  0
LINE
  8
0
  6
CONTINUOUS
 62
     7
 10
-45.81215
 20
49.35011
 11
-45.81215
 21
49.05011
  0
LINE
  8
0
  6
CONTINUOUS
 62
     7
 10
-44.81215
 20
49.35011
 11
-44.81215
 21
49.05011
  0
LINE
  8
0
  6
CONTINUOUS
 62
     7
 10
-43.31215
 20
49.35011
 11
-43.31215
 21
49.05011
  0
LINE
  8
0
  6
CONTINUOUS
 62
     7
 10
-42.31215
 20
49.35011
 11
-42.31215
 21
49.05011
  0
LINE
  8
0
  6
CONTINUOUS
 62
     7
 10
-39.81215
 20
49.35011
 11
-39.81215
 21
49.05011
  0
LINE
  8
0
  6
CONTINUOUS
 62
     7
 10
-40.81215
 20
49.35011
 11
-40.81215
 21
49.05011
  0
LINE
  8
0
  6
CONTINUOUS
 62
     7
 10
-45.81215
 20
47.92511
 11
-44.81215
 21
47.92511
  0
LINE
  8
0
  6
CONTINUOUS
 62
     7
 10
-45.31215
 20
48.42511
 11
-45.31215
 21
47.42511
  0
LINE
  8
0
  6
CONTINUOUS
 62
     7
 10
-40.81215
 20
47.92511
 11
-39.81215
 21
47.92511
  0
LINE
  8
0
  6
CONTINUOUS
 62
     7
 10
-36.31215
 20
54.00011
 11
-38.81215
 21
54.00011
  0
LINE
  8
0
  6
CENTER
 62
     2
 10
-46.81215
 20
38.30011
 11
-38.81215
 21
38.30011
  0
LINE
  8
0
  6
CONTINUOUS
 62
     7
 10
-35.31215
 20
-78.79987
 11
-35.31215
 21
-52.59988
  0
LINE
  8
0
  6
CONTINUOUS
 62
     7
 10
-50.31215
 20
-78.79987
 11
-50.31215
 21
-52.59988
  0
LINE
  8
0
  6
CONTINUOUS
 62
     7
 10
-35.31215
 20
-77.79987
 11
-35.81215
 21
-77.79987
  0
LINE
  8
0
  6
CONTINUOUS
 62
     7
 10
-49.81215
 20
-79.59988
 11
-49.81215
 21
-73.59988
  0
LINE
  8
0
  6
CONTINUOUS
 62
     7
 10
-35.81215
 20
-79.59988
 11
-35.81215
 21
-73.59988
  0
LINE
  8
0
  6
CONTINUOUS
 62
     7
 10
-35.81215
 20
-79.59988
 11
-49.81215
 21
-79.59988
  0
LINE
  8
0
  6
CONTINUOUS
 62
     7
 10
-35.81215
 20
-73.59988
 11
-49.81215
 21
-73.59988
  0
LINE
  8
0
  6
CONTINUOUS
 62
     7
 10
-49.81215
 20
-77.79987
 11
-50.31215
 21
-77.79987
  0
LINE
  8
0
  6
CONTINUOUS
 62
     7
 10
-35.81215
 20
-72.79987
 11
-35.81215
 21
-53.39987
  0
LINE
  8
0
  6
CONTINUOUS
 62
     7
 10
-49.81215
 20
-72.79987
 11
-49.81215
 21
-53.39987
  0
LINE
  8
0
  6
CONTINUOUS
 62
     7
 10
-37.31215
 20
-54.09988
 11
-48.31215
 21
-54.09988
  0
LINE
  8
0
  6
CONTINUOUS
 62
     7
 10
-37.31215
 20
-62.59988
 11
-48.31215
 21
-62.59988
  0
LINE
  8
0
  6
CONTINUOUS
 62
     7
 10
-37.31215
 20
-62.59988
 11
-37.31215
 21
-54.09988
  0
LINE
  8
0
  6
CONTINUOUS
 62
     7
 10
-48.31215
 20
-62.59988
 11
-48.31215
 21
-54.09988
  0
LINE
  8
0
  6
CONTINUOUS
 62
     7
 10
-40.81215
 20
-66.09988
 11
-44.81215
 21
-66.09988
  0
LINE
  8
0
  6
CONTINUOUS
 62
     7
 10
-40.81215
 20
-64.09988
 11
-44.81215
 21
-64.09988
  0
LINE
  8
0
  6
CONTINUOUS
 62
     7
 10
-40.81215
 20
-66.09988
 11
-40.81215
 21
-64.09988
  0
LINE
  8
0
  6
CONTINUOUS
 62
     7
 10
-44.81215
 20
-66.09988
 11
-44.81215
 21
-64.09988
  0
LINE
  8
0
  6
CONTINUOUS
 62
     7
 10
-40.31215
 20
-66.59988
 11
-45.31215
 21
-66.59988
  0
LINE
  8
0
  6
CONTINUOUS
 62
     7
 10
-40.31215
 20
-66.59988
 11
-40.31215
 21
-63.59988
  0
LINE
  8
0
  6
CONTINUOUS
 62
     7
 10
-40.31215
 20
-63.59988
 11
-45.31215
 21
-63.59988
  0
LINE
  8
0
  6
CONTINUOUS
 62
     7
 10
-45.31215
 20
-66.59988
 11
-45.31215
 21
-63.59988
  0
LINE
  8
0
  6
CONTINUOUS
 62
     7
 10
-40.81223
 20
-66.09984
 11
-40.31219
 21
-66.59987
  0
LINE
  8
0
  6
CONTINUOUS
 62
     7
 10
-44.81226
 20
-66.09993
 11
-45.31224
 21
-66.59991
  0
LINE
  8
0
  6
CONTINUOUS
 62
     7
 10
-44.81221
 20
-64.09995
 11
-45.31224
 21
-63.59991
  0
LINE
  8
0
  6
CONTINUOUS
 62
     7
 10
-40.81233
 20
-64.09981
 11
-40.31234
 21
-63.59982
  0
LINE
  8
0
  6
CONTINUOUS
 62
     7
 10
-36.31215
 20
-80.79987
 11
-36.4864
 21
-80.79987
  0
LINE
  8
0
  6
CONTINUOUS
 62
     7
 10
-35.31215
 20
-78.79987
 11
-35.81215
 21
-78.79987
  0
LINE
  8
0
  6
CONTINUOUS
 62
     7
 10
-35.31217
 20
-78.79987
 11
-36.31215
 21
-80.79984
  0
LINE
  8
0
  6
CONTINUOUS
 62
     7
 10
-50.31223
 20
-78.79993
 11
-49.31222
 21
-80.79995
  0
LINE
  8
0
  6
CENTER
 62
     2
 10
-38.31215
 20
-83.7999
 11
-38.31215
 21
-74.79987
  0
LINE
  8
0
  6
CONTINUOUS
 62
     7
 10
-35.81215
 20
-79.3999
 11
-35.76216
 21
-79.3999
  0
LINE
  8
0
  6
CONTINUOUS
 62
     7
 10
-35.76216
 20
-79.3999
 11
-35.76216
 21
-78.79987
  0
LINE
  8
0
  6
CONTINUOUS
 62
     7
 10
-49.81215
 20
-78.79987
 11
-50.31215
 21
-78.79987
  0
LINE
  8
0
  6
CONTINUOUS
 62
     7
 10
-36.06221
 20
-80.09363
 11
-36.06221
 21
-79.59988
  0
LINE
  8
0
  6
CONTINUOUS
 62
     7
 10
-37.1122
 20
-75.99988
 11
-38.81215
 21
-75.99988
  0
LINE
  8
0
  6
CONTINUOUS
 62
     7
 10
-37.1122
 20
-77.99988
 11
-38.6122
 21
-77.99988
  0
LINE
  8
0
  6
CONTINUOUS
 62
     7
 10
-47.01216
 20
-79.59988
 11
-47.01216
 21
-77.99988
  0
LINE
  8
0
  6
CONTINUOUS
 62
     7
 10
-38.6122
 20
-79.59988
 11
-38.6122
 21
-77.99988
  0
LINE
  8
0
  6
CONTINUOUS
 62
     7
 10
-48.51216
 20
-77.99988
 11
-48.51216
 21
-75.99988
  0
LINE
  8
0
  6
CONTINUOUS
 62
     7
 10
-37.1122
 20
-77.99988
 11
-37.1122
 21
-75.99988
  0
LINE
  8
0
  6
CONTINUOUS
 62
     7
 10
-38.6122
 20
-75.99988
 11
-38.6122
 21
-73.59988
  0
LINE
  8
0
  6
CONTINUOUS
 62
     7
 10
-47.01216
 20
-75.99988
 11
-47.01216
 21
-73.59988
  0
LINE
  8
0
  6
CONTINUOUS
 62
     7
 10
-47.01216
 20
-77.99988
 11
-48.51216
 21
-77.99988
  0
LINE
  8
0
  6
CONTINUOUS
 62
     7
 10
-46.81215
 20
-75.99988
 11
-48.51216
 21
-75.99988
  0
LINE
  8
0
  6
CENTER
 62
     2
 10
-47.31215
 20
-83.7999
 11
-47.31215
 21
-74.79987
  0
LINE
  8
0
  6
CONTINUOUS
 62
     7
 10
-37.31215
 20
-77.79987
 11
-38.81215
 21
-77.79987
  0
LINE
  8
0
  6
CONTINUOUS
 62
     7
 10
-38.81215
 20
-80.59988
 11
-46.81215
 21
-80.59988
  0
LINE
  8
0
  6
CONTINUOUS
 62
     7
 10
-37.31215
 20
-77.79987
 11
-37.31215
 21
-75.99988
  0
LINE
  8
0
  6
CONTINUOUS
 62
     7
 10
-48.31215
 20
-77.79987
 11
-48.31215
 21
-75.99988
  0
LINE
  8
0
  6
CONTINUOUS
 62
     7
 10
-38.81245
 20
-78.5996
 11
-39.11244
 21
-78.8996
  0
LINE
  8
0
  6
CONTINUOUS
 62
     7
 10
-46.81226
 20
-78.59993
 11
-46.51226
 21
-78.89993
  0
LINE
  8
0
  6
CONTINUOUS
 62
     7
 10
-38.81215
 20
-75.99988
 11
-38.81215
 21
-73.59988
  0
LINE
  8
0
  6
CONTINUOUS
 62
     7
 10
-46.81215
 20
-75.99988
 11
-46.81215
 21
-73.59988
  0
LINE
  8
0
  6
CONTINUOUS
 62
     7
 10
-46.81215
 20
-77.79987
 11
-48.31215
 21
-77.79987
  0
LINE
  8
0
  6
CENTER
 62
     2
 10
-38.8622
 20
-77.09988
 11
-46.76216
 21
-77.09988
  0
LINE
  8
0
  6
CENTER
 62
     2
 10
-40.31215
 20
-78.44989
 11
-40.31215
 21
-75.6499
  0
LINE
  8
0
  6
CENTER
 62
     2
 10
-45.31215
 20
-78.44989
 11
-45.31215
 21
-75.6499
  0
LINE
  8
0
  6
CONTINUOUS
 62
     7
 10
-39.3622
 20
-78.04987
 11
-41.26216
 21
-78.04987
  0
LINE
  8
0
  6
CONTINUOUS
 62
     7
 10
-39.3622
 20
-76.1499
 11
-41.26216
 21
-76.1499
  0
LINE
  8
0
  6
CONTINUOUS
 62
     7
 10
-39.3622
 20
-78.24988
 11
-39.3622
 21
-76.1499
  0
LINE
  8
0
  6
CONTINUOUS
 62
     7
 10
-41.26216
 20
-78.24988
 11
-41.26216
 21
-76.1499
  0
LINE
  8
0
  6
CONTINUOUS
 62
     7
 10
-41.8622
 20
-78.24988
 11
-41.8622
 21
-76.1499
  0
LINE
  8
0
  6
CONTINUOUS
 62
     7
 10
-43.76216
 20
-78.24988
 11
-43.76216
 21
-76.1499
  0
LINE
  8
0
  6
CONTINUOUS
 62
     7
 10
-46.26216
 20
-78.24988
 11
-46.26216
 21
-76.1499
  0
LINE
  8
0
  6
CONTINUOUS
 62
     7
 10
-44.3622
 20
-78.24988
 11
-44.3622
 21
-76.1499
  0
LINE
  8
0
  6
CONTINUOUS
 62
     7
 10
-41.8622
 20
-78.04987
 11
-43.76216
 21
-78.04987
  0
LINE
  8
0
  6
CONTINUOUS
 62
     7
 10
-41.8622
 20
-76.1499
 11
-43.76216
 21
-76.1499
  0
LINE
  8
0
  6
CONTINUOUS
 62
     7
 10
-44.3622
 20
-76.1499
 11
-46.26216
 21
-76.1499
  0
LINE
  8
0
  6
CONTINUOUS
 62
     7
 10
-44.3622
 20
-78.04987
 11
-46.26216
 21
-78.04987
  0
LINE
  8
0
  6
CONTINUOUS
 62
     7
 10
-38.6122
 20
-78.59988
 11
-47.01216
 21
-78.59988
  0
LINE
  8
0
  6
CONTINUOUS
 62
     7
 10
-39.1122
 20
-78.8999
 11
-46.51222
 21
-78.8999
  0
LINE
  8
0
  6
CONTINUOUS
 62
     7
 10
-38.81215
 20
-81.59988
 11
-46.81215
 21
-81.59988
  0
LINE
  8
0
  6
CONTINUOUS
 62
     7
 10
-46.81215
 20
-81.59988
 11
-46.81215
 21
-77.79987
  0
LINE
  8
0
  6
CONTINUOUS
 62
     7
 10
-38.81215
 20
-81.59988
 11
-38.81215
 21
-77.79987
  0
LINE
  8
0
  6
CONTINUOUS
 62
     7
 10
-39.3622
 20
-78.24988
 11
-41.26216
 21
-78.24988
  0
LINE
  8
0
  6
CONTINUOUS
 62
     7
 10
-41.8622
 20
-78.24988
 11
-43.76216
 21
-78.24988
  0
LINE
  8
0
  6
CONTINUOUS
 62
     7
 10
-44.3622
 20
-78.24988
 11
-46.26216
 21
-78.24988
  0
LINE
  8
0
  6
CONTINUOUS
 62
     7
 10
-39.81215
 20
-75.84988
 11
-40.81215
 21
-75.84988
  0
LINE
  8
0
  6
CONTINUOUS
 62
     7
 10
-42.31215
 20
-75.84988
 11
-43.31215
 21
-75.84988
  0
LINE
  8
0
  6
CONTINUOUS
 62
     7
 10
-44.81215
 20
-75.84988
 11
-45.81215
 21
-75.84988
  0
LINE
  8
0
  6
CONTINUOUS
 62
     7
 10
-39.81215
 20
-76.1499
 11
-39.81215
 21
-75.84988
  0
LINE
  8
0
  6
CONTINUOUS
 62
     7
 10
-40.81215
 20
-76.1499
 11
-40.81215
 21
-75.84988
  0
LINE
  8
0
  6
CONTINUOUS
 62
     7
 10
-42.31215
 20
-76.1499
 11
-42.31215
 21
-75.84988
  0
LINE
  8
0
  6
CONTINUOUS
 62
     7
 10
-43.31215
 20
-76.1499
 11
-43.31215
 21
-75.84988
  0
LINE
  8
0
  6
CONTINUOUS
 62
     7
 10
-45.81215
 20
-76.1499
 11
-45.81215
 21
-75.84988
  0
LINE
  8
0
  6
CONTINUOUS
 62
     7
 10
-44.81215
 20
-76.1499
 11
-44.81215
 21
-75.84988
  0
LINE
  8
0
  6
CONTINUOUS
 62
     7
 10
-39.81215
 20
-74.72488
 11
-40.81215
 21
-74.72488
  0
LINE
  8
0
  6
CONTINUOUS
 62
     7
 10
-40.31215
 20
-75.22488
 11
-40.31215
 21
-74.22488
  0
LINE
  8
0
  6
CONTINUOUS
 62
     7
 10
-44.81215
 20
-74.72488
 11
-45.81215
 21
-74.72488
  0
LINE
  8
0
  6
CONTINUOUS
 62
     7
 10
-49.31215
 20
-80.79987
 11
-46.81215
 21
-80.79987
  0
LINE
  8
0
  6
CENTER
 62
     2
 10
-38.81215
 20
-65.09988
 11
-46.81215
 21
-65.09988
  0
LINE
  8
0
  6
CONTINUOUS
 62
     7
 10
-169.4367
 20
-186.179
 11
-169.4367
 21
-187.179
  0
LINE
  8
0
  6
CONTINUOUS
 62
     7
 10
-168.4367
 20
-172.179
 11
-168.4367
 21
-170.679
  0
LINE
  8
0
  6
CENTER
 62
     2
 10
-197.8329
 20
-179.179
 11
-147.2764
 21
-179.179
  0
LINE
  8
0
  6
CONTINUOUS
 62
     7
 10
-194.9367
 20
-170.179
 11
-168.9367
 21
-170.179
  0
LINE
  8
0
  6
CONTINUOUS
 62
     7
 10
-194.9367
 20
-188.179
 11
-168.9367
 21
-188.179
  0
LINE
  8
0
  6
CONTINUOUS
 62
     7
 10
-168.4367
 20
-187.679
 11
-168.4367
 21
-186.179
  0
LINE
  8
0
  6
CONTINUOUS
 62
     7
 10
-195.4367
 20
-187.679
 11
-195.4367
 21
-170.679
  0
LINE
  8
0
  6
CENTER
 62
     2
 10
-181.9367
 20
-190.929
 11
-181.9367
 21
-166.9516
  0
LINE
  8
0
  6
CONTINUOUS
 62
     7
 10
-194.4367
 20
-171.179
 11
-169.4367
 21
-171.179
  0
LINE
  8
0
  6
CONTINUOUS
 62
     7
 10
-194.4367
 20
-187.179
 11
-169.4367
 21
-187.179
  0
LINE
  8
0
  6
CONTINUOUS
 62
     7
 10
-194.4367
 20
-171.179
 11
-194.4367
 21
-187.179
  0
LINE
  8
0
  6
CONTINUOUS
 62
     7
 10
-169.4367
 20
-171.179
 11
-169.4367
 21
-172.179
  0
LINE
  8
0
  6
CONTINUOUS
 62
     7
 10
-169.4367
 20
-187.179
 11
-168.5832
 21
-188.0326
  0
LINE
  8
0
  6
CONTINUOUS
 62
     7
 10
-194.4368
 20
-187.179
 11
-195.2903
 21
-188.0326
  0
LINE
  8
0
  6
CONTINUOUS
 62
     7
 10
-169.4368
 20
-171.179
 11
-168.5832
 21
-170.3254
  0
LINE
  8
0
  6
CONTINUOUS
 62
     7
 10
-194.4367
 20
-171.179
 11
-195.2902
 21
-170.3255
  0
LINE
  8
0
  6
CONTINUOUS
 62
     7
 10
-169.9367
 20
-171.679
 11
-169.9367
 21
-186.679
  0
LINE
  8
0
  6
CONTINUOUS
 62
     7
 10
-160.8367
 20
-172.179
 11
-160.8367
 21
-175.179
  0
LINE
  8
0
  6
CONTINUOUS
 62
     7
 10
-172.9367
 20
-180.679
 11
-169.9367
 21
-180.679
  0
LINE
  8
0
  6
CONTINUOUS
 62
     7
 10
-190.9367
 20
-177.679
 11
-193.9367
 21
-177.679
  0
LINE
  8
0
  6
CONTINUOUS
 62
     7
 10
-187.9367
 20
-174.679
 11
-187.9367
 21
-171.679
  0
LINE
  8
0
  6
CONTINUOUS
 62
     7
 10
-175.9367
 20
-183.679
 11
-175.9367
 21
-186.679
  0
LINE
  8
0
  6
CONTINUOUS
 62
     7
 10
-192.9367
 20
-177.679
 11
-192.9367
 21
-185.679
  0
LINE
  8
0
  6
CONTINUOUS
 62
     7
 10
-170.9367
 20
-172.679
 11
-170.9367
 21
-180.679
  0
LINE
  8
0
  6
CONTINUOUS
 62
     7
 10
-187.9367
 20
-172.679
 11
-170.9367
 21
-172.679
  0
LINE
  8
0
  6
CONTINUOUS
 62
     7
 10
-192.9367
 20
-185.679
 11
-175.9367
 21
-185.679
  0
LINE
  8
0
  6
CONTINUOUS
 62
     7
 10
-172.6367
 20
-185.909
 11
-172.6367
 21
-186.2113
  0
LINE
  8
0
  6
CONTINUOUS
 62
     7
 10
-173.2367
 20
-185.909
 11
-173.2367
 21
-186.2113
  0
LINE
  8
0
  6
CONTINUOUS
 62
     7
 10
-173.3975
 20
-186.1871
 11
-173.3975
 21
-185.8814
  0
LINE
  8
0
  6
CONTINUOUS
 62
     7
 10
-191.2367
 20
-172.4491
 11
-191.2367
 21
-172.1468
  0
LINE
  8
0
  6
CONTINUOUS
 62
     7
 10
-190.6367
 20
-172.4491
 11
-190.6367
 21
-172.1468
  0
LINE
  8
0
  6
CONTINUOUS
 62
     7
 10
-190.476
 20
-172.171
 11
-190.476
 21
-172.4767
  0
LINE
  8
0
  6
CONTINUOUS
 62
     7
 10
-174.0396
 20
-184.4146
 11
-173.6719
 21
-184.0468
  0
LINE
  8
0
  6
CONTINUOUS
 62
     7
 10
-173.6719
 20
-184.7823
 11
-173.3042
 21
-184.4146
  0
LINE
  8
0
  6
CONTINUOUS
 62
     7
 10
-174.0398
 20
-184.4144
 11
-173.6721
 21
-184.7821
  0
LINE
  8
0
  6
CONTINUOUS
 62
     7
 10
-172.2013
 20
-182.5759
 11
-171.8336
 21
-182.9436
  0
LINE
  8
0
  6
CONTINUOUS
 62
     7
 10
-174.7009
 20
-182.2826
 11
-173.6721
 21
-183.3114
  0
LINE
  8
0
  6
CONTINUOUS
 62
     7
 10
-174.3331
 20
-181.9148
 11
-173.3043
 21
-182.9436
  0
LINE
  8
0
  6
CONTINUOUS
 62
     7
 10
-172.5688
 20
-182.9438
 11
-172.2011
 21
-182.576
  0
LINE
  8
0
  6
CONTINUOUS
 62
     7
 10
-172.2011
 20
-183.3115
 11
-171.8334
 21
-182.9438
  0
LINE
  8
0
  6
CONTINUOUS
 62
     7
 10
-172.569
 20
-184.4144
 11
-171.5402
 21
-185.4432
  0
LINE
  8
0
  6
CONTINUOUS
 62
     7
 10
-172.2012
 20
-184.0467
 11
-171.1725
 21
-185.0755
  0
LINE
  8
0
  6
CONTINUOUS
 62
     7
 10
-192.0397
 20
-175.4146
 11
-191.672
 21
-175.0469
  0
LINE
  8
0
  6
CONTINUOUS
 62
     7
 10
-191.672
 20
-175.7823
 11
-191.3042
 21
-175.4146
  0
LINE
  8
0
  6
CONTINUOUS
 62
     7
 10
-192.0398
 20
-175.4145
 11
-191.6721
 21
-175.7822
  0
LINE
  8
0
  6
CONTINUOUS
 62
     7
 10
-190.2013
 20
-173.576
 11
-189.8336
 21
-173.9437
  0
LINE
  8
0
  6
CONTINUOUS
 62
     7
 10
-192.7009
 20
-173.2825
 11
-191.6721
 21
-174.3113
  0
LINE
  8
0
  6
CONTINUOUS
 62
     7
 10
-192.3332
 20
-172.9148
 11
-191.3044
 21
-173.9436
  0
LINE
  8
0
  6
CONTINUOUS
 62
     7
 10
-190.5689
 20
-173.9438
 11
-190.2012
 21
-173.5761
  0
LINE
  8
0
  6
CONTINUOUS
 62
     7
 10
-190.2012
 20
-174.3115
 11
-189.8335
 21
-173.9438
  0
LINE
  8
0
  6
CONTINUOUS
 62
     7
 10
-190.569
 20
-175.4144
 11
-189.5402
 21
-176.4432
  0
LINE
  8
0
  6
CONTINUOUS
 62
     7
 10
-190.2013
 20
-175.0467
 11
-189.1725
 21
-176.0755
  0
LINE
  8
0
  6
CONTINUOUS
 62
     7
 10
-151.4367
 20
-175.179
 11
-151.4367
 21
-183.179
  0
LINE
  8
0
  6
CONTINUOUS
 62
     7
 10
-157.108
 20
-175.179
 11
-157.108
 21
-183.179
  0
LINE
  8
0
  6
CONTINUOUS
 62
     7
 10
-168.4367
 20
-175.179
 11
-168.4367
 21
-183.179
  0
LINE
  8
0
  6
CONTINUOUS
 62
     7
 10
-169.9367
 20
-183.3791
 11
-166.4367
 21
-183.3791
  0
LINE
  8
0
  6
CONTINUOUS
 62
     7
 10
-169.9367
 20
-174.979
 11
-166.4367
 21
-174.979
  0
LINE
  8
0
  6
CONTINUOUS
 62
     7
 10
-166.4367
 20
-174.979
 11
-166.4367
 21
-175.179
  0
LINE
  8
0
  6
CONTINUOUS
 62
     7
 10
-165.4367
 20
-174.979
 11
-165.4367
 21
-175.179
  0
LINE
  8
0
  6
CONTINUOUS
 62
     7
 10
-165.4367
 20
-183.3791
 11
-160.8367
 21
-183.3791
  0
LINE
  8
0
  6
CONTINUOUS
 62
     7
 10
-165.4367
 20
-174.979
 11
-160.8367
 21
-174.979
  0
LINE
  8
0
  6
CONTINUOUS
 62
     7
 10
-160.8367
 20
-183.179
 11
-160.8367
 21
-186.179
  0
LINE
  8
0
  6
CONTINUOUS
 62
     7
 10
-165.4367
 20
-183.179
 11
-165.4367
 21
-183.3791
  0
LINE
  8
0
  6
CONTINUOUS
 62
     7
 10
-166.4367
 20
-183.179
 11
-166.4367
 21
-183.3791
  0
LINE
  8
0
  6
CENTER
 62
     2
 10
-172.9367
 20
-179.679
 11
-172.9367
 21
-187.679
  0
LINE
  8
0
  6
CENTER
 62
     2
 10
-190.9367
 20
-170.679
 11
-190.9367
 21
-178.679
  0
LINE
  8
0
  6
CENTER
 62
     2
 10
-194.9367
 20
-174.679
 11
-186.9367
 21
-174.679
  0
LINE
  8
0
  6
CENTER
 62
     2
 10
-176.9367
 20
-183.679
 11
-168.9367
 21
-183.679
  0
LINE
  8
0
  6
CONTINUOUS
 62
     7
 10
-193.4367
 20
-171.679
 11
-169.9367
 21
-171.679
  0
LINE
  8
0
  6
CONTINUOUS
 62
     7
 10
-193.9367
 20
-172.179
 11
-193.9367
 21
-186.179
  0
LINE
  8
0
  6
CONTINUOUS
 62
     7
 10
-193.4367
 20
-186.679
 11
-169.9367
 21
-186.679
  0
LINE
  8
0
  6
CONTINUOUS
 62
     7
 10
-169.9367
 20
-172.179
 11
-160.7367
 21
-172.179
  0
LINE
  8
0
  6
CONTINUOUS
 62
     7
 10
-159.9367
 20
-172.979
 11
-159.9367
 21
-173.679
  0
LINE
  8
0
  6
CONTINUOUS
 62
     7
 10
-159.9367
 20
-184.679
 11
-159.9367
 21
-185.3791
  0
LINE
  8
0
  6
CONTINUOUS
 62
     7
 10
-169.9367
 20
-186.179
 11
-160.7367
 21
-186.179
  0
LINE
  8
0
  6
CONTINUOUS
 62
     7
 10
-160.8367
 20
-184.679
 11
-149.4367
 21
-184.679
  0
LINE
  8
0
  6
CONTINUOUS
 62
     7
 10
-149.4367
 20
-173.679
 11
-149.4367
 21
-184.679
  0
LINE
  8
0
  6
CONTINUOUS
 62
     7
 10
-160.8367
 20
-173.679
 11
-149.4367
 21
-173.679
  0
LINE
  8
0
  6
CONTINUOUS
 62
     7
 10
-168.4367
 20
-175.179
 11
-149.4367
 21
-175.179
  0
LINE
  8
0
  6
CONTINUOUS
 62
     7
 10
-168.4367
 20
-183.179
 11
-149.4367
 21
-183.179
  0
LINE
  8
0
  6
CONTINUOUS
 62
     7
 10
-149.4367
 20
-175.829
 11
-144.3155
 21
-175.829
  0
LINE
  8
0
  6
CONTINUOUS
 62
     7
 10
-149.4367
 20
-177.5291
 11
-144.771
 21
-177.5291
  0
LINE
  8
0
  6
CENTER
 62
     2
 10
-152.4367
 20
-176.679
 11
-126.4367
 21
-176.679
  0
LINE
  8
0
  6
CONTINUOUS
 62
     7
 10
-139.4367
 20
-176.359
 11
-129.4367
 21
-176.359
  0
LINE
  8
0
  6
CONTINUOUS
 62
     7
 10
-139.4367
 20
-175.829
 11
-139.4367
 21
-177.5291
  0
LINE
  8
0
  6
CONTINUOUS
 62
     7
 10
-129.4367
 20
-176.359
 11
-129.4367
 21
-176.9991
  0
LINE
  8
0
  6
CONTINUOUS
 62
     7
 10
-139.4367
 20
-176.9991
 11
-129.4367
 21
-176.9991
  0
LINE
  8
0
  6
CONTINUOUS
 62
     7
 10
-139.4367
 20
-181.359
 11
-129.4367
 21
-181.359
  0
LINE
  8
0
  6
CONTINUOUS
 62
     7
 10
-129.4367
 20
-181.359
 11
-129.4367
 21
-181.9991
  0
LINE
  8
0
  6
CONTINUOUS
 62
     7
 10
-139.4367
 20
-181.9991
 11
-129.4367
 21
-181.9991
  0
LINE
  8
0
  6
CENTER
 62
     2
 10
-152.4367
 20
-181.679
 11
-126.4367
 21
-181.679
  0
LINE
  8
0
  6
CONTINUOUS
 62
     7
 10
-149.4367
 20
-180.829
 11
-145.6553
 21
-180.829
  0
LINE
  8
0
  6
CONTINUOUS
 62
     7
 10
-139.4367
 20
-180.829
 11
-139.4367
 21
-182.5291
  0
LINE
  8
0
  6
CONTINUOUS
 62
     7
 10
-149.4367
 20
-182.5291
 11
-146.1107
 21
-182.5291
  0
LINE
  8
0
  6
PHANTOM
 62
     2
 10
-146.6467
 20
-184.5291
 11
-143.7796
 21
-173.829
  0
LINE
  8
0
  6
PHANTOM
 62
     2
 10
-145.0938
 20
-184.5291
 11
-142.2268
 21
-173.829
  0
LINE
  8
0
  6
CONTINUOUS
 62
     7
 10
-142.7626
 20
-175.829
 11
-139.4367
 21
-175.829
  0
LINE
  8
0
  6
CONTINUOUS
 62
     7
 10
-143.2182
 20
-177.5291
 11
-139.4367
 21
-177.5291
  0
LINE
  8
0
  6
CONTINUOUS
 62
     7
 10
-144.1023
 20
-180.829
 11
-139.4367
 21
-180.829
  0
LINE
  8
0
  6
CONTINUOUS
 62
     7
 10
-144.5579
 20
-182.5291
 11
-139.4367
 21
-182.5291
  0
LINE
  8
0
  6
CENTER
 62
     2
 10
168.9368
 20
58.00906
 11
168.9368
 21
-84.54747
  0
LINE
  8
0
  6
CONTINUOUS
 62
     7
 10
177.9368
 20
24.80002
 11
177.9368
 21
-51.59998
  0
LINE
  8
0
  6
CONTINUOUS
 62
     7
 10
159.9368
 20
7.60002
 11
177.9368
 21
7.60002
  0
LINE
  8
0
  6
CONTINUOUS
 62
     7
 10
159.9368
 20
-34.39998
 11
177.9368
 21
-34.39998
  0
LINE
  8
0
  6
CONTINUOUS
 62
     7
 10
160.9367
 20
25.80003
 11
159.9367
 21
24.80005
  0
LINE
  8
0
  6
CONTINUOUS
 62
     7
 10
176.9367
 20
25.79999
 11
177.9367
 21
24.79999
  0
LINE
  8
0
  6
CENTER
 62
     2
 10
175.4368
 20
6.19131
 11
175.4368
 21
-2.81665
  0
LINE
  8
0
  6
CENTER
 62
     2
 10
162.4368
 20
-24.28723
 11
162.4368
 21
-32.69186
  0
LINE
  8
0
  6
CENTER
 62
     2
 10
159.5246
 20
-28.39998
 11
166.6691
 21
-28.39998
  0
LINE
  8
0
  6
CENTER
 62
     2
 10
171.0902
 20
1.60002
 11
178.5211
 21
1.60002
  0
LINE
  8
0
  6
CENTER
 62
     2
 10
166.0151
 20
22.30002
 11
171.8465
 21
22.30002
  0
LINE
  8
0
  6
CONTINUOUS
 62
     7
 10
160.9368
 20
25.80002
 11
176.9368
 21
25.80002
  0
LINE
  8
0
  6
CONTINUOUS
 62
     7
 10
159.9368
 20
24.80002
 11
177.9368
 21
24.80002
  0
LINE
  8
0
  6
CONTINUOUS
 62
     7
 10
159.9368
 20
24.80002
 11
159.9368
 21
-51.59998
  0
LINE
  8
0
  6
CONTINUOUS
 62
     7
 10
159.9367
 20
-51.60001
 11
160.9367
 21
-52.60001
  0
LINE
  8
0
  6
CONTINUOUS
 62
     7
 10
176.9368
 20
-52.59995
 11
177.9368
 21
-51.59992
  0
LINE
  8
0
  6
CONTINUOUS
 62
     7
 10
159.9368
 20
-51.59998
 11
177.9368
 21
-51.59998
  0
LINE
  8
0
  6
CONTINUOUS
 62
     7
 10
176.9368
 20
-52.59998
 11
160.9368
 21
-52.59998
  0
LINE
  8
0
  6
CENTER
 62
     2
 10
171.8812
 20
-49.09998
 11
165.9702
 21
-49.09998
  0
LINE
  8
0
  6
CENTER
 62
     2
 10
158.836
 20
-13.39998
 11
179.6138
 21
-13.39998
  0
LINE
  8
0
  6
CONTINUOUS
 62
     7
 10
161.4368
 20
52.00003
 11
161.4368
 21
25.80002
  0
LINE
  8
0
  6
CONTINUOUS
 62
     7
 10
176.4368
 20
52.00003
 11
176.4368
 21
25.80002
  0
LINE
  8
0
  6
CONTINUOUS
 62
     7
 10
161.4368
 20
51.00003
 11
161.9368
 21
51.00003
  0
LINE
  8
0
  6
CONTINUOUS
 62
     7
 10
175.9368
 20
52.80002
 11
175.9368
 21
46.80002
  0
LINE
  8
0
  6
CONTINUOUS
 62
     7
 10
161.9368
 20
52.80002
 11
161.9368
 21
46.80002
  0
LINE
  8
0
  6
CONTINUOUS
 62
     7
 10
161.9368
 20
52.80002
 11
175.9368
 21
52.80002
  0
LINE
  8
0
  6
CONTINUOUS
 62
     7
 10
161.9368
 20
46.80002
 11
175.9368
 21
46.80002
  0
LINE
  8
0
  6
CONTINUOUS
 62
     7
 10
175.9368
 20
51.00003
 11
176.4368
 21
51.00003
  0
LINE
  8
0
  6
CONTINUOUS
 62
     7
 10
161.9368
 20
46.00003
 11
161.9368
 21
26.60002
  0
LINE
  8
0
  6
CONTINUOUS
 62
     7
 10
175.9368
 20
46.00003
 11
175.9368
 21
26.60002
  0
LINE
  8
0
  6
CONTINUOUS
 62
     7
 10
163.4368
 20
27.30002
 11
174.4368
 21
27.30002
  0
LINE
  8
0
  6
CONTINUOUS
 62
     7
 10
163.4368
 20
35.80002
 11
174.4368
 21
35.80002
  0
LINE
  8
0
  6
CONTINUOUS
 62
     7
 10
163.4368
 20
35.80002
 11
163.4368
 21
27.30002
  0
LINE
  8
0
  6
CONTINUOUS
 62
     7
 10
174.4368
 20
35.80002
 11
174.4368
 21
27.30002
  0
LINE
  8
0
  6
CONTINUOUS
 62
     7
 10
166.9368
 20
39.30002
 11
170.9368
 21
39.30002
  0
LINE
  8
0
  6
CONTINUOUS
 62
     7
 10
166.9368
 20
37.30002
 11
170.9368
 21
37.30002
  0
LINE
  8
0
  6
CONTINUOUS
 62
     7
 10
166.9368
 20
39.30002
 11
166.9368
 21
37.30002
  0
LINE
  8
0
  6
CONTINUOUS
 62
     7
 10
170.9368
 20
39.30002
 11
170.9368
 21
37.30002
  0
LINE
  8
0
  6
CONTINUOUS
 62
     7
 10
166.4368
 20
39.80002
 11
171.4368
 21
39.80002
  0
LINE
  8
0
  6
CONTINUOUS
 62
     7
 10
166.4368
 20
39.80002
 11
166.4368
 21
36.80002
  0
LINE
  8
0
  6
CONTINUOUS
 62
     7
 10
166.4368
 20
36.80002
 11
171.4368
 21
36.80002
  0
LINE
  8
0
  6
CONTINUOUS
 62
     7
 10
171.4368
 20
39.80002
 11
171.4368
 21
36.80002
  0
LINE
  8
0
  6
CONTINUOUS
 62
     7
 10
166.9368
 20
39.3
 11
166.4368
 21
39.79999
  0
LINE
  8
0
  6
CONTINUOUS
 62
     7
 10
170.9367
 20
39.30001
 11
171.4368
 21
39.80004
  0
LINE
  8
0
  6
CONTINUOUS
 62
     7
 10
170.9368
 20
37.30002
 11
171.4368
 21
36.80002
  0
LINE
  8
0
  6
CONTINUOUS
 62
     7
 10
166.9367
 20
37.30003
 11
166.4368
 21
36.80004
  0
LINE
  8
0
  6
CONTINUOUS
 62
     7
 10
162.4368
 20
54.00003
 11
162.611
 21
54.00003
  0
LINE
  8
0
  6
CONTINUOUS
 62
     7
 10
161.4368
 20
52.00003
 11
161.9368
 21
52.00003
  0
LINE
  8
0
  6
CONTINUOUS
 62
     7
 10
161.4367
 20
52.00006
 11
162.4367
 21
54.00005
  0
LINE
  8
0
  6
CONTINUOUS
 62
     7
 10
176.4368
 20
52.0
 11
175.4368
 21
54.0
  0
LINE
  8
0
  6
CENTER
 62
     2
 10
164.4368
 20
57.00003
 11
164.4368
 21
48.00003
  0
LINE
  8
0
  6
CONTINUOUS
 62
     7
 10
161.9368
 20
52.60001
 11
161.8868
 21
52.60001
  0
LINE
  8
0
  6
CONTINUOUS
 62
     7
 10
161.8868
 20
52.60004
 11
161.8868
 21
52.00003
  0
LINE
  8
0
  6
CONTINUOUS
 62
     7
 10
175.9368
 20
52.00003
 11
176.4368
 21
52.00003
  0
LINE
  8
0
  6
CONTINUOUS
 62
     7
 10
162.1868
 20
53.29376
 11
162.1868
 21
52.80002
  0
LINE
  8
0
  6
CONTINUOUS
 62
     7
 10
163.2368
 20
49.20001
 11
164.9368
 21
49.20001
  0
LINE
  8
0
  6
CONTINUOUS
 62
     7
 10
163.2368
 20
51.20001
 11
164.7368
 21
51.20001
  0
LINE
  8
0
  6
CONTINUOUS
 62
     7
 10
173.1368
 20
52.80002
 11
173.1368
 21
51.20001
  0
LINE
  8
0
  6
CONTINUOUS
 62
     7
 10
164.7368
 20
52.80002
 11
164.7368
 21
51.20001
  0
LINE
  8
0
  6
CONTINUOUS
 62
     7
 10
174.6368
 20
51.20001
 11
174.6368
 21
49.20001
  0
LINE
  8
0
  6
CONTINUOUS
 62
     7
 10
163.2368
 20
51.20001
 11
163.2368
 21
49.20001
  0
LINE
  8
0
  6
CONTINUOUS
 62
     7
 10
164.7368
 20
49.20001
 11
164.7368
 21
46.80002
  0
LINE
  8
0
  6
CONTINUOUS
 62
     7
 10
173.1368
 20
49.20001
 11
173.1368
 21
46.80002
  0
LINE
  8
0
  6
CONTINUOUS
 62
     7
 10
173.1368
 20
51.20001
 11
174.6368
 21
51.20001
  0
LINE
  8
0
  6
CONTINUOUS
 62
     7
 10
172.9368
 20
49.20001
 11
174.6368
 21
49.20001
  0
LINE
  8
0
  6
CENTER
 62
     2
 10
173.4368
 20
57.00003
 11
173.4368
 21
48.00003
  0
LINE
  8
0
  6
CONTINUOUS
 62
     7
 10
163.4368
 20
51.00003
 11
164.9368
 21
51.00003
  0
LINE
  8
0
  6
CONTINUOUS
 62
     7
 10
164.9368
 20
53.80002
 11
172.9368
 21
53.80002
  0
LINE
  8
0
  6
CONTINUOUS
 62
     7
 10
163.4368
 20
51.00003
 11
163.4368
 21
49.20001
  0
LINE
  8
0
  6
CONTINUOUS
 62
     7
 10
174.4368
 20
51.00003
 11
174.4368
 21
49.20001
  0
LINE
  8
0
  6
CONTINUOUS
 62
     7
 10
164.9367
 20
51.80005
 11
165.2367
 21
52.10004
  0
LINE
  8
0
  6
CONTINUOUS
 62
     7
 10
172.9365
 20
51.79984
 11
172.6365
 21
52.09984
  0
LINE
  8
0
  6
CONTINUOUS
 62
     7
 10
164.9368
 20
49.20001
 11
164.9368
 21
46.80002
  0
LINE
  8
0
  6
CONTINUOUS
 62
     7
 10
172.9368
 20
49.20001
 11
172.9368
 21
46.80002
  0
LINE
  8
0
  6
CONTINUOUS
 62
     7
 10
172.9368
 20
51.00003
 11
174.4368
 21
51.00003
  0
LINE
  8
0
  6
CENTER
 62
     2
 10
164.9868
 20
50.30002
 11
172.8868
 21
50.30002
  0
LINE
  8
0
  6
CENTER
 62
     2
 10
166.4368
 20
51.65002
 11
166.4368
 21
48.85001
  0
LINE
  8
0
  6
CENTER
 62
     2
 10
171.4368
 20
51.65002
 11
171.4368
 21
48.85001
  0
LINE
  8
0
  6
CONTINUOUS
 62
     7
 10
165.4868
 20
51.25003
 11
167.3868
 21
51.25003
  0
LINE
  8
0
  6
CONTINUOUS
 62
     7
 10
165.4868
 20
49.35001
 11
167.3868
 21
49.35001
  0
LINE
  8
0
  6
CONTINUOUS
 62
     7
 10
165.4868
 20
51.45001
 11
165.4868
 21
49.35001
  0
LINE
  8
0
  6
CONTINUOUS
 62
     7
 10
167.3868
 20
51.45001
 11
167.3868
 21
49.35001
  0
LINE
  8
0
  6
CONTINUOUS
 62
     7
 10
167.9868
 20
51.45001
 11
167.9868
 21
49.35001
  0
LINE
  8
0
  6
CONTINUOUS
 62
     7
 10
169.8868
 20
51.45001
 11
169.8868
 21
49.35001
  0
LINE
  8
0
  6
CONTINUOUS
 62
     7
 10
172.3868
 20
51.45001
 11
172.3868
 21
49.35001
  0
LINE
  8
0
  6
CONTINUOUS
 62
     7
 10
170.4868
 20
51.45001
 11
170.4868
 21
49.35001
  0
LINE
  8
0
  6
CONTINUOUS
 62
     7
 10
167.9868
 20
51.25003
 11
169.8868
 21
51.25003
  0
LINE
  8
0
  6
CONTINUOUS
 62
     7
 10
167.9868
 20
49.35001
 11
169.8868
 21
49.35001
  0
LINE
  8
0
  6
CONTINUOUS
 62
     7
 10
170.4868
 20
49.35001
 11
172.3868
 21
49.35001
  0
LINE
  8
0
  6
CONTINUOUS
 62
     7
 10
170.4868
 20
51.25003
 11
172.3868
 21
51.25003
  0
LINE
  8
0
  6
CONTINUOUS
 62
     7
 10
164.7368
 20
51.80002
 11
173.1368
 21
51.80002
  0
LINE
  8
0
  6
CONTINUOUS
 62
     7
 10
165.2368
 20
52.10001
 11
172.6368
 21
52.10001
  0
LINE
  8
0
  6
CONTINUOUS
 62
     7
 10
164.9368
 20
54.80002
 11
172.9368
 21
54.80002
  0
LINE
  8
0
  6
CONTINUOUS
 62
     7
 10
172.9368
 20
54.80002
 11
172.9368
 21
51.00003
  0
LINE
  8
0
  6
CONTINUOUS
 62
     7
 10
164.9368
 20
54.80002
 11
164.9368
 21
51.00003
  0
LINE
  8
0
  6
CONTINUOUS
 62
     7
 10
165.4868
 20
51.45001
 11
167.3868
 21
51.45001
  0
LINE
  8
0
  6
CONTINUOUS
 62
     7
 10
167.9868
 20
51.45001
 11
169.8868
 21
51.45001
  0
LINE
  8
0
  6
CONTINUOUS
 62
     7
 10
170.4868
 20
51.45001
 11
172.3868
 21
51.45001
  0
LINE
  8
0
  6
CONTINUOUS
 62
     7
 10
165.9368
 20
49.05002
 11
166.9368
 21
49.05002
  0
LINE
  8
0
  6
CONTINUOUS
 62
     7
 10
168.4368
 20
49.05002
 11
169.4368
 21
49.05002
  0
LINE
  8
0
  6
CONTINUOUS
 62
     7
 10
170.9368
 20
49.05002
 11
171.9368
 21
49.05002
  0
LINE
  8
0
  6
CONTINUOUS
 62
     7
 10
165.9368
 20
49.35001
 11
165.9368
 21
49.05002
  0
LINE
  8
0
  6
CONTINUOUS
 62
     7
 10
166.9368
 20
49.35001
 11
166.9368
 21
49.05002
  0
LINE
  8
0
  6
CONTINUOUS
 62
     7
 10
168.4368
 20
49.35001
 11
168.4368
 21
49.05002
  0
LINE
  8
0
  6
CONTINUOUS
 62
     7
 10
169.4368
 20
49.35001
 11
169.4368
 21
49.05002
  0
LINE
  8
0
  6
CONTINUOUS
 62
     7
 10
171.9368
 20
49.35001
 11
171.9368
 21
49.05002
  0
LINE
  8
0
  6
CONTINUOUS
 62
     7
 10
170.9368
 20
49.35001
 11
170.9368
 21
49.05002
  0
LINE
  8
0
  6
CONTINUOUS
 62
     7
 10
165.9368
 20
47.92502
 11
166.9368
 21
47.92502
  0
LINE
  8
0
  6
CONTINUOUS
 62
     7
 10
166.4368
 20
48.42502
 11
166.4368
 21
47.42502
  0
LINE
  8
0
  6
CONTINUOUS
 62
     7
 10
170.9368
 20
47.92502
 11
171.9368
 21
47.92502
  0
LINE
  8
0
  6
CONTINUOUS
 62
     7
 10
175.4368
 20
54.00003
 11
172.9368
 21
54.00003
  0
LINE
  8
0
  6
CENTER
 62
     2
 10
164.9368
 20
38.30002
 11
172.9368
 21
38.30002
  0
LINE
  8
0
  6
CONTINUOUS
 62
     7
 10
176.4368
 20
-78.79999
 11
176.4368
 21
-52.59998
  0
LINE
  8
0
  6
CONTINUOUS
 62
     7
 10
161.4368
 20
-78.79999
 11
161.4368
 21
-52.59998
  0
LINE
  8
0
  6
CONTINUOUS
 62
     7
 10
176.4368
 20
-77.79999
 11
175.9368
 21
-77.79999
  0
LINE
  8
0
  6
CONTINUOUS
 62
     7
 10
161.9368
 20
-79.59998
 11
161.9368
 21
-73.59998
  0
LINE
  8
0
  6
CONTINUOUS
 62
     7
 10
175.9368
 20
-79.59998
 11
175.9368
 21
-73.59998
  0
LINE
  8
0
  6
CONTINUOUS
 62
     7
 10
175.9368
 20
-79.59998
 11
161.9368
 21
-79.59998
  0
LINE
  8
0
  6
CONTINUOUS
 62
     7
 10
175.9368
 20
-73.59998
 11
161.9368
 21
-73.59998
  0
LINE
  8
0
  6
CONTINUOUS
 62
     7
 10
161.9368
 20
-77.79999
 11
161.4368
 21
-77.79999
  0
LINE
  8
0
  6
CONTINUOUS
 62
     7
 10
175.9368
 20
-72.79999
 11
175.9368
 21
-53.39998
  0
LINE
  8
0
  6
CONTINUOUS
 62
     7
 10
161.9368
 20
-72.79999
 11
161.9368
 21
-53.39998
  0
LINE
  8
0
  6
CONTINUOUS
 62
     7
 10
174.4368
 20
-54.09998
 11
163.4368
 21
-54.09998
  0
LINE
  8
0
  6
CONTINUOUS
 62
     7
 10
174.4368
 20
-62.59998
 11
163.4368
 21
-62.59998
  0
LINE
  8
0
  6
CONTINUOUS
 62
     7
 10
174.4368
 20
-62.59998
 11
174.4368
 21
-54.09998
  0
LINE
  8
0
  6
CONTINUOUS
 62
     7
 10
163.4368
 20
-62.59998
 11
163.4368
 21
-54.09998
  0
LINE
  8
0
  6
CONTINUOUS
 62
     7
 10
170.9368
 20
-66.09998
 11
166.9368
 21
-66.09998
  0
LINE
  8
0
  6
CONTINUOUS
 62
     7
 10
170.9368
 20
-64.09998
 11
166.9368
 21
-64.09998
  0
LINE
  8
0
  6
CONTINUOUS
 62
     7
 10
170.9368
 20
-66.09998
 11
170.9368
 21
-64.09998
  0
LINE
  8
0
  6
CONTINUOUS
 62
     7
 10
166.9368
 20
-66.09998
 11
166.9368
 21
-64.09998
  0
LINE
  8
0
  6
CONTINUOUS
 62
     7
 10
171.4368
 20
-66.59998
 11
166.4368
 21
-66.59998
  0
LINE
  8
0
  6
CONTINUOUS
 62
     7
 10
171.4368
 20
-66.59998
 11
171.4368
 21
-63.59998
  0
LINE
  8
0
  6
CONTINUOUS
 62
     7
 10
171.4368
 20
-63.59998
 11
166.4368
 21
-63.59998
  0
LINE
  8
0
  6
CONTINUOUS
 62
     7
 10
166.4368
 20
-66.59998
 11
166.4368
 21
-63.59998
  0
LINE
  8
0
  6
CONTINUOUS
 62
     7
 10
170.9367
 20
-66.10002
 11
171.4367
 21
-66.60003
  0
LINE
  8
0
  6
CONTINUOUS
 62
     7
 10
166.9368
 20
-66.09999
 11
166.4368
 21
-66.6
  0
LINE
  8
0
  6
CONTINUOUS
 62
     7
 10
166.9367
 20
-64.10004
 11
166.4367
 21
-63.60004
  0
LINE
  8
0
  6
CONTINUOUS
 62
     7
 10
170.9368
 20
-64.09998
 11
171.4368
 21
-63.59999
  0
LINE
  8
0
  6
CONTINUOUS
 62
     7
 10
175.4368
 20
-80.79999
 11
175.2626
 21
-80.79999
  0
LINE
  8
0
  6
CONTINUOUS
 62
     7
 10
176.4368
 20
-78.79999
 11
175.9368
 21
-78.79999
  0
LINE
  8
0
  6
CONTINUOUS
 62
     7
 10
176.4368
 20
-78.79996
 11
175.4368
 21
-80.79997
  0
LINE
  8
0
  6
CONTINUOUS
 62
     7
 10
161.4367
 20
-78.79999
 11
162.4367
 21
-80.8
  0
LINE
  8
0
  6
CENTER
 62
     2
 10
173.4368
 20
-83.79999
 11
173.4368
 21
-74.79999
  0
LINE
  8
0
  6
CONTINUOUS
 62
     7
 10
175.9368
 20
-79.39998
 11
175.9868
 21
-79.39998
  0
LINE
  8
0
  6
CONTINUOUS
 62
     7
 10
175.9868
 20
-79.39998
 11
175.9868
 21
-78.79999
  0
LINE
  8
0
  6
CONTINUOUS
 62
     7
 10
161.9368
 20
-78.79999
 11
161.4368
 21
-78.79999
  0
LINE
  8
0
  6
CONTINUOUS
 62
     7
 10
175.6868
 20
-80.09372
 11
175.6868
 21
-79.59998
  0
LINE
  8
0
  6
CONTINUOUS
 62
     7
 10
174.6368
 20
-75.99997
 11
172.9368
 21
-75.99997
  0
LINE
  8
0
  6
CONTINUOUS
 62
     7
 10
174.6368
 20
-77.99997
 11
173.1368
 21
-77.99997
  0
LINE
  8
0
  6
CONTINUOUS
 62
     7
 10
164.7368
 20
-79.59998
 11
164.7368
 21
-77.99997
  0
LINE
  8
0
  6
CONTINUOUS
 62
     7
 10
173.1368
 20
-79.59998
 11
173.1368
 21
-77.99997
  0
LINE
  8
0
  6
CONTINUOUS
 62
     7
 10
163.2368
 20
-77.99997
 11
163.2368
 21
-75.99997
  0
LINE
  8
0
  6
CONTINUOUS
 62
     7
 10
174.6368
 20
-77.99997
 11
174.6368
 21
-75.99997
  0
LINE
  8
0
  6
CONTINUOUS
 62
     7
 10
173.1368
 20
-75.99997
 11
173.1368
 21
-73.59998
  0
LINE
  8
0
  6
CONTINUOUS
 62
     7
 10
164.7368
 20
-75.99997
 11
164.7368
 21
-73.59998
  0
LINE
  8
0
  6
CONTINUOUS
 62
     7
 10
164.7368
 20
-77.99997
 11
163.2368
 21
-77.99997
  0
LINE
  8
0
  6
CONTINUOUS
 62
     7
 10
164.9368
 20
-75.99997
 11
163.2368
 21
-75.99997
  0
LINE
  8
0
  6
CENTER
 62
     2
 10
164.4368
 20
-83.79999
 11
164.4368
 21
-74.79999
  0
LINE
  8
0
  6
CONTINUOUS
 62
     7
 10
174.4368
 20
-77.79999
 11
172.9368
 21
-77.79999
  0
LINE
  8
0
  6
CONTINUOUS
 62
     7
 10
172.9368
 20
-80.59998
 11
164.9368
 21
-80.59998
  0
LINE
  8
0
  6
CONTINUOUS
 62
     7
 10
174.4368
 20
-77.79999
 11
174.4368
 21
-75.99997
  0
LINE
  8
0
  6
CONTINUOUS
 62
     7
 10
163.4368
 20
-77.79999
 11
163.4368
 21
-75.99997
  0
LINE
  8
0
  6
CONTINUOUS
 62
     7
 10
172.9367
 20
-78.59987
 11
172.6367
 21
-78.89986
  0
LINE
  8
0
  6
CONTINUOUS
 62
     7
 10
164.9367
 20
-78.60006
 11
165.2367
 21
-78.90005
  0
LINE
  8
0
  6
CONTINUOUS
 62
     7
 10
172.9368
 20
-75.99997
 11
172.9368
 21
-73.59998
  0
LINE
  8
0
  6
CONTINUOUS
 62
     7
 10
164.9368
 20
-75.99997
 11
164.9368
 21
-73.59998
  0
LINE
  8
0
  6
CONTINUOUS
 62
     7
 10
164.9368
 20
-77.79999
 11
163.4368
 21
-77.79999
  0
LINE
  8
0
  6
CENTER
 62
     2
 10
172.8868
 20
-77.09998
 11
164.9868
 21
-77.09998
  0
LINE
  8
0
  6
CENTER
 62
     2
 10
171.4368
 20
-78.44998
 11
171.4368
 21
-75.64998
  0
LINE
  8
0
  6
CENTER
 62
     2
 10
166.4368
 20
-78.44998
 11
166.4368
 21
-75.64998
  0
LINE
  8
0
  6
CONTINUOUS
 62
     7
 10
172.3868
 20
-78.04999
 11
170.4868
 21
-78.04999
  0
LINE
  8
0
  6
CONTINUOUS
 62
     7
 10
172.3868
 20
-76.14998
 11
170.4868
 21
-76.14998
  0
LINE
  8
0
  6
CONTINUOUS
 62
     7
 10
172.3868
 20
-78.24997
 11
172.3868
 21
-76.14998
  0
LINE
  8
0
  6
CONTINUOUS
 62
     7
 10
170.4868
 20
-78.24997
 11
170.4868
 21
-76.14998
  0
LINE
  8
0
  6
CONTINUOUS
 62
     7
 10
169.8868
 20
-78.24997
 11
169.8868
 21
-76.14998
  0
LINE
  8
0
  6
CONTINUOUS
 62
     7
 10
167.9868
 20
-78.24997
 11
167.9868
 21
-76.14998
  0
LINE
  8
0
  6
CONTINUOUS
 62
     7
 10
165.4868
 20
-78.24997
 11
165.4868
 21
-76.14998
  0
LINE
  8
0
  6
CONTINUOUS
 62
     7
 10
167.3868
 20
-78.24997
 11
167.3868
 21
-76.14998
  0
LINE
  8
0
  6
CONTINUOUS
 62
     7
 10
169.8868
 20
-78.04999
 11
167.9868
 21
-78.04999
  0
LINE
  8
0
  6
CONTINUOUS
 62
     7
 10
169.8868
 20
-76.14998
 11
167.9868
 21
-76.14998
  0
LINE
  8
0
  6
CONTINUOUS
 62
     7
 10
167.3868
 20
-76.14998
 11
165.4868
 21
-76.14998
  0
LINE
  8
0
  6
CONTINUOUS
 62
     7
 10
167.3868
 20
-78.04999
 11
165.4868
 21
-78.04999
  0
LINE
  8
0
  6
CONTINUOUS
 62
     7
 10
173.1368
 20
-78.59998
 11
164.7368
 21
-78.59998
  0
LINE
  8
0
  6
CONTINUOUS
 62
     7
 10
172.6368
 20
-78.89998
 11
165.2368
 21
-78.89998
  0
LINE
  8
0
  6
CONTINUOUS
 62
     7
 10
172.9368
 20
-81.59998
 11
164.9368
 21
-81.59998
  0
LINE
  8
0
  6
CONTINUOUS
 62
     7
 10
164.9368
 20
-81.59998
 11
164.9368
 21
-77.79999
  0
LINE
  8
0
  6
CONTINUOUS
 62
     7
 10
172.9368
 20
-81.59998
 11
172.9368
 21
-77.79999
  0
LINE
  8
0
  6
CONTINUOUS
 62
     7
 10
172.3868
 20
-78.24997
 11
170.4868
 21
-78.24997
  0
LINE
  8
0
  6
CONTINUOUS
 62
     7
 10
169.8868
 20
-78.24997
 11
167.9868
 21
-78.24997
  0
LINE
  8
0
  6
CONTINUOUS
 62
     7
 10
167.3868
 20
-78.24997
 11
165.4868
 21
-78.24997
  0
LINE
  8
0
  6
CONTINUOUS
 62
     7
 10
171.9368
 20
-75.84998
 11
170.9368
 21
-75.84998
  0
LINE
  8
0
  6
CONTINUOUS
 62
     7
 10
169.4368
 20
-75.84998
 11
168.4368
 21
-75.84998
  0
LINE
  8
0
  6
CONTINUOUS
 62
     7
 10
166.9368
 20
-75.84998
 11
165.9368
 21
-75.84998
  0
LINE
  8
0
  6
CONTINUOUS
 62
     7
 10
171.9368
 20
-76.14998
 11
171.9368
 21
-75.84998
  0
LINE
  8
0
  6
CONTINUOUS
 62
     7
 10
170.9368
 20
-76.14998
 11
170.9368
 21
-75.84998
  0
LINE
  8
0
  6
CONTINUOUS
 62
     7
 10
169.4368
 20
-76.14998
 11
169.4368
 21
-75.84998
  0
LINE
  8
0
  6
CONTINUOUS
 62
     7
 10
168.4368
 20
-76.14998
 11
168.4368
 21
-75.84998
  0
LINE
  8
0
  6
CONTINUOUS
 62
     7
 10
165.9368
 20
-76.14998
 11
165.9368
 21
-75.84998
  0
LINE
  8
0
  6
CONTINUOUS
 62
     7
 10
166.9368
 20
-76.14998
 11
166.9368
 21
-75.84998
  0
LINE
  8
0
  6
CONTINUOUS
 62
     7
 10
171.9368
 20
-74.72498
 11
170.9368
 21
-74.72498
  0
LINE
  8
0
  6
CONTINUOUS
 62
     7
 10
171.4368
 20
-75.22498
 11
171.4368
 21
-74.22498
  0
LINE
  8
0
  6
CONTINUOUS
 62
     7
 10
166.9368
 20
-74.72498
 11
165.9368
 21
-74.72498
  0
LINE
  8
0
  6
CONTINUOUS
 62
     7
 10
162.4368
 20
-80.79997
 11
164.9368
 21
-80.79997
  0
LINE
  8
0
  6
CENTER
 62
     2
 10
172.9368
 20
-65.09998
 11
164.9368
 21
-65.09998
  0
LINE
  8
0
  6
CENTER
 62
     2
 10
168.9371
 20
152.6735
 11
168.9371
 21
101.443
  0
LINE
  8
0
  6
CENTER
 62
     2
 10
157.1871
 20
136.7773
 11
181.1646
 21
136.7773
  0
LINE
  8
0
  6
CONTINUOUS
 62
     7
 10
176.4371
 20
124.7773
 11
161.4371
 21
124.7773
  0
LINE
  8
0
  6
CONTINUOUS
 62
     7
 10
175.9371
 20
115.6773
 11
172.9371
 21
115.6773
  0
LINE
  8
0
  6
CONTINUOUS
 62
     7
 10
167.4371
 20
127.7773
 11
167.4371
 21
124.7773
  0
LINE
  8
0
  6
CONTINUOUS
 62
     7
 10
170.4371
 20
145.7773
 11
170.4371
 21
148.7773
  0
LINE
  8
0
  6
CONTINUOUS
 62
     7
 10
173.4371
 20
142.7773
 11
176.4371
 21
142.7773
  0
LINE
  8
0
  6
CONTINUOUS
 62
     7
 10
164.4371
 20
130.7773
 11
161.4371
 21
130.7773
  0
LINE
  8
0
  6
CONTINUOUS
 62
     7
 10
170.4371
 20
147.7773
 11
162.4371
 21
147.7773
  0
LINE
  8
0
  6
CONTINUOUS
 62
     7
 10
175.4371
 20
125.7773
 11
167.4371
 21
125.7773
  0
LINE
  8
0
  6
CONTINUOUS
 62
     7
 10
175.4371
 20
142.7773
 11
175.4371
 21
125.7773
  0
LINE
  8
0
  6
CONTINUOUS
 62
     7
 10
162.4371
 20
147.7773
 11
162.4371
 21
130.7773
  0
LINE
  8
0
  6
CONTINUOUS
 62
     7
 10
162.2072
 20
127.4773
 11
161.9048
 21
127.4773
  0
LINE
  8
0
  6
CONTINUOUS
 62
     7
 10
162.2072
 20
128.0773
 11
161.9048
 21
128.0773
  0
LINE
  8
0
  6
CONTINUOUS
 62
     7
 10
161.9291
 20
128.238
 11
162.2348
 21
128.238
  0
LINE
  8
0
  6
CONTINUOUS
 62
     7
 10
175.667
 20
146.0773
 11
175.9694
 21
146.0773
  0
LINE
  8
0
  6
CONTINUOUS
 62
     7
 10
175.667
 20
145.4773
 11
175.9694
 21
145.4773
  0
LINE
  8
0
  6
CONTINUOUS
 62
     7
 10
175.9451
 20
145.3165
 11
175.6394
 21
145.3165
  0
LINE
  8
0
  6
CONTINUOUS
 62
     7
 10
163.7018
 20
128.8804
 11
164.0695
 21
128.5127
  0
LINE
  8
0
  6
CONTINUOUS
 62
     7
 10
163.3342
 20
128.5127
 11
163.7018
 21
128.1451
  0
LINE
  8
0
  6
CONTINUOUS
 62
     7
 10
163.7017
 20
128.8803
 11
163.3341
 21
128.5126
  0
LINE
  8
0
  6
CONTINUOUS
 62
     7
 10
165.5402
 20
127.0419
 11
165.1725
 21
126.6742
  0
LINE
  8
0
  6
CONTINUOUS
 62
     7
 10
165.8336
 20
129.5415
 11
164.8048
 21
128.5126
  0
LINE
  8
0
  6
CONTINUOUS
 62
     7
 10
166.2014
 20
129.1737
 11
165.1725
 21
128.1449
  0
LINE
  8
0
  6
CONTINUOUS
 62
     7
 10
165.1726
 20
127.4096
 11
165.5403
 21
127.042
  0
LINE
  8
0
  6
CONTINUOUS
 62
     7
 10
164.8049
 20
127.042
 11
165.1726
 21
126.6743
  0
LINE
  8
0
  6
CONTINUOUS
 62
     7
 10
163.7017
 20
127.4096
 11
162.6729
 21
126.3808
  0
LINE
  8
0
  6
CONTINUOUS
 62
     7
 10
164.0695
 20
127.0418
 11
163.0407
 21
126.013
  0
LINE
  8
0
  6
CONTINUOUS
 62
     7
 10
172.7018
 20
146.8805
 11
173.0695
 21
146.5128
  0
LINE
  8
0
  6
CONTINUOUS
 62
     7
 10
172.3341
 20
146.5128
 11
172.7018
 21
146.1451
  0
LINE
  8
0
  6
CONTINUOUS
 62
     7
 10
172.7018
 20
146.8803
 11
172.3341
 21
146.5126
  0
LINE
  8
0
  6
CONTINUOUS
 62
     7
 10
174.5402
 20
145.0419
 11
174.1725
 21
144.6742
  0
LINE
  8
0
  6
CONTINUOUS
 62
     7
 10
174.8336
 20
147.5414
 11
173.8048
 21
146.5126
  0
LINE
  8
0
  6
CONTINUOUS
 62
     7
 10
175.2013
 20
147.1737
 11
174.1726
 21
146.1449
  0
LINE
  8
0
  6
CONTINUOUS
 62
     7
 10
174.1726
 20
145.4097
 11
174.5403
 21
145.042
  0
LINE
  8
0
  6
CONTINUOUS
 62
     7
 10
173.8049
 20
145.042
 11
174.1726
 21
144.6743
  0
LINE
  8
0
  6
CONTINUOUS
 62
     7
 10
172.7017
 20
145.4095
 11
171.6729
 21
144.3808
  0
LINE
  8
0
  6
CONTINUOUS
 62
     7
 10
173.0695
 20
145.0419
 11
172.0407
 21
144.013
  0
LINE
  8
0
  6
CONTINUOUS
 62
     7
 10
172.9371
 20
106.2773
 11
164.9371
 21
106.2773
  0
LINE
  8
0
  6
CONTINUOUS
 62
     7
 10
172.9371
 20
111.9486
 11
164.9371
 21
111.9486
  0
LINE
  8
0
  6
CONTINUOUS
 62
     7
 10
172.9371
 20
123.2773
 11
164.9371
 21
123.2773
  0
LINE
  8
0
  6
CONTINUOUS
 62
     7
 10
164.7371
 20
124.7773
 11
164.7371
 21
121.2773
  0
LINE
  8
0
  6
CONTINUOUS
 62
     7
 10
173.1371
 20
124.7773
 11
173.1371
 21
121.2773
  0
LINE
  8
0
  6
CONTINUOUS
 62
     7
 10
173.1371
 20
121.2773
 11
172.9371
 21
121.2773
  0
LINE
  8
0
  6
CONTINUOUS
 62
     7
 10
173.1371
 20
120.2773
 11
172.9371
 21
120.2773
  0
LINE
  8
0
  6
CONTINUOUS
 62
     7
 10
164.7371
 20
120.2773
 11
164.7371
 21
115.6773
  0
LINE
  8
0
  6
CONTINUOUS
 62
     7
 10
173.1371
 20
120.2773
 11
173.1371
 21
115.6773
  0
LINE
  8
0
  6
CONTINUOUS
 62
     7
 10
164.9371
 20
115.6773
 11
161.9371
 21
115.6773
  0
LINE
  8
0
  6
CONTINUOUS
 62
     7
 10
164.9371
 20
120.2773
 11
164.7371
 21
120.2773
  0
LINE
  8
0
  6
CONTINUOUS
 62
     7
 10
164.9371
 20
121.2773
 11
164.7371
 21
121.2773
  0
LINE
  8
0
  6
CENTER
 62
     2
 10
168.4371
 20
127.7773
 11
160.4371
 21
127.7773
  0
LINE
  8
0
  6
CENTER
 62
     2
 10
177.4371
 20
145.7773
 11
169.4371
 21
145.7773
  0
LINE
  8
0
  6
CENTER
 62
     2
 10
173.4371
 20
149.7773
 11
173.4371
 21
141.7773
  0
LINE
  8
0
  6
CENTER
 62
     2
 10
164.4371
 20
131.7773
 11
164.4371
 21
123.7773
  0
LINE
  8
0
  6
CONTINUOUS
 62
     7
 10
176.4371
 20
148.2773
 11
176.4371
 21
124.7773
  0
LINE
  8
0
  6
CONTINUOUS
 62
     7
 10
175.9371
 20
148.7773
 11
161.9371
 21
148.7773
  0
LINE
  8
0
  6
CONTINUOUS
 62
     7
 10
161.4371
 20
148.2773
 11
161.4371
 21
124.7773
  0
LINE
  8
0
  6
CONTINUOUS
 62
     7
 10
175.9371
 20
124.7773
 11
175.9371
 21
115.5773
  0
LINE
  8
0
  6
CONTINUOUS
 62
     7
 10
175.1371
 20
114.7773
 11
174.4371
 21
114.7773
  0
LINE
  8
0
  6
CONTINUOUS
 62
     7
 10
163.4371
 20
114.7773
 11
162.7371
 21
114.7773
  0
LINE
  8
0
  6
CONTINUOUS
 62
     7
 10
161.9371
 20
124.7773
 11
161.9371
 21
115.5773
  0
LINE
  8
0
  6
CONTINUOUS
 62
     7
 10
163.4371
 20
115.6773
 11
163.4371
 21
104.2773
  0
LINE
  8
0
  6
CONTINUOUS
 62
     7
 10
174.4371
 20
104.2773
 11
163.4371
 21
104.2773
  0
LINE
  8
0
  6
CONTINUOUS
 62
     7
 10
174.4371
 20
115.6773
 11
174.4371
 21
104.2773
  0
LINE
  8
0
  6
CONTINUOUS
 62
     7
 10
172.9371
 20
123.2773
 11
172.9371
 21
104.2773
  0
LINE
  8
0
  6
CONTINUOUS
 62
     7
 10
164.9371
 20
123.2773
 11
164.9371
 21
104.2773
  0
LINE
  8
0
  6
CONTINUOUS
 62
     7
 10
172.2871
 20
104.2773
 11
172.2871
 21
99.1561
  0
LINE
  8
0
  6
CONTINUOUS
 62
     7
 10
170.5871
 20
104.2773
 11
170.5871
 21
99.61163
  0
LINE
  8
0
  6
CENTER
 62
     2
 10
171.4371
 20
107.2773
 11
171.4371
 21
81.27728
  0
LINE
  8
0
  6
CONTINUOUS
 62
     7
 10
171.7571
 20
94.27728
 11
171.7571
 21
84.27728
  0
LINE
  8
0
  6
CONTINUOUS
 62
     7
 10
172.2871
 20
94.27728
 11
170.5871
 21
94.27728
  0
LINE
  8
0
  6
CONTINUOUS
 62
     7
 10
171.7571
 20
84.27728
 11
171.1171
 21
84.27728
  0
LINE
  8
0
  6
CONTINUOUS
 62
     7
 10
171.1171
 20
94.27728
 11
171.1171
 21
84.27728
  0
LINE
  8
0
  6
CONTINUOUS
 62
     7
 10
166.7571
 20
94.27728
 11
166.7571
 21
84.27728
  0
LINE
  8
0
  6
CONTINUOUS
 62
     7
 10
166.7571
 20
84.27728
 11
166.1171
 21
84.27728
  0
LINE
  8
0
  6
CONTINUOUS
 62
     7
 10
166.1171
 20
94.27728
 11
166.1171
 21
84.27728
  0
LINE
  8
0
  6
CENTER
 62
     2
 10
166.4371
 20
107.2773
 11
166.4371
 21
81.27728
  0
LINE
  8
0
  6
CONTINUOUS
 62
     7
 10
167.2871
 20
104.2773
 11
167.2871
 21
100.4958
  0
LINE
  8
0
  6
CONTINUOUS
 62
     7
 10
167.2871
 20
94.27728
 11
165.5871
 21
94.27728
  0
LINE
  8
0
  6
CONTINUOUS
 62
     7
 10
165.5871
 20
104.2773
 11
165.5871
 21
100.9514
  0
LINE
  8
0
  6
PHANTOM
 62
     2
 10
163.5871
 20
101.4873
 11
174.2871
 21
98.62023
  0
LINE
  8
0
  6
PHANTOM
 62
     2
 10
163.5871
 20
99.93428
 11
174.2871
 21
97.06722
  0
LINE
  8
0
  6
CONTINUOUS
 62
     7
 10
172.2871
 20
97.60318
 11
172.2871
 21
94.27728
  0
LINE
  8
0
  6
CONTINUOUS
 62
     7
 10
170.5871
 20
98.05872
 11
170.5871
 21
94.27728
  0
LINE
  8
0
  6
CONTINUOUS
 62
     7
 10
167.2871
 20
98.94293
 11
167.2871
 21
94.27728
  0
LINE
  8
0
  6
CONTINUOUS
 62
     7
 10
165.5871
 20
99.39847
 11
165.5871
 21
94.27728
  0
LINE
  8
0
  6
CONTINUOUS
 62
     7
 10
161.9371
 20
124.2773
 11
160.9371
 21
124.2773
  0
LINE
  8
0
  6
CONTINUOUS
 62
     7
 10
175.9371
 20
123.2773
 11
177.4371
 21
123.2773
  0
LINE
  8
0
  6
CONTINUOUS
 62
     7
 10
177.9371
 20
149.7773
 11
177.9371
 21
123.7773
  0
LINE
  8
0
  6
CONTINUOUS
 62
     7
 10
159.9371
 20
149.7773
 11
159.9371
 21
123.7773
  0
LINE
  8
0
  6
CONTINUOUS
 62
     7
 10
160.4371
 20
123.2773
 11
161.9371
 21
123.2773
  0
LINE
  8
0
  6
CONTINUOUS
 62
     7
 10
160.4371
 20
150.2773
 11
177.4371
 21
150.2773
  0
LINE
  8
0
  6
CONTINUOUS
 62
     7
 10
176.9371
 20
149.2773
 11
176.9371
 21
124.2773
  0
LINE
  8
0
  6
CONTINUOUS
 62
     7
 10
160.9371
 20
149.2773
 11
160.9371
 21
124.2773
  0
LINE
  8
0
  6
CONTINUOUS
 62
     7
 10
176.9371
 20
149.2773
 11
160.9371
 21
149.2773
  0
LINE
  8
0
  6
CONTINUOUS
 62
     7
 10
176.9371
 20
124.2773
 11
175.9371
 21
124.2773
  0
LINE
  8
0
  6
CONTINUOUS
 62
     7
 10
160.937
 20
124.2773
 11
160.0835
 21
123.4237
  0
LINE
  8
0
  6
CONTINUOUS
 62
     7
 10
160.9371
 20
149.2773
 11
160.0835
 21
150.1308
  0
LINE
  8
0
  6
CONTINUOUS
 62
     7
 10
176.9371
 20
124.2772
 11
177.7906
 21
123.4237
  0
LINE
  8
0
  6
CONTINUOUS
 62
     7
 10
176.9371
 20
149.2773
 11
177.7907
 21
150.1309
  0
LINE
  8
0
  6
CENTER
 62
     2
 10
168.937
 20
-188.0754
 11
168.937
 21
-137.0616
  0
LINE
  8
0
  6
CENTER
 62
     2
 10
180.687
 20
-172.1791
 11
156.7095
 21
-172.1791
  0
LINE
  8
0
  6
CONTINUOUS
 62
     7
 10
161.437
 20
-160.1791
 11
176.437
 21
-160.1791
  0
LINE
  8
0
  6
CONTINUOUS
 62
     7
 10
161.937
 20
-151.0791
 11
164.937
 21
-151.0791
  0
LINE
  8
0
  6
CONTINUOUS
 62
     7
 10
170.437
 20
-163.1791
 11
170.437
 21
-160.1791
  0
LINE
  8
0
  6
CONTINUOUS
 62
     7
 10
167.437
 20
-181.1791
 11
167.437
 21
-184.1791
  0
LINE
  8
0
  6
CONTINUOUS
 62
     7
 10
164.437
 20
-178.1791
 11
161.437
 21
-178.1791
  0
LINE
  8
0
  6
CONTINUOUS
 62
     7
 10
173.437
 20
-166.1791
 11
176.437
 21
-166.1791
  0
LINE
  8
0
  6
CONTINUOUS
 62
     7
 10
167.437
 20
-183.1791
 11
175.437
 21
-183.1791
  0
LINE
  8
0
  6
CONTINUOUS
 62
     7
 10
162.437
 20
-161.1791
 11
170.437
 21
-161.1791
  0
LINE
  8
0
  6
CONTINUOUS
 62
     7
 10
162.437
 20
-178.1791
 11
162.437
 21
-161.1791
  0
LINE
  8
0
  6
CONTINUOUS
 62
     7
 10
175.437
 20
-183.1791
 11
175.437
 21
-166.1791
  0
LINE
  8
0
  6
CONTINUOUS
 62
     7
 10
175.6669
 20
-162.8791
 11
175.9693
 21
-162.8791
  0
LINE
  8
0
  6
CONTINUOUS
 62
     7
 10
175.6669
 20
-163.4791
 11
175.9693
 21
-163.4791
  0
LINE
  8
0
  6
CONTINUOUS
 62
     7
 10
175.945
 20
-163.6399
 11
175.6393
 21
-163.6399
  0
LINE
  8
0
  6
CONTINUOUS
 62
     7
 10
162.207
 20
-181.4791
 11
161.9047
 21
-181.4791
  0
LINE
  8
0
  6
CONTINUOUS
 62
     7
 10
162.207
 20
-180.8791
 11
161.9047
 21
-180.8791
  0
LINE
  8
0
  6
CONTINUOUS
 62
     7
 10
161.9289
 20
-180.7184
 11
162.2347
 21
-180.7184
  0
LINE
  8
0
  6
CONTINUOUS
 62
     7
 10
174.1724
 20
-164.2822
 11
173.8047
 21
-163.9145
  0
LINE
  8
0
  6
CONTINUOUS
 62
     7
 10
174.5401
 20
-163.9145
 11
174.1724
 21
-163.5468
  0
LINE
  8
0
  6
CONTINUOUS
 62
     7
 10
174.1724
 20
-164.2823
 11
174.5401
 21
-163.9146
  0
LINE
  8
0
  6
CONTINUOUS
 62
     7
 10
172.3339
 20
-162.4438
 11
172.7016
 21
-162.0761
  0
LINE
  8
0
  6
CONTINUOUS
 62
     7
 10
172.0405
 20
-164.9434
 11
173.0693
 21
-163.9146
  0
LINE
  8
0
  6
CONTINUOUS
 62
     7
 10
171.6728
 20
-164.5757
 11
172.7016
 21
-163.5469
  0
LINE
  8
0
  6
CONTINUOUS
 62
     7
 10
172.7016
 20
-162.8114
 11
172.3339
 21
-162.4437
  0
LINE
  8
0
  6
CONTINUOUS
 62
     7
 10
173.0694
 20
-162.4437
 11
172.7016
 21
-162.076
  0
LINE
  8
0
  6
CONTINUOUS
 62
     7
 10
174.1724
 20
-162.8115
 11
175.2012
 21
-161.7827
  0
LINE
  8
0
  6
CONTINUOUS
 62
     7
 10
173.8047
 20
-162.4438
 11
174.8335
 21
-161.415
  0
LINE
  8
0
  6
CONTINUOUS
 62
     7
 10
165.1724
 20
-182.2822
 11
164.8047
 21
-181.9145
  0
LINE
  8
0
  6
CONTINUOUS
 62
     7
 10
165.5401
 20
-181.9145
 11
165.1724
 21
-181.5468
  0
LINE
  8
0
  6
CONTINUOUS
 62
     7
 10
165.1724
 20
-182.2823
 11
165.5401
 21
-181.9146
  0
LINE
  8
0
  6
CONTINUOUS
 62
     7
 10
163.3339
 20
-180.4438
 11
163.7016
 21
-180.0761
  0
LINE
  8
0
  6
CONTINUOUS
 62
     7
 10
163.0406
 20
-182.9434
 11
164.0694
 21
-181.9146
  0
LINE
  8
0
  6
CONTINUOUS
 62
     7
 10
162.6728
 20
-182.5757
 11
163.7016
 21
-181.5469
  0
LINE
  8
0
  6
CONTINUOUS
 62
     7
 10
163.7016
 20
-180.8114
 11
163.3339
 21
-180.4437
  0
LINE
  8
0
  6
CONTINUOUS
 62
     7
 10
164.0693
 20
-180.4437
 11
163.7016
 21
-180.076
  0
LINE
  8
0
  6
CONTINUOUS
 62
     7
 10
165.1724
 20
-180.8115
 11
166.2012
 21
-179.7827
  0
LINE
  8
0
  6
CONTINUOUS
 62
     7
 10
164.8047
 20
-180.4438
 11
165.8335
 21
-179.415
  0
LINE
  8
0
  6
CONTINUOUS
 62
     7
 10
164.937
 20
-141.6791
 11
172.937
 21
-141.6791
  0
LINE
  8
0
  6
CONTINUOUS
 62
     7
 10
164.937
 20
-147.3504
 11
172.937
 21
-147.3504
  0
LINE
  8
0
  6
CONTINUOUS
 62
     7
 10
164.937
 20
-158.6791
 11
172.937
 21
-158.6791
  0
LINE
  8
0
  6
CONTINUOUS
 62
     7
 10
173.137
 20
-160.1791
 11
173.137
 21
-156.6791
  0
LINE
  8
0
  6
CONTINUOUS
 62
     7
 10
164.737
 20
-160.1791
 11
164.737
 21
-156.6791
  0
LINE
  8
0
  6
CONTINUOUS
 62
     7
 10
164.737
 20
-156.6791
 11
164.937
 21
-156.6791
  0
LINE
  8
0
  6
CONTINUOUS
 62
     7
 10
164.737
 20
-155.6791
 11
164.937
 21
-155.6791
  0
LINE
  8
0
  6
CONTINUOUS
 62
     7
 10
173.137
 20
-155.6791
 11
173.137
 21
-151.0791
  0
LINE
  8
0
  6
CONTINUOUS
 62
     7
 10
164.737
 20
-155.6791
 11
164.737
 21
-151.0791
  0
LINE
  8
0
  6
CONTINUOUS
 62
     7
 10
172.937
 20
-151.0791
 11
175.937
 21
-151.0791
  0
LINE
  8
0
  6
CONTINUOUS
 62
     7
 10
172.937
 20
-155.6791
 11
173.137
 21
-155.6791
  0
LINE
  8
0
  6
CONTINUOUS
 62
     7
 10
172.937
 20
-156.6791
 11
173.137
 21
-156.6791
  0
LINE
  8
0
  6
CENTER
 62
     2
 10
169.437
 20
-163.1791
 11
177.437
 21
-163.1791
  0
LINE
  8
0
  6
CENTER
 62
     2
 10
160.437
 20
-181.1791
 11
168.437
 21
-181.1791
  0
LINE
  8
0
  6
CENTER
 62
     2
 10
164.437
 20
-185.1791
 11
164.437
 21
-177.1791
  0
LINE
  8
0
  6
CENTER
 62
     2
 10
173.437
 20
-167.1791
 11
173.437
 21
-159.1791
  0
LINE
  8
0
  6
CONTINUOUS
 62
     7
 10
161.437
 20
-183.6791
 11
161.437
 21
-160.1791
  0
LINE
  8
0
  6
CONTINUOUS
 62
     7
 10
161.937
 20
-184.1791
 11
175.937
 21
-184.1791
  0
LINE
  8
0
  6
CONTINUOUS
 62
     7
 10
176.437
 20
-183.6791
 11
176.437
 21
-160.1791
  0
LINE
  8
0
  6
CONTINUOUS
 62
     7
 10
161.937
 20
-160.1791
 11
161.937
 21
-150.9791
  0
LINE
  8
0
  6
CONTINUOUS
 62
     7
 10
162.737
 20
-150.1791
 11
163.437
 21
-150.1791
  0
LINE
  8
0
  6
CONTINUOUS
 62
     7
 10
174.437
 20
-150.1791
 11
175.137
 21
-150.1791
  0
LINE
  8
0
  6
CONTINUOUS
 62
     7
 10
175.937
 20
-160.1791
 11
175.937
 21
-150.9791
  0
LINE
  8
0
  6
CONTINUOUS
 62
     7
 10
174.437
 20
-151.0791
 11
174.437
 21
-139.6791
  0
LINE
  8
0
  6
CONTINUOUS
 62
     7
 10
163.437
 20
-139.6791
 11
174.437
 21
-139.6791
  0
LINE
  8
0
  6
CONTINUOUS
 62
     7
 10
163.437
 20
-151.0791
 11
163.437
 21
-139.6791
  0
LINE
  8
0
  6
CONTINUOUS
 62
     7
 10
164.937
 20
-158.6791
 11
164.937
 21
-139.6791
  0
LINE
  8
0
  6
CONTINUOUS
 62
     7
 10
172.937
 20
-158.6791
 11
172.937
 21
-139.6791
  0
LINE
  8
0
  6
CONTINUOUS
 62
     7
 10
165.587
 20
-139.6791
 11
165.587
 21
-134.558
  0
LINE
  8
0
  6
CONTINUOUS
 62
     7
 10
167.287
 20
-139.6791
 11
167.287
 21
-135.0135
  0
LINE
  8
0
  6
CENTER
 62
     2
 10
166.437
 20
-142.6791
 11
166.437
 21
-116.6791
  0
LINE
  8
0
  6
CONTINUOUS
 62
     7
 10
166.117
 20
-129.6791
 11
166.117
 21
-119.6791
  0
LINE
  8
0
  6
CONTINUOUS
 62
     7
 10
165.587
 20
-129.6791
 11
167.287
 21
-129.6791
  0
LINE
  8
0
  6
CONTINUOUS
 62
     7
 10
166.117
 20
-119.6791
 11
166.757
 21
-119.6791
  0
LINE
  8
0
  6
CONTINUOUS
 62
     7
 10
166.757
 20
-129.6791
 11
166.757
 21
-119.6791
  0
LINE
  8
0
  6
CONTINUOUS
 62
     7
 10
171.117
 20
-129.6791
 11
171.117
 21
-119.6791
  0
LINE
  8
0
  6
CONTINUOUS
 62
     7
 10
171.117
 20
-119.6791
 11
171.757
 21
-119.6791
  0
LINE
  8
0
  6
CONTINUOUS
 62
     7
 10
171.757
 20
-129.6791
 11
171.757
 21
-119.6791
  0
LINE
  8
0
  6
CENTER
 62
     2
 10
171.437
 20
-142.6791
 11
171.437
 21
-116.6791
  0
LINE
  8
0
  6
CONTINUOUS
 62
     7
 10
170.587
 20
-139.6791
 11
170.587
 21
-135.8977
  0
LINE
  8
0
  6
CONTINUOUS
 62
     7
 10
170.587
 20
-129.6791
 11
172.287
 21
-129.6791
  0
LINE
  8
0
  6
CONTINUOUS
 62
     7
 10
172.287
 20
-139.6791
 11
172.287
 21
-136.3532
  0
LINE
  8
0
  6
PHANTOM
 62
     2
 10
174.287
 20
-136.8891
 11
163.587
 21
-134.0221
  0
LINE
  8
0
  6
PHANTOM
 62
     2
 10
174.2869
 20
-135.3362
 11
163.5869
 21
-132.4692
  0
LINE
  8
0
  6
CONTINUOUS
 62
     7
 10
165.587
 20
-133.0051
 11
165.587
 21
-129.6791
  0
LINE
  8
0
  6
CONTINUOUS
 62
     7
 10
167.287
 20
-133.4606
 11
167.287
 21
-129.6791
  0
LINE
  8
0
  6
CONTINUOUS
 62
     7
 10
170.587
 20
-134.3448
 11
170.587
 21
-129.6791
  0
LINE
  8
0
  6
CONTINUOUS
 62
     7
 10
172.287
 20
-134.8003
 11
172.287
 21
-129.6791
  0
LINE
  8
0
  6
CONTINUOUS
 62
     7
 10
175.937
 20
-159.6791
 11
176.937
 21
-159.6791
  0
LINE
  8
0
  6
CONTINUOUS
 62
     7
 10
161.937
 20
-158.6791
 11
160.437
 21
-158.6791
  0
LINE
  8
0
  6
CONTINUOUS
 62
     7
 10
159.937
 20
-185.1791
 11
159.937
 21
-159.1791
  0
LINE
  8
0
  6
CONTINUOUS
 62
     7
 10
177.937
 20
-185.1791
 11
177.937
 21
-159.1791
  0
LINE
  8
0
  6
CONTINUOUS
 62
     7
 10
177.437
 20
-158.6791
 11
175.937
 21
-158.6791
  0
LINE
  8
0
  6
CONTINUOUS
 62
     7
 10
177.437
 20
-185.6791
 11
160.437
 21
-185.6791
  0
LINE
  8
0
  6
CONTINUOUS
 62
     7
 10
160.937
 20
-184.6791
 11
160.937
 21
-159.6791
  0
LINE
  8
0
  6
CONTINUOUS
 62
     7
 10
176.937
 20
-184.6791
 11
176.937
 21
-159.6791
  0
LINE
  8
0
  6
CONTINUOUS
 62
     7
 10
160.937
 20
-184.6791
 11
176.937
 21
-184.6791
  0
LINE
  8
0
  6
CONTINUOUS
 62
     7
 10
160.937
 20
-159.6791
 11
161.937
 21
-159.6791
  0
LINE
  8
0
  6
CONTINUOUS
 62
     7
 10
176.9368
 20
-159.679
 11
177.7904
 21
-158.8254
  0
LINE
  8
0
  6
CONTINUOUS
 62
     7
 10
176.937
 20
-184.6791
 11
177.7905
 21
-185.5327
  0
LINE
  8
0
  6
CONTINUOUS
 62
     7
 10
160.9369
 20
-159.6791
 11
160.0834
 21
-158.8256
  0
LINE
  8
0
  6
CONTINUOUS
 62
     7
 10
160.937
 20
-184.6792
 11
160.0835
 21
-185.5327
  0
LINE
  8
0
  6
CENTER
 62
     2
 10
55.31197
 20
57.15021
 11
55.31197
 21
-83.00157
  0
LINE
  8
0
  6
CONTINUOUS
 62
     7
 10
42.81203
 20
25.80017
 11
41.81203
 21
24.80016
  0
LINE
  8
0
  6
CONTINUOUS
 62
     7
 10
67.81196
 20
25.80019
 11
68.81196
 21
24.80019
  0
LINE
  8
0
  6
CONTINUOUS
 62
     7
 10
65.81197
 20
-26.74149
 11
68.81197
 21
-26.74149
  0
LINE
  8
0
  6
CONTINUOUS
 62
     7
 10
65.81197
 20
-30.05811
 11
68.81197
 21
-30.05811
  0
LINE
  8
0
  6
CONTINUOUS
 62
     7
 10
65.81197
 20
-26.74149
 11
65.81197
 21
-30.05811
  0
LINE
  8
0
  6
CONTINUOUS
 62
     7
 10
42.812
 20
25.8002
 11
76.51198
 21
25.8002
  0
LINE
  8
0
  6
CONTINUOUS
 62
     7
 10
41.81197
 20
24.8002
 11
68.81197
 21
24.8002
  0
LINE
  8
0
  6
CONTINUOUS
 62
     7
 10
41.81203
 20
-34.3998
 11
68.81197
 21
-34.3998
  0
LINE
  8
0
  6
CONTINUOUS
 62
     7
 10
41.81203
 20
7.6002
 11
68.81197
 21
7.6002
  0
LINE
  8
0
  6
CONTINUOUS
 62
     7
 10
41.81203
 20
24.8002
 11
41.81203
 21
-51.59979
  0
LINE
  8
0
  6
CONTINUOUS
 62
     7
 10
41.81201
 20
-51.59979
 11
42.81201
 21
-52.59979
  0
LINE
  8
0
  6
CONTINUOUS
 62
     7
 10
68.81197
 20
24.8002
 11
68.81197
 21
-51.59979
  0
LINE
  8
0
  6
CONTINUOUS
 62
     7
 10
67.81197
 20
-52.59977
 11
68.81194
 21
-51.59979
  0
LINE
  8
0
  6
CONTINUOUS
 62
     7
 10
41.81203
 20
-51.59979
 11
68.81197
 21
-51.59979
  0
LINE
  8
0
  6
CONTINUOUS
 62
     7
 10
42.81203
 20
-52.59981
 11
76.51198
 21
-52.59981
  0
LINE
  8
0
  6
CENTER
 62
     2
 10
64.24217
 20
-28.3998
 11
70.09019
 21
-28.3998
  0
LINE
  8
0
  6
CENTER
 62
     2
 10
39.32112
 20
-13.3998
 11
70.97865
 21
-13.3998
  0
LINE
  8
0
  6
CONTINUOUS
 62
     7
 10
43.31197
 20
51.00021
 11
67.31197
 21
51.00021
  0
LINE
  8
0
  6
CONTINUOUS
 62
     7
 10
43.31197
 20
52.00021
 11
43.31197
 21
25.8002
  0
LINE
  8
0
  6
CONTINUOUS
 62
     7
 10
67.31197
 20
52.8002
 11
67.31197
 21
25.8002
  0
LINE
  8
0
  6
CONTINUOUS
 62
     7
 10
77.31197
 20
46.00021
 11
77.31197
 21
26.6002
  0
LINE
  8
0
  6
CONTINUOUS
 62
     7
 10
67.31197
 20
52.8002
 11
78.31197
 21
52.8002
  0
LINE
  8
0
  6
CONTINUOUS
 62
     7
 10
76.41197
 20
52.8002
 11
76.41197
 21
46.8002
  0
LINE
  8
0
  6
CONTINUOUS
 62
     7
 10
67.31197
 20
46.8002
 11
79.81197
 21
46.8002
  0
LINE
  8
0
  6
CONTINUOUS
 62
     7
 10
44.31197
 20
54.00021
 11
62.48622
 21
54.00021
  0
LINE
  8
0
  6
CONTINUOUS
 62
     7
 10
43.31197
 20
52.00021
 11
67.31197
 21
52.00021
  0
LINE
  8
0
  6
CONTINUOUS
 62
     7
 10
43.312
 20
52.00026
 11
44.312
 21
54.00025
  0
LINE
  8
0
  6
CONTINUOUS
 62
     7
 10
67.31194
 20
52.00019
 11
66.31194
 21
54.00019
  0
LINE
  8
0
  6
CONTINUOUS
 62
     7
 10
61.31197
 20
54.00021
 11
61.31197
 21
52.00021
  0
LINE
  8
0
  6
CENTER
 62
     2
 10
64.31197
 20
57.00021
 11
64.31197
 21
48.00021
  0
LINE
  8
0
  6
CONTINUOUS
 62
     7
 10
66.86198
 20
52.60019
 11
61.76198
 21
52.60019
  0
LINE
  8
0
  6
CONTINUOUS
 62
     7
 10
64.01198
 20
52.00021
 11
63.85121
 21
52.6002
  0
LINE
  8
0
  6
CONTINUOUS
 62
     7
 10
64.61214
 20
52.60027
 11
64.77291
 21
52.00026
  0
LINE
  8
0
  6
CONTINUOUS
 62
     7
 10
66.86198
 20
52.60019
 11
66.86198
 21
52.00021
  0
LINE
  8
0
  6
CONTINUOUS
 62
     7
 10
61.76198
 20
52.60019
 11
61.76198
 21
52.00021
  0
LINE
  8
0
  6
CONTINUOUS
 62
     7
 10
66.562
 20
53.29398
 11
66.562
 21
52.60022
  0
LINE
  8
0
  6
CONTINUOUS
 62
     7
 10
62.062
 20
53.29395
 11
62.062
 21
52.60019
  0
LINE
  8
0
  6
CONTINUOUS
 62
     7
 10
66.13777
 20
54.00021
 11
66.31197
 21
54.00021
  0
LINE
  8
0
  6
CENTER
 62
     2
 10
46.31197
 20
57.00021
 11
46.31197
 21
48.00021
  0
LINE
  8
0
  6
CONTINUOUS
 62
     7
 10
87.81197
 20
54.8002
 11
87.81197
 21
53.8002
  0
LINE
  8
0
  6
CONTINUOUS
 62
     7
 10
86.31197
 20
47.8002
 11
86.31197
 21
46.8002
  0
LINE
  8
0
  6
CONTINUOUS
 62
     7
 10
68.81197
 20
53.3002
 11
68.81197
 21
52.8002
  0
LINE
  8
0
  6
CONTINUOUS
 62
     7
 10
87.81197
 20
46.8002
 11
86.31197
 21
46.8002
  0
LINE
  8
0
  6
CONTINUOUS
 62
     7
 10
86.31197
 20
47.8002
 11
79.81197
 21
47.8002
  0
LINE
  8
0
  6
CONTINUOUS
 62
     7
 10
87.81197
 20
49.2002
 11
76.41197
 21
49.2002
  0
LINE
  8
0
  6
CONTINUOUS
 62
     7
 10
87.81197
 20
51.00021
 11
76.41197
 21
51.00021
  0
LINE
  8
0
  6
CONTINUOUS
 62
     7
 10
69.31197
 20
53.8002
 11
80.1407
 21
53.8002
  0
LINE
  8
0
  6
CONTINUOUS
 62
     7
 10
87.81197
 20
54.8002
 11
85.81197
 21
54.8002
  0
LINE
  8
0
  6
CONTINUOUS
 62
     7
 10
87.81197
 20
53.8002
 11
86.31197
 21
53.8002
  0
LINE
  8
0
  6
CONTINUOUS
 62
     7
 10
85.81199
 20
54.80016
 11
80.14072
 21
53.80016
  0
LINE
  8
0
  6
CONTINUOUS
 62
     7
 10
86.31194
 20
53.80015
 11
80.64067
 21
52.80015
  0
LINE
  8
0
  6
CONTINUOUS
 62
     7
 10
76.41197
 20
51.8002
 11
78.31197
 21
51.8002
  0
LINE
  8
0
  6
CONTINUOUS
 62
     7
 10
79.81197
 20
47.8002
 11
79.81197
 21
46.8002
  0
LINE
  8
0
  6
CONTINUOUS
 62
     7
 10
76.41197
 20
52.10019
 11
77.01198
 21
52.10019
  0
LINE
  8
0
  6
CONTINUOUS
 62
     7
 10
87.51191
 20
52.10017
 11
87.8119
 21
51.80018
  0
LINE
  8
0
  6
CONTINUOUS
 62
     7
 10
81.31198
 20
51.80021
 11
81.61198
 21
52.1002
  0
LINE
  8
0
  6
CONTINUOUS
 62
     7
 10
77.01208
 20
52.10027
 11
77.31209
 21
51.80026
  0
LINE
  8
0
  6
CONTINUOUS
 62
     7
 10
81.61198
 20
52.10019
 11
87.51198
 21
52.10019
  0
LINE
  8
0
  6
CONTINUOUS
 62
     7
 10
80.31197
 20
52.8002
 11
80.6407
 21
52.8002
  0
LINE
  8
0
  6
CONTINUOUS
 62
     7
 10
80.31197
 20
51.8002
 11
87.81197
 21
51.8002
  0
LINE
  8
0
  6
CONTINUOUS
 62
     7
 10
87.81197
 20
51.8002
 11
87.81197
 21
46.8002
  0
LINE
  8
0
  6
CONTINUOUS
 62
     7
 10
77.61198
 20
49.2002
 11
77.61198
 21
47.7002
  0
LINE
  8
0
  6
CONTINUOUS
 62
     7
 10
77.61198
 20
47.7002
 11
76.41197
 21
47.7002
  0
LINE
  8
0
  6
CENTER
 62
     2
 10
84.81197
 20
50.3002
 11
110.812
 21
50.3002
  0
LINE
  8
0
  6
CONTINUOUS
 62
     7
 10
87.81197
 20
49.4502
 11
91.80775
 21
49.4502
  0
LINE
  8
0
  6
CONTINUOUS
 62
     7
 10
87.81197
 20
51.15021
 11
92.26329
 21
51.15021
  0
LINE
  8
0
  6
CONTINUOUS
 62
     7
 10
97.81197
 20
50.62021
 11
107.812
 21
50.62021
  0
LINE
  8
0
  6
CONTINUOUS
 62
     7
 10
97.81197
 20
49.98019
 11
107.812
 21
49.98019
  0
LINE
  8
0
  6
CONTINUOUS
 62
     7
 10
97.81197
 20
51.15021
 11
97.81197
 21
49.4502
  0
LINE
  8
0
  6
CONTINUOUS
 62
     7
 10
107.812
 20
50.62021
 11
107.812
 21
49.98019
  0
LINE
  8
0
  6
PHANTOM
 62
     2
 10
91.27188
 20
47.45024
 11
92.79919
 21
53.15023
  0
LINE
  8
0
  6
PHANTOM
 62
     2
 10
92.82478
 20
47.45019
 11
94.35209
 21
53.15018
  0
LINE
  8
0
  6
CONTINUOUS
 62
     7
 10
93.81618
 20
51.15021
 11
97.81197
 21
51.15021
  0
LINE
  8
0
  6
CONTINUOUS
 62
     7
 10
93.36067
 20
49.4502
 11
97.81197
 21
49.4502
  0
LINE
  8
0
  6
CONTINUOUS
 62
     7
 10
43.31197
 20
-77.7998
 11
67.31197
 21
-77.7998
  0
LINE
  8
0
  6
CONTINUOUS
 62
     7
 10
43.31197
 20
-78.7998
 11
43.31197
 21
-52.59979
  0
LINE
  8
0
  6
CONTINUOUS
 62
     7
 10
67.31197
 20
-79.59979
 11
67.31197
 21
-52.59979
  0
LINE
  8
0
  6
CONTINUOUS
 62
     7
 10
77.31197
 20
-72.7998
 11
77.31197
 21
-53.3998
  0
LINE
  8
0
  6
CONTINUOUS
 62
     7
 10
67.31197
 20
-79.59979
 11
78.31197
 21
-79.59979
  0
LINE
  8
0
  6
CONTINUOUS
 62
     7
 10
76.41197
 20
-79.59979
 11
76.41197
 21
-73.59979
  0
LINE
  8
0
  6
CONTINUOUS
 62
     7
 10
67.31197
 20
-73.59979
 11
79.81197
 21
-73.59979
  0
LINE
  8
0
  6
CONTINUOUS
 62
     7
 10
66.31197
 20
-80.7998
 11
48.13774
 21
-80.7998
  0
LINE
  8
0
  6
CONTINUOUS
 62
     7
 10
43.31197
 20
-78.7998
 11
67.31197
 21
-78.7998
  0
LINE
  8
0
  6
CONTINUOUS
 62
     7
 10
67.3119
 20
-78.79973
 11
66.3119
 21
-80.79974
  0
LINE
  8
0
  6
CONTINUOUS
 62
     7
 10
43.31192
 20
-78.79982
 11
44.31192
 21
-80.7998
  0
LINE
  8
0
  6
CONTINUOUS
 62
     7
 10
49.31197
 20
-80.7998
 11
49.31197
 21
-78.7998
  0
LINE
  8
0
  6
CENTER
 62
     2
 10
46.31197
 20
-83.7998
 11
46.31197
 21
-74.7998
  0
LINE
  8
0
  6
CONTINUOUS
 62
     7
 10
43.76198
 20
-79.3998
 11
48.86198
 21
-79.3998
  0
LINE
  8
0
  6
CONTINUOUS
 62
     7
 10
46.61171
 20
-78.79982
 11
46.77249
 21
-79.39982
  0
LINE
  8
0
  6
CONTINUOUS
 62
     7
 10
46.01183
 20
-79.39981
 11
45.85105
 21
-78.79983
  0
LINE
  8
0
  6
CONTINUOUS
 62
     7
 10
43.76198
 20
-79.3998
 11
43.76198
 21
-78.7998
  0
LINE
  8
0
  6
CONTINUOUS
 62
     7
 10
48.86198
 20
-79.3998
 11
48.86198
 21
-78.7998
  0
LINE
  8
0
  6
CONTINUOUS
 62
     7
 10
44.062
 20
-80.09354
 11
44.062
 21
-79.3998
  0
LINE
  8
0
  6
CONTINUOUS
 62
     7
 10
48.56197
 20
-80.09354
 11
48.56197
 21
-79.3998
  0
LINE
  8
0
  6
CONTINUOUS
 62
     7
 10
44.48622
 20
-80.7998
 11
44.312
 21
-80.7998
  0
LINE
  8
0
  6
CENTER
 62
     2
 10
64.31197
 20
-83.7998
 11
64.31197
 21
-74.7998
  0
LINE
  8
0
  6
CONTINUOUS
 62
     7
 10
87.81197
 20
-81.59979
 11
87.81197
 21
-80.59979
  0
LINE
  8
0
  6
CONTINUOUS
 62
     7
 10
86.31197
 20
-74.59979
 11
86.31197
 21
-73.59979
  0
LINE
  8
0
  6
CONTINUOUS
 62
     7
 10
68.81197
 20
-80.09979
 11
68.81197
 21
-79.59979
  0
LINE
  8
0
  6
CONTINUOUS
 62
     7
 10
87.81197
 20
-73.59979
 11
86.31197
 21
-73.59979
  0
LINE
  8
0
  6
CONTINUOUS
 62
     7
 10
86.31197
 20
-74.59979
 11
79.81197
 21
-74.59979
  0
LINE
  8
0
  6
CONTINUOUS
 62
     7
 10
87.81197
 20
-75.99979
 11
76.41197
 21
-75.99979
  0
LINE
  8
0
  6
CONTINUOUS
 62
     7
 10
87.81197
 20
-77.7998
 11
76.41197
 21
-77.7998
  0
LINE
  8
0
  6
CONTINUOUS
 62
     7
 10
69.31197
 20
-80.59979
 11
80.1407
 21
-80.59979
  0
LINE
  8
0
  6
CONTINUOUS
 62
     7
 10
87.81197
 20
-81.59979
 11
85.81197
 21
-81.59979
  0
LINE
  8
0
  6
CONTINUOUS
 62
     7
 10
87.81197
 20
-80.59979
 11
86.31197
 21
-80.59979
  0
LINE
  8
0
  6
CONTINUOUS
 62
     7
 10
85.81198
 20
-81.59981
 11
80.14068
 21
-80.59981
  0
LINE
  8
0
  6
CONTINUOUS
 62
     7
 10
86.31197
 20
-80.59982
 11
80.64068
 21
-79.59982
  0
LINE
  8
0
  6
CONTINUOUS
 62
     7
 10
76.41197
 20
-78.59979
 11
78.31197
 21
-78.59979
  0
LINE
  8
0
  6
CONTINUOUS
 62
     7
 10
79.81197
 20
-74.59979
 11
79.81197
 21
-73.59979
  0
LINE
  8
0
  6
CONTINUOUS
 62
     7
 10
76.41197
 20
-78.8998
 11
77.01198
 21
-78.8998
  0
LINE
  8
0
  6
CONTINUOUS
 62
     7
 10
87.51183
 20
-78.89964
 11
87.81181
 21
-78.59965
  0
LINE
  8
0
  6
CONTINUOUS
 62
     7
 10
81.31215
 20
-78.59968
 11
81.61215
 21
-78.89968
  0
LINE
  8
0
  6
CONTINUOUS
 62
     7
 10
77.01202
 20
-78.89986
 11
77.312
 21
-78.59985
  0
LINE
  8
0
  6
CONTINUOUS
 62
     7
 10
81.61198
 20
-78.8998
 11
87.51198
 21
-78.8998
  0
LINE
  8
0
  6
CONTINUOUS
 62
     7
 10
80.31197
 20
-79.59979
 11
80.6407
 21
-79.59979
  0
LINE
  8
0
  6
CONTINUOUS
 62
     7
 10
80.31197
 20
-78.59979
 11
87.81197
 21
-78.59979
  0
LINE
  8
0
  6
CONTINUOUS
 62
     7
 10
87.81197
 20
-78.59979
 11
87.81197
 21
-73.59979
  0
LINE
  8
0
  6
CONTINUOUS
 62
     7
 10
77.61198
 20
-75.99979
 11
77.61198
 21
-74.49979
  0
LINE
  8
0
  6
CONTINUOUS
 62
     7
 10
77.61198
 20
-74.49979
 11
76.41197
 21
-74.49979
  0
LINE
  8
0
  6
CENTER
 62
     2
 10
84.81197
 20
-77.09979
 11
110.812
 21
-77.09979
  0
LINE
  8
0
  6
CONTINUOUS
 62
     7
 10
87.81197
 20
-76.24979
 11
92.26326
 21
-76.24979
  0
LINE
  8
0
  6
CONTINUOUS
 62
     7
 10
87.81197
 20
-77.9498
 11
91.80775
 21
-77.9498
  0
LINE
  8
0
  6
CONTINUOUS
 62
     7
 10
97.81197
 20
-77.4198
 11
107.812
 21
-77.4198
  0
LINE
  8
0
  6
CONTINUOUS
 62
     7
 10
97.81197
 20
-76.7798
 11
107.812
 21
-76.7798
  0
LINE
  8
0
  6
CONTINUOUS
 62
     7
 10
97.81197
 20
-77.9498
 11
97.81197
 21
-76.24979
  0
LINE
  8
0
  6
CONTINUOUS
 62
     7
 10
107.812
 20
-77.4198
 11
107.812
 21
-76.7798
  0
LINE
  8
0
  6
PHANTOM
 62
     2
 10
91.27193
 20
-79.94981
 11
92.79924
 21
-74.2498
  0
LINE
  8
0
  6
PHANTOM
 62
     2
 10
92.82493
 20
-79.94981
 11
94.35224
 21
-74.24981
  0
LINE
  8
0
  6
CONTINUOUS
 62
     7
 10
93.81618
 20
-76.24979
 11
97.81197
 21
-76.24979
  0
LINE
  8
0
  6
CONTINUOUS
 62
     7
 10
93.36067
 20
-77.9498
 11
97.81197
 21
-77.9498
  0
LINE
  8
0
  6
CENTER
 62
     2
 10
285.5611
 20
57.15012
 11
285.5611
 21
-82.39769
  0
LINE
  8
0
  6
CONTINUOUS
 62
     7
 10
272.0611
 20
24.80009
 11
272.0611
 21
-51.5999
  0
LINE
  8
0
  6
CONTINUOUS
 62
     7
 10
299.0611
 20
24.80009
 11
299.0611
 21
-51.5999
  0
LINE
  8
0
  6
CONTINUOUS
 62
     7
 10
298.061
 20
25.80001
 11
299.061
 21
24.79999
  0
LINE
  8
0
  6
CONTINUOUS
 62
     7
 10
273.0611
 20
25.80011
 11
272.0611
 21
24.80009
  0
LINE
  8
0
  6
CONTINUOUS
 62
     7
 10
275.0611
 20
3.25841
 11
272.0611
 21
3.25841
  0
LINE
  8
0
  6
CONTINUOUS
 62
     7
 10
275.0611
 20
-0.05821
 11
272.0611
 21
-0.05821
  0
LINE
  8
0
  6
CONTINUOUS
 62
     7
 10
275.0611
 20
3.25841
 11
275.0611
 21
-0.05821
  0
LINE
  8
0
  6
CONTINUOUS
 62
     7
 10
298.0611
 20
25.80009
 11
264.3611
 21
25.80009
  0
LINE
  8
0
  6
CONTINUOUS
 62
     7
 10
299.0611
 20
24.80009
 11
272.0611
 21
24.80009
  0
LINE
  8
0
  6
CENTER
 62
     2
 10
269.5611
 20
-13.3999
 11
301.5176
 21
-13.3999
  0
LINE
  8
0
  6
CONTINUOUS
 62
     7
 10
299.0611
 20
-34.3999
 11
272.0611
 21
-34.3999
  0
LINE
  8
0
  6
CONTINUOUS
 62
     7
 10
299.0611
 20
7.6001
 11
272.0611
 21
7.6001
  0
LINE
  8
0
  6
CONTINUOUS
 62
     7
 10
272.0611
 20
-51.59996
 11
273.0612
 21
-52.59998
  0
LINE
  8
0
  6
CONTINUOUS
 62
     7
 10
299.0611
 20
-51.59988
 11
298.061
 21
-52.5999
  0
LINE
  8
0
  6
CONTINUOUS
 62
     7
 10
272.0611
 20
-51.5999
 11
299.0611
 21
-51.5999
  0
LINE
  8
0
  6
CONTINUOUS
 62
     7
 10
298.0611
 20
-52.59988
 11
264.3611
 21
-52.59988
  0
LINE
  8
0
  6
CENTER
 62
     2
 10
270.5372
 20
1.6001
 11
276.0939
 21
1.6001
  0
LINE
  8
0
  6
CONTINUOUS
 62
     7
 10
297.5611
 20
51.00009
 11
273.5611
 21
51.00009
  0
LINE
  8
0
  6
CONTINUOUS
 62
     7
 10
297.5611
 20
52.00009
 11
297.5611
 21
25.80009
  0
LINE
  8
0
  6
CONTINUOUS
 62
     7
 10
273.5611
 20
52.80011
 11
273.5611
 21
25.80009
  0
LINE
  8
0
  6
CONTINUOUS
 62
     7
 10
263.5611
 20
46.00009
 11
263.5611
 21
26.6001
  0
LINE
  8
0
  6
CONTINUOUS
 62
     7
 10
273.5611
 20
52.80011
 11
262.5611
 21
52.80011
  0
LINE
  8
0
  6
CONTINUOUS
 62
     7
 10
264.4611
 20
52.80011
 11
264.4611
 21
46.80011
  0
LINE
  8
0
  6
CONTINUOUS
 62
     7
 10
273.5611
 20
46.80011
 11
261.0611
 21
46.80011
  0
LINE
  8
0
  6
CONTINUOUS
 62
     7
 10
274.5611
 20
54.00009
 11
292.7354
 21
54.00009
  0
LINE
  8
0
  6
CONTINUOUS
 62
     7
 10
297.5611
 20
52.00009
 11
273.5611
 21
52.00009
  0
LINE
  8
0
  6
CONTINUOUS
 62
     7
 10
273.5611
 20
52.00011
 11
274.5611
 21
54.00013
  0
LINE
  8
0
  6
CONTINUOUS
 62
     7
 10
297.561
 20
52.00004
 11
296.561
 21
54.00003
  0
LINE
  8
0
  6
CONTINUOUS
 62
     7
 10
291.5611
 20
54.00009
 11
291.5611
 21
52.00009
  0
LINE
  8
0
  6
CENTER
 62
     2
 10
294.5611
 20
57.00009
 11
294.5611
 21
48.00009
  0
LINE
  8
0
  6
CONTINUOUS
 62
     7
 10
297.1111
 20
52.6001
 11
292.0111
 21
52.6001
  0
LINE
  8
0
  6
CONTINUOUS
 62
     7
 10
294.2607
 20
51.99998
 11
294.0999
 21
52.59998
  0
LINE
  8
0
  6
CONTINUOUS
 62
     7
 10
294.8606
 20
52.59997
 11
295.0214
 21
51.99997
  0
LINE
  8
0
  6
CONTINUOUS
 62
     7
 10
297.1111
 20
52.6001
 11
297.1111
 21
52.00009
  0
LINE
  8
0
  6
CONTINUOUS
 62
     7
 10
292.0111
 20
52.6001
 11
292.0111
 21
52.00009
  0
LINE
  8
0
  6
CONTINUOUS
 62
     7
 10
296.8111
 20
53.29385
 11
296.8111
 21
52.6001
  0
LINE
  8
0
  6
CONTINUOUS
 62
     7
 10
292.3111
 20
53.29385
 11
292.3111
 21
52.6001
  0
LINE
  8
0
  6
CONTINUOUS
 62
     7
 10
296.3868
 20
54.00009
 11
296.5611
 21
54.00009
  0
LINE
  8
0
  6
CENTER
 62
     2
 10
276.5611
 20
57.00009
 11
276.5611
 21
48.00009
  0
LINE
  8
0
  6
CONTINUOUS
 62
     7
 10
253.0611
 20
54.80011
 11
253.0611
 21
53.80011
  0
LINE
  8
0
  6
CONTINUOUS
 62
     7
 10
254.5611
 20
47.80011
 11
254.5611
 21
46.80011
  0
LINE
  8
0
  6
CONTINUOUS
 62
     7
 10
272.0611
 20
53.30011
 11
272.0611
 21
52.80011
  0
LINE
  8
0
  6
CONTINUOUS
 62
     7
 10
253.0611
 20
46.80011
 11
254.5611
 21
46.80011
  0
LINE
  8
0
  6
CONTINUOUS
 62
     7
 10
254.5611
 20
47.80011
 11
261.0611
 21
47.80011
  0
LINE
  8
0
  6
CONTINUOUS
 62
     7
 10
253.0611
 20
49.2001
 11
264.4611
 21
49.2001
  0
LINE
  8
0
  6
CONTINUOUS
 62
     7
 10
253.0611
 20
51.00009
 11
264.4611
 21
51.00009
  0
LINE
  8
0
  6
CONTINUOUS
 62
     7
 10
271.5611
 20
53.80011
 11
260.7324
 21
53.80011
  0
LINE
  8
0
  6
CONTINUOUS
 62
     7
 10
253.0611
 20
54.80011
 11
255.0611
 21
54.80011
  0
LINE
  8
0
  6
CONTINUOUS
 62
     7
 10
253.0611
 20
53.80011
 11
254.5611
 21
53.80011
  0
LINE
  8
0
  6
CONTINUOUS
 62
     7
 10
255.0611
 20
54.80003
 11
260.7324
 21
53.80003
  0
LINE
  8
0
  6
CONTINUOUS
 62
     7
 10
254.5611
 20
53.80008
 11
260.2324
 21
52.80007
  0
LINE
  8
0
  6
CONTINUOUS
 62
     7
 10
264.4611
 20
51.80011
 11
262.5611
 21
51.80011
  0
LINE
  8
0
  6
CONTINUOUS
 62
     7
 10
261.0611
 20
47.80011
 11
261.0611
 21
46.80011
  0
LINE
  8
0
  6
CONTINUOUS
 62
     7
 10
264.4611
 20
52.1001
 11
263.8611
 21
52.1001
  0
LINE
  8
0
  6
CONTINUOUS
 62
     7
 10
253.3611
 20
52.10014
 11
253.0611
 21
51.80014
  0
LINE
  8
0
  6
CONTINUOUS
 62
     7
 10
259.5614
 20
51.80032
 11
259.2614
 21
52.10031
  0
LINE
  8
0
  6
CONTINUOUS
 62
     7
 10
263.8611
 20
52.10009
 11
263.5611
 21
51.80009
  0
LINE
  8
0
  6
CONTINUOUS
 62
     7
 10
259.2611
 20
52.1001
 11
253.3611
 21
52.1001
  0
LINE
  8
0
  6
CONTINUOUS
 62
     7
 10
260.5611
 20
52.80011
 11
260.2324
 21
52.80011
  0
LINE
  8
0
  6
CONTINUOUS
 62
     7
 10
260.5611
 20
51.80011
 11
253.0611
 21
51.80011
  0
LINE
  8
0
  6
CONTINUOUS
 62
     7
 10
253.0611
 20
51.80011
 11
253.0611
 21
46.80011
  0
LINE
  8
0
  6
CONTINUOUS
 62
     7
 10
263.2611
 20
49.2001
 11
263.2611
 21
47.7001
  0
LINE
  8
0
  6
CONTINUOUS
 62
     7
 10
263.2611
 20
47.7001
 11
264.4611
 21
47.7001
  0
LINE
  8
0
  6
CENTER
 62
     2
 10
256.0611
 20
50.30011
 11
230.0611
 21
50.30011
  0
LINE
  8
0
  6
CONTINUOUS
 62
     7
 10
253.0611
 20
49.4501
 11
248.6098
 21
49.4501
  0
LINE
  8
0
  6
CONTINUOUS
 62
     7
 10
253.0611
 20
51.15012
 11
249.0653
 21
51.15012
  0
LINE
  8
0
  6
CONTINUOUS
 62
     7
 10
243.0611
 20
50.62009
 11
233.0611
 21
50.62009
  0
LINE
  8
0
  6
CONTINUOUS
 62
     7
 10
243.0611
 20
49.9801
 11
233.0611
 21
49.9801
  0
LINE
  8
0
  6
CONTINUOUS
 62
     7
 10
243.0611
 20
51.15012
 11
243.0611
 21
49.4501
  0
LINE
  8
0
  6
CONTINUOUS
 62
     7
 10
233.0611
 20
50.62009
 11
233.0611
 21
49.9801
  0
LINE
  8
0
  6
PHANTOM
 62
     2
 10
249.6012
 20
53.15006
 11
248.0739
 21
47.45005
  0
LINE
  8
0
  6
PHANTOM
 62
     2
 10
248.0484
 20
53.15008
 11
246.5211
 21
47.4501
  0
LINE
  8
0
  6
CONTINUOUS
 62
     7
 10
247.0569
 20
49.4501
 11
243.0611
 21
49.4501
  0
LINE
  8
0
  6
CONTINUOUS
 62
     7
 10
247.5124
 20
51.15012
 11
243.0611
 21
51.15012
  0
LINE
  8
0
  6
CONTINUOUS
 62
     7
 10
297.5611
 20
-77.7999
 11
273.5611
 21
-77.7999
  0
LINE
  8
0
  6
CONTINUOUS
 62
     7
 10
297.5611
 20
-78.7999
 11
297.5611
 21
-52.5999
  0
LINE
  8
0
  6
CONTINUOUS
 62
     7
 10
273.5611
 20
-79.5999
 11
273.5611
 21
-52.5999
  0
LINE
  8
0
  6
CONTINUOUS
 62
     7
 10
263.5611
 20
-72.7999
 11
263.5611
 21
-53.3999
  0
LINE
  8
0
  6
CONTINUOUS
 62
     7
 10
273.5611
 20
-79.5999
 11
262.5611
 21
-79.5999
  0
LINE
  8
0
  6
CONTINUOUS
 62
     7
 10
264.4611
 20
-79.5999
 11
264.4611
 21
-73.5999
  0
LINE
  8
0
  6
CONTINUOUS
 62
     7
 10
273.5611
 20
-73.5999
 11
261.0611
 21
-73.5999
  0
LINE
  8
0
  6
CONTINUOUS
 62
     7
 10
296.5611
 20
-80.7999
 11
278.3868
 21
-80.7999
  0
LINE
  8
0
  6
CONTINUOUS
 62
     7
 10
297.5611
 20
-78.7999
 11
273.5611
 21
-78.7999
  0
LINE
  8
0
  6
CONTINUOUS
 62
     7
 10
297.561
 20
-78.79988
 11
296.561
 21
-80.7999
  0
LINE
  8
0
  6
CONTINUOUS
 62
     7
 10
273.5611
 20
-78.79991
 11
274.5611
 21
-80.7999
  0
LINE
  8
0
  6
CONTINUOUS
 62
     7
 10
279.5611
 20
-80.7999
 11
279.5611
 21
-78.7999
  0
LINE
  8
0
  6
CENTER
 62
     2
 10
276.5611
 20
-83.7999
 11
276.5611
 21
-74.7999
  0
LINE
  8
0
  6
CONTINUOUS
 62
     7
 10
274.0111
 20
-79.3999
 11
279.1111
 21
-79.3999
  0
LINE
  8
0
  6
CONTINUOUS
 62
     7
 10
276.8611
 20
-78.7999
 11
277.0219
 21
-79.39989
  0
LINE
  8
0
  6
CONTINUOUS
 62
     7
 10
276.2614
 20
-79.39983
 11
276.1006
 21
-78.79984
  0
LINE
  8
0
  6
CONTINUOUS
 62
     7
 10
274.0111
 20
-79.3999
 11
274.0111
 21
-78.7999
  0
LINE
  8
0
  6
CONTINUOUS
 62
     7
 10
279.1111
 20
-79.3999
 11
279.1111
 21
-78.7999
  0
LINE
  8
0
  6
CONTINUOUS
 62
     7
 10
274.3111
 20
-80.09366
 11
274.3111
 21
-79.3999
  0
LINE
  8
0
  6
CONTINUOUS
 62
     7
 10
278.8111
 20
-80.09363
 11
278.8111
 21
-79.39989
  0
LINE
  8
0
  6
CONTINUOUS
 62
     7
 10
274.7353
 20
-80.7999
 11
274.5611
 21
-80.7999
  0
LINE
  8
0
  6
CENTER
 62
     2
 10
294.5611
 20
-83.7999
 11
294.5611
 21
-74.7999
  0
LINE
  8
0
  6
CONTINUOUS
 62
     7
 10
253.0611
 20
-81.5999
 11
253.0611
 21
-80.5999
  0
LINE
  8
0
  6
CONTINUOUS
 62
     7
 10
254.5611
 20
-74.5999
 11
254.5611
 21
-73.5999
  0
LINE
  8
0
  6
CONTINUOUS
 62
     7
 10
272.0611
 20
-80.0999
 11
272.0611
 21
-79.5999
  0
LINE
  8
0
  6
CONTINUOUS
 62
     7
 10
253.0611
 20
-73.5999
 11
254.5611
 21
-73.5999
  0
LINE
  8
0
  6
CONTINUOUS
 62
     7
 10
254.5611
 20
-74.5999
 11
261.0611
 21
-74.5999
  0
LINE
  8
0
  6
CONTINUOUS
 62
     7
 10
253.0611
 20
-75.99991
 11
264.4611
 21
-75.99991
  0
LINE
  8
0
  6
CONTINUOUS
 62
     7
 10
253.0611
 20
-77.7999
 11
264.4611
 21
-77.7999
  0
LINE
  8
0
  6
CONTINUOUS
 62
     7
 10
271.5611
 20
-80.5999
 11
260.7324
 21
-80.5999
  0
LINE
  8
0
  6
CONTINUOUS
 62
     7
 10
253.0611
 20
-81.5999
 11
255.0611
 21
-81.5999
  0
LINE
  8
0
  6
CONTINUOUS
 62
     7
 10
253.0611
 20
-80.5999
 11
254.5611
 21
-80.5999
  0
LINE
  8
0
  6
CONTINUOUS
 62
     7
 10
255.0611
 20
-81.59987
 11
260.7323
 21
-80.59988
  0
LINE
  8
0
  6
CONTINUOUS
 62
     7
 10
254.5611
 20
-80.5999
 11
260.2324
 21
-79.59989
  0
LINE
  8
0
  6
CONTINUOUS
 62
     7
 10
264.4611
 20
-78.5999
 11
262.5611
 21
-78.5999
  0
LINE
  8
0
  6
CONTINUOUS
 62
     7
 10
261.0611
 20
-74.5999
 11
261.0611
 21
-73.5999
  0
LINE
  8
0
  6
CONTINUOUS
 62
     7
 10
264.4611
 20
-78.8999
 11
263.8611
 21
-78.8999
  0
LINE
  8
0
  6
CONTINUOUS
 62
     7
 10
253.3611
 20
-78.89989
 11
253.0611
 21
-78.59991
  0
LINE
  8
0
  6
CONTINUOUS
 62
     7
 10
259.5611
 20
-78.5998
 11
259.2611
 21
-78.89984
  0
LINE
  8
0
  6
CONTINUOUS
 62
     7
 10
263.8612
 20
-78.89989
 11
263.5612
 21
-78.59991
  0
LINE
  8
0
  6
CONTINUOUS
 62
     7
 10
259.2611
 20
-78.8999
 11
253.3611
 21
-78.8999
  0
LINE
  8
0
  6
CONTINUOUS
 62
     7
 10
260.5611
 20
-79.5999
 11
260.2324
 21
-79.5999
  0
LINE
  8
0
  6
CONTINUOUS
 62
     7
 10
260.5611
 20
-78.5999
 11
253.0611
 21
-78.5999
  0
LINE
  8
0
  6
CONTINUOUS
 62
     7
 10
253.0611
 20
-78.5999
 11
253.0611
 21
-73.5999
  0
LINE
  8
0
  6
CONTINUOUS
 62
     7
 10
263.2611
 20
-75.99991
 11
263.2611
 21
-74.49991
  0
LINE
  8
0
  6
CONTINUOUS
 62
     7
 10
263.2611
 20
-74.49991
 11
264.4611
 21
-74.49991
  0
LINE
  8
0
  6
CENTER
 62
     2
 10
256.0611
 20
-77.0999
 11
230.0611
 21
-77.0999
  0
LINE
  8
0
  6
CONTINUOUS
 62
     7
 10
253.0611
 20
-76.24991
 11
249.0653
 21
-76.24991
  0
LINE
  8
0
  6
CONTINUOUS
 62
     7
 10
253.0611
 20
-77.94989
 11
248.6098
 21
-77.94989
  0
LINE
  8
0
  6
CONTINUOUS
 62
     7
 10
243.0611
 20
-77.41989
 11
233.0611
 21
-77.41989
  0
LINE
  8
0
  6
CONTINUOUS
 62
     7
 10
243.0611
 20
-76.77991
 11
233.0611
 21
-76.77991
  0
LINE
  8
0
  6
CONTINUOUS
 62
     7
 10
243.0611
 20
-77.94989
 11
243.0611
 21
-76.24991
  0
LINE
  8
0
  6
CONTINUOUS
 62
     7
 10
233.0611
 20
-77.41989
 11
233.0611
 21
-76.77991
  0
LINE
  8
0
  6
PHANTOM
 62
     2
 10
249.6012
 20
-74.24987
 11
248.0739
 21
-79.94988
  0
LINE
  8
0
  6
PHANTOM
 62
     2
 10
248.0482
 20
-74.24987
 11
246.5209
 21
-79.94989
  0
LINE
  8
0
  6
CONTINUOUS
 62
     7
 10
247.0569
 20
-77.94989
 11
243.0611
 21
-77.94989
  0
LINE
  8
0
  6
CONTINUOUS
 62
     7
 10
247.5124
 20
-76.24991
 11
243.0611
 21
-76.24991
  0
ARC
  8
0
  6
CONTINUOUS
 62
     7
 10
273.0354
 20
-235.0457
 40
2.21188
 50
0.0
 51
89.99999
  0
ARC
  8
0
  6
CONTINUOUS
 62
     7
 10
291.2836
 20
-246.9346
 40
2.2119
 50
270.0
 51
0.0
  0
ARC
  8
0
  6
CONTINUOUS
 62
     7
 10
290.1776
 20
-236.1516
 40
3.31784
 50
0.0
 51
89.99999
  0
ARC
  8
0
  6
CONTINUOUS
 62
     7
 10
310.3611
 20
-236.8128
 40
2.21189
 50
295.0
 51
0.0
  0
ARC
  8
0
  6
CONTINUOUS
 62
     7
 10
310.3611
 20
-235.0457
 40
2.21188
 50
0.0
 51
89.99999
  0
ARC
  8
0
  6
CONTINUOUS
 62
     7
 10
327.5034
 20
-232.8338
 40
3.31784
 50
291.6884
 51
0.0
  0
ARC
  8
0
  6
CONTINUOUS
 62
     7
 10
326.3973
 20
-232.0834
 40
1.10595
 50
291.689
 51
0.0
  0
ARC
  8
0
  6
CONTINUOUS
 62
     7
 10
-194.9367
 20
135.2774
 40
0.5
 50
180.0
 51
270.0
  0
ARC
  8
0
  6
CONTINUOUS
 62
     7
 10
-168.9367
 20
135.2774
 40
0.5
 50
270.0
 51
0.0
  0
ARC
  8
0
  6
CONTINUOUS
 62
     7
 10
-168.9367
 20
152.2774
 40
0.5
 50
0.0
 51
89.99999
  0
ARC
  8
0
  6
CONTINUOUS
 62
     7
 10
-194.9367
 20
152.2774
 40
0.5
 50
89.99999
 51
180.0
  0
ARC
  8
0
  6
CONTINUOUS
 62
     7
 10
-172.9367
 20
139.2774
 40
3.0
 50
89.99999
 51
180.0
  0
ARC
  8
0
  6
CONTINUOUS
 62
     7
 10
-190.9367
 20
148.2774
 40
3.0
 50
270.0
 51
0.0
  0
ARC
  8
0
  6
CONTINUOUS
 62
     7
 10
-172.9367
 20
139.2774
 40
2.55
 50
276.7564
 51
263.2436
  0
ARC
  8
0
  6
CONTINUOUS
 62
     7
 10
-190.9367
 20
148.2774
 40
2.55
 50
96.7564
 51
83.24359
  0
CIRCLE
  8
0
  6
CONTINUOUS
 62
     7
 10
-172.9367
 20
139.2774
 40
2.25
  0
ARC
  8
0
  6
CONTINUOUS
 62
     7
 10
-172.9367
 20
140.3805
 40
0.51999
 50
225.0
 51
315.0
  0
ARC
  8
0
  6
CONTINUOUS
 62
     7
 10
-174.0398
 20
139.2774
 40
0.51999
 50
315.0
 51
45.0
  0
ARC
  8
0
  6
CONTINUOUS
 62
     7
 10
-171.8336
 20
139.2774
 40
0.51999
 50
135.0
 51
225.0
  0
ARC
  8
0
  6
CONTINUOUS
 62
     7
 10
-172.9367
 20
138.1743
 40
0.51999
 50
45.0
 51
135.0
  0
CIRCLE
  8
0
  6
CONTINUOUS
 62
     7
 10
-190.9367
 20
148.2774
 40
2.25
  0
ARC
  8
0
  6
CONTINUOUS
 62
     7
 10
-190.9367
 20
149.3805
 40
0.51999
 50
225.0
 51
315.0
  0
ARC
  8
0
  6
CONTINUOUS
 62
     7
 10
-192.0398
 20
148.2774
 40
0.51999
 50
315.0
 51
45.0
  0
ARC
  8
0
  6
CONTINUOUS
 62
     7
 10
-189.8336
 20
148.2774
 40
0.51999
 50
135.0
 51
225.0
  0
ARC
  8
0
  6
CONTINUOUS
 62
     7
 10
-190.9367
 20
147.1743
 40
0.51999
 50
45.0
 51
135.0
  0
ARC
  8
0
  6
CONTINUOUS
 62
     7
 10
-193.4367
 20
150.7774
 40
0.5
 50
89.99999
 51
180.0
  0
ARC
  8
0
  6
CONTINUOUS
 62
     7
 10
-193.4367
 20
136.7774
 40
0.5
 50
180.0
 51
270.0
  0
ARC
  8
0
  6
CONTINUOUS
 62
     7
 10
-160.7367
 20
149.9774
 40
0.8
 50
0.0
 51
89.99999
  0
ARC
  8
0
  6
CONTINUOUS
 62
     7
 10
-160.7367
 20
137.5774
 40
0.8
 50
270.0
 51
0.0
  0
CIRCLE
  8
0
  6
CONTINUOUS
 62
     7
 10
-174.4368
 20
1.60001
 40
1.6
  0
CIRCLE
  8
0
  6
CONTINUOUS
 62
     7
 10
-174.4368
 20
-28.39999
 40
1.6
  0
ARC
  8
0
  6
CONTINUOUS
 62
     7
 10
-160.7367
 20
46.0
 40
0.8
 50
0.0
 51
89.99999
  0
ARC
  8
0
  6
CONTINUOUS
 62
     7
 10
-160.7367
 20
26.60001
 40
0.8
 50
270.0
 51
0.0
  0
ARC
  8
0
  6
CONTINUOUS
 62
     7
 10
-172.9368
 20
48.3
 40
6.0
 50
73.80861
 51
106.1912
  0
ARC
  8
0
  6
CONTINUOUS
 62
     7
 10
-171.4867
 20
53.29376
 40
0.8
 50
0.0
 51
73.8082
  0
ARC
  8
0
  6
CONTINUOUS
 62
     7
 10
-174.3867
 20
53.29376
 40
0.8
 50
106.1918
 51
180.0
  0
ARC
  8
0
  6
CONTINUOUS
 62
     7
 10
-190.9368
 20
48.29999
 40
6.0
 50
73.80861
 51
106.1912
  0
ARC
  8
0
  6
CONTINUOUS
 62
     7
 10
-192.3867
 20
53.29373
 40
0.8
 50
106.1918
 51
118.0138
  0
ARC
  8
0
  6
CONTINUOUS
 62
     7
 10
-189.4867
 20
53.29373
 40
0.8
 50
61.98621
 51
73.8082
  0
ARC
  8
0
  6
CONTINUOUS
 62
     7
 10
-167.9368
 20
53.3
 40
0.5
 50
89.99999
 51
180.0
  0
ARC
  8
0
  6
CONTINUOUS
 62
     7
 10
-156.9368
 20
52.3
 40
0.5
 50
89.99999
 51
270.0
  0
ARC
  8
0
  6
CONTINUOUS
 62
     7
 10
-158.9368
 20
52.3
 40
0.5
 50
270.0
 51
89.99999
  0
ARC
  8
0
  6
CONTINUOUS
 62
     7
 10
-160.7367
 20
-72.79999
 40
0.8
 50
270.0
 51
0.0
  0
ARC
  8
0
  6
CONTINUOUS
 62
     7
 10
-160.7367
 20
-53.39999
 40
0.8
 50
0.0
 51
89.99999
  0
ARC
  8
0
  6
CONTINUOUS
 62
     7
 10
-190.9368
 20
-75.09998
 40
6.0
 50
253.8086
 51
286.1914
  0
ARC
  8
0
  6
CONTINUOUS
 62
     7
 10
-192.3867
 20
-80.09375
 40
0.8
 50
180.0
 51
253.8083
  0
ARC
  8
0
  6
CONTINUOUS
 62
     7
 10
-189.4867
 20
-80.09375
 40
0.80001
 50
286.1917
 51
0.0
  0
ARC
  8
0
  6
CONTINUOUS
 62
     7
 10
-172.9368
 20
-75.09998
 40
6.0
 50
253.8086
 51
286.1914
  0
ARC
  8
0
  6
CONTINUOUS
 62
     7
 10
-171.4867
 20
-80.09372
 40
0.80001
 50
286.1917
 51
298.0138
  0
ARC
  8
0
  6
CONTINUOUS
 62
     7
 10
-174.3867
 20
-80.09372
 40
0.8
 50
241.9862
 51
253.8083
  0
ARC
  8
0
  6
CONTINUOUS
 62
     7
 10
-167.9368
 20
-80.09998
 40
0.5
 50
180.0
 51
270.0
  0
ARC
  8
0
  6
CONTINUOUS
 62
     7
 10
-156.9368
 20
-79.09998
 40
0.5
 50
89.99999
 51
270.0
  0
ARC
  8
0
  6
CONTINUOUS
 62
     7
 10
-158.9368
 20
-79.09998
 40
0.5
 50
270.0
 51
89.99999
  0
CIRCLE
  8
0
  6
CONTINUOUS
 62
     7
 10
-300.5613
 20
-28.39987
 40
1.6
  0
CIRCLE
  8
0
  6
CONTINUOUS
 62
     7
 10
-313.5613
 20
1.60013
 40
1.6
  0
CIRCLE
  8
0
  6
CONTINUOUS
 62
     7
 10
-307.0613
 20
17.50012
 40
2.65
  0
CIRCLE
  8
0
  6
CONTINUOUS
 62
     7
 10
-306.5613
 20
-0.19986
 40
4.86435
  0
CIRCLE
  8
0
  6
CONTINUOUS
 62
     7
 10
-306.5613
 20
-0.19986
 40
4.28325
  0
CIRCLE
  8
0
  6
CONTINUOUS
 62
     7
 10
-307.5613
 20
-26.59988
 40
4.86435
  0
CIRCLE
  8
0
  6
CONTINUOUS
 62
     7
 10
-307.5613
 20
-26.59988
 40
4.28325
  0
CIRCLE
  8
0
  6
CONTINUOUS
 62
     7
 10
-307.0613
 20
-13.39987
 40
4.86435
  0
CIRCLE
  8
0
  6
CONTINUOUS
 62
     7
 10
-307.0613
 20
-13.39987
 40
4.28325
  0
CIRCLE
  8
0
  6
CONTINUOUS
 62
     7
 10
-307.0613
 20
17.50012
 40
2.0
  0
CIRCLE
  8
0
  6
CONTINUOUS
 62
     7
 10
-307.0613
 20
-44.29987
 40
2.65
  0
CIRCLE
  8
0
  6
CONTINUOUS
 62
     7
 10
-307.0613
 20
-44.29987
 40
2.0
  0
ARC
  8
0
  6
CONTINUOUS
 62
     7
 10
-311.5613
 20
48.30011
 40
6.0
 50
73.80876
 51
106.1912
  0
ARC
  8
0
  6
CONTINUOUS
 62
     7
 10
-310.1113
 20
53.29385
 40
0.79999
 50
0.0
 51
73.8082
  0
ARC
  8
0
  6
CONTINUOUS
 62
     7
 10
-313.0113
 20
53.29385
 40
0.8
 50
106.1918
 51
180.0
  0
ARC
  8
0
  6
CONTINUOUS
 62
     7
 10
-302.5613
 20
48.30011
 40
6.0
 50
73.80876
 51
106.1912
  0
ARC
  8
0
  6
CONTINUOUS
 62
     7
 10
-304.0113
 20
53.29385
 40
0.8
 50
106.1918
 51
118.0148
  0
ARC
  8
0
  6
CONTINUOUS
 62
     7
 10
-301.1113
 20
53.29385
 40
0.80001
 50
61.98524
 51
73.8082
  0
ARC
  8
0
  6
CONTINUOUS
 62
     7
 10
-310.5075
 20
46.75345
 40
0.35345
 50
0.0
 51
89.99999
  0
ARC
  8
0
  6
CONTINUOUS
 62
     7
 10
-307.5915
 20
44.85358
 40
0.35346
 50
270.0
 51
0.0
  0
ARC
  8
0
  6
CONTINUOUS
 62
     7
 10
-307.7682
 20
46.57672
 40
0.53018
 50
0.0
 51
89.99999
  0
ARC
  8
0
  6
CONTINUOUS
 62
     7
 10
-304.5428
 20
46.75345
 40
0.35345
 50
0.0
 51
89.99999
  0
ARC
  8
0
  6
CONTINUOUS
 62
     7
 10
-304.5428
 20
46.47105
 40
0.35347
 50
295.0005
 51
0.0
  0
ARC
  8
0
  6
CONTINUOUS
 62
     7
 10
-301.8035
 20
47.1069
 40
0.53019
 50
291.6869
 51
0.0
  0
ARC
  8
0
  6
CONTINUOUS
 62
     7
 10
-301.9803
 20
47.22681
 40
0.17673
 50
291.687
 51
0.0
  0
ARC
  8
0
  6
CONTINUOUS
 62
     7
 10
-302.5613
 20
-75.09985
 40
6.0
 50
253.8088
 51
286.1912
  0
ARC
  8
0
  6
CONTINUOUS
 62
     7
 10
-304.0113
 20
-80.0936
 40
0.79999
 50
180.0
 51
253.8083
  0
ARC
  8
0
  6
CONTINUOUS
 62
     7
 10
-301.1113
 20
-80.0936
 40
0.80001
 50
286.1917
 51
0.0
  0
ARC
  8
0
  6
CONTINUOUS
 62
     7
 10
-311.5613
 20
-75.09985
 40
6.0
 50
253.8088
 51
286.1912
  0
ARC
  8
0
  6
CONTINUOUS
 62
     7
 10
-310.1113
 20
-80.0936
 40
0.80001
 50
286.1917
 51
298.0128
  0
ARC
  8
0
  6
CONTINUOUS
 62
     7
 10
-313.0113
 20
-80.0936
 40
0.80001
 50
241.9852
 51
253.8083
  0
ARC
  8
0
  6
CONTINUOUS
 62
     7
 10
-303.6151
 20
-73.55319
 40
0.35345
 50
180.0
 51
270.0
  0
ARC
  8
0
  6
CONTINUOUS
 62
     7
 10
-306.5311
 20
-71.65332
 40
0.35346
 50
89.99999
 51
180.0
  0
ARC
  8
0
  6
CONTINUOUS
 62
     7
 10
-306.3544
 20
-73.37646
 40
0.53018
 50
180.0
 51
270.0
  0
ARC
  8
0
  6
CONTINUOUS
 62
     7
 10
-309.5797
 20
-73.55319
 40
0.35345
 50
180.0
 51
270.0
  0
ARC
  8
0
  6
CONTINUOUS
 62
     7
 10
-309.5797
 20
-73.27081
 40
0.35346
 50
115.0008
 51
180.0
  0
ARC
  8
0
  6
CONTINUOUS
 62
     7
 10
-312.319
 20
-73.90665
 40
0.53019
 50
111.6869
 51
180.0
  0
ARC
  8
0
  6
CONTINUOUS
 62
     7
 10
-312.1423
 20
-74.02655
 40
0.17673
 50
111.6866
 51
180.0
  0
CIRCLE
  8
0
  6
CONTINUOUS
 62
     7
 10
-49.31215
 20
-28.3999
 40
1.6
  0
CIRCLE
  8
0
  6
CONTINUOUS
 62
     7
 10
-36.31215
 20
1.60011
 40
1.6
  0
ARC
  8
0
  6
CONTINUOUS
 62
     7
 10
-36.31215
 20
1.60011
 40
3.0
 50
33.55732
 51
326.4427
  0
ARC
  8
0
  6
CONTINUOUS
 62
     7
 10
-49.31215
 20
-28.3999
 40
3.0
 50
0.0
 51
146.4427
  0
ARC
  8
0
  6
CONTINUOUS
 62
     7
 10
-49.31215
 20
-28.3999
 40
3.0
 50
213.5573
 51
0.0
  0
CIRCLE
  8
0
  6
CONTINUOUS
 62
     7
 10
-42.81215
 20
22.30011
 40
1.65
  0
CIRCLE
  8
0
  6
CONTINUOUS
 62
     7
 10
-43.31215
 20
-21.3999
 40
4.86435
  0
CIRCLE
  8
0
  6
CONTINUOUS
 62
     7
 10
-43.31215
 20
-21.3999
 40
4.28325
  0
CIRCLE
  8
0
  6
CONTINUOUS
 62
     7
 10
-42.31215
 20
-5.3999
 40
4.86435
  0
CIRCLE
  8
0
  6
CONTINUOUS
 62
     7
 10
-42.31215
 20
-5.3999
 40
4.28325
  0
CIRCLE
  8
0
  6
CONTINUOUS
 62
     7
 10
-42.81215
 20
-49.09988
 40
1.65
  0
ARC
  8
0
  6
CONTINUOUS
 62
     7
 10
-49.01216
 20
46.00012
 40
0.8
 50
89.99999
 51
180.0
  0
ARC
  8
0
  6
CONTINUOUS
 62
     7
 10
-36.6122
 20
46.00012
 40
0.8
 50
0.0
 51
89.99999
  0
ARC
  8
0
  6
CONTINUOUS
 62
     7
 10
-49.01216
 20
26.60011
 40
0.8
 50
180.0
 51
270.0
  0
ARC
  8
0
  6
CONTINUOUS
 62
     7
 10
-36.6122
 20
26.60011
 40
0.8
 50
270.0
 51
0.0
  0
ARC
  8
0
  6
CONTINUOUS
 62
     7
 10
-47.31215
 20
48.30011
 40
6.0
 50
85.2198
 51
106.1913
  0
ARC
  8
0
  6
CONTINUOUS
 62
     7
 10
-48.76216
 20
53.29385
 40
0.8
 50
106.1913
 51
180.0
  0
ARC
  8
0
  6
CONTINUOUS
 62
     7
 10
-38.31215
 20
48.30011
 40
6.0
 50
73.80865
 51
94.78023
  0
ARC
  8
0
  6
CONTINUOUS
 62
     7
 10
-36.8622
 20
53.29385
 40
0.8
 50
61.98621
 51
73.80872
  0
CIRCLE
  8
0
  6
CONTINUOUS
 62
     7
 10
-45.31215
 20
50.30011
 40
0.85
  0
CIRCLE
  8
0
  6
CONTINUOUS
 62
     7
 10
-40.31215
 20
50.30011
 40
0.85
  0
ARC
  8
0
  6
CONTINUOUS
 62
     7
 10
-42.81215
 20
47.92511
 40
0.5
 50
45.0
 51
315.0
  0
ARC
  8
0
  6
CONTINUOUS
 62
     7
 10
-36.6122
 20
-72.79987
 40
0.8
 50
270.0
 51
0.0
  0
ARC
  8
0
  6
CONTINUOUS
 62
     7
 10
-49.01216
 20
-72.79987
 40
0.8
 50
180.0
 51
270.0
  0
ARC
  8
0
  6
CONTINUOUS
 62
     7
 10
-36.6122
 20
-53.39987
 40
0.8
 50
0.0
 51
89.99999
  0
ARC
  8
0
  6
CONTINUOUS
 62
     7
 10
-49.01216
 20
-53.39987
 40
0.8
 50
89.99999
 51
180.0
  0
ARC
  8
0
  6
CONTINUOUS
 62
     7
 10
-38.31215
 20
-75.09988
 40
6.0
 50
265.2198
 51
286.1913
  0
ARC
  8
0
  6
CONTINUOUS
 62
     7
 10
-36.8622
 20
-80.09363
 40
0.8
 50
286.1912
 51
0.0
  0
ARC
  8
0
  6
CONTINUOUS
 62
     7
 10
-47.31215
 20
-75.09985
 40
6.0
 50
253.8086
 51
274.7802
  0
ARC
  8
0
  6
CONTINUOUS
 62
     7
 10
-48.76216
 20
-80.09363
 40
0.8
 50
241.9862
 51
253.8088
  0
CIRCLE
  8
0
  6
CONTINUOUS
 62
     7
 10
-40.31215
 20
-77.09988
 40
0.85
  0
CIRCLE
  8
0
  6
CONTINUOUS
 62
     7
 10
-45.31215
 20
-77.09988
 40
0.85
  0
ARC
  8
0
  6
CONTINUOUS
 62
     7
 10
-42.81215
 20
-74.72488
 40
0.5
 50
225.0
 51
135.0
  0
ARC
  8
0
  6
CONTINUOUS
 62
     7
 10
-194.9367
 20
-187.679
 40
0.5
 50
180.0
 51
270.0
  0
ARC
  8
0
  6
CONTINUOUS
 62
     7
 10
-168.9367
 20
-187.679
 40
0.5
 50
270.0
 51
0.0
  0
ARC
  8
0
  6
CONTINUOUS
 62
     7
 10
-168.9367
 20
-170.679
 40
0.5
 50
0.0
 51
89.99999
  0
ARC
  8
0
  6
CONTINUOUS
 62
     7
 10
-194.9367
 20
-170.679
 40
0.5
 50
89.99999
 51
180.0
  0
ARC
  8
0
  6
CONTINUOUS
 62
     7
 10
-172.9367
 20
-183.679
 40
3.0
 50
89.99999
 51
180.0
  0
ARC
  8
0
  6
CONTINUOUS
 62
     7
 10
-190.9367
 20
-174.679
 40
3.0
 50
270.0
 51
0.0
  0
ARC
  8
0
  6
CONTINUOUS
 62
     7
 10
-172.9367
 20
-183.679
 40
2.55
 50
276.7564
 51
263.2436
  0
ARC
  8
0
  6
CONTINUOUS
 62
     7
 10
-190.9367
 20
-174.679
 40
2.55
 50
96.7564
 51
83.24359
  0
CIRCLE
  8
0
  6
CONTINUOUS
 62
     7
 10
-172.9367
 20
-183.679
 40
2.25
  0
ARC
  8
0
  6
CONTINUOUS
 62
     7
 10
-172.9367
 20
-182.576
 40
0.51999
 50
225.0
 51
315.0
  0
ARC
  8
0
  6
CONTINUOUS
 62
     7
 10
-174.0398
 20
-183.679
 40
0.51999
 50
315.0
 51
45.0
  0
ARC
  8
0
  6
CONTINUOUS
 62
     7
 10
-171.8336
 20
-183.679
 40
0.51999
 50
135.0
 51
225.0
  0
ARC
  8
0
  6
CONTINUOUS
 62
     7
 10
-172.9367
 20
-184.7821
 40
0.51999
 50
45.0
 51
135.0
  0
CIRCLE
  8
0
  6
CONTINUOUS
 62
     7
 10
-190.9367
 20
-174.679
 40
2.25
  0
ARC
  8
0
  6
CONTINUOUS
 62
     7
 10
-190.9367
 20
-173.576
 40
0.51999
 50
225.0
 51
315.0
  0
ARC
  8
0
  6
CONTINUOUS
 62
     7
 10
-192.0398
 20
-174.679
 40
0.51999
 50
315.0
 51
45.0
  0
ARC
  8
0
  6
CONTINUOUS
 62
     7
 10
-189.8336
 20
-174.679
 40
0.51999
 50
135.0
 51
225.0
  0
ARC
  8
0
  6
CONTINUOUS
 62
     7
 10
-190.9367
 20
-175.7821
 40
0.51999
 50
45.0
 51
135.0
  0
ARC
  8
0
  6
CONTINUOUS
 62
     7
 10
-193.4367
 20
-172.179
 40
0.5
 50
89.99999
 51
180.0
  0
ARC
  8
0
  6
CONTINUOUS
 62
     7
 10
-193.4367
 20
-186.179
 40
0.5
 50
180.0
 51
270.0
  0
ARC
  8
0
  6
CONTINUOUS
 62
     7
 10
-160.7367
 20
-172.979
 40
0.8
 50
0.0
 51
89.99999
  0
ARC
  8
0
  6
CONTINUOUS
 62
     7
 10
-160.7367
 20
-185.3791
 40
0.8
 50
270.0
 51
0.0
  0
CIRCLE
  8
0
  6
CONTINUOUS
 62
     7
 10
162.4368
 20
-28.39998
 40
1.6
  0
CIRCLE
  8
0
  6
CONTINUOUS
 62
     7
 10
175.4368
 20
1.60002
 40
1.6
  0
ARC
  8
0
  6
CONTINUOUS
 62
     7
 10
175.4368
 20
1.60002
 40
3.0
 50
33.55732
 51
326.4427
  0
ARC
  8
0
  6
CONTINUOUS
 62
     7
 10
162.4368
 20
-28.39998
 40
3.0
 50
0.0
 51
146.4427
  0
ARC
  8
0
  6
CONTINUOUS
 62
     7
 10
162.4368
 20
-28.39998
 40
3.0
 50
213.5573
 51
0.0
  0
CIRCLE
  8
0
  6
CONTINUOUS
 62
     7
 10
168.9368
 20
22.30002
 40
1.65
  0
CIRCLE
  8
0
  6
CONTINUOUS
 62
     7
 10
168.9368
 20
-49.09998
 40
1.65
  0
ARC
  8
0
  6
CONTINUOUS
 62
     7
 10
162.7368
 20
46.00003
 40
0.8
 50
89.99999
 51
180.0
  0
ARC
  8
0
  6
CONTINUOUS
 62
     7
 10
175.1368
 20
46.00003
 40
0.8
 50
0.0
 51
89.99999
  0
ARC
  8
0
  6
CONTINUOUS
 62
     7
 10
162.7368
 20
26.60002
 40
0.8
 50
180.0
 51
270.0
  0
ARC
  8
0
  6
CONTINUOUS
 62
     7
 10
175.1368
 20
26.60002
 40
0.8
 50
270.0
 51
0.0
  0
ARC
  8
0
  6
CONTINUOUS
 62
     7
 10
164.4368
 20
48.30002
 40
6.0
 50
85.2198
 51
106.1914
  0
ARC
  8
0
  6
CONTINUOUS
 62
     7
 10
162.9868
 20
53.29376
 40
0.8
 50
106.1918
 51
180.0
  0
ARC
  8
0
  6
CONTINUOUS
 62
     7
 10
173.4368
 20
48.30002
 40
6.0
 50
73.80862
 51
94.78019
  0
ARC
  8
0
  6
CONTINUOUS
 62
     7
 10
174.8868
 20
53.29376
 40
0.8
 50
61.98621
 51
73.8082
  0
CIRCLE
  8
0
  6
CONTINUOUS
 62
     7
 10
166.4368
 20
50.30002
 40
0.85
  0
CIRCLE
  8
0
  6
CONTINUOUS
 62
     7
 10
171.4368
 20
50.30002
 40
0.85
  0
ARC
  8
0
  6
CONTINUOUS
 62
     7
 10
168.9368
 20
47.92502
 40
0.5
 50
45.00062
 51
314.9994
  0
ARC
  8
0
  6
CONTINUOUS
 62
     7
 10
175.1368
 20
-72.79999
 40
0.8
 50
270.0
 51
0.0
  0
ARC
  8
0
  6
CONTINUOUS
 62
     7
 10
162.7368
 20
-72.79999
 40
0.8
 50
180.0
 51
270.0
  0
ARC
  8
0
  6
CONTINUOUS
 62
     7
 10
175.1368
 20
-53.39998
 40
0.8
 50
0.0
 51
89.99999
  0
ARC
  8
0
  6
CONTINUOUS
 62
     7
 10
162.7368
 20
-53.39998
 40
0.8
 50
89.99999
 51
180.0
  0
ARC
  8
0
  6
CONTINUOUS
 62
     7
 10
173.4368
 20
-75.09998
 40
6.0
 50
265.2198
 51
286.1914
  0
ARC
  8
0
  6
CONTINUOUS
 62
     7
 10
174.8868
 20
-80.09372
 40
0.80001
 50
286.1917
 51
0.0
  0
ARC
  8
0
  6
CONTINUOUS
 62
     7
 10
164.4368
 20
-75.09998
 40
6.0
 50
253.8086
 51
274.7802
  0
ARC
  8
0
  6
CONTINUOUS
 62
     7
 10
162.9868
 20
-80.09372
 40
0.8
 50
241.9862
 51
253.8083
  0
CIRCLE
  8
0
  6
CONTINUOUS
 62
     7
 10
171.4368
 20
-77.09998
 40
0.85
  0
CIRCLE
  8
0
  6
CONTINUOUS
 62
     7
 10
166.4368
 20
-77.09998
 40
0.85
  0
ARC
  8
0
  6
CONTINUOUS
 62
     7
 10
168.9368
 20
-74.72498
 40
0.5
 50
225.0006
 51
134.9994
  0
ARC
  8
0
  6
CONTINUOUS
 62
     7
 10
164.4371
 20
127.7773
 40
3.0
 50
0.0
 51
89.99999
  0
ARC
  8
0
  6
CONTINUOUS
 62
     7
 10
173.4371
 20
145.7773
 40
3.0
 50
180.0
 51
270.0
  0
ARC
  8
0
  6
CONTINUOUS
 62
     7
 10
164.4371
 20
127.7773
 40
2.55
 50
186.7564
 51
173.2436
  0
ARC
  8
0
  6
CONTINUOUS
 62
     7
 10
173.4371
 20
145.7773
 40
2.55
 50
6.75641
 51
353.2436
  0
CIRCLE
  8
0
  6
CONTINUOUS
 62
     7
 10
164.4371
 20
127.7773
 40
2.25
  0
ARC
  8
0
  6
CONTINUOUS
 62
     7
 10
165.5402
 20
127.7773
 40
0.51999
 50
135.0
 51
225.0006
  0
ARC
  8
0
  6
CONTINUOUS
 62
     7
 10
164.4371
 20
128.8804
 40
0.51999
 50
225.0
 51
315.0
  0
ARC
  8
0
  6
CONTINUOUS
 62
     7
 10
164.4371
 20
126.6742
 40
0.52
 50
45.0006
 51
134.9994
  0
ARC
  8
0
  6
CONTINUOUS
 62
     7
 10
163.334
 20
127.7773
 40
0.52
 50
314.9994
 51
45.0
  0
CIRCLE
  8
0
  6
CONTINUOUS
 62
     7
 10
173.4371
 20
145.7773
 40
2.25
  0
ARC
  8
0
  6
CONTINUOUS
 62
     7
 10
174.5402
 20
145.7773
 40
0.51999
 50
135.0
 51
225.0
  0
ARC
  8
0
  6
CONTINUOUS
 62
     7
 10
173.4371
 20
146.8804
 40
0.51999
 50
225.0
 51
315.0
  0
ARC
  8
0
  6
CONTINUOUS
 62
     7
 10
173.4371
 20
144.6742
 40
0.51999
 50
45.0
 51
135.0
  0
ARC
  8
0
  6
CONTINUOUS
 62
     7
 10
172.334
 20
145.7773
 40
0.51999
 50
315.0
 51
45.0
  0
ARC
  8
0
  6
CONTINUOUS
 62
     7
 10
175.9371
 20
148.2773
 40
0.5
 50
0.0
 51
89.99999
  0
ARC
  8
0
  6
CONTINUOUS
 62
     7
 10
161.9371
 20
148.2773
 40
0.5
 50
89.99999
 51
180.0
  0
ARC
  8
0
  6
CONTINUOUS
 62
     7
 10
175.1371
 20
115.5773
 40
0.8
 50
270.0
 51
0.0
  0
ARC
  8
0
  6
CONTINUOUS
 62
     7
 10
162.7371
 20
115.5773
 40
0.8
 50
180.0
 51
270.0
  0
ARC
  8
0
  6
CONTINUOUS
 62
     7
 10
160.4371
 20
149.7773
 40
0.5
 50
89.99999
 51
180.0
  0
ARC
  8
0
  6
CONTINUOUS
 62
     7
 10
160.4371
 20
123.7773
 40
0.5
 50
180.0
 51
270.0
  0
ARC
  8
0
  6
CONTINUOUS
 62
     7
 10
177.4371
 20
123.7773
 40
0.5
 50
270.0
 51
0.0
  0
ARC
  8
0
  6
CONTINUOUS
 62
     7
 10
177.4371
 20
149.7773
 40
0.5
 50
0.0
 51
89.99999
  0
ARC
  8
0
  6
CONTINUOUS
 62
     7
 10
173.437
 20
-163.1791
 40
3.0
 50
180.0
 51
270.0
  0
ARC
  8
0
  6
CONTINUOUS
 62
     7
 10
164.437
 20
-181.1791
 40
3.0
 50
0.0
 51
89.99999
  0
ARC
  8
0
  6
CONTINUOUS
 62
     7
 10
173.437
 20
-163.1791
 40
2.55
 50
6.75641
 51
353.2436
  0
ARC
  8
0
  6
CONTINUOUS
 62
     7
 10
164.437
 20
-181.1791
 40
2.55
 50
186.7564
 51
173.2436
  0
CIRCLE
  8
0
  6
CONTINUOUS
 62
     7
 10
173.437
 20
-163.1791
 40
2.25
  0
ARC
  8
0
  6
CONTINUOUS
 62
     7
 10
172.3339
 20
-163.1791
 40
0.51999
 50
315.0
 51
45.0
  0
ARC
  8
0
  6
CONTINUOUS
 62
     7
 10
173.437
 20
-164.2822
 40
0.51999
 50
45.0
 51
135.0
  0
ARC
  8
0
  6
CONTINUOUS
 62
     7
 10
173.437
 20
-162.076
 40
0.51999
 50
225.0
 51
315.0
  0
ARC
  8
0
  6
CONTINUOUS
 62
     7
 10
174.5401
 20
-163.1791
 40
0.51999
 50
135.0
 51
225.0
  0
CIRCLE
  8
0
  6
CONTINUOUS
 62
     7
 10
164.437
 20
-181.1791
 40
2.25
  0
ARC
  8
0
  6
CONTINUOUS
 62
     7
 10
163.3339
 20
-181.1791
 40
0.51999
 50
315.0
 51
45.0
  0
ARC
  8
0
  6
CONTINUOUS
 62
     7
 10
164.437
 20
-182.2822
 40
0.51999
 50
45.0
 51
135.0
  0
ARC
  8
0
  6
CONTINUOUS
 62
     7
 10
164.437
 20
-180.076
 40
0.51999
 50
225.0
 51
315.0
  0
ARC
  8
0
  6
CONTINUOUS
 62
     7
 10
165.5401
 20
-181.1791
 40
0.51999
 50
135.0
 51
225.0
  0
ARC
  8
0
  6
CONTINUOUS
 62
     7
 10
161.937
 20
-183.6791
 40
0.5
 50
180.0
 51
270.0
  0
ARC
  8
0
  6
CONTINUOUS
 62
     7
 10
175.937
 20
-183.6791
 40
0.5
 50
270.0
 51
0.0
  0
ARC
  8
0
  6
CONTINUOUS
 62
     7
 10
162.737
 20
-150.9791
 40
0.8
 50
89.99999
 51
180.0
  0
ARC
  8
0
  6
CONTINUOUS
 62
     7
 10
175.137
 20
-150.9791
 40
0.8
 50
0.0
 51
89.99999
  0
ARC
  8
0
  6
CONTINUOUS
 62
     7
 10
177.437
 20
-185.1791
 40
0.5
 50
270.0
 51
0.0
  0
ARC
  8
0
  6
CONTINUOUS
 62
     7
 10
177.437
 20
-159.1791
 40
0.5
 50
0.0
 51
89.99999
  0
ARC
  8
0
  6
CONTINUOUS
 62
     7
 10
160.437
 20
-159.1791
 40
0.5
 50
89.99999
 51
180.0
  0
ARC
  8
0
  6
CONTINUOUS
 62
     7
 10
160.437
 20
-185.1791
 40
0.5
 50
180.0
 51
270.0
  0
ARC
  8
0
  6
CONTINUOUS
 62
     7
 10
76.51198
 20
46.00021
 40
0.8
 50
0.0
 51
89.99999
  0
ARC
  8
0
  6
CONTINUOUS
 62
     7
 10
76.51198
 20
26.6002
 40
0.8
 50
270.0
 51
0.0
  0
ARC
  8
0
  6
CONTINUOUS
 62
     7
 10
64.31197
 20
48.3002
 40
6.0
 50
73.80869
 51
106.1913
  0
ARC
  8
0
  6
CONTINUOUS
 62
     7
 10
65.76198
 20
53.29395
 40
0.8
 50
0.0
 51
73.80872
  0
ARC
  8
0
  6
CONTINUOUS
 62
     7
 10
62.86198
 20
53.29395
 40
0.8
 50
106.1913
 51
180.0
  0
ARC
  8
0
  6
CONTINUOUS
 62
     7
 10
46.31197
 20
48.3002
 40
6.0
 50
73.80865
 51
106.1913
  0
ARC
  8
0
  6
CONTINUOUS
 62
     7
 10
44.86198
 20
53.29395
 40
0.8
 50
106.1913
 51
118.0138
  0
ARC
  8
0
  6
CONTINUOUS
 62
     7
 10
47.76198
 20
53.29395
 40
0.8
 50
61.98621
 51
73.80872
  0
ARC
  8
0
  6
CONTINUOUS
 62
     7
 10
69.31197
 20
53.3002
 40
0.5
 50
89.99999
 51
180.0
  0
ARC
  8
0
  6
CONTINUOUS
 62
     7
 10
80.31197
 20
52.3002
 40
0.5
 50
89.99999
 51
270.0
  0
ARC
  8
0
  6
CONTINUOUS
 62
     7
 10
78.31197
 20
52.3002
 40
0.5
 50
270.0
 51
89.99999
  0
ARC
  8
0
  6
CONTINUOUS
 62
     7
 10
76.51198
 20
-72.7998
 40
0.8
 50
270.0
 51
0.0
  0
ARC
  8
0
  6
CONTINUOUS
 62
     7
 10
76.51198
 20
-53.3998
 40
0.8
 50
0.0
 51
89.99999
  0
ARC
  8
0
  6
CONTINUOUS
 62
     7
 10
46.31197
 20
-75.09979
 40
6.0
 50
253.8087
 51
286.1913
  0
ARC
  8
0
  6
CONTINUOUS
 62
     7
 10
44.86198
 20
-80.09354
 40
0.8
 50
180.0
 51
253.8088
  0
ARC
  8
0
  6
CONTINUOUS
 62
     7
 10
47.76198
 20
-80.09354
 40
0.8
 50
286.1912
 51
0.0
  0
ARC
  8
0
  6
CONTINUOUS
 62
     7
 10
64.31197
 20
-75.09979
 40
6.0
 50
253.8086
 51
286.1913
  0
ARC
  8
0
  6
CONTINUOUS
 62
     7
 10
65.76198
 20
-80.09354
 40
0.8
 50
286.1912
 51
298.0138
  0
ARC
  8
0
  6
CONTINUOUS
 62
     7
 10
62.86198
 20
-80.09354
 40
0.8
 50
241.9862
 51
253.8088
  0
ARC
  8
0
  6
CONTINUOUS
 62
     7
 10
69.31197
 20
-80.09979
 40
0.5
 50
180.0
 51
270.0
  0
ARC
  8
0
  6
CONTINUOUS
 62
     7
 10
80.31197
 20
-79.09979
 40
0.5
 50
89.99999
 51
270.0
  0
ARC
  8
0
  6
CONTINUOUS
 62
     7
 10
78.31197
 20
-79.09979
 40
0.5
 50
270.0
 51
89.99999
  0
ARC
  8
0
  6
CONTINUOUS
 62
     7
 10
264.3611
 20
46.00009
 40
0.8
 50
89.99999
 51
180.0
  0
ARC
  8
0
  6
CONTINUOUS
 62
     7
 10
264.3611
 20
26.6001
 40
0.79999
 50
180.0
 51
270.0
  0
ARC
  8
0
  6
CONTINUOUS
 62
     7
 10
294.5611
 20
48.30011
 40
6.0
 50
73.80876
 51
106.1912
  0
ARC
  8
0
  6
CONTINUOUS
 62
     7
 10
296.0111
 20
53.29385
 40
0.79999
 50
0.0
 51
73.8082
  0
ARC
  8
0
  6
CONTINUOUS
 62
     7
 10
293.1111
 20
53.29385
 40
0.8
 50
106.1918
 51
180.0
  0
ARC
  8
0
  6
CONTINUOUS
 62
     7
 10
276.5611
 20
48.30008
 40
6.0
 50
73.80876
 51
106.1912
  0
ARC
  8
0
  6
CONTINUOUS
 62
     7
 10
275.1111
 20
53.29382
 40
0.8
 50
106.1918
 51
118.0148
  0
ARC
  8
0
  6
CONTINUOUS
 62
     7
 10
278.0111
 20
53.29382
 40
0.80001
 50
61.98524
 51
73.8082
  0
ARC
  8
0
  6
CONTINUOUS
 62
     7
 10
271.5611
 20
53.30011
 40
0.5
 50
0.0
 51
89.99999
  0
ARC
  8
0
  6
CONTINUOUS
 62
     7
 10
260.5611
 20
52.30011
 40
0.5
 50
270.0
 51
89.99999
  0
ARC
  8
0
  6
CONTINUOUS
 62
     7
 10
262.5611
 20
52.30011
 40
0.5
 50
89.99999
 51
270.0
  0
ARC
  8
0
  6
CONTINUOUS
 62
     7
 10
264.3611
 20
-72.7999
 40
0.79999
 50
180.0
 51
270.0
  0
ARC
  8
0
  6
CONTINUOUS
 62
     7
 10
264.3611
 20
-53.3999
 40
0.8
 50
89.99999
 51
180.0
  0
ARC
  8
0
  6
CONTINUOUS
 62
     7
 10
276.5611
 20
-75.0999
 40
6.0
 50
253.8088
 51
286.1912
  0
ARC
  8
0
  6
CONTINUOUS
 62
     7
 10
275.1111
 20
-80.09364
 40
0.79999
 50
180.0
 51
253.8083
  0
ARC
  8
0
  6
CONTINUOUS
 62
     7
 10
278.0111
 20
-80.09364
 40
0.80001
 50
286.1917
 51
0.0
  0
ARC
  8
0
  6
CONTINUOUS
 62
     7
 10
294.5611
 20
-75.09988
 40
6.0
 50
253.8088
 51
286.1912
  0
ARC
  8
0
  6
CONTINUOUS
 62
     7
 10
296.0111
 20
-80.09363
 40
0.80001
 50
286.1917
 51
298.0128
  0
ARC
  8
0
  6
CONTINUOUS
 62
     7
 10
293.1111
 20
-80.09363
 40
0.80001
 50
241.9852
 51
253.8083
  0
ARC
  8
0
  6
CONTINUOUS
 62
     7
 10
271.5611
 20
-80.0999
 40
0.5
 50
270.0
 51
0.0
  0
ARC
  8
0
  6
CONTINUOUS
 62
     7
 10
260.5611
 20
-79.0999
 40
0.5
 50
270.0
 51
89.99999
  0
ARC
  8
0
  6
CONTINUOUS
 62
     7
 10
262.5611
 20
-79.0999
 40
0.5
 50
89.99999
 51
270.0
  0
TEXT
  8
0
  6
CONTINUOUS
 62
     7
 10
-350.9787
 20
200.5946
 40
8.5
  1
MODEL : 180-4E2-PLL
 41
0.8
  7
STANDARD
  0
TEXT
  8
0
  6
CONTINUOUS
 62
     7
 10
229.0661
 20
236.2625
 40
8.5
  1
DATE : NOV ,1989
 41
0.8
  7
STANDARD
  0
TEXT
  8
0
  6
CONTINUOUS
 62
     7
 10
-366.8907
 20
235.5575
 40
10.0
  1
180 CONNECTOR,PLL
 41
0.69402
  7
STANDARD
  0
TEXT
  8
0
  6
CONTINUOUS
 62
     7
 10
19.88928
 20
200.5946
 40
8.5
  1
MODEL : A180-4E2-PLL
 41
0.8
  7
STANDARD
  0
TEXT
  8
0
  6
CONTINUOUS
 62
     7
 10
-49.08929
 20
-0.3399
 40
2.0
  1
A
 41
0.8
  7
STANDARD
  0
TEXT
  8
0
  6
CONTINUOUS
 62
     7
 10
-39.14358
 20
-28.3399
 40
2.0
  1
B
 41
0.8
  7
STANDARD
  0
TEXT
  8
0
  6
CONTINUOUS
 62
     7
 10
-304.8927
 20
-33.33987
 40
2.0
  1
R2
 41
0.8
  7
STANDARD
  0
TEXT
  8
0
  6
CONTINUOUS
 62
     7
 10
-302.8927
 20
-20.33987
 40
2.0
  1
P
 41
0.8
  7
STANDARD
  0
TEXT
  8
0
  6
CONTINUOUS
 62
     7
 10
-312.8927
 20
4.66013
 40
2.0
  1
R1
 41
0.8
  7
STANDARD
  0
ENDSEC
  0
EOF
