  0
SECTION
  2
HEADER
  9
$ACADVER
  1
AC1002
  9
$INSBASE
 10
0.0
 20
0.0
  9
$EXTMIN
 10
-370.8736
 20
-254.5585
  9
$EXTMAX
 10
370.8736
 20
254.5585
  9
$LIMMIN
 10
0.0
 20
0.0
  9
$LIMMAX
 10
12.0
 20
9.0
  9
$VIEWCTR
 10
28.6093211
 20
0.0
  9
$VIEWSIZE
 40
509.117
  9
$SNAPMODE
 70
     0
  9
$SNAPUNIT
 10
1.0
 20
1.0
  9
$SNAPBASE
 10
0.0
 20
0.0
  9
$SNAPANG
 50
0.0
  9
$SNAPSTYLE
 70
     0
  9
$SNAPISOPAIR
 70
     0
  9
$GRIDMODE
 70
     0
  9
$GRIDUNIT
 10
0.0
 20
0.0
  9
$ORTHOMODE
 70
     0
  9
$REGENMODE
 70
     1
  9
$FILLMODE
 70
     1
  9
$QTEXTMODE
 70
     0
  9
$DRAGMODE
 70
     2
  9
$LTSCALE
 40
1.0
  9
$OSMODE
 70
     0
  9
$ATTMODE
 70
     1
  9
$TEXTSIZE
 40
0.2
  9
$TRACEWID
 40
0.05
  9
$TEXTSTYLE
  7
AAA
  9
$CLAYER
  8
0
  9
$CELTYPE
  6
BYLAYER
  9
$CECOLOR
 62
   256
  9
$DIMSCALE
 40
1.0
  9
$DIMASZ
 40
0.18
  9
$DIMEXO
 40
0.0625
  9
$DIMDLI
 40
0.38
  9
$DIMRND
 40
0.0
  9
$DIMDLE
 40
0.0
  9
$DIMEXE
 40
0.18
  9
$DIMTP
 40
0.0
  9
$DIMTM
 40
0.0
  9
$DIMTXT
 40
0.18
  9
$DIMCEN
 40
0.09
  9
$DIMTSZ
 40
0.0
  9
$DIMTOL
 70
     0
  9
$DIMLIM
 70
     0
  9
$DIMTIH
 70
     1
  9
$DIMTOH
 70
     1
  9
$DIMSE1
 70
     0
  9
$DIMSE2
 70
     0
  9
$DIMTAD
 70
     0
  9
$DIMZIN
 70
     0
  9
$DIMBLK
  1

  9
$LUNITS
 70
     2
  9
$LUPREC
 70
     4
  9
$AXISMODE
 70
     0
  9
$AXISUNIT
 10
0.0
 20
0.0
  9
$SKETCHINC
 40
0.1
  9
$FILLETRAD
 40
0.0
  9
$AUNITS
 70
     0
  9
$AUPREC
 70
     0
  9
$MENU
  1
ACAD
  9
$ELEVATION
 40
0.0
  9
$THICKNESS
 40
0.0
  9
$VIEWDIR
 10
0.0
 20
0.0
 30
1.0
  9
$LIMCHECK
 70
     0
  9
$BLIPMODE
 70
     1
  9
$CHAMFERA
 40
0.0
  9
$CHAMFERB
 40
0.0
  9
$FASTZOOM
 70
     1
  9
$SKPOLY
 70
     0
  9
$TDCREATE
 40
2447877.7311111605
  9
$TDUPDATE
 40
2447877.7311111605
  9
$TDINDWG
 40
0.0055787037
  9
$TDUSRTIMER
 40
0.0055787037
  9
$USRTIMER
 70
     1
  9
$ANGBASE
 50
0.0
  9
$ANGDIR
 70
     0
  9
$PDMODE
 70
     0
  9
$PDSIZE
 40
0.0
  9
$PLINEWID
 40
0.0
  9
$COORDS
 70
     0
  9
$USERI1
 70
     0
  9
$USERI2
 70
     0
  9
$USERI3
 70
     0
  9
$USERI4
 70
     0
  9
$USERI5
 70
     0
  9
$USERR1
 40
0.0
  9
$USERR2
 40
0.0
  9
$USERR3
 40
0.0
  9
$USERR4
 40
0.0
  9
$USERR5
 40
0.0
  0
ENDSEC
  0
SECTION
  2
TABLES
  0
TABLE
  2
LTYPE
 70
     3
  0
LTYPE
  2
CONTINUOUS
 70
    64
  3
SOLID
 72
    65
 73
     0
 40
0.0
  0
LTYPE
  2
CENTER
 70
    64
  3
CENTER
 72
    65
 73
     4
 40
2.0
 49
1.25
 49
-0.25
 49
0.25
 49
-0.25
  0
LTYPE
  2
PHANTOM
 70
    64
  3
PHANTOM
 72
    65
 73
     6
 40
2.5
 49
1.25
 49
-0.25
 49
0.25
 49
-0.25
 49
0.25
 49
-0.25
  0
ENDTAB
  0
TABLE
  2
LAYER
 70
     1
  0
LAYER
  2
0
 70
    64
 62
     7
  6
CONTINUOUS
  0
ENDTAB
  0
TABLE
  2
STYLE
 70
     2
  0
STYLE
  2
AAA
 70
     0
 40
0.0
 41
1.0
 50
0.0
 71
     0
 42
0.2
  3
TXT
  4

  0
STYLE
  2
STANDARD
 70
    64
 40
0.0
 41
1.0
 50
0.0
 71
     0
 42
0.2
  3
TXT
  4
BIGFONT
  0
ENDTAB
  0
TABLE
  2
VIEW
 70
     0
  0
ENDTAB
  0
ENDSEC
  0
SECTION
  2
BLOCKS
  0
ENDSEC
  0
SECTION
  2
ENTITIES
  0
POINT
  8
0
  6
CONTINUOUS
 62
     7
 10
-195.4365
 20
150.2773
  0
POINT
  8
0
  6
CONTINUOUS
 62
     7
 10
-302.0615
 20
1.60022
  0
POINT
  8
0
  6
CONTINUOUS
 62
     7
 10
-329.0615
 20
1.60022
  0
POINT
  8
0
  6
CONTINUOUS
 62
     7
 10
-302.0615
 20
22.30022
  0
POINT
  8
0
  6
CONTINUOUS
 62
     7
 10
-195.4368
 20
1.60001
  0
POINT
  8
0
  6
CONTINUOUS
 62
     7
 10
-201.9368
 20
22.3
  0
POINT
  8
0
  6
CONTINUOUS
 62
     7
 10
-201.9368
 20
-6.39999
  0
POINT
  8
0
  6
CONTINUOUS
 62
     7
 10
-71.81268
 20
1.60028
  0
POINT
  8
0
  6
CONTINUOUS
 62
     7
 10
-98.81268
 20
22.30028
  0
POINT
  8
0
  6
CONTINUOUS
 62
     7
 10
-195.4365
 20
-185.6791
  0
POINT
  8
0
  6
CONTINUOUS
 62
     7
 10
-201.9365
 20
-158.6791
  0
POINT
  8
0
  6
CONTINUOUS
 62
     7
 10
175.437
 20
150.2773
  0
POINT
  8
0
  6
CONTINUOUS
 62
     7
 10
68.81203
 20
1.60022
  0
POINT
  8
0
  6
CONTINUOUS
 62
     7
 10
41.81203
 20
1.60022
  0
POINT
  8
0
  6
CONTINUOUS
 62
     7
 10
68.81203
 20
22.30022
  0
POINT
  8
0
  6
CONTINUOUS
 62
     7
 10
175.4368
 20
1.60002
  0
POINT
  8
0
  6
CONTINUOUS
 62
     7
 10
168.9368
 20
22.30002
  0
POINT
  8
0
  6
CONTINUOUS
 62
     7
 10
299.0609
 20
1.60027
  0
POINT
  8
0
  6
CONTINUOUS
 62
     7
 10
272.0609
 20
22.30026
  0
POINT
  8
0
  6
CONTINUOUS
 62
     7
 10
175.4371
 20
-185.6791
  0
POINT
  8
0
  6
CONTINUOUS
 62
     7
 10
168.9371
 20
-158.6791
  0
LINE
  8
0
  6
CONTINUOUS
 62
     7
 10
218.3292
 20
-225.9564
 11
370.8736
 21
-225.9564
  0
LINE
  8
0
  6
CONTINUOUS
 62
     7
 10
-218.3292
 20
225.9564
 11
-218.3292
 21
254.5585
  0
LINE
  8
0
  6
CONTINUOUS
 62
     7
 10
-370.8736
 20
225.9564
 11
-218.3292
 21
225.9564
  0
LINE
  8
0
  6
CONTINUOUS
 62
     7
 10
-370.8736
 20
254.5585
 11
370.8736
 21
254.5585
  0
LINE
  8
0
  6
CONTINUOUS
 62
     7
 10
-370.8736
 20
-254.5585
 11
370.8736
 21
-254.5585
  0
LINE
  8
0
  6
CONTINUOUS
 62
     7
 10
370.8736
 20
254.5585
 11
370.8736
 21
-254.5585
  0
LINE
  8
0
  6
CONTINUOUS
 62
     7
 10
-370.8736
 20
-254.5585
 11
-370.8736
 21
254.5585
  0
LINE
  8
0
  6
CONTINUOUS
 62
     7
 10
218.3292
 20
-225.9564
 11
218.3292
 21
-254.5585
  0
LINE
  8
0
  6
CONTINUOUS
 62
     7
 10
218.3292
 20
254.5585
 11
218.3292
 21
225.9564
  0
LINE
  8
0
  6
CONTINUOUS
 62
     7
 10
218.3292
 20
225.9564
 11
370.8736
 21
225.9564
  0
LINE
  8
0
  6
CONTINUOUS
 62
     7
 10
258.3816
 20
-232.8337
 11
258.3816
 21
-236.1516
  0
LINE
  8
0
  6
CONTINUOUS
 62
     7
 10
258.3816
 20
-236.1516
 11
270.8235
 21
-236.1516
  0
LINE
  8
0
  6
CONTINUOUS
 62
     7
 10
258.3816
 20
-249.1465
 11
275.2473
 21
-249.1465
  0
LINE
  8
0
  6
CONTINUOUS
 62
     7
 10
258.3816
 20
-245.8286
 11
270.8235
 21
-245.8286
  0
LINE
  8
0
  6
CONTINUOUS
 62
     7
 10
258.3816
 20
-232.8337
 11
273.0354
 21
-232.8337
  0
LINE
  8
0
  6
CONTINUOUS
 62
     7
 10
270.8235
 20
-236.1516
 11
270.8235
 21
-245.8286
  0
LINE
  8
0
  6
CONTINUOUS
 62
     7
 10
275.2473
 20
-235.0457
 11
275.2473
 21
-249.1465
  0
LINE
  8
0
  6
CONTINUOUS
 62
     7
 10
258.3816
 20
-245.8286
 11
258.3816
 21
-249.1465
  0
LINE
  8
0
  6
CONTINUOUS
 62
     7
 10
293.4954
 20
-236.1516
 11
293.4954
 21
-246.9346
  0
LINE
  8
0
  6
CONTINUOUS
 62
     7
 10
277.7357
 20
-232.8337
 11
277.7357
 21
-236.1516
  0
LINE
  8
0
  6
CONTINUOUS
 62
     7
 10
293.9378
 20
-232.585
 11
295.5138
 21
-232.585
  0
LINE
  8
0
  6
CONTINUOUS
 62
     7
 10
293.9378
 20
-230.373
 11
295.5138
 21
-230.373
  0
LINE
  8
0
  6
CONTINUOUS
 62
     7
 10
295.5138
 20
-230.373
 11
295.5138
 21
-232.585
  0
LINE
  8
0
  6
CONTINUOUS
 62
     7
 10
293.9378
 20
-230.373
 11
293.9378
 21
-232.585
  0
LINE
  8
0
  6
CONTINUOUS
 62
     7
 10
293.1083
 20
-230.373
 11
293.1083
 21
-232.585
  0
LINE
  8
0
  6
CONTINUOUS
 62
     7
 10
282.7661
 20
-230.373
 11
286.2009
 21
-230.373
  0
LINE
  8
0
  6
CONTINUOUS
 62
     7
 10
285.5413
 20
-232.8335
 11
286.2006
 21
-230.3727
  0
LINE
  8
0
  6
CONTINUOUS
 62
     7
 10
282.1067
 20
-232.8337
 11
282.766
 21
-230.373
  0
LINE
  8
0
  6
CONTINUOUS
 62
     7
 10
285.5416
 20
-232.8337
 11
290.1776
 21
-232.8337
  0
LINE
  8
0
  6
CONTINUOUS
 62
     7
 10
284.6526
 20
-236.1516
 11
289.0716
 21
-236.1516
  0
LINE
  8
0
  6
CONTINUOUS
 62
     7
 10
286.6429
 20
-249.1465
 11
291.2836
 21
-249.1465
  0
LINE
  8
0
  6
CONTINUOUS
 62
     7
 10
285.7537
 20
-245.8286
 11
286.6427
 21
-249.1463
  0
LINE
  8
0
  6
CONTINUOUS
 62
     7
 10
285.7538
 20
-245.8286
 11
289.0716
 21
-245.8286
  0
LINE
  8
0
  6
CONTINUOUS
 62
     7
 10
281.1707
 20
-249.1466
 11
284.6527
 21
-236.1517
  0
LINE
  8
0
  6
CONTINUOUS
 62
     7
 10
277.7357
 20
-236.1516
 11
281.2177
 21
-236.1516
  0
LINE
  8
0
  6
CONTINUOUS
 62
     7
 10
277.7354
 20
-249.1462
 11
281.2175
 21
-236.1513
  0
LINE
  8
0
  6
CONTINUOUS
 62
     7
 10
277.7357
 20
-249.1465
 11
281.1706
 21
-249.1465
  0
LINE
  8
0
  6
CONTINUOUS
 62
     7
 10
277.7357
 20
-232.8337
 11
282.1067
 21
-232.8337
  0
LINE
  8
0
  6
CONTINUOUS
 62
     7
 10
289.0716
 20
-236.1516
 11
289.0716
 21
-245.8286
  0
LINE
  8
0
  6
CONTINUOUS
 62
     7
 10
291.5323
 20
-230.373
 11
293.1083
 21
-230.373
  0
LINE
  8
0
  6
CONTINUOUS
 62
     7
 10
291.5323
 20
-232.585
 11
293.1083
 21
-232.585
  0
LINE
  8
0
  6
CONTINUOUS
 62
     7
 10
291.5323
 20
-230.373
 11
291.5323
 21
-232.585
  0
LINE
  8
0
  6
CONTINUOUS
 62
     7
 10
301.5135
 20
-230.373
 11
305.9373
 21
-230.373
  0
LINE
  8
0
  6
CONTINUOUS
 62
     7
 10
308.3423
 20
-240.1951
 11
311.2962
 21
-238.8176
  0
LINE
  8
0
  6
CONTINUOUS
 62
     7
 10
305.9373
 20
-242.7344
 11
305.9373
 21
-249.1465
  0
LINE
  8
0
  6
CONTINUOUS
 62
     7
 10
301.5135
 20
-243.379
 11
301.5135
 21
-249.1465
  0
LINE
  8
0
  6
CONTINUOUS
 62
     7
 10
305.9373
 20
-232.8337
 11
310.3611
 21
-232.8337
  0
LINE
  8
0
  6
CONTINUOUS
 62
     7
 10
305.9373
 20
-230.373
 11
305.9373
 21
-232.8337
  0
LINE
  8
0
  6
CONTINUOUS
 62
     7
 10
301.5135
 20
-230.373
 11
301.5135
 21
-232.8337
  0
LINE
  8
0
  6
CONTINUOUS
 62
     7
 10
312.573
 20
-235.0457
 11
312.573
 21
-236.8128
  0
LINE
  8
0
  6
CONTINUOUS
 62
     7
 10
308.3424
 20
-240.195
 11
312.5734
 21
-242.168
  0
LINE
  8
0
  6
CONTINUOUS
 62
     7
 10
305.9373
 20
-242.7343
 11
312.5731
 21
-245.8286
  0
LINE
  8
0
  6
CONTINUOUS
 62
     7
 10
296.2603
 20
-242.1678
 11
296.2603
 21
-245.8286
  0
LINE
  8
0
  6
CONTINUOUS
 62
     7
 10
296.2607
 20
-242.1682
 11
309.1626
 21
-236.1519
  0
LINE
  8
0
  6
CONTINUOUS
 62
     7
 10
296.2603
 20
-245.8286
 11
301.5136
 21
-243.3789
  0
LINE
  8
0
  6
CONTINUOUS
 62
     7
 10
312.573
 20
-242.1678
 11
312.573
 21
-245.8286
  0
LINE
  8
0
  6
CONTINUOUS
 62
     7
 10
296.2603
 20
-232.8337
 11
296.2603
 21
-236.1516
  0
LINE
  8
0
  6
CONTINUOUS
 62
     7
 10
301.5135
 20
-249.1465
 11
305.9373
 21
-249.1465
  0
LINE
  8
0
  6
CONTINUOUS
 62
     7
 10
296.2603
 20
-236.1516
 11
309.1621
 21
-236.1516
  0
LINE
  8
0
  6
CONTINUOUS
 62
     7
 10
296.2603
 20
-232.8337
 11
301.5135
 21
-232.8337
  0
LINE
  8
0
  6
CONTINUOUS
 62
     7
 10
327.504
 20
-236.4047
 11
328.73
 21
-235.9171
  0
LINE
  8
0
  6
CONTINUOUS
 62
     7
 10
327.5034
 20
-236.4044
 11
327.5034
 21
-249.1465
  0
LINE
  8
0
  6
CONTINUOUS
 62
     7
 10
323.0795
 20
-249.1465
 11
327.5034
 21
-249.1465
  0
LINE
  8
0
  6
CONTINUOUS
 62
     7
 10
313.9553
 20
-241.7925
 11
323.0794
 21
-238.1637
  0
LINE
  8
0
  6
CONTINUOUS
 62
     7
 10
313.9555
 20
-238.222
 11
326.8062
 21
-233.1111
  0
LINE
  8
0
  6
CONTINUOUS
 62
     7
 10
323.0795
 20
-238.1638
 11
323.0795
 21
-249.1465
  0
LINE
  8
0
  6
CONTINUOUS
 62
     7
 10
327.5034
 20
-231.3684
 11
327.5034
 21
-232.0834
  0
LINE
  8
0
  6
CONTINUOUS
 62
     7
 10
330.8211
 20
-231.3684
 11
330.8211
 21
-232.8338
  0
LINE
  8
0
  6
CONTINUOUS
 62
     7
 10
313.9554
 20
-238.2219
 11
313.9554
 21
-241.7925
  0
LINE
  8
0
  6
CONTINUOUS
 62
     7
 10
327.5034
 20
-231.3684
 11
330.8211
 21
-231.3684
  0
LINE
  8
0
  6
CONTINUOUS
 62
     7
 10
0.0
 20
254.5585
 11
0.0
 21
-254.5585
  0
LINE
  8
0
  6
CENTER
 62
     2
 10
-204.8585
 20
22.3
 11
-199.0271
 21
22.3
  0
LINE
  8
0
  6
CENTER
 62
     2
 10
-199.7834
 20
1.60001
 11
-192.3524
 21
1.60001
  0
LINE
  8
0
  6
CENTER
 62
     2
 10
-208.4368
 20
-24.28723
 11
-208.4368
 21
-32.69188
  0
LINE
  8
0
  6
CENTER
 62
     2
 10
-195.4368
 20
6.1913
 11
-195.4368
 21
-2.81667
  0
LINE
  8
0
  6
CONTINUOUS
 62
     7
 10
-193.9368
 20
25.8
 11
-192.9368
 21
24.8
  0
LINE
  8
0
  6
CONTINUOUS
 62
     7
 10
-209.9368
 20
25.80002
 11
-210.9368
 21
24.80002
  0
LINE
  8
0
  6
CONTINUOUS
 62
     7
 10
-210.4368
 20
-42.8
 11
-193.4368
 21
-42.8
  0
LINE
  8
0
  6
CONTINUOUS
 62
     7
 10
-210.9368
 20
-34.40001
 11
-192.9368
 21
-34.40001
  0
LINE
  8
0
  6
CONTINUOUS
 62
     7
 10
-210.9368
 20
7.60001
 11
-192.9368
 21
7.60001
  0
LINE
  8
0
  6
CONTINUOUS
 62
     7
 10
-210.9368
 20
24.8
 11
-210.9368
 21
-42.29997
  0
LINE
  8
0
  6
CONTINUOUS
 62
     7
 10
-192.9368
 20
24.8
 11
-192.9368
 21
-42.3
  0
LINE
  8
0
  6
CENTER
 62
     2
 10
-201.9368
 20
57.61476
 11
-201.9368
 21
-13.75713
  0
LINE
  8
0
  6
CENTER
 62
     2
 10
-201.9368
 20
-15.59773
 11
-201.9368
 21
-47.81667
  0
LINE
  8
0
  6
CENTER
 62
     2
 10
-212.4368
 20
-28.39999
 11
-204.2784
 21
-28.39999
  0
LINE
  8
0
  6
CENTER
 62
     2
 10
-208.7701
 20
-6.39999
 11
-194.7701
 21
-6.39999
  0
LINE
  8
0
  6
CENTER
 62
     2
 10
-207.9368
 20
-38.30574
 11
-207.9368
 21
-44.25529
  0
LINE
  8
0
  6
CONTINUOUS
 62
     7
 10
-210.7368
 20
-40.57182
 11
-210.7368
 21
-39.40001
  0
LINE
  8
0
  6
CONTINUOUS
 62
     7
 10
-210.9368
 20
24.8
 11
-192.9368
 21
24.8
  0
LINE
  8
0
  6
CONTINUOUS
 62
     7
 10
-205.1368
 20
-40.57182
 11
-205.1368
 21
-39.40001
  0
LINE
  8
0
  6
CONTINUOUS
 62
     7
 10
-204.7368
 20
-39.89998
 11
-204.7368
 21
-42.29997
  0
LINE
  8
0
  6
CONTINUOUS
 62
     7
 10
-210.4368
 20
-39.40001
 11
-205.2368
 21
-39.40001
  0
LINE
  8
0
  6
CONTINUOUS
 62
     7
 10
-209.9368
 20
25.8
 11
-193.9368
 21
25.8
  0
LINE
  8
0
  6
CONTINUOUS
 62
     7
 10
-209.4368
 20
52.00002
 11
-209.4368
 21
25.8
  0
LINE
  8
0
  6
CONTINUOUS
 62
     7
 10
-194.4368
 20
52.00002
 11
-194.4368
 21
25.8
  0
LINE
  8
0
  6
CONTINUOUS
 62
     7
 10
-209.4368
 20
51.00002
 11
-208.9368
 21
51.00002
  0
LINE
  8
0
  6
CONTINUOUS
 62
     7
 10
-194.9368
 20
52.8
 11
-194.9368
 21
46.8
  0
LINE
  8
0
  6
CONTINUOUS
 62
     7
 10
-208.9368
 20
52.8
 11
-208.9368
 21
46.8
  0
LINE
  8
0
  6
CONTINUOUS
 62
     7
 10
-208.9368
 20
52.8
 11
-194.9368
 21
52.8
  0
LINE
  8
0
  6
CONTINUOUS
 62
     7
 10
-208.9368
 20
46.8
 11
-194.9368
 21
46.8
  0
LINE
  8
0
  6
CONTINUOUS
 62
     7
 10
-194.9368
 20
51.00002
 11
-194.4368
 21
51.00002
  0
LINE
  8
0
  6
CONTINUOUS
 62
     7
 10
-208.9368
 20
46.00002
 11
-208.9368
 21
26.60001
  0
LINE
  8
0
  6
CONTINUOUS
 62
     7
 10
-194.9368
 20
46.00002
 11
-194.9368
 21
26.60001
  0
LINE
  8
0
  6
CONTINUOUS
 62
     7
 10
-207.4368
 20
27.3
 11
-196.4368
 21
27.3
  0
LINE
  8
0
  6
CONTINUOUS
 62
     7
 10
-207.4368
 20
35.8
 11
-196.4368
 21
35.8
  0
LINE
  8
0
  6
CONTINUOUS
 62
     7
 10
-207.4368
 20
35.8
 11
-207.4368
 21
27.3
  0
LINE
  8
0
  6
CONTINUOUS
 62
     7
 10
-196.4368
 20
35.8
 11
-196.4368
 21
27.3
  0
LINE
  8
0
  6
CONTINUOUS
 62
     7
 10
-203.9368
 20
39.3
 11
-199.9368
 21
39.3
  0
LINE
  8
0
  6
CONTINUOUS
 62
     7
 10
-203.9368
 20
37.3
 11
-199.9368
 21
37.3
  0
LINE
  8
0
  6
CONTINUOUS
 62
     7
 10
-203.9368
 20
39.3
 11
-203.9368
 21
37.3
  0
LINE
  8
0
  6
CONTINUOUS
 62
     7
 10
-199.9368
 20
39.3
 11
-199.9368
 21
37.3
  0
LINE
  8
0
  6
CONTINUOUS
 62
     7
 10
-204.4368
 20
39.8
 11
-199.4368
 21
39.8
  0
LINE
  8
0
  6
CONTINUOUS
 62
     7
 10
-204.4368
 20
39.8
 11
-204.4368
 21
36.8
  0
LINE
  8
0
  6
CONTINUOUS
 62
     7
 10
-204.4368
 20
36.8
 11
-199.4368
 21
36.8
  0
LINE
  8
0
  6
CONTINUOUS
 62
     7
 10
-199.4368
 20
39.8
 11
-199.4368
 21
36.8
  0
LINE
  8
0
  6
CONTINUOUS
 62
     7
 10
-203.9368
 20
39.29999
 11
-204.4368
 21
39.8
  0
LINE
  8
0
  6
CONTINUOUS
 62
     7
 10
-199.9368
 20
39.30003
 11
-199.4368
 21
39.80004
  0
LINE
  8
0
  6
CONTINUOUS
 62
     7
 10
-199.9368
 20
37.3
 11
-199.4368
 21
36.8
  0
LINE
  8
0
  6
CONTINUOUS
 62
     7
 10
-203.9368
 20
37.30001
 11
-204.4368
 21
36.80001
  0
LINE
  8
0
  6
CONTINUOUS
 62
     7
 10
-208.4368
 20
54.00002
 11
-208.2625
 21
54.00002
  0
LINE
  8
0
  6
CONTINUOUS
 62
     7
 10
-209.4368
 20
52.00002
 11
-208.9368
 21
52.00002
  0
LINE
  8
0
  6
CONTINUOUS
 62
     7
 10
-209.4368
 20
52.00004
 11
-208.4368
 21
54.00004
  0
LINE
  8
0
  6
CONTINUOUS
 62
     7
 10
-194.4368
 20
52.0
 11
-195.4368
 21
53.99999
  0
LINE
  8
0
  6
CENTER
 62
     2
 10
-206.4368
 20
57.00002
 11
-206.4368
 21
48.00002
  0
LINE
  8
0
  6
CONTINUOUS
 62
     7
 10
-208.9368
 20
52.60001
 11
-208.9868
 21
52.60001
  0
LINE
  8
0
  6
CONTINUOUS
 62
     7
 10
-208.9868
 20
52.60001
 11
-208.9868
 21
52.00002
  0
LINE
  8
0
  6
CONTINUOUS
 62
     7
 10
-194.9368
 20
52.00002
 11
-194.4368
 21
52.00002
  0
LINE
  8
0
  6
CONTINUOUS
 62
     7
 10
-208.6868
 20
53.29375
 11
-208.6868
 21
52.8
  0
LINE
  8
0
  6
CONTINUOUS
 62
     7
 10
-207.6368
 20
49.2
 11
-205.9368
 21
49.2
  0
LINE
  8
0
  6
CONTINUOUS
 62
     7
 10
-207.6368
 20
51.2
 11
-206.1368
 21
51.2
  0
LINE
  8
0
  6
CONTINUOUS
 62
     7
 10
-197.7368
 20
52.8
 11
-197.7368
 21
51.2
  0
LINE
  8
0
  6
CONTINUOUS
 62
     7
 10
-206.1368
 20
52.8
 11
-206.1368
 21
51.2
  0
LINE
  8
0
  6
CONTINUOUS
 62
     7
 10
-196.2368
 20
51.2
 11
-196.2368
 21
49.2
  0
LINE
  8
0
  6
CONTINUOUS
 62
     7
 10
-207.6368
 20
51.2
 11
-207.6368
 21
49.2
  0
LINE
  8
0
  6
CONTINUOUS
 62
     7
 10
-206.1368
 20
49.2
 11
-206.1368
 21
46.8
  0
LINE
  8
0
  6
CONTINUOUS
 62
     7
 10
-197.7368
 20
49.2
 11
-197.7368
 21
46.8
  0
LINE
  8
0
  6
CONTINUOUS
 62
     7
 10
-197.7368
 20
51.2
 11
-196.2368
 21
51.2
  0
LINE
  8
0
  6
CONTINUOUS
 62
     7
 10
-197.9368
 20
49.2
 11
-196.2368
 21
49.2
  0
LINE
  8
0
  6
CENTER
 62
     2
 10
-197.4368
 20
57.00002
 11
-197.4368
 21
48.00002
  0
LINE
  8
0
  6
CONTINUOUS
 62
     7
 10
-207.4368
 20
51.00002
 11
-205.9368
 21
51.00002
  0
LINE
  8
0
  6
CONTINUOUS
 62
     7
 10
-205.9368
 20
53.8
 11
-197.9368
 21
53.8
  0
LINE
  8
0
  6
CONTINUOUS
 62
     7
 10
-207.4368
 20
51.00002
 11
-207.4368
 21
49.2
  0
LINE
  8
0
  6
CONTINUOUS
 62
     7
 10
-196.4368
 20
51.00002
 11
-196.4368
 21
49.2
  0
LINE
  8
0
  6
CONTINUOUS
 62
     7
 10
-205.9368
 20
51.80005
 11
-205.6368
 21
52.10005
  0
LINE
  8
0
  6
CONTINUOUS
 62
     7
 10
-197.9368
 20
51.79998
 11
-198.2368
 21
52.09997
  0
LINE
  8
0
  6
CONTINUOUS
 62
     7
 10
-205.9368
 20
49.2
 11
-205.9368
 21
46.8
  0
LINE
  8
0
  6
CONTINUOUS
 62
     7
 10
-197.9368
 20
49.2
 11
-197.9368
 21
46.8
  0
LINE
  8
0
  6
CONTINUOUS
 62
     7
 10
-197.9368
 20
51.00002
 11
-196.4368
 21
51.00002
  0
LINE
  8
0
  6
CENTER
 62
     2
 10
-205.8868
 20
50.3
 11
-197.9868
 21
50.3
  0
LINE
  8
0
  6
CENTER
 62
     2
 10
-204.4368
 20
51.65001
 11
-204.4368
 21
48.85001
  0
LINE
  8
0
  6
CENTER
 62
     2
 10
-199.4368
 20
51.65001
 11
-199.4368
 21
48.85001
  0
LINE
  8
0
  6
CONTINUOUS
 62
     7
 10
-205.3868
 20
51.25002
 11
-203.4868
 21
51.25002
  0
LINE
  8
0
  6
CONTINUOUS
 62
     7
 10
-205.3868
 20
49.35001
 11
-203.4868
 21
49.35001
  0
LINE
  8
0
  6
CONTINUOUS
 62
     7
 10
-205.3868
 20
51.45
 11
-205.3868
 21
49.35001
  0
LINE
  8
0
  6
CONTINUOUS
 62
     7
 10
-203.4868
 20
51.45
 11
-203.4868
 21
49.35001
  0
LINE
  8
0
  6
CONTINUOUS
 62
     7
 10
-202.8868
 20
51.45
 11
-202.8868
 21
49.35001
  0
LINE
  8
0
  6
CONTINUOUS
 62
     7
 10
-200.9868
 20
51.45
 11
-200.9868
 21
49.35001
  0
LINE
  8
0
  6
CONTINUOUS
 62
     7
 10
-198.4868
 20
51.45
 11
-198.4868
 21
49.35001
  0
LINE
  8
0
  6
CONTINUOUS
 62
     7
 10
-200.3868
 20
51.45
 11
-200.3868
 21
49.35001
  0
LINE
  8
0
  6
CONTINUOUS
 62
     7
 10
-202.8868
 20
51.25002
 11
-200.9868
 21
51.25002
  0
LINE
  8
0
  6
CONTINUOUS
 62
     7
 10
-202.8868
 20
49.35001
 11
-200.9868
 21
49.35001
  0
LINE
  8
0
  6
CONTINUOUS
 62
     7
 10
-200.3868
 20
49.35001
 11
-198.4868
 21
49.35001
  0
LINE
  8
0
  6
CONTINUOUS
 62
     7
 10
-200.3868
 20
51.25002
 11
-198.4868
 21
51.25002
  0
LINE
  8
0
  6
CONTINUOUS
 62
     7
 10
-206.1368
 20
51.8
 11
-197.7368
 21
51.8
  0
LINE
  8
0
  6
CONTINUOUS
 62
     7
 10
-205.6368
 20
52.10001
 11
-198.2368
 21
52.10001
  0
LINE
  8
0
  6
CONTINUOUS
 62
     7
 10
-205.9368
 20
54.8
 11
-197.9368
 21
54.8
  0
LINE
  8
0
  6
CONTINUOUS
 62
     7
 10
-197.9368
 20
54.8
 11
-197.9368
 21
51.00002
  0
LINE
  8
0
  6
CONTINUOUS
 62
     7
 10
-205.9368
 20
54.8
 11
-205.9368
 21
51.00002
  0
LINE
  8
0
  6
CONTINUOUS
 62
     7
 10
-205.3868
 20
51.45
 11
-203.4868
 21
51.45
  0
LINE
  8
0
  6
CONTINUOUS
 62
     7
 10
-202.8868
 20
51.45
 11
-200.9868
 21
51.45
  0
LINE
  8
0
  6
CONTINUOUS
 62
     7
 10
-200.3868
 20
51.45
 11
-198.4868
 21
51.45
  0
LINE
  8
0
  6
CONTINUOUS
 62
     7
 10
-204.9368
 20
49.05
 11
-203.9368
 21
49.05
  0
LINE
  8
0
  6
CONTINUOUS
 62
     7
 10
-202.4368
 20
49.05
 11
-201.4368
 21
49.05
  0
LINE
  8
0
  6
CONTINUOUS
 62
     7
 10
-199.9368
 20
49.05
 11
-198.9368
 21
49.05
  0
LINE
  8
0
  6
CONTINUOUS
 62
     7
 10
-204.9368
 20
49.35001
 11
-204.9368
 21
49.05
  0
LINE
  8
0
  6
CONTINUOUS
 62
     7
 10
-203.9368
 20
49.35001
 11
-203.9368
 21
49.05
  0
LINE
  8
0
  6
CONTINUOUS
 62
     7
 10
-202.4368
 20
49.35001
 11
-202.4368
 21
49.05
  0
LINE
  8
0
  6
CONTINUOUS
 62
     7
 10
-201.4368
 20
49.35001
 11
-201.4368
 21
49.05
  0
LINE
  8
0
  6
CONTINUOUS
 62
     7
 10
-198.9368
 20
49.35001
 11
-198.9368
 21
49.05
  0
LINE
  8
0
  6
CONTINUOUS
 62
     7
 10
-199.9368
 20
49.35001
 11
-199.9368
 21
49.05
  0
LINE
  8
0
  6
CONTINUOUS
 62
     7
 10
-204.9368
 20
47.925
 11
-203.9368
 21
47.925
  0
LINE
  8
0
  6
CONTINUOUS
 62
     7
 10
-204.4368
 20
48.425
 11
-204.4368
 21
47.425
  0
LINE
  8
0
  6
CONTINUOUS
 62
     7
 10
-199.9368
 20
47.925
 11
-198.9368
 21
47.925
  0
LINE
  8
0
  6
CONTINUOUS
 62
     7
 10
-195.4368
 20
54.0
 11
-197.9368
 21
54.0
  0
LINE
  8
0
  6
CENTER
 62
     2
 10
-205.9368
 20
38.3
 11
-197.9368
 21
38.3
  0
LINE
  8
0
  6
CENTER
 62
     2
 10
-201.9365
 20
152.6735
 11
-201.9365
 21
101.6598
  0
LINE
  8
0
  6
CENTER
 62
     2
 10
-213.6865
 20
136.7773
 11
-189.7091
 21
136.7773
  0
LINE
  8
0
  6
CONTINUOUS
 62
     7
 10
-194.4365
 20
124.7773
 11
-209.4365
 21
124.7773
  0
LINE
  8
0
  6
CONTINUOUS
 62
     7
 10
-194.9365
 20
115.6773
 11
-197.9365
 21
115.6773
  0
LINE
  8
0
  6
CONTINUOUS
 62
     7
 10
-203.4365
 20
127.7773
 11
-203.4365
 21
124.7773
  0
LINE
  8
0
  6
CONTINUOUS
 62
     7
 10
-200.4365
 20
145.7773
 11
-200.4365
 21
148.7773
  0
LINE
  8
0
  6
CONTINUOUS
 62
     7
 10
-197.4365
 20
142.7773
 11
-194.4365
 21
142.7773
  0
LINE
  8
0
  6
CONTINUOUS
 62
     7
 10
-206.4365
 20
130.7773
 11
-209.4365
 21
130.7773
  0
LINE
  8
0
  6
CONTINUOUS
 62
     7
 10
-200.4365
 20
147.7773
 11
-208.4365
 21
147.7773
  0
LINE
  8
0
  6
CONTINUOUS
 62
     7
 10
-195.4365
 20
125.7773
 11
-203.4365
 21
125.7773
  0
LINE
  8
0
  6
CONTINUOUS
 62
     7
 10
-195.4365
 20
142.7773
 11
-195.4365
 21
125.7773
  0
LINE
  8
0
  6
CONTINUOUS
 62
     7
 10
-208.4365
 20
147.7773
 11
-208.4365
 21
130.7773
  0
LINE
  8
0
  6
CONTINUOUS
 62
     7
 10
-208.6664
 20
127.4773
 11
-208.9688
 21
127.4773
  0
LINE
  8
0
  6
CONTINUOUS
 62
     7
 10
-208.6664
 20
128.0773
 11
-208.9688
 21
128.0773
  0
LINE
  8
0
  6
CONTINUOUS
 62
     7
 10
-208.9445
 20
128.238
 11
-208.6388
 21
128.238
  0
LINE
  8
0
  6
CONTINUOUS
 62
     7
 10
-195.2066
 20
146.0773
 11
-194.9042
 21
146.0773
  0
LINE
  8
0
  6
CONTINUOUS
 62
     7
 10
-195.2066
 20
145.4773
 11
-194.9042
 21
145.4773
  0
LINE
  8
0
  6
CONTINUOUS
 62
     7
 10
-194.9285
 20
145.3165
 11
-195.2342
 21
145.3165
  0
LINE
  8
0
  6
CONTINUOUS
 62
     7
 10
-207.1719
 20
128.8804
 11
-206.8042
 21
128.5126
  0
LINE
  8
0
  6
CONTINUOUS
 62
     7
 10
-207.5396
 20
128.5127
 11
-207.1719
 21
128.145
  0
LINE
  8
0
  6
CONTINUOUS
 62
     7
 10
-207.1719
 20
128.8803
 11
-207.5396
 21
128.5126
  0
LINE
  8
0
  6
CONTINUOUS
 62
     7
 10
-205.3334
 20
127.0419
 11
-205.7011
 21
126.6742
  0
LINE
  8
0
  6
CONTINUOUS
 62
     7
 10
-205.04
 20
129.5414
 11
-206.0688
 21
128.5127
  0
LINE
  8
0
  6
CONTINUOUS
 62
     7
 10
-204.6723
 20
129.1737
 11
-205.7011
 21
128.1449
  0
LINE
  8
0
  6
CONTINUOUS
 62
     7
 10
-205.7011
 20
127.4096
 11
-205.3334
 21
127.0419
  0
LINE
  8
0
  6
CONTINUOUS
 62
     7
 10
-206.0688
 20
127.0419
 11
-205.7011
 21
126.6742
  0
LINE
  8
0
  6
CONTINUOUS
 62
     7
 10
-207.1719
 20
127.4096
 11
-208.2007
 21
126.3808
  0
LINE
  8
0
  6
CONTINUOUS
 62
     7
 10
-206.8042
 20
127.0418
 11
-207.833
 21
126.0131
  0
LINE
  8
0
  6
CONTINUOUS
 62
     7
 10
-198.1719
 20
146.8804
 11
-197.8042
 21
146.5127
  0
LINE
  8
0
  6
CONTINUOUS
 62
     7
 10
-198.5396
 20
146.5127
 11
-198.1719
 21
146.145
  0
LINE
  8
0
  6
CONTINUOUS
 62
     7
 10
-198.1719
 20
146.8804
 11
-198.5396
 21
146.5127
  0
LINE
  8
0
  6
CONTINUOUS
 62
     7
 10
-196.3334
 20
145.0419
 11
-196.7011
 21
144.6742
  0
LINE
  8
0
  6
CONTINUOUS
 62
     7
 10
-196.04
 20
147.5415
 11
-197.0688
 21
146.5126
  0
LINE
  8
0
  6
CONTINUOUS
 62
     7
 10
-195.6723
 20
147.1737
 11
-196.7011
 21
146.1449
  0
LINE
  8
0
  6
CONTINUOUS
 62
     7
 10
-196.7011
 20
145.4096
 11
-196.3334
 21
145.0419
  0
LINE
  8
0
  6
CONTINUOUS
 62
     7
 10
-197.0688
 20
145.0419
 11
-196.7011
 21
144.6742
  0
LINE
  8
0
  6
CONTINUOUS
 62
     7
 10
-198.1719
 20
145.4096
 11
-199.2007
 21
144.3808
  0
LINE
  8
0
  6
CONTINUOUS
 62
     7
 10
-197.8042
 20
145.0419
 11
-198.833
 21
144.0131
  0
LINE
  8
0
  6
CONTINUOUS
 62
     7
 10
-197.9365
 20
106.2773
 11
-205.9365
 21
106.2773
  0
LINE
  8
0
  6
CONTINUOUS
 62
     7
 10
-197.9365
 20
111.9485
 11
-205.9365
 21
111.9485
  0
LINE
  8
0
  6
CONTINUOUS
 62
     7
 10
-197.9365
 20
123.2773
 11
-205.9365
 21
123.2773
  0
LINE
  8
0
  6
CONTINUOUS
 62
     7
 10
-206.1365
 20
124.7773
 11
-206.1365
 21
121.2773
  0
LINE
  8
0
  6
CONTINUOUS
 62
     7
 10
-197.7365
 20
124.7773
 11
-197.7365
 21
121.2773
  0
LINE
  8
0
  6
CONTINUOUS
 62
     7
 10
-197.7365
 20
121.2773
 11
-197.9365
 21
121.2773
  0
LINE
  8
0
  6
CONTINUOUS
 62
     7
 10
-197.7365
 20
120.2773
 11
-197.9365
 21
120.2773
  0
LINE
  8
0
  6
CONTINUOUS
 62
     7
 10
-206.1365
 20
120.2773
 11
-206.1365
 21
115.6773
  0
LINE
  8
0
  6
CONTINUOUS
 62
     7
 10
-197.7365
 20
120.2773
 11
-197.7365
 21
115.6773
  0
LINE
  8
0
  6
CONTINUOUS
 62
     7
 10
-205.9365
 20
115.6773
 11
-208.9365
 21
115.6773
  0
LINE
  8
0
  6
CONTINUOUS
 62
     7
 10
-205.9365
 20
120.2773
 11
-206.1365
 21
120.2773
  0
LINE
  8
0
  6
CONTINUOUS
 62
     7
 10
-205.9365
 20
121.2773
 11
-206.1365
 21
121.2773
  0
LINE
  8
0
  6
CENTER
 62
     2
 10
-202.4365
 20
127.7773
 11
-210.4365
 21
127.7773
  0
LINE
  8
0
  6
CENTER
 62
     2
 10
-193.4365
 20
145.7773
 11
-201.4365
 21
145.7773
  0
LINE
  8
0
  6
CENTER
 62
     2
 10
-197.4365
 20
149.7773
 11
-197.4365
 21
141.7773
  0
LINE
  8
0
  6
CENTER
 62
     2
 10
-206.4365
 20
131.7773
 11
-206.4365
 21
123.7773
  0
LINE
  8
0
  6
CONTINUOUS
 62
     7
 10
-194.4365
 20
148.2773
 11
-194.4365
 21
124.7773
  0
LINE
  8
0
  6
CONTINUOUS
 62
     7
 10
-194.9365
 20
148.7773
 11
-208.9365
 21
148.7773
  0
LINE
  8
0
  6
CONTINUOUS
 62
     7
 10
-209.4365
 20
148.2773
 11
-209.4365
 21
124.7773
  0
LINE
  8
0
  6
CONTINUOUS
 62
     7
 10
-194.9365
 20
124.7773
 11
-194.9365
 21
115.5773
  0
LINE
  8
0
  6
CONTINUOUS
 62
     7
 10
-195.7365
 20
114.7773
 11
-196.4365
 21
114.7773
  0
LINE
  8
0
  6
CONTINUOUS
 62
     7
 10
-207.4365
 20
114.7773
 11
-208.1365
 21
114.7773
  0
LINE
  8
0
  6
CONTINUOUS
 62
     7
 10
-208.9365
 20
124.7773
 11
-208.9365
 21
115.5773
  0
LINE
  8
0
  6
CONTINUOUS
 62
     7
 10
-207.4365
 20
115.6773
 11
-207.4365
 21
104.2773
  0
LINE
  8
0
  6
CONTINUOUS
 62
     7
 10
-196.4365
 20
104.2773
 11
-207.4365
 21
104.2773
  0
LINE
  8
0
  6
CONTINUOUS
 62
     7
 10
-196.4365
 20
115.6773
 11
-196.4365
 21
104.2773
  0
LINE
  8
0
  6
CONTINUOUS
 62
     7
 10
-197.9365
 20
123.2773
 11
-197.9365
 21
104.2773
  0
LINE
  8
0
  6
CONTINUOUS
 62
     7
 10
-205.9365
 20
123.2773
 11
-205.9365
 21
104.2773
  0
LINE
  8
0
  6
CONTINUOUS
 62
     7
 10
-198.5865
 20
104.2773
 11
-198.5865
 21
99.1561
  0
LINE
  8
0
  6
CONTINUOUS
 62
     7
 10
-200.2865
 20
104.2773
 11
-200.2865
 21
99.6116
  0
LINE
  8
0
  6
CENTER
 62
     2
 10
-199.4365
 20
107.2773
 11
-199.4365
 21
81.27727
  0
LINE
  8
0
  6
CONTINUOUS
 62
     7
 10
-199.1165
 20
94.27727
 11
-199.1165
 21
84.27727
  0
LINE
  8
0
  6
CONTINUOUS
 62
     7
 10
-198.5865
 20
94.27727
 11
-200.2865
 21
94.27727
  0
LINE
  8
0
  6
CONTINUOUS
 62
     7
 10
-199.1165
 20
84.27727
 11
-199.7565
 21
84.27727
  0
LINE
  8
0
  6
CONTINUOUS
 62
     7
 10
-199.7565
 20
94.27727
 11
-199.7565
 21
84.27727
  0
LINE
  8
0
  6
CONTINUOUS
 62
     7
 10
-204.1165
 20
94.27727
 11
-204.1165
 21
84.27727
  0
LINE
  8
0
  6
CONTINUOUS
 62
     7
 10
-204.1165
 20
84.27727
 11
-204.7565
 21
84.27727
  0
LINE
  8
0
  6
CONTINUOUS
 62
     7
 10
-204.7565
 20
94.27727
 11
-204.7565
 21
84.27727
  0
LINE
  8
0
  6
CENTER
 62
     2
 10
-204.4365
 20
107.2773
 11
-204.4365
 21
81.27727
  0
LINE
  8
0
  6
CONTINUOUS
 62
     7
 10
-203.5865
 20
104.2773
 11
-203.5865
 21
100.4958
  0
LINE
  8
0
  6
CONTINUOUS
 62
     7
 10
-203.5865
 20
94.27727
 11
-205.2865
 21
94.27727
  0
LINE
  8
0
  6
CONTINUOUS
 62
     7
 10
-205.2865
 20
104.2773
 11
-205.2865
 21
100.9514
  0
LINE
  8
0
  6
PHANTOM
 62
     2
 10
-207.2865
 20
101.4872
 11
-196.5865
 21
98.62019
  0
LINE
  8
0
  6
PHANTOM
 62
     2
 10
-207.2865
 20
99.93434
 11
-196.5865
 21
97.06729
  0
LINE
  8
0
  6
CONTINUOUS
 62
     7
 10
-198.5865
 20
97.60318
 11
-198.5865
 21
94.27727
  0
LINE
  8
0
  6
CONTINUOUS
 62
     7
 10
-200.2865
 20
98.0587
 11
-200.2865
 21
94.27727
  0
LINE
  8
0
  6
CONTINUOUS
 62
     7
 10
-203.5865
 20
98.94292
 11
-203.5865
 21
94.27727
  0
LINE
  8
0
  6
CONTINUOUS
 62
     7
 10
-205.2865
 20
99.39844
 11
-205.2865
 21
94.27727
  0
LINE
  8
0
  6
CONTINUOUS
 62
     7
 10
-208.9365
 20
124.2773
 11
-209.9365
 21
124.2773
  0
LINE
  8
0
  6
CONTINUOUS
 62
     7
 10
-194.9365
 20
123.2773
 11
-193.4365
 21
123.2773
  0
LINE
  8
0
  6
CONTINUOUS
 62
     7
 10
-192.9365
 20
149.7773
 11
-192.9365
 21
123.7773
  0
LINE
  8
0
  6
CONTINUOUS
 62
     7
 10
-210.9365
 20
149.7773
 11
-210.9365
 21
123.7773
  0
LINE
  8
0
  6
CONTINUOUS
 62
     7
 10
-210.4365
 20
123.2773
 11
-208.9365
 21
123.2773
  0
LINE
  8
0
  6
CONTINUOUS
 62
     7
 10
-210.4365
 20
150.2773
 11
-193.4365
 21
150.2773
  0
LINE
  8
0
  6
CONTINUOUS
 62
     7
 10
-193.9365
 20
149.2773
 11
-193.9365
 21
124.2773
  0
LINE
  8
0
  6
CONTINUOUS
 62
     7
 10
-209.9365
 20
149.2773
 11
-209.9365
 21
124.2773
  0
LINE
  8
0
  6
CONTINUOUS
 62
     7
 10
-193.9365
 20
149.2773
 11
-209.9365
 21
149.2773
  0
LINE
  8
0
  6
CONTINUOUS
 62
     7
 10
-193.9365
 20
124.2773
 11
-194.9365
 21
124.2773
  0
LINE
  8
0
  6
CONTINUOUS
 62
     7
 10
-209.9365
 20
124.2773
 11
-210.7901
 21
123.4237
  0
LINE
  8
0
  6
CONTINUOUS
 62
     7
 10
-209.9365
 20
149.2773
 11
-210.7901
 21
150.1308
  0
LINE
  8
0
  6
CONTINUOUS
 62
     7
 10
-193.9365
 20
124.2773
 11
-193.0829
 21
123.4237
  0
LINE
  8
0
  6
CONTINUOUS
 62
     7
 10
-193.9365
 20
149.2773
 11
-193.0829
 21
150.1308
  0
LINE
  8
0
  6
CENTER
 62
     2
 10
-315.5615
 20
57.35023
 11
-315.5615
 21
-46.14977
  0
LINE
  8
0
  6
CONTINUOUS
 62
     7
 10
-302.0615
 20
24.80022
 11
-302.0615
 21
-42.29979
  0
LINE
  8
0
  6
CONTINUOUS
 62
     7
 10
-329.0615
 20
24.80022
 11
-329.0615
 21
-42.29979
  0
LINE
  8
0
  6
CONTINUOUS
 62
     7
 10
-328.5615
 20
-42.79979
 11
-302.5615
 21
-42.79979
  0
LINE
  8
0
  6
CONTINUOUS
 62
     7
 10
-329.0615
 20
-34.39977
 11
-302.0615
 21
-34.39977
  0
LINE
  8
0
  6
CONTINUOUS
 62
     7
 10
-329.0615
 20
7.60022
 11
-302.0615
 21
7.60022
  0
LINE
  8
0
  6
CONTINUOUS
 62
     7
 10
-328.0615
 20
25.80019
 11
-329.0614
 21
24.80021
  0
LINE
  8
0
  6
CONTINUOUS
 62
     7
 10
-303.0615
 20
25.80021
 11
-302.0615
 21
24.80021
  0
LINE
  8
0
  6
CONTINUOUS
 62
     7
 10
-305.0615
 20
-26.74147
 11
-302.0615
 21
-26.74147
  0
LINE
  8
0
  6
CONTINUOUS
 62
     7
 10
-305.0615
 20
-30.05809
 11
-302.0615
 21
-30.05809
  0
LINE
  8
0
  6
CONTINUOUS
 62
     7
 10
-305.0615
 20
-26.74147
 11
-305.0615
 21
-30.05809
  0
LINE
  8
0
  6
CENTER
 62
     2
 10
-307.0615
 20
-28.39978
 11
-299.7281
 21
-28.39978
  0
LINE
  8
0
  6
CONTINUOUS
 62
     7
 10
-328.0615
 20
25.80022
 11
-294.3615
 21
25.80022
  0
LINE
  8
0
  6
CENTER
 62
     2
 10
-305.0615
 20
-38.52449
 11
-305.0615
 21
-43.972
  0
LINE
  8
0
  6
CONTINUOUS
 62
     7
 10
-307.7615
 20
-39.39977
 11
-302.5615
 21
-39.39977
  0
LINE
  8
0
  6
CONTINUOUS
 62
     7
 10
-308.2615
 20
-39.89977
 11
-308.2615
 21
-42.29979
  0
LINE
  8
0
  6
CONTINUOUS
 62
     7
 10
-307.8615
 20
-40.57161
 11
-307.8615
 21
-39.39977
  0
LINE
  8
0
  6
CONTINUOUS
 62
     7
 10
-302.2615
 20
-40.57161
 11
-302.2615
 21
-39.3998
  0
LINE
  8
0
  6
CONTINUOUS
 62
     7
 10
-329.0615
 20
24.80022
 11
-302.0615
 21
24.80022
  0
LINE
  8
0
  6
CONTINUOUS
 62
     7
 10
-327.5615
 20
51.00023
 11
-303.5615
 21
51.00023
  0
LINE
  8
0
  6
CONTINUOUS
 62
     7
 10
-327.5615
 20
52.00023
 11
-327.5615
 21
25.80022
  0
LINE
  8
0
  6
CONTINUOUS
 62
     7
 10
-303.5615
 20
52.80022
 11
-303.5615
 21
25.80022
  0
LINE
  8
0
  6
CONTINUOUS
 62
     7
 10
-293.5615
 20
46.00023
 11
-293.5615
 21
26.60022
  0
LINE
  8
0
  6
CONTINUOUS
 62
     7
 10
-303.5615
 20
52.80022
 11
-292.5615
 21
52.80022
  0
LINE
  8
0
  6
CONTINUOUS
 62
     7
 10
-294.4615
 20
52.80022
 11
-294.4615
 21
46.80022
  0
LINE
  8
0
  6
CONTINUOUS
 62
     7
 10
-303.5615
 20
46.80022
 11
-291.0615
 21
46.80022
  0
LINE
  8
0
  6
CONTINUOUS
 62
     7
 10
-326.5615
 20
54.00023
 11
-308.3873
 21
54.00023
  0
LINE
  8
0
  6
CONTINUOUS
 62
     7
 10
-327.5615
 20
52.00023
 11
-303.5615
 21
52.00023
  0
LINE
  8
0
  6
CONTINUOUS
 62
     7
 10
-327.5615
 20
52.00021
 11
-326.5615
 21
54.00021
  0
LINE
  8
0
  6
CONTINUOUS
 62
     7
 10
-303.5615
 20
52.00021
 11
-304.5615
 21
54.00021
  0
LINE
  8
0
  6
CONTINUOUS
 62
     7
 10
-309.5615
 20
54.00023
 11
-309.5615
 21
52.00023
  0
LINE
  8
0
  6
CENTER
 62
     2
 10
-306.5615
 20
57.00023
 11
-306.5615
 21
48.00023
  0
LINE
  8
0
  6
CONTINUOUS
 62
     7
 10
-304.0115
 20
52.60022
 11
-309.1115
 21
52.60022
  0
LINE
  8
0
  6
CONTINUOUS
 62
     7
 10
-306.8615
 20
52.00022
 11
-307.0222
 21
52.60022
  0
LINE
  8
0
  6
CONTINUOUS
 62
     7
 10
-306.2616
 20
52.60022
 11
-306.1008
 21
52.00023
  0
LINE
  8
0
  6
CONTINUOUS
 62
     7
 10
-304.0115
 20
52.60022
 11
-304.0115
 21
52.00023
  0
LINE
  8
0
  6
CONTINUOUS
 62
     7
 10
-309.1115
 20
52.60022
 11
-309.1115
 21
52.00023
  0
LINE
  8
0
  6
CONTINUOUS
 62
     7
 10
-304.3115
 20
53.29398
 11
-304.3115
 21
52.60023
  0
LINE
  8
0
  6
CONTINUOUS
 62
     7
 10
-308.8115
 20
53.29396
 11
-308.8115
 21
52.6002
  0
LINE
  8
0
  6
CONTINUOUS
 62
     7
 10
-304.7357
 20
54.00023
 11
-304.5615
 21
54.00023
  0
LINE
  8
0
  6
CENTER
 62
     2
 10
-324.5615
 20
57.00023
 11
-324.5615
 21
48.00023
  0
LINE
  8
0
  6
CONTINUOUS
 62
     7
 10
-283.0615
 20
54.80022
 11
-283.0615
 21
53.80022
  0
LINE
  8
0
  6
CONTINUOUS
 62
     7
 10
-284.5615
 20
47.80022
 11
-284.5615
 21
46.80022
  0
LINE
  8
0
  6
CONTINUOUS
 62
     7
 10
-302.0615
 20
53.30022
 11
-302.0615
 21
52.80022
  0
LINE
  8
0
  6
CONTINUOUS
 62
     7
 10
-283.0615
 20
46.80022
 11
-284.5615
 21
46.80022
  0
LINE
  8
0
  6
CONTINUOUS
 62
     7
 10
-284.5615
 20
47.80022
 11
-291.0615
 21
47.80022
  0
LINE
  8
0
  6
CONTINUOUS
 62
     7
 10
-283.0615
 20
49.20021
 11
-294.4615
 21
49.20021
  0
LINE
  8
0
  6
CONTINUOUS
 62
     7
 10
-283.0615
 20
51.00023
 11
-294.4615
 21
51.00023
  0
LINE
  8
0
  6
CONTINUOUS
 62
     7
 10
-301.5615
 20
53.80022
 11
-290.7328
 21
53.80022
  0
LINE
  8
0
  6
CONTINUOUS
 62
     7
 10
-283.0615
 20
54.80022
 11
-285.0615
 21
54.80022
  0
LINE
  8
0
  6
CONTINUOUS
 62
     7
 10
-283.0615
 20
53.80022
 11
-284.5615
 21
53.80022
  0
LINE
  8
0
  6
CONTINUOUS
 62
     7
 10
-285.0615
 20
54.80021
 11
-290.7328
 21
53.80021
  0
LINE
  8
0
  6
CONTINUOUS
 62
     7
 10
-284.5615
 20
53.80021
 11
-290.2328
 21
52.80021
  0
LINE
  8
0
  6
CONTINUOUS
 62
     7
 10
-294.4615
 20
51.80022
 11
-292.5615
 21
51.80022
  0
LINE
  8
0
  6
CONTINUOUS
 62
     7
 10
-291.0615
 20
47.80022
 11
-291.0615
 21
46.80022
  0
LINE
  8
0
  6
CONTINUOUS
 62
     7
 10
-294.4615
 20
52.10022
 11
-293.8615
 21
52.10022
  0
LINE
  8
0
  6
CONTINUOUS
 62
     7
 10
-283.3615
 20
52.1002
 11
-283.0615
 21
51.8002
  0
LINE
  8
0
  6
CONTINUOUS
 62
     7
 10
-289.5615
 20
51.80021
 11
-289.2615
 21
52.10021
  0
LINE
  8
0
  6
CONTINUOUS
 62
     7
 10
-293.8615
 20
52.1002
 11
-293.5615
 21
51.80021
  0
LINE
  8
0
  6
CONTINUOUS
 62
     7
 10
-289.2615
 20
52.10022
 11
-283.3615
 21
52.10022
  0
LINE
  8
0
  6
CONTINUOUS
 62
     7
 10
-290.5615
 20
52.80022
 11
-290.2328
 21
52.80022
  0
LINE
  8
0
  6
CONTINUOUS
 62
     7
 10
-290.5615
 20
51.80022
 11
-283.0615
 21
51.80022
  0
LINE
  8
0
  6
CONTINUOUS
 62
     7
 10
-283.0615
 20
51.80022
 11
-283.0615
 21
46.80022
  0
LINE
  8
0
  6
CONTINUOUS
 62
     7
 10
-293.2615
 20
49.20021
 11
-293.2615
 21
47.70021
  0
LINE
  8
0
  6
CONTINUOUS
 62
     7
 10
-293.2615
 20
47.70021
 11
-294.4615
 21
47.70021
  0
LINE
  8
0
  6
CENTER
 62
     2
 10
-286.0615
 20
50.30022
 11
-260.0615
 21
50.30022
  0
LINE
  8
0
  6
CONTINUOUS
 62
     7
 10
-283.0615
 20
49.45021
 11
-279.0657
 21
49.45021
  0
LINE
  8
0
  6
CONTINUOUS
 62
     7
 10
-283.0615
 20
51.15022
 11
-278.6102
 21
51.15022
  0
LINE
  8
0
  6
CONTINUOUS
 62
     7
 10
-273.0615
 20
50.62022
 11
-263.0615
 21
50.62022
  0
LINE
  8
0
  6
CONTINUOUS
 62
     7
 10
-273.0615
 20
49.98022
 11
-263.0615
 21
49.98022
  0
LINE
  8
0
  6
CONTINUOUS
 62
     7
 10
-273.0615
 20
51.15022
 11
-273.0615
 21
49.45021
  0
LINE
  8
0
  6
CONTINUOUS
 62
     7
 10
-263.0615
 20
50.62022
 11
-263.0615
 21
49.98022
  0
LINE
  8
0
  6
PHANTOM
 62
     2
 10
-279.6016
 20
47.45023
 11
-278.0743
 21
53.15021
  0
LINE
  8
0
  6
PHANTOM
 62
     2
 10
-278.0487
 20
47.45023
 11
-276.5214
 21
53.15023
  0
LINE
  8
0
  6
CONTINUOUS
 62
     7
 10
-277.0573
 20
51.15022
 11
-273.0615
 21
51.15022
  0
LINE
  8
0
  6
CONTINUOUS
 62
     7
 10
-277.5128
 20
49.45021
 11
-273.0615
 21
49.45021
  0
LINE
  8
0
  6
CENTER
 62
     2
 10
-85.31268
 20
57.3503
 11
-85.31268
 21
-46.1497
  0
LINE
  8
0
  6
CONTINUOUS
 62
     7
 10
-98.81268
 20
24.80028
 11
-98.81268
 21
-42.29973
  0
LINE
  8
0
  6
CONTINUOUS
 62
     7
 10
-71.81268
 20
24.80028
 11
-71.81268
 21
-42.29973
  0
LINE
  8
0
  6
CONTINUOUS
 62
     7
 10
-72.31268
 20
-42.79973
 11
-98.31268
 21
-42.79973
  0
LINE
  8
0
  6
CONTINUOUS
 62
     7
 10
-71.81268
 20
-34.3997
 11
-98.81268
 21
-34.3997
  0
LINE
  8
0
  6
CONTINUOUS
 62
     7
 10
-71.81268
 20
7.60028
 11
-98.81268
 21
7.60028
  0
LINE
  8
0
  6
CONTINUOUS
 62
     7
 10
-72.8127
 20
25.80026
 11
-71.81269
 21
24.80026
  0
LINE
  8
0
  6
CONTINUOUS
 62
     7
 10
-97.81269
 20
25.8003
 11
-98.8127
 21
24.80029
  0
LINE
  8
0
  6
CONTINUOUS
 62
     7
 10
-95.81268
 20
3.25859
 11
-98.81268
 21
3.25859
  0
LINE
  8
0
  6
CONTINUOUS
 62
     7
 10
-95.81268
 20
-0.05803
 11
-98.81268
 21
-0.05803
  0
LINE
  8
0
  6
CONTINUOUS
 62
     7
 10
-95.81268
 20
3.25859
 11
-95.81268
 21
-0.05803
  0
LINE
  8
0
  6
CENTER
 62
     2
 10
-93.81268
 20
1.60028
 11
-101.146
 21
1.60028
  0
LINE
  8
0
  6
CONTINUOUS
 62
     7
 10
-72.81269
 20
25.80028
 11
-106.5127
 21
25.80028
  0
LINE
  8
0
  6
CENTER
 62
     2
 10
-74.81268
 20
-38.52443
 11
-74.81268
 21
-43.97194
  0
LINE
  8
0
  6
CONTINUOUS
 62
     7
 10
-77.51267
 20
-39.3997
 11
-72.31268
 21
-39.3997
  0
LINE
  8
0
  6
CONTINUOUS
 62
     7
 10
-78.01267
 20
-39.8997
 11
-78.01267
 21
-42.29973
  0
LINE
  8
0
  6
CONTINUOUS
 62
     7
 10
-77.61268
 20
-40.57155
 11
-77.61268
 21
-39.3997
  0
LINE
  8
0
  6
CONTINUOUS
 62
     7
 10
-72.01267
 20
-40.57155
 11
-72.01267
 21
-39.3997
  0
LINE
  8
0
  6
CONTINUOUS
 62
     7
 10
-71.81268
 20
24.80028
 11
-98.81268
 21
24.80028
  0
LINE
  8
0
  6
CONTINUOUS
 62
     7
 10
-73.31268
 20
51.00029
 11
-97.31267
 21
51.00029
  0
LINE
  8
0
  6
CONTINUOUS
 62
     7
 10
-73.31268
 20
52.00029
 11
-73.31268
 21
25.80028
  0
LINE
  8
0
  6
CONTINUOUS
 62
     7
 10
-97.31267
 20
52.80028
 11
-97.31267
 21
25.80028
  0
LINE
  8
0
  6
CONTINUOUS
 62
     7
 10
-107.3127
 20
46.00029
 11
-107.3127
 21
26.60028
  0
LINE
  8
0
  6
CONTINUOUS
 62
     7
 10
-97.31267
 20
52.80028
 11
-108.3127
 21
52.80028
  0
LINE
  8
0
  6
CONTINUOUS
 62
     7
 10
-106.4127
 20
52.80028
 11
-106.4127
 21
46.80028
  0
LINE
  8
0
  6
CONTINUOUS
 62
     7
 10
-97.31267
 20
46.80028
 11
-109.8127
 21
46.80028
  0
LINE
  8
0
  6
CONTINUOUS
 62
     7
 10
-96.31268
 20
54.00029
 11
-78.13845
 21
54.00029
  0
LINE
  8
0
  6
CONTINUOUS
 62
     7
 10
-73.31268
 20
52.00029
 11
-97.31267
 21
52.00029
  0
LINE
  8
0
  6
CONTINUOUS
 62
     7
 10
-97.31271
 20
52.00028
 11
-96.31271
 21
54.00028
  0
LINE
  8
0
  6
CONTINUOUS
 62
     7
 10
-73.31269
 20
52.0003
 11
-74.31269
 21
54.0003
  0
LINE
  8
0
  6
CONTINUOUS
 62
     7
 10
-79.31268
 20
54.00029
 11
-79.31268
 21
52.00029
  0
LINE
  8
0
  6
CENTER
 62
     2
 10
-76.31268
 20
57.00029
 11
-76.31268
 21
48.00029
  0
LINE
  8
0
  6
CONTINUOUS
 62
     7
 10
-73.76269
 20
52.60028
 11
-78.86266
 21
52.60028
  0
LINE
  8
0
  6
CONTINUOUS
 62
     7
 10
-76.61267
 20
52.00026
 11
-76.77345
 21
52.60026
  0
LINE
  8
0
  6
CONTINUOUS
 62
     7
 10
-76.01267
 20
52.60025
 11
-75.8519
 21
52.00025
  0
LINE
  8
0
  6
CONTINUOUS
 62
     7
 10
-73.76269
 20
52.60028
 11
-73.76269
 21
52.00029
  0
LINE
  8
0
  6
CONTINUOUS
 62
     7
 10
-78.86266
 20
52.60028
 11
-78.86266
 21
52.00029
  0
LINE
  8
0
  6
CONTINUOUS
 62
     7
 10
-74.06268
 20
53.29402
 11
-74.06268
 21
52.60028
  0
LINE
  8
0
  6
CONTINUOUS
 62
     7
 10
-78.56268
 20
53.29402
 11
-78.56268
 21
52.60028
  0
LINE
  8
0
  6
CONTINUOUS
 62
     7
 10
-74.4869
 20
54.00029
 11
-74.31268
 21
54.00029
  0
LINE
  8
0
  6
CENTER
 62
     2
 10
-94.31268
 20
57.00029
 11
-94.31268
 21
48.00029
  0
LINE
  8
0
  6
CONTINUOUS
 62
     7
 10
-117.8127
 20
54.80028
 11
-117.8127
 21
53.80028
  0
LINE
  8
0
  6
CONTINUOUS
 62
     7
 10
-116.3127
 20
47.80028
 11
-116.3127
 21
46.80028
  0
LINE
  8
0
  6
CONTINUOUS
 62
     7
 10
-98.81267
 20
53.30028
 11
-98.81267
 21
52.80028
  0
LINE
  8
0
  6
CONTINUOUS
 62
     7
 10
-117.8127
 20
46.80028
 11
-116.3127
 21
46.80028
  0
LINE
  8
0
  6
CONTINUOUS
 62
     7
 10
-116.3127
 20
47.80028
 11
-109.8127
 21
47.80028
  0
LINE
  8
0
  6
CONTINUOUS
 62
     7
 10
-117.8127
 20
49.20027
 11
-106.4127
 21
49.20027
  0
LINE
  8
0
  6
CONTINUOUS
 62
     7
 10
-117.8127
 20
51.00029
 11
-106.4127
 21
51.00029
  0
LINE
  8
0
  6
CONTINUOUS
 62
     7
 10
-99.31267
 20
53.80028
 11
-110.1414
 21
53.80028
  0
LINE
  8
0
  6
CONTINUOUS
 62
     7
 10
-117.8127
 20
54.80028
 11
-115.8127
 21
54.80028
  0
LINE
  8
0
  6
CONTINUOUS
 62
     7
 10
-117.8127
 20
53.80028
 11
-116.3127
 21
53.80028
  0
LINE
  8
0
  6
CONTINUOUS
 62
     7
 10
-115.8127
 20
54.80027
 11
-110.1414
 21
53.80027
  0
LINE
  8
0
  6
CONTINUOUS
 62
     7
 10
-116.3127
 20
53.80029
 11
-110.6414
 21
52.80029
  0
LINE
  8
0
  6
CONTINUOUS
 62
     7
 10
-106.4127
 20
51.80028
 11
-108.3127
 21
51.80028
  0
LINE
  8
0
  6
CONTINUOUS
 62
     7
 10
-109.8127
 20
47.80028
 11
-109.8127
 21
46.80028
  0
LINE
  8
0
  6
CONTINUOUS
 62
     7
 10
-106.4127
 20
52.10028
 11
-107.0127
 21
52.10028
  0
LINE
  8
0
  6
CONTINUOUS
 62
     7
 10
-117.5126
 20
52.10025
 11
-117.8126
 21
51.80026
  0
LINE
  8
0
  6
CONTINUOUS
 62
     7
 10
-111.3127
 20
51.80022
 11
-111.6127
 21
52.10022
  0
LINE
  8
0
  6
CONTINUOUS
 62
     7
 10
-107.0127
 20
52.10026
 11
-107.3127
 21
51.80026
  0
LINE
  8
0
  6
CONTINUOUS
 62
     7
 10
-111.6127
 20
52.10028
 11
-117.5127
 21
52.10028
  0
LINE
  8
0
  6
CONTINUOUS
 62
     7
 10
-110.3127
 20
52.80028
 11
-110.6414
 21
52.80028
  0
LINE
  8
0
  6
CONTINUOUS
 62
     7
 10
-110.3127
 20
51.80028
 11
-117.8127
 21
51.80028
  0
LINE
  8
0
  6
CONTINUOUS
 62
     7
 10
-117.8127
 20
51.80028
 11
-117.8127
 21
46.80028
  0
LINE
  8
0
  6
CONTINUOUS
 62
     7
 10
-107.6127
 20
49.20027
 11
-107.6127
 21
47.70027
  0
LINE
  8
0
  6
CONTINUOUS
 62
     7
 10
-107.6127
 20
47.70027
 11
-106.4127
 21
47.70027
  0
LINE
  8
0
  6
CENTER
 62
     2
 10
-114.8127
 20
50.30028
 11
-140.8127
 21
50.30028
  0
LINE
  8
0
  6
CONTINUOUS
 62
     7
 10
-117.8127
 20
49.45027
 11
-122.264
 21
49.45027
  0
LINE
  8
0
  6
CONTINUOUS
 62
     7
 10
-117.8127
 20
51.15028
 11
-121.8085
 21
51.15028
  0
LINE
  8
0
  6
CONTINUOUS
 62
     7
 10
-127.8127
 20
50.62029
 11
-137.8127
 21
50.62029
  0
LINE
  8
0
  6
CONTINUOUS
 62
     7
 10
-127.8127
 20
49.98029
 11
-137.8127
 21
49.98029
  0
LINE
  8
0
  6
CONTINUOUS
 62
     7
 10
-127.8127
 20
51.15028
 11
-127.8127
 21
49.45027
  0
LINE
  8
0
  6
CONTINUOUS
 62
     7
 10
-137.8127
 20
50.62029
 11
-137.8127
 21
49.98029
  0
LINE
  8
0
  6
PHANTOM
 62
     2
 10
-121.2725
 20
53.15026
 11
-122.7999
 21
47.45026
  0
LINE
  8
0
  6
PHANTOM
 62
     2
 10
-122.8255
 20
53.1503
 11
-124.3528
 21
47.45029
  0
LINE
  8
0
  6
CONTINUOUS
 62
     7
 10
-123.8169
 20
49.45027
 11
-127.8127
 21
49.45027
  0
LINE
  8
0
  6
CONTINUOUS
 62
     7
 10
-123.3614
 20
51.15028
 11
-127.8127
 21
51.15028
  0
LINE
  8
0
  6
CENTER
 62
     2
 10
-196.9365
 20
-166.2065
 11
-196.9365
 21
-159.349
  0
LINE
  8
0
  6
CENTER
 62
     2
 10
-206.9365
 20
-184.8278
 11
-206.9365
 21
-178.3048
  0
LINE
  8
0
  6
CENTER
 62
     2
 10
-200.3339
 20
-162.6791
 11
-193.7551
 21
-162.6791
  0
LINE
  8
0
  6
CENTER
 62
     2
 10
-210.2578
 20
-181.6791
 11
-203.5117
 21
-181.6791
  0
LINE
  8
0
  6
CONTINUOUS
 62
     7
 10
-207.088
 20
-161.2549
 11
-206.6637
 21
-160.8306
  0
LINE
  8
0
  6
CONTINUOUS
 62
     7
 10
-208.3608
 20
-160.8305
 11
-208.785
 21
-160.4063
  0
LINE
  8
0
  6
CONTINUOUS
 62
     7
 10
-208.7851
 20
-161.2548
 11
-209.2093
 21
-160.8306
  0
LINE
  8
0
  6
CONTINUOUS
 62
     7
 10
-209.2093
 20
-162.5277
 11
-208.785
 21
-162.1034
  0
LINE
  8
0
  6
CONTINUOUS
 62
     7
 10
-208.785
 20
-162.9519
 11
-208.3608
 21
-162.5277
  0
LINE
  8
0
  6
CONTINUOUS
 62
     7
 10
-209.2093
 20
-160.8306
 11
-208.785
 21
-160.4063
  0
LINE
  8
0
  6
CONTINUOUS
 62
     7
 10
-207.088
 20
-162.9519
 11
-206.6637
 21
-162.5276
  0
LINE
  8
0
  6
CONTINUOUS
 62
     7
 10
-207.5122
 20
-160.8306
 11
-207.088
 21
-160.4064
  0
LINE
  8
0
  6
CENTER
 62
     2
 10
-213.6865
 20
-172.1791
 11
-189.7091
 21
-172.1791
  0
LINE
  8
0
  6
CENTER
 62
     2
 10
-201.9365
 20
-188.0753
 11
-201.9365
 21
-137.1663
  0
LINE
  8
0
  6
CONTINUOUS
 62
     7
 10
-192.9365
 20
-185.1791
 11
-192.9365
 21
-159.1791
  0
LINE
  8
0
  6
CONTINUOUS
 62
     7
 10
-210.9365
 20
-185.1791
 11
-210.9365
 21
-159.1791
  0
LINE
  8
0
  6
CONTINUOUS
 62
     7
 10
-210.4365
 20
-158.6791
 11
-193.4365
 21
-158.6791
  0
LINE
  8
0
  6
CONTINUOUS
 62
     7
 10
-210.4365
 20
-185.6791
 11
-193.4365
 21
-185.6791
  0
LINE
  8
0
  6
CENTER
 62
     2
 10
-207.9365
 20
-165.8169
 11
-207.9365
 21
-157.5092
  0
LINE
  8
0
  6
CENTER
 62
     2
 10
-195.9365
 20
-186.8581
 11
-195.9365
 21
-178.5112
  0
LINE
  8
0
  6
CENTER
 62
     2
 10
-199.9688
 20
-182.6791
 11
-192.0268
 21
-182.6791
  0
LINE
  8
0
  6
CENTER
 62
     2
 10
-211.7936
 20
-161.6791
 11
-204.0693
 21
-161.6791
  0
LINE
  8
0
  6
CONTINUOUS
 62
     7
 10
-195.9365
 20
-179.4791
 11
-193.4365
 21
-179.4791
  0
LINE
  8
0
  6
CONTINUOUS
 62
     7
 10
-199.1365
 20
-185.1791
 11
-199.1365
 21
-182.6791
  0
LINE
  8
0
  6
CONTINUOUS
 62
     7
 10
-204.7365
 20
-161.6791
 11
-204.7365
 21
-159.1791
  0
LINE
  8
0
  6
CONTINUOUS
 62
     7
 10
-210.4365
 20
-164.8791
 11
-207.9365
 21
-164.8791
  0
LINE
  8
0
  6
CONTINUOUS
 62
     7
 10
-196.785
 20
-183.9519
 11
-197.2093
 21
-183.5276
  0
LINE
  8
0
  6
CONTINUOUS
 62
     7
 10
-194.6638
 20
-181.8306
 11
-195.088
 21
-181.4063
  0
LINE
  8
0
  6
CONTINUOUS
 62
     7
 10
-195.088
 20
-183.9519
 11
-195.5123
 21
-183.5276
  0
LINE
  8
0
  6
CONTINUOUS
 62
     7
 10
-194.6638
 20
-183.5276
 11
-195.088
 21
-183.1034
  0
LINE
  8
0
  6
CONTINUOUS
 62
     7
 10
-195.088
 20
-183.9519
 11
-194.6637
 21
-183.5277
  0
LINE
  8
0
  6
CONTINUOUS
 62
     7
 10
-197.2093
 20
-181.8306
 11
-196.785
 21
-181.4064
  0
LINE
  8
0
  6
CONTINUOUS
 62
     7
 10
-196.785
 20
-183.9519
 11
-196.3608
 21
-183.5276
  0
LINE
  8
0
  6
CONTINUOUS
 62
     7
 10
-197.2093
 20
-183.5277
 11
-196.785
 21
-183.1034
  0
LINE
  8
0
  6
CONTINUOUS
 62
     7
 10
-196.785
 20
-182.2549
 11
-197.2093
 21
-181.8306
  0
LINE
  8
0
  6
CONTINUOUS
 62
     7
 10
-196.3608
 20
-181.8306
 11
-196.7851
 21
-181.4063
  0
LINE
  8
0
  6
CONTINUOUS
 62
     7
 10
-195.088
 20
-182.2549
 11
-194.6637
 21
-181.8306
  0
LINE
  8
0
  6
CONTINUOUS
 62
     7
 10
-195.5122
 20
-181.8306
 11
-195.088
 21
-181.4064
  0
LINE
  8
0
  6
CONTINUOUS
 62
     7
 10
-208.7851
 20
-162.9519
 11
-209.2093
 21
-162.5276
  0
LINE
  8
0
  6
CONTINUOUS
 62
     7
 10
-206.6637
 20
-160.8306
 11
-207.088
 21
-160.4063
  0
LINE
  8
0
  6
CONTINUOUS
 62
     7
 10
-207.088
 20
-162.9519
 11
-207.5123
 21
-162.5276
  0
LINE
  8
0
  6
CONTINUOUS
 62
     7
 10
-206.6637
 20
-162.5276
 11
-207.088
 21
-162.1033
  0
LINE
  8
0
  6
CONTINUOUS
 62
     7
 10
-194.9365
 20
-158.6791
 11
-194.9365
 21
-150.9791
  0
LINE
  8
0
  6
CONTINUOUS
 62
     7
 10
-208.9365
 20
-158.6791
 11
-208.9365
 21
-150.9791
  0
LINE
  8
0
  6
CONTINUOUS
 62
     7
 10
-207.4365
 20
-139.6791
 11
-196.4365
 21
-139.6791
  0
LINE
  8
0
  6
CONTINUOUS
 62
     7
 10
-197.9365
 20
-150.1791
 11
-197.9365
 21
-139.6791
  0
LINE
  8
0
  6
CONTINUOUS
 62
     7
 10
-205.9365
 20
-150.1791
 11
-205.9365
 21
-139.6791
  0
LINE
  8
0
  6
CONTINUOUS
 62
     7
 10
-207.4365
 20
-150.1791
 11
-207.4365
 21
-139.6791
  0
LINE
  8
0
  6
CONTINUOUS
 62
     7
 10
-196.4365
 20
-150.1791
 11
-196.4365
 21
-139.6791
  0
LINE
  8
0
  6
CONTINUOUS
 62
     7
 10
-208.1365
 20
-150.1791
 11
-195.7365
 21
-150.1791
  0
LINE
  8
0
  6
CENTER
 62
     2
 10
-204.4365
 20
-142.6791
 11
-204.4365
 21
-116.6791
  0
LINE
  8
0
  6
CENTER
 62
     2
 10
-199.4365
 20
-142.6791
 11
-199.4365
 21
-116.6791
  0
LINE
  8
0
  6
CONTINUOUS
 62
     7
 10
-205.2865
 20
-129.6791
 11
-203.5865
 21
-129.6791
  0
LINE
  8
0
  6
CONTINUOUS
 62
     7
 10
-204.7565
 20
-119.6791
 11
-204.1165
 21
-119.6791
  0
LINE
  8
0
  6
CONTINUOUS
 62
     7
 10
-199.1165
 20
-129.6791
 11
-199.1165
 21
-119.6791
  0
LINE
  8
0
  6
CONTINUOUS
 62
     7
 10
-199.7565
 20
-129.6791
 11
-199.7565
 21
-119.6791
  0
LINE
  8
0
  6
CONTINUOUS
 62
     7
 10
-204.1165
 20
-129.6791
 11
-204.1165
 21
-119.6791
  0
LINE
  8
0
  6
CONTINUOUS
 62
     7
 10
-204.7565
 20
-129.6791
 11
-204.7565
 21
-119.6791
  0
LINE
  8
0
  6
CONTINUOUS
 62
     7
 10
-203.5865
 20
-139.6791
 11
-203.5865
 21
-135.0134
  0
LINE
  8
0
  6
CONTINUOUS
 62
     7
 10
-205.2865
 20
-139.6791
 11
-205.2865
 21
-134.5579
  0
LINE
  8
0
  6
CONTINUOUS
 62
     7
 10
-200.2865
 20
-139.6791
 11
-200.2865
 21
-135.8977
  0
LINE
  8
0
  6
CONTINUOUS
 62
     7
 10
-198.5865
 20
-139.6791
 11
-198.5865
 21
-136.3532
  0
LINE
  8
0
  6
CONTINUOUS
 62
     7
 10
-200.2865
 20
-129.6791
 11
-198.5865
 21
-129.6791
  0
LINE
  8
0
  6
CONTINUOUS
 62
     7
 10
-199.7565
 20
-119.6791
 11
-199.1165
 21
-119.6791
  0
LINE
  8
0
  6
CONTINUOUS
 62
     7
 10
-205.9365
 20
-141.1791
 11
-197.9365
 21
-141.1791
  0
LINE
  8
0
  6
CONTINUOUS
 62
     7
 10
-205.9365
 20
-147.6791
 11
-197.9365
 21
-147.6791
  0
LINE
  8
0
  6
PHANTOM
 62
     2
 10
-196.5865
 20
-135.3362
 11
-207.2865
 21
-132.4691
  0
LINE
  8
0
  6
PHANTOM
 62
     2
 10
-196.5865
 20
-136.8891
 11
-207.2865
 21
-134.022
  0
LINE
  8
0
  6
CONTINUOUS
 62
     7
 10
-205.2865
 20
-133.005
 11
-205.2865
 21
-129.6791
  0
LINE
  8
0
  6
CONTINUOUS
 62
     7
 10
-203.5865
 20
-133.4605
 11
-203.5865
 21
-129.6791
  0
LINE
  8
0
  6
CONTINUOUS
 62
     7
 10
-200.2865
 20
-134.3447
 11
-200.2865
 21
-129.6791
  0
LINE
  8
0
  6
CONTINUOUS
 62
     7
 10
-198.5865
 20
-134.8002
 11
-198.5865
 21
-129.6791
  0
LINE
  8
0
  6
CENTER
 62
     2
 10
168.9368
 20
57.63641
 11
168.9368
 21
-47.61664
  0
LINE
  8
0
  6
CONTINUOUS
 62
     7
 10
177.9368
 20
24.80002
 11
177.9368
 21
-42.29999
  0
LINE
  8
0
  6
CONTINUOUS
 62
     7
 10
159.9368
 20
24.80002
 11
159.9368
 21
-42.29999
  0
LINE
  8
0
  6
CONTINUOUS
 62
     7
 10
159.9368
 20
7.60002
 11
177.9368
 21
7.60002
  0
LINE
  8
0
  6
CONTINUOUS
 62
     7
 10
159.9368
 20
-34.39999
 11
177.9368
 21
-34.39999
  0
LINE
  8
0
  6
CONTINUOUS
 62
     7
 10
160.4368
 20
-42.79999
 11
177.4368
 21
-42.79999
  0
LINE
  8
0
  6
CONTINUOUS
 62
     7
 10
160.9368
 20
25.80003
 11
159.9368
 21
24.80004
  0
LINE
  8
0
  6
CONTINUOUS
 62
     7
 10
176.9368
 20
25.8
 11
177.9368
 21
24.79999
  0
LINE
  8
0
  6
CENTER
 62
     2
 10
175.4368
 20
6.19131
 11
175.4368
 21
-2.81665
  0
LINE
  8
0
  6
CENTER
 62
     2
 10
162.4368
 20
-24.28723
 11
162.4368
 21
-32.69186
  0
LINE
  8
0
  6
CENTER
 62
     2
 10
171.0902
 20
1.60002
 11
178.5212
 21
1.60002
  0
LINE
  8
0
  6
CENTER
 62
     2
 10
166.0151
 20
22.30002
 11
171.8465
 21
22.30002
  0
LINE
  8
0
  6
CONTINUOUS
 62
     7
 10
160.9368
 20
25.80002
 11
176.9368
 21
25.80002
  0
LINE
  8
0
  6
CENTER
 62
     2
 10
162.9368
 20
-38.30573
 11
162.9368
 21
-44.25528
  0
LINE
  8
0
  6
CONTINUOUS
 62
     7
 10
166.1368
 20
-39.89999
 11
166.1368
 21
-42.29999
  0
LINE
  8
0
  6
CONTINUOUS
 62
     7
 10
160.4368
 20
-39.39999
 11
165.6368
 21
-39.39999
  0
LINE
  8
0
  6
CONTINUOUS
 62
     7
 10
160.1368
 20
-40.57181
 11
160.1368
 21
-39.39999
  0
LINE
  8
0
  6
CONTINUOUS
 62
     7
 10
165.7368
 20
-40.57181
 11
165.7368
 21
-39.39999
  0
LINE
  8
0
  6
CONTINUOUS
 62
     7
 10
159.9368
 20
24.80002
 11
177.9368
 21
24.80002
  0
LINE
  8
0
  6
CENTER
 62
     2
 10
158.4368
 20
-28.39998
 11
166.5951
 21
-28.39998
  0
LINE
  8
0
  6
CONTINUOUS
 62
     7
 10
161.4368
 20
52.00003
 11
161.4368
 21
25.80002
  0
LINE
  8
0
  6
CONTINUOUS
 62
     7
 10
176.4368
 20
52.00003
 11
176.4368
 21
25.80002
  0
LINE
  8
0
  6
CONTINUOUS
 62
     7
 10
161.4368
 20
51.00003
 11
161.9368
 21
51.00003
  0
LINE
  8
0
  6
CONTINUOUS
 62
     7
 10
175.9368
 20
52.80002
 11
175.9368
 21
46.80002
  0
LINE
  8
0
  6
CONTINUOUS
 62
     7
 10
161.9368
 20
52.80002
 11
161.9368
 21
46.80002
  0
LINE
  8
0
  6
CONTINUOUS
 62
     7
 10
161.9368
 20
52.80002
 11
175.9368
 21
52.80002
  0
LINE
  8
0
  6
CONTINUOUS
 62
     7
 10
161.9368
 20
46.80002
 11
175.9368
 21
46.80002
  0
LINE
  8
0
  6
CONTINUOUS
 62
     7
 10
175.9368
 20
51.00003
 11
176.4368
 21
51.00003
  0
LINE
  8
0
  6
CONTINUOUS
 62
     7
 10
161.9368
 20
46.00003
 11
161.9368
 21
26.60002
  0
LINE
  8
0
  6
CONTINUOUS
 62
     7
 10
175.9368
 20
46.00003
 11
175.9368
 21
26.60002
  0
LINE
  8
0
  6
CONTINUOUS
 62
     7
 10
163.4368
 20
27.30002
 11
174.4368
 21
27.30002
  0
LINE
  8
0
  6
CONTINUOUS
 62
     7
 10
163.4368
 20
35.80002
 11
174.4368
 21
35.80002
  0
LINE
  8
0
  6
CONTINUOUS
 62
     7
 10
163.4368
 20
35.80002
 11
163.4368
 21
27.30002
  0
LINE
  8
0
  6
CONTINUOUS
 62
     7
 10
174.4368
 20
35.80002
 11
174.4368
 21
27.30002
  0
LINE
  8
0
  6
CONTINUOUS
 62
     7
 10
166.9368
 20
39.30002
 11
170.9368
 21
39.30002
  0
LINE
  8
0
  6
CONTINUOUS
 62
     7
 10
166.9368
 20
37.30002
 11
170.9368
 21
37.30002
  0
LINE
  8
0
  6
CONTINUOUS
 62
     7
 10
166.9368
 20
39.30002
 11
166.9368
 21
37.30002
  0
LINE
  8
0
  6
CONTINUOUS
 62
     7
 10
170.9368
 20
39.30002
 11
170.9368
 21
37.30002
  0
LINE
  8
0
  6
CONTINUOUS
 62
     7
 10
166.4368
 20
39.80002
 11
171.4368
 21
39.80002
  0
LINE
  8
0
  6
CONTINUOUS
 62
     7
 10
166.4368
 20
39.80002
 11
166.4368
 21
36.80002
  0
LINE
  8
0
  6
CONTINUOUS
 62
     7
 10
166.4368
 20
36.80002
 11
171.4368
 21
36.80002
  0
LINE
  8
0
  6
CONTINUOUS
 62
     7
 10
171.4368
 20
39.80002
 11
171.4368
 21
36.80002
  0
LINE
  8
0
  6
CONTINUOUS
 62
     7
 10
166.9368
 20
39.30003
 11
166.4368
 21
39.80002
  0
LINE
  8
0
  6
CONTINUOUS
 62
     7
 10
170.9368
 20
39.30007
 11
171.4368
 21
39.80007
  0
LINE
  8
0
  6
CONTINUOUS
 62
     7
 10
170.9368
 20
37.30003
 11
171.4368
 21
36.80004
  0
LINE
  8
0
  6
CONTINUOUS
 62
     7
 10
166.9368
 20
37.30006
 11
166.4368
 21
36.80006
  0
LINE
  8
0
  6
CONTINUOUS
 62
     7
 10
162.4368
 20
54.00003
 11
162.611
 21
54.00003
  0
LINE
  8
0
  6
CONTINUOUS
 62
     7
 10
161.4368
 20
52.00003
 11
161.9368
 21
52.00003
  0
LINE
  8
0
  6
CONTINUOUS
 62
     7
 10
161.4368
 20
52.00003
 11
162.4368
 21
54.00003
  0
LINE
  8
0
  6
CONTINUOUS
 62
     7
 10
176.4368
 20
52.0
 11
175.4368
 21
54.00001
  0
LINE
  8
0
  6
CENTER
 62
     2
 10
164.4368
 20
57.00003
 11
164.4368
 21
48.00003
  0
LINE
  8
0
  6
CONTINUOUS
 62
     7
 10
161.9368
 20
52.60002
 11
161.8868
 21
52.60002
  0
LINE
  8
0
  6
CONTINUOUS
 62
     7
 10
161.8868
 20
52.60002
 11
161.8868
 21
52.00003
  0
LINE
  8
0
  6
CONTINUOUS
 62
     7
 10
175.9368
 20
52.00003
 11
176.4368
 21
52.00003
  0
LINE
  8
0
  6
CONTINUOUS
 62
     7
 10
162.1868
 20
53.29376
 11
162.1868
 21
52.80002
  0
LINE
  8
0
  6
CONTINUOUS
 62
     7
 10
163.2368
 20
49.20001
 11
164.9368
 21
49.20001
  0
LINE
  8
0
  6
CONTINUOUS
 62
     7
 10
163.2368
 20
51.20001
 11
164.7368
 21
51.20001
  0
LINE
  8
0
  6
CONTINUOUS
 62
     7
 10
173.1368
 20
52.80002
 11
173.1368
 21
51.20001
  0
LINE
  8
0
  6
CONTINUOUS
 62
     7
 10
164.7368
 20
52.80002
 11
164.7368
 21
51.20001
  0
LINE
  8
0
  6
CONTINUOUS
 62
     7
 10
174.6368
 20
51.20001
 11
174.6368
 21
49.20001
  0
LINE
  8
0
  6
CONTINUOUS
 62
     7
 10
163.2368
 20
51.20001
 11
163.2368
 21
49.20001
  0
LINE
  8
0
  6
CONTINUOUS
 62
     7
 10
164.7368
 20
49.20001
 11
164.7368
 21
46.80002
  0
LINE
  8
0
  6
CONTINUOUS
 62
     7
 10
173.1368
 20
49.20001
 11
173.1368
 21
46.80002
  0
LINE
  8
0
  6
CONTINUOUS
 62
     7
 10
173.1368
 20
51.20001
 11
174.6368
 21
51.20001
  0
LINE
  8
0
  6
CONTINUOUS
 62
     7
 10
172.9368
 20
49.20001
 11
174.6368
 21
49.20001
  0
LINE
  8
0
  6
CENTER
 62
     2
 10
173.4368
 20
57.00003
 11
173.4368
 21
48.00003
  0
LINE
  8
0
  6
CONTINUOUS
 62
     7
 10
163.4368
 20
51.00003
 11
164.9368
 21
51.00003
  0
LINE
  8
0
  6
CONTINUOUS
 62
     7
 10
164.9368
 20
53.80002
 11
172.9368
 21
53.80002
  0
LINE
  8
0
  6
CONTINUOUS
 62
     7
 10
163.4368
 20
51.00003
 11
163.4368
 21
49.20001
  0
LINE
  8
0
  6
CONTINUOUS
 62
     7
 10
174.4368
 20
51.00003
 11
174.4368
 21
49.20001
  0
LINE
  8
0
  6
CONTINUOUS
 62
     7
 10
164.9366
 20
51.8001
 11
165.2367
 21
52.10012
  0
LINE
  8
0
  6
CONTINUOUS
 62
     7
 10
172.9367
 20
51.79993
 11
172.6367
 21
52.09993
  0
LINE
  8
0
  6
CONTINUOUS
 62
     7
 10
164.9368
 20
49.20001
 11
164.9368
 21
46.80002
  0
LINE
  8
0
  6
CONTINUOUS
 62
     7
 10
172.9368
 20
49.20001
 11
172.9368
 21
46.80002
  0
LINE
  8
0
  6
CONTINUOUS
 62
     7
 10
172.9368
 20
51.00003
 11
174.4368
 21
51.00003
  0
LINE
  8
0
  6
CENTER
 62
     2
 10
164.9868
 20
50.30002
 11
172.8868
 21
50.30002
  0
LINE
  8
0
  6
CENTER
 62
     2
 10
166.4368
 20
51.65002
 11
166.4368
 21
48.85002
  0
LINE
  8
0
  6
CENTER
 62
     2
 10
171.4368
 20
51.65002
 11
171.4368
 21
48.85002
  0
LINE
  8
0
  6
CONTINUOUS
 62
     7
 10
165.4868
 20
51.25003
 11
167.3868
 21
51.25003
  0
LINE
  8
0
  6
CONTINUOUS
 62
     7
 10
165.4868
 20
49.35002
 11
167.3868
 21
49.35002
  0
LINE
  8
0
  6
CONTINUOUS
 62
     7
 10
165.4868
 20
51.45001
 11
165.4868
 21
49.35002
  0
LINE
  8
0
  6
CONTINUOUS
 62
     7
 10
167.3868
 20
51.45001
 11
167.3868
 21
49.35002
  0
LINE
  8
0
  6
CONTINUOUS
 62
     7
 10
167.9868
 20
51.45001
 11
167.9868
 21
49.35002
  0
LINE
  8
0
  6
CONTINUOUS
 62
     7
 10
169.8868
 20
51.45001
 11
169.8868
 21
49.35002
  0
LINE
  8
0
  6
CONTINUOUS
 62
     7
 10
172.3868
 20
51.45001
 11
172.3868
 21
49.35002
  0
LINE
  8
0
  6
CONTINUOUS
 62
     7
 10
170.4868
 20
51.45001
 11
170.4868
 21
49.35002
  0
LINE
  8
0
  6
CONTINUOUS
 62
     7
 10
167.9868
 20
51.25003
 11
169.8868
 21
51.25003
  0
LINE
  8
0
  6
CONTINUOUS
 62
     7
 10
167.9868
 20
49.35002
 11
169.8868
 21
49.35002
  0
LINE
  8
0
  6
CONTINUOUS
 62
     7
 10
170.4868
 20
49.35002
 11
172.3868
 21
49.35002
  0
LINE
  8
0
  6
CONTINUOUS
 62
     7
 10
170.4868
 20
51.25003
 11
172.3868
 21
51.25003
  0
LINE
  8
0
  6
CONTINUOUS
 62
     7
 10
164.7368
 20
51.80002
 11
173.1368
 21
51.80002
  0
LINE
  8
0
  6
CONTINUOUS
 62
     7
 10
165.2368
 20
52.10002
 11
172.6368
 21
52.10002
  0
LINE
  8
0
  6
CONTINUOUS
 62
     7
 10
164.9368
 20
54.80002
 11
172.9368
 21
54.80002
  0
LINE
  8
0
  6
CONTINUOUS
 62
     7
 10
172.9368
 20
54.80002
 11
172.9368
 21
51.00003
  0
LINE
  8
0
  6
CONTINUOUS
 62
     7
 10
164.9368
 20
54.80002
 11
164.9368
 21
51.00003
  0
LINE
  8
0
  6
CONTINUOUS
 62
     7
 10
165.4868
 20
51.45001
 11
167.3868
 21
51.45001
  0
LINE
  8
0
  6
CONTINUOUS
 62
     7
 10
167.9868
 20
51.45001
 11
169.8868
 21
51.45001
  0
LINE
  8
0
  6
CONTINUOUS
 62
     7
 10
170.4868
 20
51.45001
 11
172.3868
 21
51.45001
  0
LINE
  8
0
  6
CONTINUOUS
 62
     7
 10
165.9368
 20
49.05002
 11
166.9368
 21
49.05002
  0
LINE
  8
0
  6
CONTINUOUS
 62
     7
 10
168.4368
 20
49.05002
 11
169.4368
 21
49.05002
  0
LINE
  8
0
  6
CONTINUOUS
 62
     7
 10
170.9368
 20
49.05002
 11
171.9368
 21
49.05002
  0
LINE
  8
0
  6
CONTINUOUS
 62
     7
 10
165.9368
 20
49.35002
 11
165.9368
 21
49.05002
  0
LINE
  8
0
  6
CONTINUOUS
 62
     7
 10
166.9368
 20
49.35002
 11
166.9368
 21
49.05002
  0
LINE
  8
0
  6
CONTINUOUS
 62
     7
 10
168.4368
 20
49.35002
 11
168.4368
 21
49.05002
  0
LINE
  8
0
  6
CONTINUOUS
 62
     7
 10
169.4368
 20
49.35002
 11
169.4368
 21
49.05002
  0
LINE
  8
0
  6
CONTINUOUS
 62
     7
 10
171.9368
 20
49.35002
 11
171.9368
 21
49.05002
  0
LINE
  8
0
  6
CONTINUOUS
 62
     7
 10
170.9368
 20
49.35002
 11
170.9368
 21
49.05002
  0
LINE
  8
0
  6
CONTINUOUS
 62
     7
 10
165.9368
 20
47.92502
 11
166.9368
 21
47.92502
  0
LINE
  8
0
  6
CONTINUOUS
 62
     7
 10
166.4368
 20
48.42502
 11
166.4368
 21
47.42502
  0
LINE
  8
0
  6
CONTINUOUS
 62
     7
 10
170.9368
 20
47.92502
 11
171.9368
 21
47.92502
  0
LINE
  8
0
  6
CONTINUOUS
 62
     7
 10
175.4368
 20
54.00002
 11
172.9368
 21
54.00002
  0
LINE
  8
0
  6
CENTER
 62
     2
 10
164.9368
 20
38.30002
 11
172.9368
 21
38.30002
  0
LINE
  8
0
  6
CENTER
 62
     2
 10
168.937
 20
152.6736
 11
168.937
 21
101.6598
  0
LINE
  8
0
  6
CENTER
 62
     2
 10
157.187
 20
136.7773
 11
181.1645
 21
136.7773
  0
LINE
  8
0
  6
CONTINUOUS
 62
     7
 10
176.437
 20
124.7773
 11
161.437
 21
124.7773
  0
LINE
  8
0
  6
CONTINUOUS
 62
     7
 10
175.937
 20
115.6773
 11
172.937
 21
115.6773
  0
LINE
  8
0
  6
CONTINUOUS
 62
     7
 10
167.437
 20
127.7773
 11
167.437
 21
124.7773
  0
LINE
  8
0
  6
CONTINUOUS
 62
     7
 10
170.437
 20
145.7773
 11
170.437
 21
148.7773
  0
LINE
  8
0
  6
CONTINUOUS
 62
     7
 10
173.437
 20
142.7773
 11
176.437
 21
142.7773
  0
LINE
  8
0
  6
CONTINUOUS
 62
     7
 10
164.437
 20
130.7773
 11
161.437
 21
130.7773
  0
LINE
  8
0
  6
CONTINUOUS
 62
     7
 10
170.437
 20
147.7773
 11
162.437
 21
147.7773
  0
LINE
  8
0
  6
CONTINUOUS
 62
     7
 10
175.437
 20
125.7773
 11
167.437
 21
125.7773
  0
LINE
  8
0
  6
CONTINUOUS
 62
     7
 10
175.437
 20
142.7773
 11
175.437
 21
125.7773
  0
LINE
  8
0
  6
CONTINUOUS
 62
     7
 10
162.437
 20
147.7773
 11
162.437
 21
130.7773
  0
LINE
  8
0
  6
CONTINUOUS
 62
     7
 10
162.2071
 20
127.4773
 11
161.9047
 21
127.4773
  0
LINE
  8
0
  6
CONTINUOUS
 62
     7
 10
162.2071
 20
128.0773
 11
161.9047
 21
128.0773
  0
LINE
  8
0
  6
CONTINUOUS
 62
     7
 10
161.929
 20
128.2381
 11
162.2347
 21
128.2381
  0
LINE
  8
0
  6
CONTINUOUS
 62
     7
 10
175.6669
 20
146.0773
 11
175.9693
 21
146.0773
  0
LINE
  8
0
  6
CONTINUOUS
 62
     7
 10
175.6669
 20
145.4773
 11
175.9693
 21
145.4773
  0
LINE
  8
0
  6
CONTINUOUS
 62
     7
 10
175.9451
 20
145.3165
 11
175.6393
 21
145.3165
  0
LINE
  8
0
  6
CONTINUOUS
 62
     7
 10
163.7016
 20
128.8804
 11
164.0693
 21
128.5127
  0
LINE
  8
0
  6
CONTINUOUS
 62
     7
 10
163.3339
 20
128.5127
 11
163.7016
 21
128.1451
  0
LINE
  8
0
  6
CONTINUOUS
 62
     7
 10
163.7017
 20
128.8804
 11
163.334
 21
128.5127
  0
LINE
  8
0
  6
CONTINUOUS
 62
     7
 10
165.5402
 20
127.0419
 11
165.1725
 21
126.6742
  0
LINE
  8
0
  6
CONTINUOUS
 62
     7
 10
165.8336
 20
129.5415
 11
164.8048
 21
128.5127
  0
LINE
  8
0
  6
CONTINUOUS
 62
     7
 10
166.2013
 20
129.1738
 11
165.1725
 21
128.145
  0
LINE
  8
0
  6
CONTINUOUS
 62
     7
 10
165.1724
 20
127.4096
 11
165.5401
 21
127.0419
  0
LINE
  8
0
  6
CONTINUOUS
 62
     7
 10
164.8047
 20
127.042
 11
165.1724
 21
126.6743
  0
LINE
  8
0
  6
CONTINUOUS
 62
     7
 10
163.7017
 20
127.4096
 11
162.6729
 21
126.3808
  0
LINE
  8
0
  6
CONTINUOUS
 62
     7
 10
164.0694
 20
127.0419
 11
163.0406
 21
126.0131
  0
LINE
  8
0
  6
CONTINUOUS
 62
     7
 10
172.7017
 20
146.8805
 11
173.0694
 21
146.5128
  0
LINE
  8
0
  6
CONTINUOUS
 62
     7
 10
172.334
 20
146.5128
 11
172.7017
 21
146.1451
  0
LINE
  8
0
  6
CONTINUOUS
 62
     7
 10
172.7017
 20
146.8804
 11
172.334
 21
146.5127
  0
LINE
  8
0
  6
CONTINUOUS
 62
     7
 10
174.5402
 20
145.0419
 11
174.1725
 21
144.6742
  0
LINE
  8
0
  6
CONTINUOUS
 62
     7
 10
174.8336
 20
147.5415
 11
173.8048
 21
146.5127
  0
LINE
  8
0
  6
CONTINUOUS
 62
     7
 10
175.2013
 20
147.1738
 11
174.1725
 21
146.145
  0
LINE
  8
0
  6
CONTINUOUS
 62
     7
 10
174.1725
 20
145.4097
 11
174.5402
 21
145.042
  0
LINE
  8
0
  6
CONTINUOUS
 62
     7
 10
173.8047
 20
145.042
 11
174.1725
 21
144.6743
  0
LINE
  8
0
  6
CONTINUOUS
 62
     7
 10
172.7017
 20
145.4096
 11
171.6729
 21
144.3808
  0
LINE
  8
0
  6
CONTINUOUS
 62
     7
 10
173.0694
 20
145.0419
 11
172.0406
 21
144.0131
  0
LINE
  8
0
  6
CONTINUOUS
 62
     7
 10
172.937
 20
106.2773
 11
164.937
 21
106.2773
  0
LINE
  8
0
  6
CONTINUOUS
 62
     7
 10
172.937
 20
111.9486
 11
164.937
 21
111.9486
  0
LINE
  8
0
  6
CONTINUOUS
 62
     7
 10
172.937
 20
123.2773
 11
164.937
 21
123.2773
  0
LINE
  8
0
  6
CONTINUOUS
 62
     7
 10
164.737
 20
124.7773
 11
164.737
 21
121.2773
  0
LINE
  8
0
  6
CONTINUOUS
 62
     7
 10
173.137
 20
124.7773
 11
173.137
 21
121.2773
  0
LINE
  8
0
  6
CONTINUOUS
 62
     7
 10
173.137
 20
121.2773
 11
172.937
 21
121.2773
  0
LINE
  8
0
  6
CONTINUOUS
 62
     7
 10
173.137
 20
120.2773
 11
172.937
 21
120.2773
  0
LINE
  8
0
  6
CONTINUOUS
 62
     7
 10
164.737
 20
120.2773
 11
164.737
 21
115.6773
  0
LINE
  8
0
  6
CONTINUOUS
 62
     7
 10
173.137
 20
120.2773
 11
173.137
 21
115.6773
  0
LINE
  8
0
  6
CONTINUOUS
 62
     7
 10
164.937
 20
115.6773
 11
161.937
 21
115.6773
  0
LINE
  8
0
  6
CONTINUOUS
 62
     7
 10
164.937
 20
120.2773
 11
164.737
 21
120.2773
  0
LINE
  8
0
  6
CONTINUOUS
 62
     7
 10
164.937
 20
121.2773
 11
164.737
 21
121.2773
  0
LINE
  8
0
  6
CENTER
 62
     2
 10
168.437
 20
127.7773
 11
160.437
 21
127.7773
  0
LINE
  8
0
  6
CENTER
 62
     2
 10
177.437
 20
145.7773
 11
169.437
 21
145.7773
  0
LINE
  8
0
  6
CENTER
 62
     2
 10
173.437
 20
149.7773
 11
173.437
 21
141.7773
  0
LINE
  8
0
  6
CENTER
 62
     2
 10
164.437
 20
131.7773
 11
164.437
 21
123.7773
  0
LINE
  8
0
  6
CONTINUOUS
 62
     7
 10
176.437
 20
148.2773
 11
176.437
 21
124.7773
  0
LINE
  8
0
  6
CONTINUOUS
 62
     7
 10
175.937
 20
148.7773
 11
161.937
 21
148.7773
  0
LINE
  8
0
  6
CONTINUOUS
 62
     7
 10
161.437
 20
148.2773
 11
161.437
 21
124.7773
  0
LINE
  8
0
  6
CONTINUOUS
 62
     7
 10
175.937
 20
124.7773
 11
175.937
 21
115.5773
  0
LINE
  8
0
  6
CONTINUOUS
 62
     7
 10
175.137
 20
114.7773
 11
174.437
 21
114.7773
  0
LINE
  8
0
  6
CONTINUOUS
 62
     7
 10
163.437
 20
114.7773
 11
162.737
 21
114.7773
  0
LINE
  8
0
  6
CONTINUOUS
 62
     7
 10
161.937
 20
124.7773
 11
161.937
 21
115.5773
  0
LINE
  8
0
  6
CONTINUOUS
 62
     7
 10
163.437
 20
115.6773
 11
163.437
 21
104.2773
  0
LINE
  8
0
  6
CONTINUOUS
 62
     7
 10
174.437
 20
104.2773
 11
163.437
 21
104.2773
  0
LINE
  8
0
  6
CONTINUOUS
 62
     7
 10
174.437
 20
115.6773
 11
174.437
 21
104.2773
  0
LINE
  8
0
  6
CONTINUOUS
 62
     7
 10
172.937
 20
123.2773
 11
172.937
 21
104.2773
  0
LINE
  8
0
  6
CONTINUOUS
 62
     7
 10
164.937
 20
123.2773
 11
164.937
 21
104.2773
  0
LINE
  8
0
  6
CONTINUOUS
 62
     7
 10
172.287
 20
104.2773
 11
172.287
 21
99.15614
  0
LINE
  8
0
  6
CONTINUOUS
 62
     7
 10
170.587
 20
104.2773
 11
170.587
 21
99.61166
  0
LINE
  8
0
  6
CENTER
 62
     2
 10
171.437
 20
107.2773
 11
171.437
 21
81.27731
  0
LINE
  8
0
  6
CONTINUOUS
 62
     7
 10
171.757
 20
94.27731
 11
171.757
 21
84.27731
  0
LINE
  8
0
  6
CONTINUOUS
 62
     7
 10
172.287
 20
94.27731
 11
170.587
 21
94.27731
  0
LINE
  8
0
  6
CONTINUOUS
 62
     7
 10
171.757
 20
84.27731
 11
171.117
 21
84.27731
  0
LINE
  8
0
  6
CONTINUOUS
 62
     7
 10
171.117
 20
94.27731
 11
171.117
 21
84.27731
  0
LINE
  8
0
  6
CONTINUOUS
 62
     7
 10
166.757
 20
94.27731
 11
166.757
 21
84.27731
  0
LINE
  8
0
  6
CONTINUOUS
 62
     7
 10
166.757
 20
84.27731
 11
166.117
 21
84.27731
  0
LINE
  8
0
  6
CONTINUOUS
 62
     7
 10
166.117
 20
94.27731
 11
166.117
 21
84.27731
  0
LINE
  8
0
  6
CENTER
 62
     2
 10
166.437
 20
107.2773
 11
166.437
 21
81.27731
  0
LINE
  8
0
  6
CONTINUOUS
 62
     7
 10
167.287
 20
104.2773
 11
167.287
 21
100.4959
  0
LINE
  8
0
  6
CONTINUOUS
 62
     7
 10
167.287
 20
94.27731
 11
165.587
 21
94.27731
  0
LINE
  8
0
  6
CONTINUOUS
 62
     7
 10
165.587
 20
104.2773
 11
165.587
 21
100.9514
  0
LINE
  8
0
  6
PHANTOM
 62
     2
 10
163.5871
 20
101.4873
 11
174.2871
 21
98.62024
  0
LINE
  8
0
  6
PHANTOM
 62
     2
 10
163.587
 20
99.93439
 11
174.287
 21
97.06734
  0
LINE
  8
0
  6
CONTINUOUS
 62
     7
 10
172.287
 20
97.60324
 11
172.287
 21
94.27731
  0
LINE
  8
0
  6
CONTINUOUS
 62
     7
 10
170.587
 20
98.05875
 11
170.587
 21
94.27731
  0
LINE
  8
0
  6
CONTINUOUS
 62
     7
 10
167.287
 20
98.94298
 11
167.287
 21
94.27731
  0
LINE
  8
0
  6
CONTINUOUS
 62
     7
 10
165.587
 20
99.39849
 11
165.587
 21
94.27731
  0
LINE
  8
0
  6
CONTINUOUS
 62
     7
 10
161.937
 20
124.2773
 11
160.937
 21
124.2773
  0
LINE
  8
0
  6
CONTINUOUS
 62
     7
 10
175.937
 20
123.2773
 11
177.437
 21
123.2773
  0
LINE
  8
0
  6
CONTINUOUS
 62
     7
 10
177.937
 20
149.7773
 11
177.937
 21
123.7773
  0
LINE
  8
0
  6
CONTINUOUS
 62
     7
 10
159.937
 20
149.7773
 11
159.937
 21
123.7773
  0
LINE
  8
0
  6
CONTINUOUS
 62
     7
 10
160.437
 20
123.2773
 11
161.937
 21
123.2773
  0
LINE
  8
0
  6
CONTINUOUS
 62
     7
 10
160.437
 20
150.2773
 11
177.437
 21
150.2773
  0
LINE
  8
0
  6
CONTINUOUS
 62
     7
 10
176.937
 20
149.2773
 11
176.937
 21
124.2773
  0
LINE
  8
0
  6
CONTINUOUS
 62
     7
 10
160.937
 20
149.2773
 11
160.937
 21
124.2773
  0
LINE
  8
0
  6
CONTINUOUS
 62
     7
 10
176.937
 20
149.2773
 11
160.937
 21
149.2773
  0
LINE
  8
0
  6
CONTINUOUS
 62
     7
 10
176.937
 20
124.2773
 11
175.937
 21
124.2773
  0
LINE
  8
0
  6
CONTINUOUS
 62
     7
 10
160.9369
 20
124.2774
 11
160.0834
 21
123.4238
  0
LINE
  8
0
  6
CONTINUOUS
 62
     7
 10
160.937
 20
149.2773
 11
160.0834
 21
150.1308
  0
LINE
  8
0
  6
CONTINUOUS
 62
     7
 10
176.937
 20
124.2773
 11
177.7905
 21
123.4238
  0
LINE
  8
0
  6
CONTINUOUS
 62
     7
 10
176.9371
 20
149.2773
 11
177.7906
 21
150.1309
  0
LINE
  8
0
  6
CENTER
 62
     2
 10
55.31203
 20
57.35022
 11
55.31203
 21
-46.14978
  0
LINE
  8
0
  6
CONTINUOUS
 62
     7
 10
68.81203
 20
24.80022
 11
68.81203
 21
-42.29977
  0
LINE
  8
0
  6
CONTINUOUS
 62
     7
 10
41.81203
 20
24.80022
 11
41.81203
 21
-42.29977
  0
LINE
  8
0
  6
CONTINUOUS
 62
     7
 10
42.31203
 20
-42.79977
 11
68.31203
 21
-42.79977
  0
LINE
  8
0
  6
CONTINUOUS
 62
     7
 10
41.81203
 20
-34.39978
 11
68.81203
 21
-34.39978
  0
LINE
  8
0
  6
CONTINUOUS
 62
     7
 10
41.81203
 20
7.60022
 11
68.81203
 21
7.60022
  0
LINE
  8
0
  6
CONTINUOUS
 62
     7
 10
42.81199
 20
25.80027
 11
41.81199
 21
24.80027
  0
LINE
  8
0
  6
CONTINUOUS
 62
     7
 10
67.81204
 20
25.80021
 11
68.81204
 21
24.8002
  0
LINE
  8
0
  6
CONTINUOUS
 62
     7
 10
65.81203
 20
-26.74147
 11
68.81203
 21
-26.74147
  0
LINE
  8
0
  6
CONTINUOUS
 62
     7
 10
65.81203
 20
-30.05811
 11
68.81203
 21
-30.05811
  0
LINE
  8
0
  6
CONTINUOUS
 62
     7
 10
65.81203
 20
-26.74147
 11
65.81203
 21
-30.05811
  0
LINE
  8
0
  6
CENTER
 62
     2
 10
63.81203
 20
-28.39978
 11
71.14537
 21
-28.39978
  0
LINE
  8
0
  6
CONTINUOUS
 62
     7
 10
42.81206
 20
25.80022
 11
76.51204
 21
25.80022
  0
LINE
  8
0
  6
CENTER
 62
     2
 10
65.81203
 20
-38.52448
 11
65.81203
 21
-43.97198
  0
LINE
  8
0
  6
CONTINUOUS
 62
     7
 10
63.11201
 20
-39.39978
 11
68.31203
 21
-39.39978
  0
LINE
  8
0
  6
CONTINUOUS
 62
     7
 10
62.61201
 20
-39.89978
 11
62.61201
 21
-42.29977
  0
LINE
  8
0
  6
CONTINUOUS
 62
     7
 10
63.01204
 20
-40.57159
 11
63.01204
 21
-39.39978
  0
LINE
  8
0
  6
CONTINUOUS
 62
     7
 10
68.61205
 20
-40.57162
 11
68.61205
 21
-39.39978
  0
LINE
  8
0
  6
CONTINUOUS
 62
     7
 10
41.81203
 20
24.80022
 11
68.81203
 21
24.80022
  0
LINE
  8
0
  6
CONTINUOUS
 62
     7
 10
43.31203
 20
51.00021
 11
67.31203
 21
51.00021
  0
LINE
  8
0
  6
CONTINUOUS
 62
     7
 10
43.31203
 20
52.00021
 11
43.31203
 21
25.80022
  0
LINE
  8
0
  6
CONTINUOUS
 62
     7
 10
67.31203
 20
52.80022
 11
67.31203
 21
25.80022
  0
LINE
  8
0
  6
CONTINUOUS
 62
     7
 10
77.31203
 20
46.00021
 11
77.31203
 21
26.60022
  0
LINE
  8
0
  6
CONTINUOUS
 62
     7
 10
67.31203
 20
52.80022
 11
78.31203
 21
52.80022
  0
LINE
  8
0
  6
CONTINUOUS
 62
     7
 10
76.41203
 20
52.80022
 11
76.41203
 21
46.80022
  0
LINE
  8
0
  6
CONTINUOUS
 62
     7
 10
67.31203
 20
46.80022
 11
79.81203
 21
46.80022
  0
LINE
  8
0
  6
CONTINUOUS
 62
     7
 10
44.31203
 20
54.00021
 11
62.48625
 21
54.00021
  0
LINE
  8
0
  6
CONTINUOUS
 62
     7
 10
43.31203
 20
52.00021
 11
67.31203
 21
52.00021
  0
LINE
  8
0
  6
CONTINUOUS
 62
     7
 10
43.31202
 20
52.00023
 11
44.31202
 21
54.00023
  0
LINE
  8
0
  6
CONTINUOUS
 62
     7
 10
67.31203
 20
52.00019
 11
66.31203
 21
54.00021
  0
LINE
  8
0
  6
CONTINUOUS
 62
     7
 10
61.31203
 20
54.00021
 11
61.31203
 21
52.00021
  0
LINE
  8
0
  6
CENTER
 62
     2
 10
64.31203
 20
57.00021
 11
64.31203
 21
48.00021
  0
LINE
  8
0
  6
CONTINUOUS
 62
     7
 10
66.86201
 20
52.60022
 11
61.76204
 21
52.60022
  0
LINE
  8
0
  6
CONTINUOUS
 62
     7
 10
64.01203
 20
52.00025
 11
63.85126
 21
52.60023
  0
LINE
  8
0
  6
CONTINUOUS
 62
     7
 10
64.61219
 20
52.60022
 11
64.77296
 21
52.00023
  0
LINE
  8
0
  6
CONTINUOUS
 62
     7
 10
66.86201
 20
52.60022
 11
66.86201
 21
52.00021
  0
LINE
  8
0
  6
CONTINUOUS
 62
     7
 10
61.76204
 20
52.60022
 11
61.76204
 21
52.00021
  0
LINE
  8
0
  6
CONTINUOUS
 62
     7
 10
66.56206
 20
53.29398
 11
66.56206
 21
52.60022
  0
LINE
  8
0
  6
CONTINUOUS
 62
     7
 10
62.06206
 20
53.29396
 11
62.06206
 21
52.60022
  0
LINE
  8
0
  6
CONTINUOUS
 62
     7
 10
66.1378
 20
54.00021
 11
66.31203
 21
54.00021
  0
LINE
  8
0
  6
CENTER
 62
     2
 10
46.31203
 20
57.00021
 11
46.31203
 21
48.00021
  0
LINE
  8
0
  6
CONTINUOUS
 62
     7
 10
87.81203
 20
54.80022
 11
87.81203
 21
53.80022
  0
LINE
  8
0
  6
CONTINUOUS
 62
     7
 10
86.31203
 20
47.80022
 11
86.31203
 21
46.80022
  0
LINE
  8
0
  6
CONTINUOUS
 62
     7
 10
68.81203
 20
53.30022
 11
68.81203
 21
52.80022
  0
LINE
  8
0
  6
CONTINUOUS
 62
     7
 10
87.81203
 20
46.80022
 11
86.31203
 21
46.80022
  0
LINE
  8
0
  6
CONTINUOUS
 62
     7
 10
86.31203
 20
47.80022
 11
79.81203
 21
47.80022
  0
LINE
  8
0
  6
CONTINUOUS
 62
     7
 10
87.81203
 20
49.20023
 11
76.41203
 21
49.20023
  0
LINE
  8
0
  6
CONTINUOUS
 62
     7
 10
87.81203
 20
51.00021
 11
76.41203
 21
51.00021
  0
LINE
  8
0
  6
CONTINUOUS
 62
     7
 10
69.31203
 20
53.80022
 11
80.14073
 21
53.80022
  0
LINE
  8
0
  6
CONTINUOUS
 62
     7
 10
87.81203
 20
54.80022
 11
85.81203
 21
54.80022
  0
LINE
  8
0
  6
CONTINUOUS
 62
     7
 10
87.81203
 20
53.80022
 11
86.31203
 21
53.80022
  0
LINE
  8
0
  6
CONTINUOUS
 62
     7
 10
85.81202
 20
54.80023
 11
80.14072
 21
53.80023
  0
LINE
  8
0
  6
CONTINUOUS
 62
     7
 10
86.31204
 20
53.80023
 11
80.64074
 21
52.80022
  0
LINE
  8
0
  6
CONTINUOUS
 62
     7
 10
76.41203
 20
51.80022
 11
78.31203
 21
51.80022
  0
LINE
  8
0
  6
CONTINUOUS
 62
     7
 10
79.81203
 20
47.80022
 11
79.81203
 21
46.80022
  0
LINE
  8
0
  6
CONTINUOUS
 62
     7
 10
76.41203
 20
52.10022
 11
77.01204
 21
52.10022
  0
LINE
  8
0
  6
CONTINUOUS
 62
     7
 10
87.51201
 20
52.10018
 11
87.812
 21
51.80019
  0
LINE
  8
0
  6
CONTINUOUS
 62
     7
 10
81.31203
 20
51.80025
 11
81.61201
 21
52.10025
  0
LINE
  8
0
  6
CONTINUOUS
 62
     7
 10
77.01202
 20
52.10024
 11
77.31202
 21
51.80025
  0
LINE
  8
0
  6
CONTINUOUS
 62
     7
 10
81.61201
 20
52.10022
 11
87.51204
 21
52.10022
  0
LINE
  8
0
  6
CONTINUOUS
 62
     7
 10
80.31203
 20
52.80022
 11
80.64073
 21
52.80022
  0
LINE
  8
0
  6
CONTINUOUS
 62
     7
 10
80.31203
 20
51.80022
 11
87.81203
 21
51.80022
  0
LINE
  8
0
  6
CONTINUOUS
 62
     7
 10
87.81203
 20
51.80022
 11
87.81203
 21
46.80022
  0
LINE
  8
0
  6
CONTINUOUS
 62
     7
 10
77.61201
 20
49.20023
 11
77.61201
 21
47.70023
  0
LINE
  8
0
  6
CONTINUOUS
 62
     7
 10
77.61201
 20
47.70023
 11
76.41203
 21
47.70023
  0
LINE
  8
0
  6
CENTER
 62
     2
 10
84.81203
 20
50.30022
 11
110.812
 21
50.30022
  0
LINE
  8
0
  6
CONTINUOUS
 62
     7
 10
87.81203
 20
49.45023
 11
91.80782
 21
49.45023
  0
LINE
  8
0
  6
CONTINUOUS
 62
     7
 10
87.81203
 20
51.15022
 11
92.26332
 21
51.15022
  0
LINE
  8
0
  6
CONTINUOUS
 62
     7
 10
97.81203
 20
50.62022
 11
107.812
 21
50.62022
  0
LINE
  8
0
  6
CONTINUOUS
 62
     7
 10
97.81203
 20
49.98022
 11
107.812
 21
49.98022
  0
LINE
  8
0
  6
CONTINUOUS
 62
     7
 10
97.81203
 20
51.15022
 11
97.81203
 21
49.45023
  0
LINE
  8
0
  6
CONTINUOUS
 62
     7
 10
107.812
 20
50.62022
 11
107.812
 21
49.98022
  0
LINE
  8
0
  6
PHANTOM
 62
     2
 10
91.27192
 20
47.45021
 11
92.79923
 21
53.15022
  0
LINE
  8
0
  6
PHANTOM
 62
     2
 10
92.82483
 20
47.45022
 11
94.35213
 21
53.15023
  0
LINE
  8
0
  6
CONTINUOUS
 62
     7
 10
93.81624
 20
51.15022
 11
97.81203
 21
51.15022
  0
LINE
  8
0
  6
CONTINUOUS
 62
     7
 10
93.36073
 20
49.45023
 11
97.81203
 21
49.45023
  0
LINE
  8
0
  6
CENTER
 62
     2
 10
285.5609
 20
57.35028
 11
285.5609
 21
-46.14975
  0
LINE
  8
0
  6
CONTINUOUS
 62
     7
 10
272.0609
 20
24.80026
 11
272.0609
 21
-42.29974
  0
LINE
  8
0
  6
CONTINUOUS
 62
     7
 10
299.0609
 20
24.80026
 11
299.0609
 21
-42.29974
  0
LINE
  8
0
  6
CONTINUOUS
 62
     7
 10
298.5609
 20
-42.79974
 11
272.5609
 21
-42.79974
  0
LINE
  8
0
  6
CONTINUOUS
 62
     7
 10
299.0609
 20
-34.39975
 11
272.0609
 21
-34.39975
  0
LINE
  8
0
  6
CONTINUOUS
 62
     7
 10
299.0609
 20
7.60027
 11
272.0609
 21
7.60027
  0
LINE
  8
0
  6
CONTINUOUS
 62
     7
 10
298.0608
 20
25.80028
 11
299.0608
 21
24.80026
  0
LINE
  8
0
  6
CONTINUOUS
 62
     7
 10
273.0608
 20
25.80028
 11
272.0608
 21
24.80026
  0
LINE
  8
0
  6
CONTINUOUS
 62
     7
 10
275.0609
 20
3.25858
 11
272.0609
 21
3.25858
  0
LINE
  8
0
  6
CONTINUOUS
 62
     7
 10
275.0609
 20
-0.05804
 11
272.0609
 21
-0.05804
  0
LINE
  8
0
  6
CONTINUOUS
 62
     7
 10
275.0609
 20
3.25858
 11
275.0609
 21
-0.05804
  0
LINE
  8
0
  6
CENTER
 62
     2
 10
277.0609
 20
1.60027
 11
269.7275
 21
1.60027
  0
LINE
  8
0
  6
CONTINUOUS
 62
     7
 10
298.0609
 20
25.80026
 11
264.3608
 21
25.80026
  0
LINE
  8
0
  6
CENTER
 62
     2
 10
296.0609
 20
-38.52444
 11
296.0609
 21
-43.97195
  0
LINE
  8
0
  6
CONTINUOUS
 62
     7
 10
293.3608
 20
-39.39975
 11
298.5609
 21
-39.39975
  0
LINE
  8
0
  6
CONTINUOUS
 62
     7
 10
292.8608
 20
-39.89975
 11
292.8608
 21
-42.29974
  0
LINE
  8
0
  6
CONTINUOUS
 62
     7
 10
293.2609
 20
-40.57156
 11
293.2609
 21
-39.39975
  0
LINE
  8
0
  6
CONTINUOUS
 62
     7
 10
298.8608
 20
-40.57156
 11
298.8608
 21
-39.39975
  0
LINE
  8
0
  6
CONTINUOUS
 62
     7
 10
299.0609
 20
24.80026
 11
272.0609
 21
24.80026
  0
LINE
  8
0
  6
CONTINUOUS
 62
     7
 10
297.5609
 20
51.00027
 11
273.5609
 21
51.00027
  0
LINE
  8
0
  6
CONTINUOUS
 62
     7
 10
297.5609
 20
52.00027
 11
297.5609
 21
25.80026
  0
LINE
  8
0
  6
CONTINUOUS
 62
     7
 10
273.5609
 20
52.80026
 11
273.5609
 21
25.80026
  0
LINE
  8
0
  6
CONTINUOUS
 62
     7
 10
263.5609
 20
46.00027
 11
263.5609
 21
26.60027
  0
LINE
  8
0
  6
CONTINUOUS
 62
     7
 10
273.5609
 20
52.80026
 11
262.5609
 21
52.80026
  0
LINE
  8
0
  6
CONTINUOUS
 62
     7
 10
264.4609
 20
52.80026
 11
264.4609
 21
46.80026
  0
LINE
  8
0
  6
CONTINUOUS
 62
     7
 10
273.5609
 20
46.80026
 11
261.0609
 21
46.80026
  0
LINE
  8
0
  6
CONTINUOUS
 62
     7
 10
274.5609
 20
54.00027
 11
292.7351
 21
54.00027
  0
LINE
  8
0
  6
CONTINUOUS
 62
     7
 10
297.5609
 20
52.00027
 11
273.5609
 21
52.00027
  0
LINE
  8
0
  6
CONTINUOUS
 62
     7
 10
273.5608
 20
52.0003
 11
274.5608
 21
54.0003
  0
LINE
  8
0
  6
CONTINUOUS
 62
     7
 10
297.5607
 20
52.00018
 11
296.5607
 21
54.00019
  0
LINE
  8
0
  6
CONTINUOUS
 62
     7
 10
291.5609
 20
54.00027
 11
291.5609
 21
52.00027
  0
LINE
  8
0
  6
CENTER
 62
     2
 10
294.5609
 20
57.00027
 11
294.5609
 21
48.00027
  0
LINE
  8
0
  6
CONTINUOUS
 62
     7
 10
297.1108
 20
52.60027
 11
292.0109
 21
52.60027
  0
LINE
  8
0
  6
CONTINUOUS
 62
     7
 10
294.2607
 20
52.00018
 11
294.0999
 21
52.60017
  0
LINE
  8
0
  6
CONTINUOUS
 62
     7
 10
294.8606
 20
52.60022
 11
295.0214
 21
52.00023
  0
LINE
  8
0
  6
CONTINUOUS
 62
     7
 10
297.1108
 20
52.60027
 11
297.1108
 21
52.00027
  0
LINE
  8
0
  6
CONTINUOUS
 62
     7
 10
292.0109
 20
52.60027
 11
292.0109
 21
52.00027
  0
LINE
  8
0
  6
CONTINUOUS
 62
     7
 10
296.8109
 20
53.29401
 11
296.8109
 21
52.60027
  0
LINE
  8
0
  6
CONTINUOUS
 62
     7
 10
292.3109
 20
53.29401
 11
292.3109
 21
52.60027
  0
LINE
  8
0
  6
CONTINUOUS
 62
     7
 10
296.3866
 20
54.00027
 11
296.5609
 21
54.00027
  0
LINE
  8
0
  6
CENTER
 62
     2
 10
276.5609
 20
57.00027
 11
276.5609
 21
48.00027
  0
LINE
  8
0
  6
CONTINUOUS
 62
     7
 10
253.0608
 20
54.80026
 11
253.0608
 21
53.80026
  0
LINE
  8
0
  6
CONTINUOUS
 62
     7
 10
254.5608
 20
47.80026
 11
254.5608
 21
46.80026
  0
LINE
  8
0
  6
CONTINUOUS
 62
     7
 10
272.0609
 20
53.30026
 11
272.0609
 21
52.80026
  0
LINE
  8
0
  6
CONTINUOUS
 62
     7
 10
253.0608
 20
46.80026
 11
254.5608
 21
46.80026
  0
LINE
  8
0
  6
CONTINUOUS
 62
     7
 10
254.5608
 20
47.80026
 11
261.0609
 21
47.80026
  0
LINE
  8
0
  6
CONTINUOUS
 62
     7
 10
253.0608
 20
49.20026
 11
264.4609
 21
49.20026
  0
LINE
  8
0
  6
CONTINUOUS
 62
     7
 10
253.0608
 20
51.00027
 11
264.4609
 21
51.00027
  0
LINE
  8
0
  6
CONTINUOUS
 62
     7
 10
271.5609
 20
53.80026
 11
260.7321
 21
53.80026
  0
LINE
  8
0
  6
CONTINUOUS
 62
     7
 10
253.0608
 20
54.80026
 11
255.0608
 21
54.80026
  0
LINE
  8
0
  6
CONTINUOUS
 62
     7
 10
253.0608
 20
53.80026
 11
254.5608
 21
53.80026
  0
LINE
  8
0
  6
CONTINUOUS
 62
     7
 10
255.0608
 20
54.80026
 11
260.7321
 21
53.80026
  0
LINE
  8
0
  6
CONTINUOUS
 62
     7
 10
254.5608
 20
53.80027
 11
260.2321
 21
52.80027
  0
LINE
  8
0
  6
CONTINUOUS
 62
     7
 10
264.4609
 20
51.80026
 11
262.5609
 21
51.80026
  0
LINE
  8
0
  6
CONTINUOUS
 62
     7
 10
261.0609
 20
47.80026
 11
261.0609
 21
46.80026
  0
LINE
  8
0
  6
CONTINUOUS
 62
     7
 10
264.4609
 20
52.10027
 11
263.8608
 21
52.10027
  0
LINE
  8
0
  6
CONTINUOUS
 62
     7
 10
253.3608
 20
52.1003
 11
253.0608
 21
51.8003
  0
LINE
  8
0
  6
CONTINUOUS
 62
     7
 10
259.5609
 20
51.8003
 11
259.261
 21
52.10029
  0
LINE
  8
0
  6
CONTINUOUS
 62
     7
 10
263.8608
 20
52.10027
 11
263.5609
 21
51.80027
  0
LINE
  8
0
  6
CONTINUOUS
 62
     7
 10
259.2609
 20
52.10027
 11
253.3608
 21
52.10027
  0
LINE
  8
0
  6
CONTINUOUS
 62
     7
 10
260.5609
 20
52.80026
 11
260.2321
 21
52.80026
  0
LINE
  8
0
  6
CONTINUOUS
 62
     7
 10
260.5609
 20
51.80026
 11
253.0608
 21
51.80026
  0
LINE
  8
0
  6
CONTINUOUS
 62
     7
 10
253.0608
 20
51.80026
 11
253.0608
 21
46.80026
  0
LINE
  8
0
  6
CONTINUOUS
 62
     7
 10
263.2609
 20
49.20026
 11
263.2609
 21
47.70026
  0
LINE
  8
0
  6
CONTINUOUS
 62
     7
 10
263.2609
 20
47.70026
 11
264.4609
 21
47.70026
  0
LINE
  8
0
  6
CENTER
 62
     2
 10
256.0609
 20
50.30026
 11
230.0608
 21
50.30026
  0
LINE
  8
0
  6
CONTINUOUS
 62
     7
 10
253.0608
 20
49.45026
 11
248.6095
 21
49.45026
  0
LINE
  8
0
  6
CONTINUOUS
 62
     7
 10
253.0608
 20
51.15027
 11
249.065
 21
51.15027
  0
LINE
  8
0
  6
CONTINUOUS
 62
     7
 10
243.0608
 20
50.62027
 11
233.0608
 21
50.62027
  0
LINE
  8
0
  6
CONTINUOUS
 62
     7
 10
243.0608
 20
49.98027
 11
233.0608
 21
49.98027
  0
LINE
  8
0
  6
CONTINUOUS
 62
     7
 10
243.0608
 20
51.15027
 11
243.0608
 21
49.45026
  0
LINE
  8
0
  6
CONTINUOUS
 62
     7
 10
233.0608
 20
50.62027
 11
233.0608
 21
49.98027
  0
LINE
  8
0
  6
PHANTOM
 62
     2
 10
249.601
 20
53.15025
 11
248.0737
 21
47.45026
  0
LINE
  8
0
  6
PHANTOM
 62
     2
 10
248.0481
 20
53.15023
 11
246.5208
 21
47.45023
  0
LINE
  8
0
  6
CONTINUOUS
 62
     7
 10
247.0566
 20
49.45026
 11
243.0608
 21
49.45026
  0
LINE
  8
0
  6
CONTINUOUS
 62
     7
 10
247.5121
 20
51.15027
 11
243.0608
 21
51.15027
  0
LINE
  8
0
  6
CENTER
 62
     2
 10
173.9371
 20
-166.2065
 11
173.9371
 21
-159.349
  0
LINE
  8
0
  6
CENTER
 62
     2
 10
163.9371
 20
-184.8278
 11
163.9371
 21
-178.3048
  0
LINE
  8
0
  6
CENTER
 62
     2
 10
170.5397
 20
-162.6791
 11
177.1185
 21
-162.6791
  0
LINE
  8
0
  6
CENTER
 62
     2
 10
160.6158
 20
-181.6791
 11
167.3618
 21
-181.6791
  0
LINE
  8
0
  6
CONTINUOUS
 62
     7
 10
163.7857
 20
-161.2549
 11
164.2099
 21
-160.8306
  0
LINE
  8
0
  6
CONTINUOUS
 62
     7
 10
162.5128
 20
-160.8306
 11
162.0886
 21
-160.4063
  0
LINE
  8
0
  6
CONTINUOUS
 62
     7
 10
162.0886
 20
-161.2548
 11
161.6643
 21
-160.8306
  0
LINE
  8
0
  6
CONTINUOUS
 62
     7
 10
161.6643
 20
-162.5277
 11
162.0886
 21
-162.1035
  0
LINE
  8
0
  6
CONTINUOUS
 62
     7
 10
162.0886
 20
-162.952
 11
162.5129
 21
-162.5277
  0
LINE
  8
0
  6
CONTINUOUS
 62
     7
 10
161.6643
 20
-160.8306
 11
162.0886
 21
-160.4063
  0
LINE
  8
0
  6
CONTINUOUS
 62
     7
 10
163.7857
 20
-162.952
 11
164.2099
 21
-162.5277
  0
LINE
  8
0
  6
CONTINUOUS
 62
     7
 10
163.3614
 20
-160.8307
 11
163.7856
 21
-160.4064
  0
LINE
  8
0
  6
CENTER
 62
     2
 10
157.1871
 20
-172.1791
 11
181.1645
 21
-172.1791
  0
LINE
  8
0
  6
CENTER
 62
     2
 10
168.9371
 20
-188.0753
 11
168.9371
 21
-137.1663
  0
LINE
  8
0
  6
CONTINUOUS
 62
     7
 10
177.9371
 20
-185.1791
 11
177.9371
 21
-159.1791
  0
LINE
  8
0
  6
CONTINUOUS
 62
     7
 10
159.9371
 20
-185.1791
 11
159.9371
 21
-159.1791
  0
LINE
  8
0
  6
CONTINUOUS
 62
     7
 10
160.4371
 20
-158.6791
 11
177.4371
 21
-158.6791
  0
LINE
  8
0
  6
CONTINUOUS
 62
     7
 10
160.4371
 20
-185.6791
 11
177.4371
 21
-185.6791
  0
LINE
  8
0
  6
CENTER
 62
     2
 10
162.9371
 20
-165.8169
 11
162.9371
 21
-157.5092
  0
LINE
  8
0
  6
CENTER
 62
     2
 10
174.9371
 20
-186.8581
 11
174.9371
 21
-178.5112
  0
LINE
  8
0
  6
CENTER
 62
     2
 10
170.9048
 20
-182.6791
 11
178.8468
 21
-182.6791
  0
LINE
  8
0
  6
CENTER
 62
     2
 10
159.08
 20
-161.6791
 11
166.8043
 21
-161.6791
  0
LINE
  8
0
  6
CONTINUOUS
 62
     7
 10
174.9371
 20
-179.4791
 11
177.4371
 21
-179.4791
  0
LINE
  8
0
  6
CONTINUOUS
 62
     7
 10
171.737
 20
-185.1791
 11
171.737
 21
-182.6791
  0
LINE
  8
0
  6
CONTINUOUS
 62
     7
 10
166.1371
 20
-161.6791
 11
166.1371
 21
-159.1791
  0
LINE
  8
0
  6
CONTINUOUS
 62
     7
 10
160.4371
 20
-164.8791
 11
162.9371
 21
-164.8791
  0
LINE
  8
0
  6
CONTINUOUS
 62
     7
 10
174.0886
 20
-183.9519
 11
173.6643
 21
-183.5276
  0
LINE
  8
0
  6
CONTINUOUS
 62
     7
 10
176.2099
 20
-181.8306
 11
175.7856
 21
-181.4063
  0
LINE
  8
0
  6
CONTINUOUS
 62
     7
 10
175.7856
 20
-183.9519
 11
175.3613
 21
-183.5276
  0
LINE
  8
0
  6
CONTINUOUS
 62
     7
 10
176.2099
 20
-183.5276
 11
175.7856
 21
-183.1033
  0
LINE
  8
0
  6
CONTINUOUS
 62
     7
 10
175.7857
 20
-183.952
 11
176.2099
 21
-183.5277
  0
LINE
  8
0
  6
CONTINUOUS
 62
     7
 10
173.6643
 20
-181.8306
 11
174.0886
 21
-181.4064
  0
LINE
  8
0
  6
CONTINUOUS
 62
     7
 10
174.0886
 20
-183.9519
 11
174.5128
 21
-183.5277
  0
LINE
  8
0
  6
CONTINUOUS
 62
     7
 10
173.6644
 20
-183.5277
 11
174.0887
 21
-183.1035
  0
LINE
  8
0
  6
CONTINUOUS
 62
     7
 10
174.0886
 20
-182.2548
 11
173.6643
 21
-181.8306
  0
LINE
  8
0
  6
CONTINUOUS
 62
     7
 10
174.5128
 20
-181.8306
 11
174.0886
 21
-181.4063
  0
LINE
  8
0
  6
CONTINUOUS
 62
     7
 10
175.7856
 20
-182.2549
 11
176.2099
 21
-181.8306
  0
LINE
  8
0
  6
CONTINUOUS
 62
     7
 10
175.3615
 20
-181.8307
 11
175.7857
 21
-181.4064
  0
LINE
  8
0
  6
CONTINUOUS
 62
     7
 10
162.0885
 20
-162.9519
 11
161.6643
 21
-162.5276
  0
LINE
  8
0
  6
CONTINUOUS
 62
     7
 10
164.2099
 20
-160.8305
 11
163.7856
 21
-160.4063
  0
LINE
  8
0
  6
CONTINUOUS
 62
     7
 10
163.7856
 20
-162.9519
 11
163.3614
 21
-162.5276
  0
LINE
  8
0
  6
CONTINUOUS
 62
     7
 10
164.2099
 20
-162.5276
 11
163.7856
 21
-162.1033
  0
LINE
  8
0
  6
CONTINUOUS
 62
     7
 10
175.9371
 20
-158.6791
 11
175.9371
 21
-150.9791
  0
LINE
  8
0
  6
CONTINUOUS
 62
     7
 10
161.9371
 20
-158.6791
 11
161.9371
 21
-150.9791
  0
LINE
  8
0
  6
CONTINUOUS
 62
     7
 10
163.4371
 20
-139.6791
 11
174.4371
 21
-139.6791
  0
LINE
  8
0
  6
CONTINUOUS
 62
     7
 10
172.9371
 20
-150.1791
 11
172.9371
 21
-139.6791
  0
LINE
  8
0
  6
CONTINUOUS
 62
     7
 10
164.9371
 20
-150.1791
 11
164.9371
 21
-139.6791
  0
LINE
  8
0
  6
CONTINUOUS
 62
     7
 10
163.4371
 20
-150.1791
 11
163.4371
 21
-139.6791
  0
LINE
  8
0
  6
CONTINUOUS
 62
     7
 10
174.4371
 20
-150.1791
 11
174.4371
 21
-139.6791
  0
LINE
  8
0
  6
CONTINUOUS
 62
     7
 10
162.737
 20
-150.1791
 11
175.1371
 21
-150.1791
  0
LINE
  8
0
  6
CENTER
 62
     2
 10
166.4371
 20
-142.6791
 11
166.4371
 21
-116.6791
  0
LINE
  8
0
  6
CENTER
 62
     2
 10
171.4371
 20
-142.6791
 11
171.4371
 21
-116.6791
  0
LINE
  8
0
  6
CONTINUOUS
 62
     7
 10
165.5871
 20
-129.6791
 11
167.2871
 21
-129.6791
  0
LINE
  8
0
  6
CONTINUOUS
 62
     7
 10
166.1171
 20
-119.6791
 11
166.7571
 21
-119.6791
  0
LINE
  8
0
  6
CONTINUOUS
 62
     7
 10
171.7571
 20
-129.6791
 11
171.7571
 21
-119.6791
  0
LINE
  8
0
  6
CONTINUOUS
 62
     7
 10
171.1171
 20
-129.6791
 11
171.1171
 21
-119.6791
  0
LINE
  8
0
  6
CONTINUOUS
 62
     7
 10
166.7571
 20
-129.6791
 11
166.7571
 21
-119.6791
  0
LINE
  8
0
  6
CONTINUOUS
 62
     7
 10
166.1171
 20
-129.6791
 11
166.1171
 21
-119.6791
  0
LINE
  8
0
  6
CONTINUOUS
 62
     7
 10
167.2871
 20
-139.6791
 11
167.2871
 21
-135.0135
  0
LINE
  8
0
  6
CONTINUOUS
 62
     7
 10
165.5871
 20
-139.6791
 11
165.5871
 21
-134.5579
  0
LINE
  8
0
  6
CONTINUOUS
 62
     7
 10
170.5871
 20
-139.6791
 11
170.5871
 21
-135.8977
  0
LINE
  8
0
  6
CONTINUOUS
 62
     7
 10
172.2871
 20
-139.6791
 11
172.2871
 21
-136.3532
  0
LINE
  8
0
  6
CONTINUOUS
 62
     7
 10
170.5871
 20
-129.6791
 11
172.2871
 21
-129.6791
  0
LINE
  8
0
  6
CONTINUOUS
 62
     7
 10
171.1171
 20
-119.6791
 11
171.7571
 21
-119.6791
  0
LINE
  8
0
  6
CONTINUOUS
 62
     7
 10
164.9371
 20
-141.1791
 11
172.9371
 21
-141.1791
  0
LINE
  8
0
  6
CONTINUOUS
 62
     7
 10
164.9371
 20
-147.6791
 11
172.9371
 21
-147.6791
  0
LINE
  8
0
  6
PHANTOM
 62
     2
 10
174.2871
 20
-135.3362
 11
163.5871
 21
-132.4691
  0
LINE
  8
0
  6
PHANTOM
 62
     2
 10
174.2871
 20
-136.8891
 11
163.5871
 21
-134.022
  0
LINE
  8
0
  6
CONTINUOUS
 62
     7
 10
165.5871
 20
-133.005
 11
165.5871
 21
-129.6791
  0
LINE
  8
0
  6
CONTINUOUS
 62
     7
 10
167.2871
 20
-133.4605
 11
167.2871
 21
-129.6791
  0
LINE
  8
0
  6
CONTINUOUS
 62
     7
 10
170.5871
 20
-134.3448
 11
170.5871
 21
-129.6791
  0
LINE
  8
0
  6
CONTINUOUS
 62
     7
 10
172.2871
 20
-134.8003
 11
172.2871
 21
-129.6791
  0
ARC
  8
0
  6
CONTINUOUS
 62
     7
 10
273.0354
 20
-235.0457
 40
2.21188
 50
0.0
 51
89.99999
  0
ARC
  8
0
  6
CONTINUOUS
 62
     7
 10
291.2836
 20
-246.9346
 40
2.2119
 50
270.0
 51
0.0
  0
ARC
  8
0
  6
CONTINUOUS
 62
     7
 10
290.1776
 20
-236.1516
 40
3.31784
 50
0.0
 51
89.99999
  0
ARC
  8
0
  6
CONTINUOUS
 62
     7
 10
310.3611
 20
-236.8128
 40
2.21189
 50
295.0
 51
0.0
  0
ARC
  8
0
  6
CONTINUOUS
 62
     7
 10
310.3611
 20
-235.0457
 40
2.21188
 50
0.0
 51
89.99999
  0
ARC
  8
0
  6
CONTINUOUS
 62
     7
 10
327.5034
 20
-232.8338
 40
3.31784
 50
291.6884
 51
0.0
  0
ARC
  8
0
  6
CONTINUOUS
 62
     7
 10
326.3973
 20
-232.0834
 40
1.10595
 50
291.689
 51
0.0
  0
CIRCLE
  8
0
  6
CONTINUOUS
 62
     7
 10
-201.9368
 20
-6.39999
 40
4.86435
  0
CIRCLE
  8
0
  6
CONTINUOUS
 62
     7
 10
-201.9368
 20
-6.39999
 40
4.28325
  0
ARC
  8
0
  6
CONTINUOUS
 62
     7
 10
-205.8035
 20
-40.57182
 40
0.66666
 50
299.4921
 51
0.0
  0
ARC
  8
0
  6
CONTINUOUS
 62
     7
 10
-205.2368
 20
-39.89998
 40
0.5
 50
0.0
 51
89.99999
  0
ARC
  8
0
  6
CONTINUOUS
 62
     7
 10
-210.4368
 20
-38.89998
 40
0.5
 50
180.0
 51
270.0
  0
ARC
  8
0
  6
CONTINUOUS
 62
     7
 10
-204.2368
 20
-42.29997
 40
0.5
 50
180.0
 51
270.0
  0
ARC
  8
0
  6
CONTINUOUS
 62
     7
 10
-210.4368
 20
-42.29997
 40
0.5
 50
180.0
 51
270.0
  0
ARC
  8
0
  6
CONTINUOUS
 62
     7
 10
-193.4368
 20
-42.3
 40
0.5
 50
270.0
 51
0.0
  0
CIRCLE
  8
0
  6
CONTINUOUS
 62
     7
 10
-208.4368
 20
-28.39999
 40
1.6
  0
CIRCLE
  8
0
  6
CONTINUOUS
 62
     7
 10
-195.4368
 20
1.60001
 40
1.6
  0
ARC
  8
0
  6
CONTINUOUS
 62
     7
 10
-195.4368
 20
1.60001
 40
3.0
 50
33.55732
 51
326.4427
  0
ARC
  8
0
  6
CONTINUOUS
 62
     7
 10
-208.4368
 20
-28.39999
 40
3.0
 50
0.0
 51
146.4427
  0
ARC
  8
0
  6
CONTINUOUS
 62
     7
 10
-208.4368
 20
-28.39999
 40
3.0
 50
213.5573
 51
0.0
  0
CIRCLE
  8
0
  6
CONTINUOUS
 62
     7
 10
-201.9368
 20
22.3
 40
1.65
  0
ARC
  8
0
  6
CONTINUOUS
 62
     7
 10
-207.9368
 20
-36.8
 40
5.0
 50
240.5077
 51
299.4923
  0
ARC
  8
0
  6
CONTINUOUS
 62
     7
 10
-210.0701
 20
-40.57182
 40
0.66667
 50
180.0
 51
240.5079
  0
ARC
  8
0
  6
CONTINUOUS
 62
     7
 10
-208.1368
 20
46.00002
 40
0.8
 50
89.99999
 51
180.0
  0
ARC
  8
0
  6
CONTINUOUS
 62
     7
 10
-195.7368
 20
46.00002
 40
0.8
 50
0.0
 51
89.99999
  0
ARC
  8
0
  6
CONTINUOUS
 62
     7
 10
-208.1368
 20
26.60001
 40
0.8
 50
180.0
 51
270.0
  0
ARC
  8
0
  6
CONTINUOUS
 62
     7
 10
-195.7368
 20
26.60001
 40
0.8
 50
270.0
 51
0.0
  0
ARC
  8
0
  6
CONTINUOUS
 62
     7
 10
-206.4368
 20
48.3
 40
6.0
 50
85.2198
 51
106.1914
  0
ARC
  8
0
  6
CONTINUOUS
 62
     7
 10
-207.8868
 20
53.29375
 40
0.8
 50
106.1918
 51
180.0
  0
ARC
  8
0
  6
CONTINUOUS
 62
     7
 10
-197.4368
 20
48.3
 40
6.0
 50
73.80862
 51
94.78019
  0
ARC
  8
0
  6
CONTINUOUS
 62
     7
 10
-195.9868
 20
53.29375
 40
0.8
 50
61.98621
 51
73.8082
  0
CIRCLE
  8
0
  6
CONTINUOUS
 62
     7
 10
-204.4368
 20
50.3
 40
0.85
  0
CIRCLE
  8
0
  6
CONTINUOUS
 62
     7
 10
-199.4368
 20
50.3
 40
0.85
  0
ARC
  8
0
  6
CONTINUOUS
 62
     7
 10
-201.9368
 20
47.925
 40
0.5
 50
45.00062
 51
314.9994
  0
ARC
  8
0
  6
CONTINUOUS
 62
     7
 10
-206.4365
 20
127.7773
 40
3.0
 50
0.0
 51
89.99999
  0
ARC
  8
0
  6
CONTINUOUS
 62
     7
 10
-197.4365
 20
145.7773
 40
3.0
 50
180.0
 51
270.0
  0
ARC
  8
0
  6
CONTINUOUS
 62
     7
 10
-206.4365
 20
127.7773
 40
2.55
 50
186.7564
 51
173.2436
  0
ARC
  8
0
  6
CONTINUOUS
 62
     7
 10
-197.4365
 20
145.7773
 40
2.55
 50
6.75641
 51
353.2436
  0
CIRCLE
  8
0
  6
CONTINUOUS
 62
     7
 10
-206.4365
 20
127.7773
 40
2.25
  0
ARC
  8
0
  6
CONTINUOUS
 62
     7
 10
-205.3334
 20
127.7773
 40
0.51999
 50
135.0
 51
225.0006
  0
ARC
  8
0
  6
CONTINUOUS
 62
     7
 10
-206.4365
 20
128.8804
 40
0.51999
 50
225.0
 51
315.0
  0
ARC
  8
0
  6
CONTINUOUS
 62
     7
 10
-206.4365
 20
126.6742
 40
0.52
 50
45.0006
 51
134.9994
  0
ARC
  8
0
  6
CONTINUOUS
 62
     7
 10
-207.5396
 20
127.7773
 40
0.52
 50
314.9994
 51
45.0
  0
CIRCLE
  8
0
  6
CONTINUOUS
 62
     7
 10
-197.4365
 20
145.7773
 40
2.25
  0
ARC
  8
0
  6
CONTINUOUS
 62
     7
 10
-196.3334
 20
145.7773
 40
0.51999
 50
135.0
 51
225.0
  0
ARC
  8
0
  6
CONTINUOUS
 62
     7
 10
-197.4365
 20
146.8804
 40
0.51999
 50
225.0
 51
315.0
  0
ARC
  8
0
  6
CONTINUOUS
 62
     7
 10
-197.4365
 20
144.6742
 40
0.51999
 50
45.0
 51
135.0
  0
ARC
  8
0
  6
CONTINUOUS
 62
     7
 10
-198.5396
 20
145.7773
 40
0.51999
 50
315.0
 51
45.0
  0
ARC
  8
0
  6
CONTINUOUS
 62
     7
 10
-194.9365
 20
148.2773
 40
0.5
 50
0.0
 51
89.99999
  0
ARC
  8
0
  6
CONTINUOUS
 62
     7
 10
-208.9365
 20
148.2773
 40
0.5
 50
89.99999
 51
180.0
  0
ARC
  8
0
  6
CONTINUOUS
 62
     7
 10
-195.7365
 20
115.5773
 40
0.8
 50
270.0
 51
0.0
  0
ARC
  8
0
  6
CONTINUOUS
 62
     7
 10
-208.1365
 20
115.5773
 40
0.8
 50
180.0
 51
270.0
  0
ARC
  8
0
  6
CONTINUOUS
 62
     7
 10
-210.4365
 20
149.7773
 40
0.5
 50
89.99999
 51
180.0
  0
ARC
  8
0
  6
CONTINUOUS
 62
     7
 10
-210.4365
 20
123.7773
 40
0.5
 50
180.0
 51
270.0
  0
ARC
  8
0
  6
CONTINUOUS
 62
     7
 10
-193.4365
 20
123.7773
 40
0.5
 50
270.0
 51
0.0
  0
ARC
  8
0
  6
CONTINUOUS
 62
     7
 10
-193.4365
 20
149.7773
 40
0.5
 50
0.0
 51
89.99999
  0
ARC
  8
0
  6
CONTINUOUS
 62
     7
 10
-328.5615
 20
-42.29979
 40
0.5
 50
180.0
 51
270.0
  0
ARC
  8
0
  6
CONTINUOUS
 62
     7
 10
-302.5615
 20
-42.29979
 40
0.5
 50
270.0
 51
0.0
  0
ARC
  8
0
  6
CONTINUOUS
 62
     7
 10
-307.7615
 20
-39.89977
 40
0.5
 50
89.99999
 51
180.0
  0
ARC
  8
0
  6
CONTINUOUS
 62
     7
 10
-302.5615
 20
-38.89977
 40
0.5
 50
270.0
 51
0.0
  0
ARC
  8
0
  6
CONTINUOUS
 62
     7
 10
-308.7615
 20
-42.29979
 40
0.5
 50
270.0
 51
0.0
  0
ARC
  8
0
  6
CONTINUOUS
 62
     7
 10
-305.0615
 20
-36.79979
 40
5.00001
 50
240.5075
 51
299.4925
  0
ARC
  8
0
  6
CONTINUOUS
 62
     7
 10
-307.1948
 20
-40.57161
 40
0.66666
 50
180.0
 51
240.5067
  0
ARC
  8
0
  6
CONTINUOUS
 62
     7
 10
-302.9282
 20
-40.57161
 40
0.66667
 50
299.4933
 51
0.0
  0
ARC
  8
0
  6
CONTINUOUS
 62
     7
 10
-294.3615
 20
46.00023
 40
0.79999
 50
0.0
 51
89.99999
  0
ARC
  8
0
  6
CONTINUOUS
 62
     7
 10
-294.3615
 20
26.60022
 40
0.8
 50
270.0
 51
0.0
  0
ARC
  8
0
  6
CONTINUOUS
 62
     7
 10
-306.5615
 20
48.30022
 40
6.0
 50
73.80876
 51
106.1912
  0
ARC
  8
0
  6
CONTINUOUS
 62
     7
 10
-305.1115
 20
53.29396
 40
0.79999
 50
0.0
 51
73.8082
  0
ARC
  8
0
  6
CONTINUOUS
 62
     7
 10
-308.0115
 20
53.29396
 40
0.8
 50
106.1918
 51
180.0
  0
ARC
  8
0
  6
CONTINUOUS
 62
     7
 10
-324.5615
 20
48.30022
 40
6.0
 50
73.80876
 51
106.1912
  0
ARC
  8
0
  6
CONTINUOUS
 62
     7
 10
-326.0115
 20
53.29396
 40
0.8
 50
106.1918
 51
118.0148
  0
ARC
  8
0
  6
CONTINUOUS
 62
     7
 10
-323.1115
 20
53.29396
 40
0.80001
 50
61.98524
 51
73.8082
  0
ARC
  8
0
  6
CONTINUOUS
 62
     7
 10
-301.5615
 20
53.30022
 40
0.5
 50
89.99999
 51
180.0
  0
ARC
  8
0
  6
CONTINUOUS
 62
     7
 10
-290.5615
 20
52.30022
 40
0.5
 50
89.99999
 51
270.0
  0
ARC
  8
0
  6
CONTINUOUS
 62
     7
 10
-292.5615
 20
52.30022
 40
0.5
 50
270.0
 51
89.99999
  0
ARC
  8
0
  6
CONTINUOUS
 62
     7
 10
-72.31268
 20
-42.29973
 40
0.5
 50
270.0
 51
0.0
  0
ARC
  8
0
  6
CONTINUOUS
 62
     7
 10
-98.31268
 20
-42.29973
 40
0.5
 50
180.0
 51
270.0
  0
ARC
  8
0
  6
CONTINUOUS
 62
     7
 10
-77.51267
 20
-39.8997
 40
0.5
 50
89.99999
 51
180.0
  0
ARC
  8
0
  6
CONTINUOUS
 62
     7
 10
-72.31268
 20
-38.8997
 40
0.5
 50
270.0
 51
0.0
  0
ARC
  8
0
  6
CONTINUOUS
 62
     7
 10
-78.51267
 20
-42.29973
 40
0.5
 50
270.0
 51
0.0
  0
ARC
  8
0
  6
CONTINUOUS
 62
     7
 10
-74.81268
 20
-36.79973
 40
5.0
 50
240.5076
 51
299.4923
  0
ARC
  8
0
  6
CONTINUOUS
 62
     7
 10
-76.94601
 20
-40.57155
 40
0.66666
 50
180.0
 51
240.5073
  0
ARC
  8
0
  6
CONTINUOUS
 62
     7
 10
-72.67934
 20
-40.57155
 40
0.66666
 50
299.4921
 51
0.0
  0
ARC
  8
0
  6
CONTINUOUS
 62
     7
 10
-106.5127
 20
46.00029
 40
0.8
 50
89.99999
 51
180.0
  0
ARC
  8
0
  6
CONTINUOUS
 62
     7
 10
-106.5127
 20
26.60028
 40
0.8
 50
180.0
 51
270.0
  0
ARC
  8
0
  6
CONTINUOUS
 62
     7
 10
-76.31268
 20
48.30028
 40
6.0
 50
73.80869
 51
106.1913
  0
ARC
  8
0
  6
CONTINUOUS
 62
     7
 10
-74.86266
 20
53.29402
 40
0.8
 50
0.0
 51
73.80872
  0
ARC
  8
0
  6
CONTINUOUS
 62
     7
 10
-77.76269
 20
53.29402
 40
0.8
 50
106.1913
 51
180.0
  0
ARC
  8
0
  6
CONTINUOUS
 62
     7
 10
-94.31268
 20
48.30028
 40
6.0
 50
73.80862
 51
106.1913
  0
ARC
  8
0
  6
CONTINUOUS
 62
     7
 10
-95.76268
 20
53.29402
 40
0.8
 50
106.1913
 51
118.0138
  0
ARC
  8
0
  6
CONTINUOUS
 62
     7
 10
-92.86267
 20
53.29402
 40
0.8
 50
61.98621
 51
73.80872
  0
ARC
  8
0
  6
CONTINUOUS
 62
     7
 10
-99.31267
 20
53.30028
 40
0.5
 50
0.0
 51
89.99999
  0
ARC
  8
0
  6
CONTINUOUS
 62
     7
 10
-110.3127
 20
52.30028
 40
0.5
 50
270.0
 51
89.99999
  0
ARC
  8
0
  6
CONTINUOUS
 62
     7
 10
-108.3127
 20
52.30028
 40
0.5
 50
89.99999
 51
270.0
  0
CIRCLE
  8
0
  6
CONTINUOUS
 62
     7
 10
-196.9365
 20
-162.6791
 40
1.5
  0
CIRCLE
  8
0
  6
CONTINUOUS
 62
     7
 10
-206.9365
 20
-181.6791
 40
1.5
  0
CIRCLE
  8
0
  6
CONTINUOUS
 62
     7
 10
-206.9365
 20
-181.6791
 40
1.0
  0
ARC
  8
0
  6
CONTINUOUS
 62
     7
 10
-210.4365
 20
-185.1791
 40
0.5
 50
180.0
 51
270.0
  0
ARC
  8
0
  6
CONTINUOUS
 62
     7
 10
-210.4365
 20
-159.1791
 40
0.5
 50
89.99999
 51
180.0
  0
ARC
  8
0
  6
CONTINUOUS
 62
     7
 10
-193.4365
 20
-159.1791
 40
0.5
 50
0.0
 51
89.99999
  0
ARC
  8
0
  6
CONTINUOUS
 62
     7
 10
-193.4365
 20
-185.1791
 40
0.5
 50
270.0
 51
0.0
  0
ARC
  8
0
  6
CONTINUOUS
 62
     7
 10
-207.9365
 20
-161.6791
 40
3.2
 50
270.0
 51
0.0
  0
ARC
  8
0
  6
CONTINUOUS
 62
     7
 10
-195.9365
 20
-182.6791
 40
3.2
 50
89.99999
 51
180.0
  0
ARC
  8
0
  6
CONTINUOUS
 62
     7
 10
-199.6365
 20
-185.1791
 40
0.5
 50
270.0
 51
0.0
  0
ARC
  8
0
  6
CONTINUOUS
 62
     7
 10
-193.4365
 20
-178.9791
 40
0.5
 50
270.0
 51
0.0
  0
ARC
  8
0
  6
CONTINUOUS
 62
     7
 10
-210.4365
 20
-165.3791
 40
0.5
 50
89.99999
 51
180.0
  0
ARC
  8
0
  6
CONTINUOUS
 62
     7
 10
-204.2365
 20
-159.1791
 40
0.5
 50
89.99999
 51
180.0
  0
CIRCLE
  8
0
  6
CONTINUOUS
 62
     7
 10
-195.9365
 20
-182.6791
 40
2.8
  0
ARC
  8
0
  6
CONTINUOUS
 62
     7
 10
-197.2093
 20
-182.6791
 40
0.60001
 50
315.0
 51
45.0
  0
ARC
  8
0
  6
CONTINUOUS
 62
     7
 10
-195.9365
 20
-183.9519
 40
0.60001
 50
45.0
 51
135.0
  0
ARC
  8
0
  6
CONTINUOUS
 62
     7
 10
-195.9365
 20
-181.4063
 40
0.60001
 50
225.0
 51
315.0
  0
ARC
  8
0
  6
CONTINUOUS
 62
     7
 10
-194.6637
 20
-182.6791
 40
0.60001
 50
135.0
 51
225.0
  0
CIRCLE
  8
0
  6
CONTINUOUS
 62
     7
 10
-207.9365
 20
-161.6791
 40
2.8
  0
ARC
  8
0
  6
CONTINUOUS
 62
     7
 10
-209.2093
 20
-161.6791
 40
0.60001
 50
315.0
 51
45.0
  0
ARC
  8
0
  6
CONTINUOUS
 62
     7
 10
-207.9365
 20
-162.9519
 40
0.60001
 50
45.0
 51
135.0
  0
ARC
  8
0
  6
CONTINUOUS
 62
     7
 10
-207.9365
 20
-160.4063
 40
0.60001
 50
225.0
 51
315.0
  0
ARC
  8
0
  6
CONTINUOUS
 62
     7
 10
-206.6637
 20
-161.6791
 40
0.60001
 50
135.0
 51
225.0
  0
CIRCLE
  8
0
  6
CONTINUOUS
 62
     7
 10
-206.9365
 20
-181.6791
 40
2.35
  0
CIRCLE
  8
0
  6
CONTINUOUS
 62
     7
 10
-196.9365
 20
-162.6791
 40
2.35
  0
CIRCLE
  8
0
  6
CONTINUOUS
 62
     7
 10
-196.9365
 20
-162.6791
 40
1.0
  0
ARC
  8
0
  6
CONTINUOUS
 62
     7
 10
-208.1365
 20
-150.9791
 40
0.8
 50
89.99999
 51
180.0
  0
ARC
  8
0
  6
CONTINUOUS
 62
     7
 10
-195.7365
 20
-150.9791
 40
0.8
 50
0.0
 51
89.99999
  0
ARC
  8
0
  6
CONTINUOUS
 62
     7
 10
160.4368
 20
-42.29999
 40
0.5
 50
180.0
 51
270.0
  0
ARC
  8
0
  6
CONTINUOUS
 62
     7
 10
177.4368
 20
-42.29999
 40
0.5
 50
270.0
 51
0.0
  0
CIRCLE
  8
0
  6
CONTINUOUS
 62
     7
 10
162.4368
 20
-28.39998
 40
1.6
  0
CIRCLE
  8
0
  6
CONTINUOUS
 62
     7
 10
175.4368
 20
1.60002
 40
1.6
  0
ARC
  8
0
  6
CONTINUOUS
 62
     7
 10
175.4368
 20
1.60002
 40
3.0
 50
33.55732
 51
326.4427
  0
ARC
  8
0
  6
CONTINUOUS
 62
     7
 10
162.4368
 20
-28.39998
 40
3.0
 50
0.0
 51
146.4427
  0
ARC
  8
0
  6
CONTINUOUS
 62
     7
 10
162.4368
 20
-28.39998
 40
3.0
 50
213.5573
 51
0.0
  0
CIRCLE
  8
0
  6
CONTINUOUS
 62
     7
 10
168.9368
 20
22.30002
 40
1.65
  0
ARC
  8
0
  6
CONTINUOUS
 62
     7
 10
165.6368
 20
-39.89999
 40
0.5
 50
0.0
 51
89.99999
  0
ARC
  8
0
  6
CONTINUOUS
 62
     7
 10
160.4368
 20
-38.89999
 40
0.5
 50
180.0
 51
270.0
  0
ARC
  8
0
  6
CONTINUOUS
 62
     7
 10
166.6368
 20
-42.29999
 40
0.5
 50
180.0
 51
270.0
  0
ARC
  8
0
  6
CONTINUOUS
 62
     7
 10
162.9368
 20
-36.79999
 40
5.0
 50
240.5077
 51
299.4923
  0
ARC
  8
0
  6
CONTINUOUS
 62
     7
 10
160.8035
 20
-40.57181
 40
0.66667
 50
180.0
 51
240.5079
  0
ARC
  8
0
  6
CONTINUOUS
 62
     7
 10
165.0701
 20
-40.57181
 40
0.66666
 50
299.4921
 51
0.0
  0
ARC
  8
0
  6
CONTINUOUS
 62
     7
 10
162.7368
 20
46.00003
 40
0.8
 50
89.99999
 51
180.0
  0
ARC
  8
0
  6
CONTINUOUS
 62
     7
 10
175.1368
 20
46.00003
 40
0.8
 50
0.0
 51
89.99999
  0
ARC
  8
0
  6
CONTINUOUS
 62
     7
 10
162.7368
 20
26.60002
 40
0.8
 50
180.0
 51
270.0
  0
ARC
  8
0
  6
CONTINUOUS
 62
     7
 10
175.1368
 20
26.60002
 40
0.8
 50
270.0
 51
0.0
  0
ARC
  8
0
  6
CONTINUOUS
 62
     7
 10
164.4368
 20
48.30002
 40
6.0
 50
85.2198
 51
106.1914
  0
ARC
  8
0
  6
CONTINUOUS
 62
     7
 10
162.9868
 20
53.29376
 40
0.8
 50
106.1918
 51
180.0
  0
ARC
  8
0
  6
CONTINUOUS
 62
     7
 10
173.4368
 20
48.30002
 40
6.0
 50
73.80862
 51
94.78019
  0
ARC
  8
0
  6
CONTINUOUS
 62
     7
 10
174.8868
 20
53.29376
 40
0.8
 50
61.98621
 51
73.8082
  0
CIRCLE
  8
0
  6
CONTINUOUS
 62
     7
 10
166.4368
 20
50.30002
 40
0.85
  0
CIRCLE
  8
0
  6
CONTINUOUS
 62
     7
 10
171.4368
 20
50.30002
 40
0.85
  0
ARC
  8
0
  6
CONTINUOUS
 62
     7
 10
168.9368
 20
47.92502
 40
0.5
 50
45.00062
 51
314.9994
  0
ARC
  8
0
  6
CONTINUOUS
 62
     7
 10
164.437
 20
127.7773
 40
3.0
 50
0.0
 51
89.99999
  0
ARC
  8
0
  6
CONTINUOUS
 62
     7
 10
173.437
 20
145.7773
 40
3.0
 50
180.0
 51
270.0
  0
ARC
  8
0
  6
CONTINUOUS
 62
     7
 10
164.437
 20
127.7773
 40
2.55
 50
186.7564
 51
173.2438
  0
ARC
  8
0
  6
CONTINUOUS
 62
     7
 10
173.437
 20
145.7773
 40
2.55
 50
6.75641
 51
353.2436
  0
CIRCLE
  8
0
  6
CONTINUOUS
 62
     7
 10
164.437
 20
127.7773
 40
2.25
  0
ARC
  8
0
  6
CONTINUOUS
 62
     7
 10
165.5401
 20
127.7773
 40
0.52
 50
134.9994
 51
225.0006
  0
ARC
  8
0
  6
CONTINUOUS
 62
     7
 10
164.437
 20
128.8804
 40
0.51999
 50
225.0
 51
315.0
  0
ARC
  8
0
  6
CONTINUOUS
 62
     7
 10
164.437
 20
126.6742
 40
0.52
 50
45.0006
 51
134.9994
  0
ARC
  8
0
  6
CONTINUOUS
 62
     7
 10
163.3339
 20
127.7773
 40
0.52
 50
314.9994
 51
45.0006
  0
CIRCLE
  8
0
  6
CONTINUOUS
 62
     7
 10
173.437
 20
145.7773
 40
2.25
  0
ARC
  8
0
  6
CONTINUOUS
 62
     7
 10
174.5401
 20
145.7773
 40
0.51999
 50
135.0
 51
225.0
  0
ARC
  8
0
  6
CONTINUOUS
 62
     7
 10
173.437
 20
146.8804
 40
0.51999
 50
225.0
 51
315.0
  0
ARC
  8
0
  6
CONTINUOUS
 62
     7
 10
173.437
 20
144.6742
 40
0.51999
 50
45.0
 51
135.0
  0
ARC
  8
0
  6
CONTINUOUS
 62
     7
 10
172.3339
 20
145.7773
 40
0.51999
 50
315.0
 51
45.0
  0
ARC
  8
0
  6
CONTINUOUS
 62
     7
 10
175.937
 20
148.2773
 40
0.5
 50
0.0
 51
89.99999
  0
ARC
  8
0
  6
CONTINUOUS
 62
     7
 10
161.937
 20
148.2773
 40
0.5
 50
89.99999
 51
180.0
  0
ARC
  8
0
  6
CONTINUOUS
 62
     7
 10
175.137
 20
115.5773
 40
0.8
 50
270.0
 51
0.0
  0
ARC
  8
0
  6
CONTINUOUS
 62
     7
 10
162.737
 20
115.5773
 40
0.8
 50
180.0
 51
270.0
  0
ARC
  8
0
  6
CONTINUOUS
 62
     7
 10
160.437
 20
149.7773
 40
0.5
 50
89.99999
 51
180.0
  0
ARC
  8
0
  6
CONTINUOUS
 62
     7
 10
160.437
 20
123.7773
 40
0.5
 50
180.0
 51
270.0
  0
ARC
  8
0
  6
CONTINUOUS
 62
     7
 10
177.437
 20
123.7773
 40
0.5
 50
270.0
 51
0.0
  0
ARC
  8
0
  6
CONTINUOUS
 62
     7
 10
177.437
 20
149.7773
 40
0.5
 50
0.0
 51
89.99999
  0
ARC
  8
0
  6
CONTINUOUS
 62
     7
 10
42.31203
 20
-42.29977
 40
0.5
 50
180.0
 51
270.0
  0
ARC
  8
0
  6
CONTINUOUS
 62
     7
 10
68.31203
 20
-42.29977
 40
0.5
 50
270.0
 51
0.0
  0
ARC
  8
0
  6
CONTINUOUS
 62
     7
 10
63.11201
 20
-39.89978
 40
0.5
 50
89.99999
 51
180.0
  0
ARC
  8
0
  6
CONTINUOUS
 62
     7
 10
68.31203
 20
-38.89978
 40
0.5
 50
270.0
 51
0.0
  0
ARC
  8
0
  6
CONTINUOUS
 62
     7
 10
62.11201
 20
-42.29977
 40
0.5
 50
270.0
 51
0.0
  0
ARC
  8
0
  6
CONTINUOUS
 62
     7
 10
65.81203
 20
-36.79977
 40
5.0
 50
240.5076
 51
299.4923
  0
ARC
  8
0
  6
CONTINUOUS
 62
     7
 10
63.6787
 20
-40.57159
 40
0.66667
 50
180.0
 51
240.5076
  0
ARC
  8
0
  6
CONTINUOUS
 62
     7
 10
67.94536
 20
-40.57159
 40
0.66666
 50
299.4921
 51
0.0
  0
ARC
  8
0
  6
CONTINUOUS
 62
     7
 10
76.51204
 20
46.00021
 40
0.8
 50
0.0
 51
89.99999
  0
ARC
  8
0
  6
CONTINUOUS
 62
     7
 10
76.51204
 20
26.60022
 40
0.8
 50
270.0
 51
0.0
  0
ARC
  8
0
  6
CONTINUOUS
 62
     7
 10
64.31203
 20
48.30022
 40
6.0
 50
73.80869
 51
106.1913
  0
ARC
  8
0
  6
CONTINUOUS
 62
     7
 10
65.76204
 20
53.29398
 40
0.8
 50
0.0
 51
73.80872
  0
ARC
  8
0
  6
CONTINUOUS
 62
     7
 10
62.86201
 20
53.29398
 40
0.8
 50
106.1913
 51
180.0
  0
ARC
  8
0
  6
CONTINUOUS
 62
     7
 10
46.31203
 20
48.3002
 40
6.0
 50
73.80865
 51
106.1913
  0
ARC
  8
0
  6
CONTINUOUS
 62
     7
 10
44.86201
 20
53.29395
 40
0.8
 50
106.1913
 51
118.0138
  0
ARC
  8
0
  6
CONTINUOUS
 62
     7
 10
47.76204
 20
53.29395
 40
0.8
 50
61.98621
 51
73.80872
  0
ARC
  8
0
  6
CONTINUOUS
 62
     7
 10
69.31203
 20
53.30022
 40
0.5
 50
89.99999
 51
180.0
  0
ARC
  8
0
  6
CONTINUOUS
 62
     7
 10
80.31203
 20
52.30022
 40
0.5
 50
89.99999
 51
270.0
  0
ARC
  8
0
  6
CONTINUOUS
 62
     7
 10
78.31203
 20
52.30022
 40
0.5
 50
270.0
 51
89.99999
  0
ARC
  8
0
  6
CONTINUOUS
 62
     7
 10
298.5609
 20
-42.29974
 40
0.5
 50
270.0
 51
0.0
  0
ARC
  8
0
  6
CONTINUOUS
 62
     7
 10
272.5609
 20
-42.29974
 40
0.5
 50
180.0
 51
270.0
  0
ARC
  8
0
  6
CONTINUOUS
 62
     7
 10
293.3608
 20
-39.89975
 40
0.5
 50
89.99999
 51
180.0
  0
ARC
  8
0
  6
CONTINUOUS
 62
     7
 10
298.5609
 20
-38.89975
 40
0.5
 50
270.0
 51
0.0
  0
ARC
  8
0
  6
CONTINUOUS
 62
     7
 10
292.3608
 20
-42.29974
 40
0.5
 50
270.0
 51
0.0
  0
ARC
  8
0
  6
CONTINUOUS
 62
     7
 10
296.0609
 20
-36.79974
 40
5.00001
 50
240.5075
 51
299.4925
  0
ARC
  8
0
  6
CONTINUOUS
 62
     7
 10
293.9275
 20
-40.57156
 40
0.66666
 50
180.0
 51
240.5067
  0
ARC
  8
0
  6
CONTINUOUS
 62
     7
 10
298.1942
 20
-40.57156
 40
0.66667
 50
299.4933
 51
0.0
  0
ARC
  8
0
  6
CONTINUOUS
 62
     7
 10
264.3608
 20
46.00027
 40
0.8
 50
89.99999
 51
180.0
  0
ARC
  8
0
  6
CONTINUOUS
 62
     7
 10
264.3608
 20
26.60027
 40
0.79999
 50
180.0
 51
270.0
  0
ARC
  8
0
  6
CONTINUOUS
 62
     7
 10
294.5609
 20
48.30026
 40
6.0
 50
73.80876
 51
106.1912
  0
ARC
  8
0
  6
CONTINUOUS
 62
     7
 10
296.0109
 20
53.29401
 40
0.79999
 50
0.0
 51
73.8082
  0
ARC
  8
0
  6
CONTINUOUS
 62
     7
 10
293.1108
 20
53.29401
 40
0.8
 50
106.1918
 51
180.0
  0
ARC
  8
0
  6
CONTINUOUS
 62
     7
 10
276.5609
 20
48.30026
 40
6.0
 50
73.80876
 51
106.1912
  0
ARC
  8
0
  6
CONTINUOUS
 62
     7
 10
275.1108
 20
53.29401
 40
0.8
 50
106.1918
 51
118.0148
  0
ARC
  8
0
  6
CONTINUOUS
 62
     7
 10
278.0109
 20
53.29401
 40
0.80001
 50
61.98524
 51
73.8082
  0
ARC
  8
0
  6
CONTINUOUS
 62
     7
 10
271.5609
 20
53.30026
 40
0.5
 50
0.0
 51
89.99999
  0
ARC
  8
0
  6
CONTINUOUS
 62
     7
 10
260.5609
 20
52.30026
 40
0.5
 50
270.0
 51
89.99999
  0
ARC
  8
0
  6
CONTINUOUS
 62
     7
 10
262.5609
 20
52.30026
 40
0.5
 50
89.99999
 51
270.0
  0
CIRCLE
  8
0
  6
CONTINUOUS
 62
     7
 10
173.9371
 20
-162.6791
 40
1.5
  0
CIRCLE
  8
0
  6
CONTINUOUS
 62
     7
 10
163.9371
 20
-181.6791
 40
1.5
  0
CIRCLE
  8
0
  6
CONTINUOUS
 62
     7
 10
163.9371
 20
-181.6791
 40
1.0
  0
ARC
  8
0
  6
CONTINUOUS
 62
     7
 10
160.4371
 20
-185.1791
 40
0.5
 50
180.0
 51
270.0
  0
ARC
  8
0
  6
CONTINUOUS
 62
     7
 10
160.4371
 20
-159.1791
 40
0.5
 50
89.99999
 51
180.0
  0
ARC
  8
0
  6
CONTINUOUS
 62
     7
 10
177.4371
 20
-159.1791
 40
0.5
 50
0.0
 51
89.99999
  0
ARC
  8
0
  6
CONTINUOUS
 62
     7
 10
177.4371
 20
-185.1791
 40
0.5
 50
270.0
 51
0.0
  0
ARC
  8
0
  6
CONTINUOUS
 62
     7
 10
162.9371
 20
-161.6791
 40
3.2
 50
270.0
 51
0.0
  0
ARC
  8
0
  6
CONTINUOUS
 62
     7
 10
174.9371
 20
-182.6791
 40
3.2
 50
89.99999
 51
180.0
  0
ARC
  8
0
  6
CONTINUOUS
 62
     7
 10
171.237
 20
-185.1791
 40
0.5
 50
270.0
 51
0.0
  0
ARC
  8
0
  6
CONTINUOUS
 62
     7
 10
177.4371
 20
-178.9791
 40
0.5
 50
270.0
 51
0.0
  0
ARC
  8
0
  6
CONTINUOUS
 62
     7
 10
160.4371
 20
-165.3791
 40
0.5
 50
89.99999
 51
180.0
  0
ARC
  8
0
  6
CONTINUOUS
 62
     7
 10
166.6371
 20
-159.1791
 40
0.5
 50
89.99999
 51
180.0
  0
CIRCLE
  8
0
  6
CONTINUOUS
 62
     7
 10
174.9371
 20
-182.6791
 40
2.8
  0
ARC
  8
0
  6
CONTINUOUS
 62
     7
 10
173.6643
 20
-182.6791
 40
0.60001
 50
315.0
 51
45.0
  0
ARC
  8
0
  6
CONTINUOUS
 62
     7
 10
174.9371
 20
-183.9519
 40
0.60001
 50
45.0
 51
135.0
  0
ARC
  8
0
  6
CONTINUOUS
 62
     7
 10
174.9371
 20
-181.4063
 40
0.60001
 50
225.0
 51
315.0
  0
ARC
  8
0
  6
CONTINUOUS
 62
     7
 10
176.2099
 20
-182.6791
 40
0.60001
 50
135.0
 51
225.0
  0
CIRCLE
  8
0
  6
CONTINUOUS
 62
     7
 10
162.9371
 20
-161.6791
 40
2.8
  0
ARC
  8
0
  6
CONTINUOUS
 62
     7
 10
161.6643
 20
-161.6791
 40
0.60001
 50
315.0
 51
45.0
  0
ARC
  8
0
  6
CONTINUOUS
 62
     7
 10
162.9371
 20
-162.9519
 40
0.60001
 50
45.0
 51
135.0
  0
ARC
  8
0
  6
CONTINUOUS
 62
     7
 10
162.9371
 20
-160.4063
 40
0.60001
 50
225.0
 51
315.0
  0
ARC
  8
0
  6
CONTINUOUS
 62
     7
 10
164.2099
 20
-161.6791
 40
0.60001
 50
135.0
 51
225.0
  0
CIRCLE
  8
0
  6
CONTINUOUS
 62
     7
 10
163.9371
 20
-181.6791
 40
2.35
  0
CIRCLE
  8
0
  6
CONTINUOUS
 62
     7
 10
173.9371
 20
-162.6791
 40
2.35
  0
CIRCLE
  8
0
  6
CONTINUOUS
 62
     7
 10
173.9371
 20
-162.6791
 40
1.0
  0
ARC
  8
0
  6
CONTINUOUS
 62
     7
 10
162.737
 20
-150.9791
 40
0.8
 50
89.99999
 51
180.0
  0
ARC
  8
0
  6
CONTINUOUS
 62
     7
 10
175.1371
 20
-150.9791
 40
0.8
 50
0.0
 51
89.99999
  0
TEXT
  8
0
  6
CONTINUOUS
 62
     7
 10
-350.9787
 20
200.5946
 40
8.5
  1
MODEL : 180E1-PLL
 41
0.8
  7
STANDARD
  0
TEXT
  8
0
  6
CONTINUOUS
 62
     7
 10
229.0661
 20
236.2625
 40
8.5
  1
DATE : NOV ,1989
 41
0.8
  7
STANDARD
  0
TEXT
  8
0
  6
CONTINUOUS
 62
     7
 10
-366.8907
 20
235.5575
 40
10.0
  1
180 CONNECTOR PLL
 41
0.69402
  7
STANDARD
  0
TEXT
  8
0
  6
CONTINUOUS
 62
     7
 10
19.88928
 20
200.5946
 40
8.5
  1
MODEL : A180E1-PLL
 41
0.8
  7
STANDARD
  0
TEXT
  8
0
  6
CONTINUOUS
 62
     7
 10
-201.7682
 20
-15.33999
 40
2.0
  1
A
 41
0.8
  7
STANDARD
  0
ENDSEC
  0
EOF
