  0
SECTION
  2
HEADER
  9
$ACADVER
  1
AC1002
  9
$INSBASE
 10
0.0
 20
0.0
  9
$EXTMIN
 10
-370.8736
 20
-254.5585
  9
$EXTMAX
 10
370.8736
 20
254.5585
  9
$LIMMIN
 10
0.0
 20
0.0
  9
$LIMMAX
 10
12.0
 20
9.0
  9
$VIEWCTR
 10
28.6093211
 20
0.0
  9
$VIEWSIZE
 40
509.117
  9
$SNAPMODE
 70
     0
  9
$SNAPUNIT
 10
1.0
 20
1.0
  9
$SNAPBASE
 10
0.0
 20
0.0
  9
$SNAPANG
 50
0.0
  9
$SNAPSTYLE
 70
     0
  9
$SNAPISOPAIR
 70
     0
  9
$GRIDMODE
 70
     0
  9
$GRIDUNIT
 10
0.0
 20
0.0
  9
$ORTHOMODE
 70
     0
  9
$REGENMODE
 70
     1
  9
$FILLMODE
 70
     1
  9
$QTEXTMODE
 70
     0
  9
$DRAGMODE
 70
     2
  9
$LTSCALE
 40
1.0
  9
$OSMODE
 70
     0
  9
$ATTMODE
 70
     1
  9
$TEXTSIZE
 40
0.2
  9
$TRACEWID
 40
0.05
  9
$TEXTSTYLE
  7
AAA
  9
$CLAYER
  8
0
  9
$CELTYPE
  6
BYLAYER
  9
$CECOLOR
 62
   256
  9
$DIMSCALE
 40
1.0
  9
$DIMASZ
 40
0.18
  9
$DIMEXO
 40
0.0625
  9
$DIMDLI
 40
0.38
  9
$DIMRND
 40
0.0
  9
$DIMDLE
 40
0.0
  9
$DIMEXE
 40
0.18
  9
$DIMTP
 40
0.0
  9
$DIMTM
 40
0.0
  9
$DIMTXT
 40
0.18
  9
$DIMCEN
 40
0.09
  9
$DIMTSZ
 40
0.0
  9
$DIMTOL
 70
     0
  9
$DIMLIM
 70
     0
  9
$DIMTIH
 70
     1
  9
$DIMTOH
 70
     1
  9
$DIMSE1
 70
     0
  9
$DIMSE2
 70
     0
  9
$DIMTAD
 70
     0
  9
$DIMZIN
 70
     0
  9
$DIMBLK
  1

  9
$LUNITS
 70
     2
  9
$LUPREC
 70
     4
  9
$AXISMODE
 70
     0
  9
$AXISUNIT
 10
0.0
 20
0.0
  9
$SKETCHINC
 40
0.1
  9
$FILLETRAD
 40
0.0
  9
$AUNITS
 70
     0
  9
$AUPREC
 70
     0
  9
$MENU
  1
ACAD
  9
$ELEVATION
 40
0.0
  9
$THICKNESS
 40
0.0
  9
$VIEWDIR
 10
0.0
 20
0.0
 30
1.0
  9
$LIMCHECK
 70
     0
  9
$BLIPMODE
 70
     1
  9
$CHAMFERA
 40
0.0
  9
$CHAMFERB
 40
0.0
  9
$FASTZOOM
 70
     1
  9
$SKPOLY
 70
     0
  9
$TDCREATE
 40
2447876.6718287530
  9
$TDUPDATE
 40
2447876.6718287530
  9
$TDINDWG
 40
0.0023379630
  9
$TDUSRTIMER
 40
0.0023379630
  9
$USRTIMER
 70
     1
  9
$ANGBASE
 50
0.0
  9
$ANGDIR
 70
     0
  9
$PDMODE
 70
     0
  9
$PDSIZE
 40
0.0
  9
$PLINEWID
 40
0.0
  9
$COORDS
 70
     0
  9
$USERI1
 70
     0
  9
$USERI2
 70
     0
  9
$USERI3
 70
     0
  9
$USERI4
 70
     0
  9
$USERI5
 70
     0
  9
$USERR1
 40
0.0
  9
$USERR2
 40
0.0
  9
$USERR3
 40
0.0
  9
$USERR4
 40
0.0
  9
$USERR5
 40
0.0
  0
ENDSEC
  0
SECTION
  2
TABLES
  0
TABLE
  2
LTYPE
 70
     3
  0
LTYPE
  2
CONTINUOUS
 70
    64
  3
SOLID
 72
    65
 73
     0
 40
0.0
  0
LTYPE
  2
CENTER
 70
    64
  3
CENTER
 72
    65
 73
     4
 40
2.0
 49
1.25
 49
-0.25
 49
0.25
 49
-0.25
  0
LTYPE
  2
PHANTOM
 70
    64
  3
PHANTOM
 72
    65
 73
     6
 40
2.5
 49
1.25
 49
-0.25
 49
0.25
 49
-0.25
 49
0.25
 49
-0.25
  0
ENDTAB
  0
TABLE
  2
LAYER
 70
     1
  0
LAYER
  2
0
 70
    64
 62
     7
  6
CONTINUOUS
  0
ENDTAB
  0
TABLE
  2
STYLE
 70
     2
  0
STYLE
  2
AAA
 70
     0
 40
0.0
 41
1.0
 50
0.0
 71
     0
 42
0.2
  3
TXT
  4

  0
STYLE
  2
STANDARD
 70
    64
 40
0.0
 41
1.0
 50
0.0
 71
     0
 42
0.2
  3
TXT
  4
BIGFONT
  0
ENDTAB
  0
TABLE
  2
VIEW
 70
     0
  0
ENDTAB
  0
ENDSEC
  0
SECTION
  2
BLOCKS
  0
ENDSEC
  0
SECTION
  2
ENTITIES
  0
POINT
  8
0
  6
CONTINUOUS
 62
     7
 10
-298.0613
 20
1.60017
  0
POINT
  8
0
  6
CONTINUOUS
 62
     7
 10
-313.5613
 20
1.60017
  0
POINT
  8
0
  6
CONTINUOUS
 62
     7
 10
-307.5613
 20
-26.59982
  0
POINT
  8
0
  6
CONTINUOUS
 62
     7
 10
-307.0613
 20
-13.39983
  0
POINT
  8
0
  6
CONTINUOUS
 62
     7
 10
-306.5613
 20
-0.19983
  0
POINT
  8
0
  6
CONTINUOUS
 62
     7
 10
-312.0613
 20
-42.79982
  0
POINT
  8
0
  6
CONTINUOUS
 62
     7
 10
-195.4368
 20
1.60001
  0
POINT
  8
0
  6
CONTINUOUS
 62
     7
 10
-168.4368
 20
1.60001
  0
POINT
  8
0
  6
CONTINUOUS
 62
     7
 10
-172.4368
 20
-42.79999
  0
POINT
  8
0
  6
CONTINUOUS
 62
     7
 10
-168.4368
 20
22.3
  0
POINT
  8
0
  6
CONTINUOUS
 62
     7
 10
-168.4367
 20
150.2775
  0
POINT
  8
0
  6
CONTINUOUS
 62
     7
 10
-195.4367
 20
150.2775
  0
POINT
  8
0
  6
CONTINUOUS
 62
     7
 10
-172.4367
 20
148.7775
  0
POINT
  8
0
  6
CONTINUOUS
 62
     7
 10
-36.3123
 20
1.60005
  0
POINT
  8
0
  6
CONTINUOUS
 62
     7
 10
-42.8123
 20
22.30006
  0
POINT
  8
0
  6
CONTINUOUS
 62
     7
 10
-42.3123
 20
-5.39995
  0
POINT
  8
0
  6
CONTINUOUS
 62
     7
 10
-43.3123
 20
-21.39995
  0
POINT
  8
0
  6
CONTINUOUS
 62
     7
 10
-37.8123
 20
-42.79994
  0
POINT
  8
0
  6
CONTINUOUS
 62
     7
 10
-168.4368
 20
-185.679
  0
POINT
  8
0
  6
CONTINUOUS
 62
     7
 10
-195.4368
 20
-185.679
  0
POINT
  8
0
  6
CONTINUOUS
 62
     7
 10
-172.4368
 20
-184.179
  0
POINT
  8
0
  6
CONTINUOUS
 62
     7
 10
-168.4368
 20
-179.179
  0
POINT
  8
0
  6
CONTINUOUS
 62
     7
 10
175.4372
 20
150.2773
  0
POINT
  8
0
  6
CONTINUOUS
 62
     7
 10
175.4368
 20
1.60002
  0
POINT
  8
0
  6
CONTINUOUS
 62
     7
 10
168.9368
 20
22.30002
  0
POINT
  8
0
  6
CONTINUOUS
 62
     7
 10
68.81204
 20
1.60023
  0
POINT
  8
0
  6
CONTINUOUS
 62
     7
 10
41.81204
 20
1.60023
  0
POINT
  8
0
  6
CONTINUOUS
 62
     7
 10
68.812
 20
22.30023
  0
POINT
  8
0
  6
CONTINUOUS
 62
     7
 10
299.0612
 20
1.60014
  0
POINT
  8
0
  6
CONTINUOUS
 62
     7
 10
272.0612
 20
22.30014
  0
POINT
  8
0
  6
CONTINUOUS
 62
     7
 10
175.437
 20
-185.6791
  0
POINT
  8
0
  6
CONTINUOUS
 62
     7
 10
168.937
 20
-158.6791
  0
LINE
  8
0
  6
CONTINUOUS
 62
     7
 10
218.3292
 20
-225.9564
 11
370.8736
 21
-225.9564
  0
LINE
  8
0
  6
CONTINUOUS
 62
     7
 10
-218.3292
 20
225.9564
 11
-218.3292
 21
254.5585
  0
LINE
  8
0
  6
CONTINUOUS
 62
     7
 10
-370.8736
 20
225.9564
 11
-218.3292
 21
225.9564
  0
LINE
  8
0
  6
CONTINUOUS
 62
     7
 10
-370.8736
 20
254.5585
 11
370.8736
 21
254.5585
  0
LINE
  8
0
  6
CONTINUOUS
 62
     7
 10
-370.8736
 20
-254.5585
 11
370.8736
 21
-254.5585
  0
LINE
  8
0
  6
CONTINUOUS
 62
     7
 10
370.8736
 20
254.5585
 11
370.8736
 21
-254.5585
  0
LINE
  8
0
  6
CONTINUOUS
 62
     7
 10
-370.8736
 20
-254.5585
 11
-370.8736
 21
254.5585
  0
LINE
  8
0
  6
CONTINUOUS
 62
     7
 10
218.3292
 20
-225.9564
 11
218.3292
 21
-254.5585
  0
LINE
  8
0
  6
CONTINUOUS
 62
     7
 10
218.3292
 20
254.5585
 11
218.3292
 21
225.9564
  0
LINE
  8
0
  6
CONTINUOUS
 62
     7
 10
218.3292
 20
225.9564
 11
370.8736
 21
225.9564
  0
LINE
  8
0
  6
CONTINUOUS
 62
     7
 10
258.3816
 20
-232.8337
 11
258.3816
 21
-236.1516
  0
LINE
  8
0
  6
CONTINUOUS
 62
     7
 10
258.3816
 20
-236.1516
 11
270.8235
 21
-236.1516
  0
LINE
  8
0
  6
CONTINUOUS
 62
     7
 10
258.3816
 20
-249.1465
 11
275.2473
 21
-249.1465
  0
LINE
  8
0
  6
CONTINUOUS
 62
     7
 10
258.3816
 20
-245.8286
 11
270.8235
 21
-245.8286
  0
LINE
  8
0
  6
CONTINUOUS
 62
     7
 10
258.3816
 20
-232.8337
 11
273.0354
 21
-232.8337
  0
LINE
  8
0
  6
CONTINUOUS
 62
     7
 10
270.8235
 20
-236.1516
 11
270.8235
 21
-245.8286
  0
LINE
  8
0
  6
CONTINUOUS
 62
     7
 10
275.2473
 20
-235.0457
 11
275.2473
 21
-249.1465
  0
LINE
  8
0
  6
CONTINUOUS
 62
     7
 10
258.3816
 20
-245.8286
 11
258.3816
 21
-249.1465
  0
LINE
  8
0
  6
CONTINUOUS
 62
     7
 10
293.4954
 20
-236.1516
 11
293.4954
 21
-246.9346
  0
LINE
  8
0
  6
CONTINUOUS
 62
     7
 10
277.7357
 20
-232.8337
 11
277.7357
 21
-236.1516
  0
LINE
  8
0
  6
CONTINUOUS
 62
     7
 10
293.9378
 20
-232.585
 11
295.5138
 21
-232.585
  0
LINE
  8
0
  6
CONTINUOUS
 62
     7
 10
293.9378
 20
-230.373
 11
295.5138
 21
-230.373
  0
LINE
  8
0
  6
CONTINUOUS
 62
     7
 10
295.5138
 20
-230.373
 11
295.5138
 21
-232.585
  0
LINE
  8
0
  6
CONTINUOUS
 62
     7
 10
293.9378
 20
-230.373
 11
293.9378
 21
-232.585
  0
LINE
  8
0
  6
CONTINUOUS
 62
     7
 10
293.1083
 20
-230.373
 11
293.1083
 21
-232.585
  0
LINE
  8
0
  6
CONTINUOUS
 62
     7
 10
282.7661
 20
-230.373
 11
286.2009
 21
-230.373
  0
LINE
  8
0
  6
CONTINUOUS
 62
     7
 10
285.5413
 20
-232.8335
 11
286.2006
 21
-230.3727
  0
LINE
  8
0
  6
CONTINUOUS
 62
     7
 10
282.1067
 20
-232.8337
 11
282.766
 21
-230.373
  0
LINE
  8
0
  6
CONTINUOUS
 62
     7
 10
285.5416
 20
-232.8337
 11
290.1776
 21
-232.8337
  0
LINE
  8
0
  6
CONTINUOUS
 62
     7
 10
284.6526
 20
-236.1516
 11
289.0716
 21
-236.1516
  0
LINE
  8
0
  6
CONTINUOUS
 62
     7
 10
286.6429
 20
-249.1465
 11
291.2836
 21
-249.1465
  0
LINE
  8
0
  6
CONTINUOUS
 62
     7
 10
285.7537
 20
-245.8286
 11
286.6427
 21
-249.1463
  0
LINE
  8
0
  6
CONTINUOUS
 62
     7
 10
285.7538
 20
-245.8286
 11
289.0716
 21
-245.8286
  0
LINE
  8
0
  6
CONTINUOUS
 62
     7
 10
281.1707
 20
-249.1466
 11
284.6527
 21
-236.1517
  0
LINE
  8
0
  6
CONTINUOUS
 62
     7
 10
277.7357
 20
-236.1516
 11
281.2177
 21
-236.1516
  0
LINE
  8
0
  6
CONTINUOUS
 62
     7
 10
277.7354
 20
-249.1462
 11
281.2175
 21
-236.1513
  0
LINE
  8
0
  6
CONTINUOUS
 62
     7
 10
277.7357
 20
-249.1465
 11
281.1706
 21
-249.1465
  0
LINE
  8
0
  6
CONTINUOUS
 62
     7
 10
277.7357
 20
-232.8337
 11
282.1067
 21
-232.8337
  0
LINE
  8
0
  6
CONTINUOUS
 62
     7
 10
289.0716
 20
-236.1516
 11
289.0716
 21
-245.8286
  0
LINE
  8
0
  6
CONTINUOUS
 62
     7
 10
291.5323
 20
-230.373
 11
293.1083
 21
-230.373
  0
LINE
  8
0
  6
CONTINUOUS
 62
     7
 10
291.5323
 20
-232.585
 11
293.1083
 21
-232.585
  0
LINE
  8
0
  6
CONTINUOUS
 62
     7
 10
291.5323
 20
-230.373
 11
291.5323
 21
-232.585
  0
LINE
  8
0
  6
CONTINUOUS
 62
     7
 10
301.5135
 20
-230.373
 11
305.9373
 21
-230.373
  0
LINE
  8
0
  6
CONTINUOUS
 62
     7
 10
308.3423
 20
-240.1951
 11
311.2962
 21
-238.8176
  0
LINE
  8
0
  6
CONTINUOUS
 62
     7
 10
305.9373
 20
-242.7344
 11
305.9373
 21
-249.1465
  0
LINE
  8
0
  6
CONTINUOUS
 62
     7
 10
301.5135
 20
-243.379
 11
301.5135
 21
-249.1465
  0
LINE
  8
0
  6
CONTINUOUS
 62
     7
 10
305.9373
 20
-232.8337
 11
310.3611
 21
-232.8337
  0
LINE
  8
0
  6
CONTINUOUS
 62
     7
 10
305.9373
 20
-230.373
 11
305.9373
 21
-232.8337
  0
LINE
  8
0
  6
CONTINUOUS
 62
     7
 10
301.5135
 20
-230.373
 11
301.5135
 21
-232.8337
  0
LINE
  8
0
  6
CONTINUOUS
 62
     7
 10
312.573
 20
-235.0457
 11
312.573
 21
-236.8128
  0
LINE
  8
0
  6
CONTINUOUS
 62
     7
 10
308.3424
 20
-240.195
 11
312.5734
 21
-242.168
  0
LINE
  8
0
  6
CONTINUOUS
 62
     7
 10
305.9373
 20
-242.7343
 11
312.5731
 21
-245.8286
  0
LINE
  8
0
  6
CONTINUOUS
 62
     7
 10
296.2603
 20
-242.1678
 11
296.2603
 21
-245.8286
  0
LINE
  8
0
  6
CONTINUOUS
 62
     7
 10
296.2607
 20
-242.1682
 11
309.1626
 21
-236.1519
  0
LINE
  8
0
  6
CONTINUOUS
 62
     7
 10
296.2603
 20
-245.8286
 11
301.5136
 21
-243.3789
  0
LINE
  8
0
  6
CONTINUOUS
 62
     7
 10
312.573
 20
-242.1678
 11
312.573
 21
-245.8286
  0
LINE
  8
0
  6
CONTINUOUS
 62
     7
 10
296.2603
 20
-232.8337
 11
296.2603
 21
-236.1516
  0
LINE
  8
0
  6
CONTINUOUS
 62
     7
 10
301.5135
 20
-249.1465
 11
305.9373
 21
-249.1465
  0
LINE
  8
0
  6
CONTINUOUS
 62
     7
 10
296.2603
 20
-236.1516
 11
309.1621
 21
-236.1516
  0
LINE
  8
0
  6
CONTINUOUS
 62
     7
 10
296.2603
 20
-232.8337
 11
301.5135
 21
-232.8337
  0
LINE
  8
0
  6
CONTINUOUS
 62
     7
 10
327.504
 20
-236.4047
 11
328.73
 21
-235.9171
  0
LINE
  8
0
  6
CONTINUOUS
 62
     7
 10
327.5034
 20
-236.4044
 11
327.5034
 21
-249.1465
  0
LINE
  8
0
  6
CONTINUOUS
 62
     7
 10
323.0795
 20
-249.1465
 11
327.5034
 21
-249.1465
  0
LINE
  8
0
  6
CONTINUOUS
 62
     7
 10
313.9553
 20
-241.7925
 11
323.0794
 21
-238.1637
  0
LINE
  8
0
  6
CONTINUOUS
 62
     7
 10
313.9555
 20
-238.222
 11
326.8062
 21
-233.1111
  0
LINE
  8
0
  6
CONTINUOUS
 62
     7
 10
323.0795
 20
-238.1638
 11
323.0795
 21
-249.1465
  0
LINE
  8
0
  6
CONTINUOUS
 62
     7
 10
327.5034
 20
-231.3684
 11
327.5034
 21
-232.0834
  0
LINE
  8
0
  6
CONTINUOUS
 62
     7
 10
330.8211
 20
-231.3684
 11
330.8211
 21
-232.8338
  0
LINE
  8
0
  6
CONTINUOUS
 62
     7
 10
313.9554
 20
-238.2219
 11
313.9554
 21
-241.7925
  0
LINE
  8
0
  6
CONTINUOUS
 62
     7
 10
327.5034
 20
-231.3684
 11
330.8211
 21
-231.3684
  0
LINE
  8
0
  6
CONTINUOUS
 62
     7
 10
0.0
 20
254.5585
 11
0.0
 21
-254.5585
  0
LINE
  8
0
  6
CONTINUOUS
 62
     7
 10
-169.4367
 20
136.7775
 11
-169.4367
 21
135.7775
  0
LINE
  8
0
  6
CONTINUOUS
 62
     7
 10
-168.4367
 20
150.7775
 11
-168.4367
 21
152.2775
  0
LINE
  8
0
  6
CENTER
 62
     2
 10
-197.833
 20
143.7775
 11
-157.6356
 21
143.7775
  0
LINE
  8
0
  6
CONTINUOUS
 62
     7
 10
-194.9367
 20
152.7775
 11
-168.9367
 21
152.7775
  0
LINE
  8
0
  6
CONTINUOUS
 62
     7
 10
-194.9367
 20
134.7775
 11
-168.9367
 21
134.7775
  0
LINE
  8
0
  6
CONTINUOUS
 62
     7
 10
-168.4367
 20
135.2775
 11
-168.4367
 21
136.7775
  0
LINE
  8
0
  6
CONTINUOUS
 62
     7
 10
-195.4367
 20
135.2775
 11
-195.4367
 21
152.2775
  0
LINE
  8
0
  6
CENTER
 62
     2
 10
-181.9367
 20
132.0275
 11
-181.9367
 21
156.005
  0
LINE
  8
0
  6
CONTINUOUS
 62
     7
 10
-194.4367
 20
151.7775
 11
-169.4367
 21
151.7775
  0
LINE
  8
0
  6
CONTINUOUS
 62
     7
 10
-194.4367
 20
135.7775
 11
-169.4367
 21
135.7775
  0
LINE
  8
0
  6
CONTINUOUS
 62
     7
 10
-194.4367
 20
151.7775
 11
-194.4367
 21
135.7775
  0
LINE
  8
0
  6
CONTINUOUS
 62
     7
 10
-169.4367
 20
151.7775
 11
-169.4367
 21
150.7775
  0
LINE
  8
0
  6
CONTINUOUS
 62
     7
 10
-169.4368
 20
135.7774
 11
-168.5833
 21
134.9238
  0
LINE
  8
0
  6
CONTINUOUS
 62
     7
 10
-194.4368
 20
135.7775
 11
-195.2903
 21
134.9239
  0
LINE
  8
0
  6
CONTINUOUS
 62
     7
 10
-169.4367
 20
151.7776
 11
-168.5831
 21
152.6311
  0
LINE
  8
0
  6
CONTINUOUS
 62
     7
 10
-194.4367
 20
151.7776
 11
-195.2902
 21
152.6311
  0
LINE
  8
0
  6
CONTINUOUS
 62
     7
 10
-172.9367
 20
142.2775
 11
-169.9367
 21
142.2775
  0
LINE
  8
0
  6
CONTINUOUS
 62
     7
 10
-190.9367
 20
145.2775
 11
-193.9367
 21
145.2775
  0
LINE
  8
0
  6
CONTINUOUS
 62
     7
 10
-187.9367
 20
148.2775
 11
-187.9367
 21
151.2775
  0
LINE
  8
0
  6
CONTINUOUS
 62
     7
 10
-175.9367
 20
139.2775
 11
-175.9367
 21
136.2775
  0
LINE
  8
0
  6
CONTINUOUS
 62
     7
 10
-192.9367
 20
145.2775
 11
-192.9367
 21
137.2775
  0
LINE
  8
0
  6
CONTINUOUS
 62
     7
 10
-170.9367
 20
150.2775
 11
-170.9367
 21
142.2775
  0
LINE
  8
0
  6
CONTINUOUS
 62
     7
 10
-187.9367
 20
150.2775
 11
-170.9367
 21
150.2775
  0
LINE
  8
0
  6
CONTINUOUS
 62
     7
 10
-192.9367
 20
137.2775
 11
-175.9367
 21
137.2775
  0
LINE
  8
0
  6
CONTINUOUS
 62
     7
 10
-172.6367
 20
137.0476
 11
-172.6367
 21
136.7453
  0
LINE
  8
0
  6
CONTINUOUS
 62
     7
 10
-173.2367
 20
137.0476
 11
-173.2367
 21
136.7453
  0
LINE
  8
0
  6
CONTINUOUS
 62
     7
 10
-173.3975
 20
136.7695
 11
-173.3975
 21
137.0752
  0
LINE
  8
0
  6
CONTINUOUS
 62
     7
 10
-191.2367
 20
150.5075
 11
-191.2367
 21
150.8098
  0
LINE
  8
0
  6
CONTINUOUS
 62
     7
 10
-190.6367
 20
150.5075
 11
-190.6367
 21
150.8098
  0
LINE
  8
0
  6
CONTINUOUS
 62
     7
 10
-190.4759
 20
150.7856
 11
-190.4759
 21
150.4798
  0
LINE
  8
0
  6
CONTINUOUS
 62
     7
 10
-174.0398
 20
138.5422
 11
-173.6721
 21
138.9099
  0
LINE
  8
0
  6
CONTINUOUS
 62
     7
 10
-173.6721
 20
138.1745
 11
-173.3044
 21
138.5422
  0
LINE
  8
0
  6
CONTINUOUS
 62
     7
 10
-174.0398
 20
138.5422
 11
-173.6721
 21
138.1745
  0
LINE
  8
0
  6
CONTINUOUS
 62
     7
 10
-172.2013
 20
140.3807
 11
-171.8336
 21
140.013
  0
LINE
  8
0
  6
CONTINUOUS
 62
     7
 10
-174.7009
 20
140.6741
 11
-173.6721
 21
139.6453
  0
LINE
  8
0
  6
CONTINUOUS
 62
     7
 10
-174.3332
 20
141.0418
 11
-173.3044
 21
140.013
  0
LINE
  8
0
  6
CONTINUOUS
 62
     7
 10
-172.569
 20
140.013
 11
-172.2013
 21
140.3807
  0
LINE
  8
0
  6
CONTINUOUS
 62
     7
 10
-172.2014
 20
139.6453
 11
-171.8336
 21
140.013
  0
LINE
  8
0
  6
CONTINUOUS
 62
     7
 10
-172.569
 20
138.5422
 11
-171.5402
 21
137.5134
  0
LINE
  8
0
  6
CONTINUOUS
 62
     7
 10
-172.2013
 20
138.9099
 11
-171.1725
 21
137.8811
  0
LINE
  8
0
  6
CONTINUOUS
 62
     7
 10
-192.0398
 20
147.5422
 11
-191.6721
 21
147.9099
  0
LINE
  8
0
  6
CONTINUOUS
 62
     7
 10
-191.6721
 20
147.1745
 11
-191.3044
 21
147.5422
  0
LINE
  8
0
  6
CONTINUOUS
 62
     7
 10
-192.0398
 20
147.5422
 11
-191.6721
 21
147.1745
  0
LINE
  8
0
  6
CONTINUOUS
 62
     7
 10
-190.2013
 20
149.3807
 11
-189.8336
 21
149.013
  0
LINE
  8
0
  6
CONTINUOUS
 62
     7
 10
-192.7009
 20
149.6741
 11
-191.6721
 21
148.6453
  0
LINE
  8
0
  6
CONTINUOUS
 62
     7
 10
-192.3332
 20
150.0418
 11
-191.3044
 21
149.013
  0
LINE
  8
0
  6
CONTINUOUS
 62
     7
 10
-190.569
 20
149.013
 11
-190.2014
 21
149.3807
  0
LINE
  8
0
  6
CONTINUOUS
 62
     7
 10
-190.2014
 20
148.6453
 11
-189.8337
 21
149.013
  0
LINE
  8
0
  6
CONTINUOUS
 62
     7
 10
-190.569
 20
147.5422
 11
-189.5402
 21
146.5134
  0
LINE
  8
0
  6
CONTINUOUS
 62
     7
 10
-190.2013
 20
147.9099
 11
-189.1725
 21
146.8811
  0
LINE
  8
0
  6
CONTINUOUS
 62
     7
 10
-164.7367
 20
149.2775
 11
-164.7367
 21
147.7775
  0
LINE
  8
0
  6
CONTINUOUS
 62
     7
 10
-161.9367
 20
147.7775
 11
-161.9367
 21
139.7775
  0
LINE
  8
0
  6
CONTINUOUS
 62
     7
 10
-164.7367
 20
149.2775
 11
-166.5367
 21
149.2775
  0
LINE
  8
0
  6
CONTINUOUS
 62
     7
 10
-164.7367
 20
138.2775
 11
-166.5367
 21
138.2775
  0
LINE
  8
0
  6
CONTINUOUS
 62
     7
 10
-163.9368
 20
147.7775
 11
-163.6367
 21
147.4775
  0
LINE
  8
0
  6
CONTINUOUS
 62
     7
 10
-163.9367
 20
139.7776
 11
-163.6367
 21
140.0776
  0
LINE
  8
0
  6
CONTINUOUS
 62
     7
 10
-166.5367
 20
147.7775
 11
-168.9367
 21
147.7775
  0
LINE
  8
0
  6
CONTINUOUS
 62
     7
 10
-166.5367
 20
139.7775
 11
-168.9367
 21
139.7775
  0
LINE
  8
0
  6
CONTINUOUS
 62
     7
 10
-164.7367
 20
139.7775
 11
-164.7367
 21
138.2775
  0
LINE
  8
0
  6
CENTER
 62
     2
 10
-165.4367
 20
147.7276
 11
-165.4367
 21
139.8276
  0
LINE
  8
0
  6
CENTER
 62
     2
 10
-164.0867
 20
146.2775
 11
-166.8867
 21
146.2775
  0
LINE
  8
0
  6
CENTER
 62
     2
 10
-164.0867
 20
141.2775
 11
-166.8867
 21
141.2775
  0
LINE
  8
0
  6
CONTINUOUS
 62
     7
 10
-164.4867
 20
147.2276
 11
-164.4867
 21
145.3276
  0
LINE
  8
0
  6
CONTINUOUS
 62
     7
 10
-166.3867
 20
147.2276
 11
-166.3867
 21
145.3276
  0
LINE
  8
0
  6
CONTINUOUS
 62
     7
 10
-164.2867
 20
147.2275
 11
-166.3867
 21
147.2275
  0
LINE
  8
0
  6
CONTINUOUS
 62
     7
 10
-164.2867
 20
145.3275
 11
-166.3867
 21
145.3275
  0
LINE
  8
0
  6
CONTINUOUS
 62
     7
 10
-164.2867
 20
144.7275
 11
-166.3867
 21
144.7275
  0
LINE
  8
0
  6
CONTINUOUS
 62
     7
 10
-164.2867
 20
142.8275
 11
-166.3867
 21
142.8275
  0
LINE
  8
0
  6
CONTINUOUS
 62
     7
 10
-164.2867
 20
140.3275
 11
-166.3867
 21
140.3275
  0
LINE
  8
0
  6
CONTINUOUS
 62
     7
 10
-164.2867
 20
142.2275
 11
-166.3867
 21
142.2275
  0
LINE
  8
0
  6
CONTINUOUS
 62
     7
 10
-164.4867
 20
144.7276
 11
-164.4867
 21
142.8276
  0
LINE
  8
0
  6
CONTINUOUS
 62
     7
 10
-166.3867
 20
144.7276
 11
-166.3867
 21
142.8276
  0
LINE
  8
0
  6
CONTINUOUS
 62
     7
 10
-166.3867
 20
142.2276
 11
-166.3867
 21
140.3276
  0
LINE
  8
0
  6
CONTINUOUS
 62
     7
 10
-164.4867
 20
142.2276
 11
-164.4867
 21
140.3276
  0
LINE
  8
0
  6
CONTINUOUS
 62
     7
 10
-163.6367
 20
147.4776
 11
-163.6367
 21
140.0775
  0
LINE
  8
0
  6
CONTINUOUS
 62
     7
 10
-160.9367
 20
147.7775
 11
-160.9367
 21
139.7775
  0
LINE
  8
0
  6
CONTINUOUS
 62
     7
 10
-160.9367
 20
139.7775
 11
-164.7367
 21
139.7775
  0
LINE
  8
0
  6
CONTINUOUS
 62
     7
 10
-160.9367
 20
147.7775
 11
-164.7367
 21
147.7775
  0
LINE
  8
0
  6
CONTINUOUS
 62
     7
 10
-164.2867
 20
147.2276
 11
-164.2867
 21
145.3276
  0
LINE
  8
0
  6
CONTINUOUS
 62
     7
 10
-164.2867
 20
144.7276
 11
-164.2867
 21
142.8276
  0
LINE
  8
0
  6
CONTINUOUS
 62
     7
 10
-164.2867
 20
142.2276
 11
-164.2867
 21
140.3276
  0
LINE
  8
0
  6
CONTINUOUS
 62
     7
 10
-166.6867
 20
146.7775
 11
-166.6867
 21
145.7775
  0
LINE
  8
0
  6
CONTINUOUS
 62
     7
 10
-166.6867
 20
144.2775
 11
-166.6867
 21
143.2775
  0
LINE
  8
0
  6
CONTINUOUS
 62
     7
 10
-166.6867
 20
141.7775
 11
-166.6867
 21
140.7775
  0
LINE
  8
0
  6
CONTINUOUS
 62
     7
 10
-166.3867
 20
146.7775
 11
-166.6867
 21
146.7775
  0
LINE
  8
0
  6
CONTINUOUS
 62
     7
 10
-166.3867
 20
145.7775
 11
-166.6867
 21
145.7775
  0
LINE
  8
0
  6
CONTINUOUS
 62
     7
 10
-166.3867
 20
144.2775
 11
-166.6867
 21
144.2775
  0
LINE
  8
0
  6
CONTINUOUS
 62
     7
 10
-166.3867
 20
143.2775
 11
-166.6867
 21
143.2775
  0
LINE
  8
0
  6
CONTINUOUS
 62
     7
 10
-166.3867
 20
140.7775
 11
-166.6867
 21
140.7775
  0
LINE
  8
0
  6
CONTINUOUS
 62
     7
 10
-166.3867
 20
141.7775
 11
-166.6867
 21
141.7775
  0
LINE
  8
0
  6
CONTINUOUS
 62
     7
 10
-167.8117
 20
146.7775
 11
-167.8117
 21
145.7775
  0
LINE
  8
0
  6
CONTINUOUS
 62
     7
 10
-167.3117
 20
146.2775
 11
-168.3117
 21
146.2775
  0
LINE
  8
0
  6
CONTINUOUS
 62
     7
 10
-167.8117
 20
141.7775
 11
-167.8117
 21
140.7775
  0
LINE
  8
0
  6
CENTER
 62
     2
 10
-172.9367
 20
143.2775
 11
-172.9367
 21
135.2775
  0
LINE
  8
0
  6
CENTER
 62
     2
 10
-190.9367
 20
152.2775
 11
-190.9367
 21
144.2775
  0
LINE
  8
0
  6
CENTER
 62
     2
 10
-194.9367
 20
148.2775
 11
-186.9367
 21
148.2775
  0
LINE
  8
0
  6
CENTER
 62
     2
 10
-176.9367
 20
139.2775
 11
-168.9367
 21
139.2775
  0
LINE
  8
0
  6
CONTINUOUS
 62
     7
 10
-162.9367
 20
150.7775
 11
-162.9367
 21
136.7775
  0
LINE
  8
0
  6
CONTINUOUS
 62
     7
 10
-164.5367
 20
149.4776
 11
-164.5367
 21
147.9776
  0
LINE
  8
0
  6
CONTINUOUS
 62
     7
 10
-166.5367
 20
149.4776
 11
-166.5367
 21
147.7775
  0
LINE
  8
0
  6
CONTINUOUS
 62
     7
 10
-168.9367
 20
147.9776
 11
-168.9367
 21
139.5775
  0
LINE
  8
0
  6
CONTINUOUS
 62
     7
 10
-168.9367
 20
147.9776
 11
-166.5367
 21
147.9776
  0
LINE
  8
0
  6
CONTINUOUS
 62
     7
 10
-168.9367
 20
139.5775
 11
-166.5367
 21
139.5775
  0
LINE
  8
0
  6
CONTINUOUS
 62
     7
 10
-166.5367
 20
138.0775
 11
-164.5367
 21
138.0775
  0
LINE
  8
0
  6
CONTINUOUS
 62
     7
 10
-166.5367
 20
149.4776
 11
-164.5367
 21
149.4776
  0
LINE
  8
0
  6
CONTINUOUS
 62
     7
 10
-166.5367
 20
139.7775
 11
-166.5367
 21
138.0775
  0
LINE
  8
0
  6
CONTINUOUS
 62
     7
 10
-164.5367
 20
139.5775
 11
-164.5367
 21
138.0775
  0
LINE
  8
0
  6
CONTINUOUS
 62
     7
 10
-164.5367
 20
147.9776
 11
-162.9367
 21
147.9776
  0
LINE
  8
0
  6
CONTINUOUS
 62
     7
 10
-164.5367
 20
139.5775
 11
-162.9367
 21
139.5775
  0
LINE
  8
0
  6
CONTINUOUS
 62
     7
 10
-163.9367
 20
147.9776
 11
-163.9367
 21
139.5775
  0
LINE
  8
0
  6
CONTINUOUS
 62
     7
 10
-193.9367
 20
150.7775
 11
-193.9367
 21
136.7775
  0
LINE
  8
0
  6
CONTINUOUS
 62
     7
 10
-193.4367
 20
151.2775
 11
-169.9367
 21
151.2775
  0
LINE
  8
0
  6
CONTINUOUS
 62
     7
 10
-193.4367
 20
136.2775
 11
-169.9367
 21
136.2775
  0
LINE
  8
0
  6
CONTINUOUS
 62
     7
 10
-169.9367
 20
151.2775
 11
-169.9367
 21
136.2775
  0
LINE
  8
0
  6
CONTINUOUS
 62
     7
 10
-169.9367
 20
150.7775
 11
-160.7367
 21
150.7775
  0
LINE
  8
0
  6
CONTINUOUS
 62
     7
 10
-159.9367
 20
149.9776
 11
-159.9367
 21
137.5775
  0
LINE
  8
0
  6
CONTINUOUS
 62
     7
 10
-169.9367
 20
136.7775
 11
-160.7367
 21
136.7775
  0
LINE
  8
0
  6
CONTINUOUS
 62
     7
 10
-161.4367
 20
148.7775
 11
-161.4367
 21
147.7775
  0
LINE
  8
0
  6
CONTINUOUS
 62
     7
 10
-160.7367
 20
148.2775
 11
-160.7367
 21
139.2775
  0
LINE
  8
0
  6
CONTINUOUS
 62
     7
 10
-162.9367
 20
149.2775
 11
-161.9367
 21
149.2775
  0
LINE
  8
0
  6
CONTINUOUS
 62
     7
 10
-162.9367
 20
138.2775
 11
-161.9367
 21
138.2775
  0
LINE
  8
0
  6
CONTINUOUS
 62
     7
 10
-161.4367
 20
148.2775
 11
-160.7367
 21
148.2775
  0
LINE
  8
0
  6
CONTINUOUS
 62
     7
 10
-161.4367
 20
139.2775
 11
-160.7367
 21
139.2775
  0
LINE
  8
0
  6
CONTINUOUS
 62
     7
 10
-161.4367
 20
139.7775
 11
-161.4367
 21
138.7775
  0
LINE
  8
0
  6
CENTER
 62
     2
 10
-181.9368
 20
57.35002
 11
-181.9368
 21
-46.14999
  0
LINE
  8
0
  6
CONTINUOUS
 62
     7
 10
-168.4368
 20
24.8
 11
-168.4368
 21
-42.29999
  0
LINE
  8
0
  6
CONTINUOUS
 62
     7
 10
-195.4368
 20
24.8
 11
-195.4368
 21
-42.29999
  0
LINE
  8
0
  6
CONTINUOUS
 62
     7
 10
-194.9368
 20
-42.79999
 11
-168.9368
 21
-42.79999
  0
LINE
  8
0
  6
CONTINUOUS
 62
     7
 10
-195.4368
 20
-34.39999
 11
-168.4368
 21
-34.39999
  0
LINE
  8
0
  6
CONTINUOUS
 62
     7
 10
-195.4368
 20
7.60002
 11
-168.4368
 21
7.60002
  0
LINE
  8
0
  6
CONTINUOUS
 62
     7
 10
-194.4368
 20
25.79997
 11
-195.4368
 21
24.79997
  0
LINE
  8
0
  6
CONTINUOUS
 62
     7
 10
-169.4368
 20
25.79999
 11
-168.4368
 21
24.79999
  0
LINE
  8
0
  6
CONTINUOUS
 62
     7
 10
-171.4368
 20
-26.74168
 11
-168.4368
 21
-26.74168
  0
LINE
  8
0
  6
CONTINUOUS
 62
     7
 10
-171.4368
 20
-30.0583
 11
-168.4368
 21
-30.0583
  0
LINE
  8
0
  6
CONTINUOUS
 62
     7
 10
-171.4368
 20
-26.74168
 11
-171.4368
 21
-30.0583
  0
LINE
  8
0
  6
CONTINUOUS
 62
     7
 10
-194.4368
 20
25.8
 11
-160.7368
 21
25.8
  0
LINE
  8
0
  6
CENTER
 62
     2
 10
-171.4368
 20
-38.5247
 11
-171.4368
 21
-43.97221
  0
LINE
  8
0
  6
CONTINUOUS
 62
     7
 10
-174.1368
 20
-39.39999
 11
-168.9368
 21
-39.39999
  0
LINE
  8
0
  6
CONTINUOUS
 62
     7
 10
-174.6368
 20
-39.89999
 11
-174.6368
 21
-42.29999
  0
LINE
  8
0
  6
CONTINUOUS
 62
     7
 10
-174.2368
 20
-40.57181
 11
-174.2368
 21
-39.39998
  0
LINE
  8
0
  6
CONTINUOUS
 62
     7
 10
-168.6368
 20
-40.57182
 11
-168.6368
 21
-39.40001
  0
LINE
  8
0
  6
CONTINUOUS
 62
     7
 10
-195.4368
 20
24.8
 11
-168.4368
 21
24.8
  0
LINE
  8
0
  6
CENTER
 62
     2
 10
-177.4368
 20
-28.39999
 11
-167.4086
 21
-28.39999
  0
LINE
  8
0
  6
CENTER
 62
     2
 10
-177.4368
 20
1.60001
 11
-171.1034
 21
1.60001
  0
LINE
  8
0
  6
CENTER
 62
     2
 10
-174.4368
 20
5.13335
 11
-174.4368
 21
-1.53333
  0
LINE
  8
0
  6
CENTER
 62
     2
 10
-174.4368
 20
-24.86665
 11
-174.4368
 21
-31.86665
  0
LINE
  8
0
  6
PHANTOM
 62
     2
 10
-162.5868
 20
65.2599
 11
-168.2868
 21
66.78722
  0
LINE
  8
0
  6
PHANTOM
 62
     2
 10
-162.5868
 20
66.81289
 11
-168.2868
 21
68.3402
  0
LINE
  8
0
  6
CONTINUOUS
 62
     7
 10
-164.5868
 20
67.34871
 11
-164.5868
 21
71.8
  0
LINE
  8
0
  6
CONTINUOUS
 62
     7
 10
-166.2868
 20
67.80421
 11
-166.2868
 21
71.8
  0
LINE
  8
0
  6
CONTINUOUS
 62
     7
 10
-193.9368
 20
51.00002
 11
-169.9368
 21
51.00002
  0
LINE
  8
0
  6
CENTER
 62
     2
 10
-190.9368
 20
57.00002
 11
-190.9368
 21
48.00002
  0
LINE
  8
0
  6
CONTINUOUS
 62
     7
 10
-169.9368
 20
52.00002
 11
-169.9368
 21
25.8
  0
LINE
  8
0
  6
CONTINUOUS
 62
     7
 10
-171.111
 20
54.00002
 11
-170.9368
 21
54.00002
  0
LINE
  8
0
  6
CONTINUOUS
 62
     7
 10
-175.1868
 20
53.29375
 11
-175.1868
 21
52.59999
  0
LINE
  8
0
  6
CONTINUOUS
 62
     7
 10
-170.6868
 20
53.29375
 11
-170.6868
 21
52.60002
  0
LINE
  8
0
  6
CONTINUOUS
 62
     7
 10
-175.4868
 20
52.60002
 11
-175.4868
 21
52.00002
  0
LINE
  8
0
  6
CONTINUOUS
 62
     7
 10
-170.3868
 20
52.59999
 11
-170.3868
 21
52.00002
  0
LINE
  8
0
  6
CONTINUOUS
 62
     7
 10
-172.6367
 20
52.60005
 11
-172.4759
 21
52.00006
  0
LINE
  8
0
  6
CONTINUOUS
 62
     7
 10
-173.2368
 20
52.00001
 11
-173.3976
 21
52.60002
  0
LINE
  8
0
  6
CONTINUOUS
 62
     7
 10
-170.3868
 20
52.60002
 11
-175.4868
 21
52.60002
  0
LINE
  8
0
  6
CENTER
 62
     2
 10
-172.9368
 20
57.00002
 11
-172.9368
 21
48.00002
  0
LINE
  8
0
  6
CONTINUOUS
 62
     7
 10
-175.9368
 20
54.00002
 11
-175.9368
 21
52.00002
  0
LINE
  8
0
  6
CONTINUOUS
 62
     7
 10
-169.9368
 20
51.99998
 11
-170.9368
 21
53.99998
  0
LINE
  8
0
  6
CONTINUOUS
 62
     7
 10
-193.9367
 20
52.00001
 11
-192.9368
 21
54.0
  0
LINE
  8
0
  6
CONTINUOUS
 62
     7
 10
-193.9368
 20
52.00002
 11
-169.9368
 21
52.00002
  0
LINE
  8
0
  6
CONTINUOUS
 62
     7
 10
-193.9368
 20
52.00002
 11
-193.9368
 21
25.8
  0
LINE
  8
0
  6
CONTINUOUS
 62
     7
 10
-192.9368
 20
54.00002
 11
-174.7626
 21
54.00002
  0
LINE
  8
0
  6
CONTINUOUS
 62
     7
 10
-169.9368
 20
51.8
 11
-162.9368
 21
51.8
  0
LINE
  8
0
  6
CONTINUOUS
 62
     7
 10
-159.9368
 20
46.00002
 11
-159.9368
 21
26.60002
  0
LINE
  8
0
  6
CONTINUOUS
 62
     7
 10
-169.9368
 20
46.8
 11
-160.7368
 21
46.8
  0
LINE
  8
0
  6
CONTINUOUS
 62
     7
 10
-160.9368
 20
61.8
 11
-161.9368
 21
61.8
  0
LINE
  8
0
  6
CONTINUOUS
 62
     7
 10
-167.9368
 20
60.3
 11
-168.9368
 21
60.3
  0
LINE
  8
0
  6
CONTINUOUS
 62
     7
 10
-168.9368
 20
61.8
 11
-168.9368
 21
60.3
  0
LINE
  8
0
  6
CONTINUOUS
 62
     7
 10
-167.9368
 20
60.3
 11
-167.9368
 21
53.8
  0
LINE
  8
0
  6
CONTINUOUS
 62
     7
 10
-166.5368
 20
61.8
 11
-166.5368
 21
51.8
  0
LINE
  8
0
  6
CONTINUOUS
 62
     7
 10
-164.7368
 20
61.8
 11
-164.7368
 21
51.8
  0
LINE
  8
0
  6
CONTINUOUS
 62
     7
 10
-161.9368
 20
46.8
 11
-161.9368
 21
54.12874
  0
LINE
  8
0
  6
CONTINUOUS
 62
     7
 10
-160.9368
 20
61.8
 11
-160.9368
 21
59.8
  0
LINE
  8
0
  6
CONTINUOUS
 62
     7
 10
-161.9368
 20
61.8
 11
-161.9368
 21
60.3
  0
LINE
  8
0
  6
CONTINUOUS
 62
     7
 10
-160.9368
 20
59.80001
 11
-161.9368
 21
54.12874
  0
LINE
  8
0
  6
CONTINUOUS
 62
     7
 10
-161.9368
 20
60.30001
 11
-162.9368
 21
54.62873
  0
LINE
  8
0
  6
CONTINUOUS
 62
     7
 10
-163.9368
 20
51.8
 11
-163.9368
 21
52.3
  0
LINE
  8
0
  6
CONTINUOUS
 62
     7
 10
-167.9368
 20
53.8
 11
-168.9368
 21
53.8
  0
LINE
  8
0
  6
CONTINUOUS
 62
     7
 10
-163.637
 20
61.49982
 11
-163.937
 21
61.79981
  0
LINE
  8
0
  6
CONTINUOUS
 62
     7
 10
-163.9368
 20
55.30005
 11
-163.6368
 21
55.60005
  0
LINE
  8
0
  6
CONTINUOUS
 62
     7
 10
-163.6368
 20
55.60002
 11
-163.6368
 21
61.50002
  0
LINE
  8
0
  6
CONTINUOUS
 62
     7
 10
-162.9368
 20
54.3
 11
-162.9368
 21
54.62874
  0
LINE
  8
0
  6
CONTINUOUS
 62
     7
 10
-163.9368
 20
54.3
 11
-163.9368
 21
61.8
  0
LINE
  8
0
  6
CONTINUOUS
 62
     7
 10
-163.9368
 20
61.8
 11
-168.9368
 21
61.8
  0
LINE
  8
0
  6
CENTER
 62
     2
 10
-165.4368
 20
58.8
 11
-165.4368
 21
84.8
  0
LINE
  8
0
  6
CONTINUOUS
 62
     7
 10
-166.2868
 20
61.8
 11
-166.2868
 21
66.2513
  0
LINE
  8
0
  6
CONTINUOUS
 62
     7
 10
-164.5868
 20
61.8
 11
-164.5868
 21
65.79579
  0
LINE
  8
0
  6
CONTINUOUS
 62
     7
 10
-165.1168
 20
71.8
 11
-165.1168
 21
81.8
  0
LINE
  8
0
  6
CONTINUOUS
 62
     7
 10
-165.7568
 20
71.8
 11
-165.7568
 21
81.8
  0
LINE
  8
0
  6
CONTINUOUS
 62
     7
 10
-164.5868
 20
71.8
 11
-166.2868
 21
71.8
  0
LINE
  8
0
  6
CONTINUOUS
 62
     7
 10
-165.1168
 20
81.8
 11
-165.7568
 21
81.8
  0
LINE
  8
0
  6
CONTINUOUS
 62
     7
 10
-162.9368
 20
52.3
 11
-162.9368
 21
46.8
  0
LINE
  8
0
  6
CONTINUOUS
 62
     7
 10
-168.9368
 20
53.8
 11
-168.9368
 21
51.8
  0
LINE
  8
0
  6
CENTER
 62
     2
 10
-310.8254
 20
17.50017
 11
-303.257
 21
17.50017
  0
LINE
  8
0
  6
CENTER
 62
     2
 10
-316.0613
 20
1.60017
 11
-311.0656
 21
1.60017
  0
LINE
  8
0
  6
CENTER
 62
     2
 10
-303.1369
 20
-28.39983
 11
-298.0613
 21
-28.39983
  0
LINE
  8
0
  6
CENTER
 62
     2
 10
-300.5613
 20
-25.68153
 11
-300.5613
 21
-31.20764
  0
LINE
  8
0
  6
CENTER
 62
     2
 10
-313.5613
 20
4.35164
 11
-313.5613
 21
-0.81406
  0
LINE
  8
0
  6
CENTER
 62
     2
 10
-312.7822
 20
-0.19983
 11
-300.7258
 21
-0.19983
  0
LINE
  8
0
  6
CENTER
 62
     2
 10
-313.2701
 20
-13.39983
 11
-300.7258
 21
-13.39983
  0
LINE
  8
0
  6
CENTER
 62
     2
 10
-313.4094
 20
-26.59982
 11
-301.144
 21
-26.59982
  0
LINE
  8
0
  6
CONTINUOUS
 62
     7
 10
-299.0613
 20
25.8002
 11
-298.0613
 21
24.80021
  0
LINE
  8
0
  6
CONTINUOUS
 62
     7
 10
-315.0613
 20
25.80014
 11
-316.0613
 21
24.80014
  0
LINE
  8
0
  6
CONTINUOUS
 62
     7
 10
-315.5613
 20
-42.79982
 11
-298.5613
 21
-42.79982
  0
LINE
  8
0
  6
CONTINUOUS
 62
     7
 10
-316.0613
 20
-34.39983
 11
-298.0613
 21
-34.39983
  0
LINE
  8
0
  6
CONTINUOUS
 62
     7
 10
-316.0613
 20
24.80019
 11
-316.0613
 21
-42.29982
  0
LINE
  8
0
  6
CONTINUOUS
 62
     7
 10
-298.0613
 20
24.80019
 11
-298.0613
 21
-42.29982
  0
LINE
  8
0
  6
CENTER
 62
     2
 10
-307.0613
 20
64.93105
 11
-307.0613
 21
-47.16649
  0
LINE
  8
0
  6
CONTINUOUS
 62
     7
 10
-316.0613
 20
7.60017
 11
-298.0613
 21
7.60017
  0
LINE
  8
0
  6
CONTINUOUS
 62
     7
 10
-309.8613
 20
-39.89983
 11
-309.8613
 21
-42.29982
  0
LINE
  8
0
  6
CONTINUOUS
 62
     7
 10
-315.5613
 20
-39.39983
 11
-310.3613
 21
-39.39983
  0
LINE
  8
0
  6
CENTER
 62
     2
 10
-313.0613
 20
-38.2339
 11
-313.0613
 21
-44.04008
  0
LINE
  8
0
  6
CONTINUOUS
 62
     7
 10
-310.2613
 20
-40.57166
 11
-310.2613
 21
-39.39983
  0
LINE
  8
0
  6
CONTINUOUS
 62
     7
 10
-315.8613
 20
-40.57164
 11
-315.8613
 21
-39.39983
  0
LINE
  8
0
  6
CONTINUOUS
 62
     7
 10
-316.0613
 20
24.80019
 11
-298.0613
 21
24.80019
  0
LINE
  8
0
  6
CENTER
 62
     2
 10
-307.5613
 20
-20.43877
 11
-307.5613
 21
-32.63345
  0
LINE
  8
0
  6
CENTER
 62
     2
 10
-306.5613
 20
6.13942
 11
-306.5613
 21
-6.44614
  0
LINE
  8
0
  6
CONTINUOUS
 62
     7
 10
-307.579
 20
15.56833
 11
-305.1295
 21
18.01782
  0
LINE
  8
0
  6
CONTINUOUS
 62
     7
 10
-308.9932
 20
16.98256
 11
-306.5437
 21
19.43204
  0
LINE
  8
0
  6
CONTINUOUS
 62
     7
 10
-307.579
 20
19.43203
 11
-305.1295
 21
16.98254
  0
LINE
  8
0
  6
CONTINUOUS
 62
     7
 10
-315.0613
 20
25.80019
 11
-299.0613
 21
25.80019
  0
LINE
  8
0
  6
CONTINUOUS
 62
     7
 10
-308.4756
 20
16.08598
 11
-305.6472
 21
18.91441
  0
LINE
  8
0
  6
CONTINUOUS
 62
     7
 10
-308.4756
 20
18.91434
 11
-305.6472
 21
16.08591
  0
LINE
  8
0
  6
CONTINUOUS
 62
     7
 10
-308.9932
 20
18.01782
 11
-306.5437
 21
15.56832
  0
LINE
  8
0
  6
CONTINUOUS
 62
     7
 10
-314.1113
 20
52.60017
 11
-314.1113
 21
52.00017
  0
LINE
  8
0
  6
CONTINUOUS
 62
     7
 10
-309.0113
 20
52.60017
 11
-309.0113
 21
52.00017
  0
LINE
  8
0
  6
CONTINUOUS
 62
     7
 10
-309.0114
 20
52.60017
 11
-314.1113
 21
52.60017
  0
LINE
  8
0
  6
CONTINUOUS
 62
     7
 10
-314.5613
 20
51.00017
 11
-299.5613
 21
51.00017
  0
LINE
  8
0
  6
CONTINUOUS
 62
     7
 10
-314.5613
 20
52.00017
 11
-299.5613
 21
52.00017
  0
LINE
  8
0
  6
CONTINUOUS
 62
     7
 10
-299.5613
 20
52.00018
 11
-300.5613
 21
54.00016
  0
LINE
  8
0
  6
CENTER
 62
     2
 10
-302.5613
 20
57.00017
 11
-302.5613
 21
49.00017
  0
LINE
  8
0
  6
CONTINUOUS
 62
     7
 10
-309.7356
 20
54.00017
 11
-300.5613
 21
54.00017
  0
LINE
  8
0
  6
CONTINUOUS
 62
     7
 10
-309.3113
 20
53.2939
 11
-309.3113
 21
52.60014
  0
LINE
  8
0
  6
CONTINUOUS
 62
     7
 10
-313.5613
 20
54.00017
 11
-313.3871
 21
54.00017
  0
LINE
  8
0
  6
CENTER
 62
     2
 10
-311.5613
 20
57.00017
 11
-311.5613
 21
49.00017
  0
LINE
  8
0
  6
CONTINUOUS
 62
     7
 10
-314.5613
 20
52.00017
 11
-314.5613
 21
25.80019
  0
LINE
  8
0
  6
CONTINUOUS
 62
     7
 10
-299.5613
 20
52.00017
 11
-299.5613
 21
25.80019
  0
LINE
  8
0
  6
CONTINUOUS
 62
     7
 10
-308.5613
 20
54.00017
 11
-308.5613
 21
52.00017
  0
LINE
  8
0
  6
CONTINUOUS
 62
     7
 10
-313.5613
 20
48.00017
 11
-300.5613
 21
48.00017
  0
LINE
  8
0
  6
CONTINUOUS
 62
     7
 10
-313.5613
 20
44.00017
 11
-300.5613
 21
44.00017
  0
LINE
  8
0
  6
CONTINUOUS
 62
     7
 10
-300.5613
 20
48.00017
 11
-300.5613
 21
44.00017
  0
LINE
  8
0
  6
CONTINUOUS
 62
     7
 10
-313.5613
 20
48.00017
 11
-313.5613
 21
44.00017
  0
LINE
  8
0
  6
CONTINUOUS
 62
     7
 10
-312.8492
 20
47.10695
 11
-310.5076
 21
47.10695
  0
LINE
  8
0
  6
CONTINUOUS
 62
     7
 10
-312.8492
 20
45.03038
 11
-310.861
 21
45.03038
  0
LINE
  8
0
  6
CONTINUOUS
 62
     7
 10
-312.8492
 20
44.50017
 11
-310.1541
 21
44.50017
  0
LINE
  8
0
  6
CONTINUOUS
 62
     7
 10
-312.8492
 20
46.57677
 11
-310.861
 21
46.57677
  0
LINE
  8
0
  6
CONTINUOUS
 62
     7
 10
-312.8492
 20
47.10695
 11
-312.8492
 21
46.57677
  0
LINE
  8
0
  6
CONTINUOUS
 62
     7
 10
-310.1541
 20
46.75349
 11
-310.1541
 21
44.50017
  0
LINE
  8
0
  6
CONTINUOUS
 62
     7
 10
-310.861
 20
46.57677
 11
-310.861
 21
45.03038
  0
LINE
  8
0
  6
CONTINUOUS
 62
     7
 10
-309.7565
 20
47.10695
 11
-309.7565
 21
46.57677
  0
LINE
  8
0
  6
CONTINUOUS
 62
     7
 10
-307.238
 20
46.57677
 11
-307.238
 21
44.85362
  0
LINE
  8
0
  6
CONTINUOUS
 62
     7
 10
-307.945
 20
46.57677
 11
-307.945
 21
45.03038
  0
LINE
  8
0
  6
CONTINUOUS
 62
     7
 10
-312.8492
 20
45.03038
 11
-312.8492
 21
44.50017
  0
LINE
  8
0
  6
CONTINUOUS
 62
     7
 10
-309.7565
 20
47.10695
 11
-309.058
 21
47.10695
  0
LINE
  8
0
  6
CONTINUOUS
 62
     7
 10
-309.7565
 20
44.50017
 11
-309.2076
 21
44.50017
  0
LINE
  8
0
  6
CONTINUOUS
 62
     7
 10
-309.7564
 20
44.50015
 11
-309.2
 21
46.57673
  0
LINE
  8
0
  6
CONTINUOUS
 62
     7
 10
-309.7565
 20
46.57677
 11
-309.2
 21
46.57677
  0
LINE
  8
0
  6
CONTINUOUS
 62
     7
 10
-309.2076
 20
44.50015
 11
-308.6512
 21
46.57674
  0
LINE
  8
0
  6
CONTINUOUS
 62
     7
 10
-308.4752
 20
45.03038
 11
-307.945
 21
45.03038
  0
LINE
  8
0
  6
CONTINUOUS
 62
     7
 10
-308.4753
 20
45.03036
 11
-308.3332
 21
44.50017
  0
LINE
  8
0
  6
CONTINUOUS
 62
     7
 10
-308.3331
 20
44.50017
 11
-307.5915
 21
44.50017
  0
LINE
  8
0
  6
CONTINUOUS
 62
     7
 10
-308.6512
 20
46.57677
 11
-307.945
 21
46.57677
  0
LINE
  8
0
  6
CONTINUOUS
 62
     7
 10
-308.5091
 20
47.10695
 11
-307.7682
 21
47.10695
  0
LINE
  8
0
  6
CONTINUOUS
 62
     7
 10
-309.058
 20
47.10699
 11
-308.9526
 21
47.50019
  0
LINE
  8
0
  6
CONTINUOUS
 62
     7
 10
-308.509
 20
47.10698
 11
-308.4037
 21
47.50021
  0
LINE
  8
0
  6
CONTINUOUS
 62
     7
 10
-306.7962
 20
47.10695
 11
-305.9568
 21
47.10695
  0
LINE
  8
0
  6
CONTINUOUS
 62
     7
 10
-306.7962
 20
46.57677
 11
-304.7345
 21
46.57677
  0
LINE
  8
0
  6
CONTINUOUS
 62
     7
 10
-305.9568
 20
44.50017
 11
-305.2498
 21
44.50017
  0
LINE
  8
0
  6
CONTINUOUS
 62
     7
 10
-306.7962
 20
47.10695
 11
-306.7962
 21
46.57677
  0
LINE
  8
0
  6
CONTINUOUS
 62
     7
 10
-304.1895
 20
45.61537
 11
-304.1895
 21
45.03038
  0
LINE
  8
0
  6
CONTINUOUS
 62
     7
 10
-306.7962
 20
45.03024
 11
-305.9567
 21
45.4217
  0
LINE
  8
0
  6
CONTINUOUS
 62
     7
 10
-306.7962
 20
45.61536
 11
-304.7345
 21
46.57676
  0
LINE
  8
0
  6
CONTINUOUS
 62
     7
 10
-306.7962
 20
45.61537
 11
-306.7962
 21
45.03038
  0
LINE
  8
0
  6
CONTINUOUS
 62
     7
 10
-305.2498
 20
45.52484
 11
-304.1894
 21
45.03036
  0
LINE
  8
0
  6
CONTINUOUS
 62
     7
 10
-304.8655
 20
45.93059
 11
-304.1894
 21
45.6153
  0
LINE
  8
0
  6
CONTINUOUS
 62
     7
 10
-304.1895
 20
46.75349
 11
-304.1895
 21
46.47112
  0
LINE
  8
0
  6
CONTINUOUS
 62
     7
 10
-305.9568
 20
47.50017
 11
-305.9568
 21
47.10695
  0
LINE
  8
0
  6
CONTINUOUS
 62
     7
 10
-305.2498
 20
47.50017
 11
-305.2498
 21
47.10695
  0
LINE
  8
0
  6
CONTINUOUS
 62
     7
 10
-305.2498
 20
47.10695
 11
-304.5429
 21
47.10695
  0
LINE
  8
0
  6
CONTINUOUS
 62
     7
 10
-305.9568
 20
45.4218
 11
-305.9568
 21
44.50017
  0
LINE
  8
0
  6
CONTINUOUS
 62
     7
 10
-305.2498
 20
45.52483
 11
-305.2498
 21
44.50017
  0
LINE
  8
0
  6
CONTINUOUS
 62
     7
 10
-304.8654
 20
45.93051
 11
-304.3934
 21
46.15061
  0
LINE
  8
0
  6
CONTINUOUS
 62
     7
 10
-301.8036
 20
47.34111
 11
-301.2734
 21
47.34111
  0
LINE
  8
0
  6
CONTINUOUS
 62
     7
 10
-303.9685
 20
46.24593
 11
-303.9685
 21
45.67534
  0
LINE
  8
0
  6
CONTINUOUS
 62
     7
 10
-301.2734
 20
47.34111
 11
-301.2734
 21
47.10695
  0
LINE
  8
0
  6
CONTINUOUS
 62
     7
 10
-301.8036
 20
47.34111
 11
-301.8036
 21
47.22685
  0
LINE
  8
0
  6
CONTINUOUS
 62
     7
 10
-302.5105
 20
46.2552
 11
-302.5105
 21
44.50017
  0
LINE
  8
0
  6
CONTINUOUS
 62
     7
 10
-303.9685
 20
46.24589
 11
-301.915
 21
47.06261
  0
LINE
  8
0
  6
CONTINUOUS
 62
     7
 10
-303.9686
 20
45.6754
 11
-302.5106
 21
46.25529
  0
LINE
  8
0
  6
CONTINUOUS
 62
     7
 10
-302.5105
 20
44.50017
 11
-301.8036
 21
44.50017
  0
LINE
  8
0
  6
CONTINUOUS
 62
     7
 10
-301.8036
 20
46.53636
 11
-301.8036
 21
44.50017
  0
LINE
  8
0
  6
CONTINUOUS
 62
     7
 10
-301.8035
 20
46.5362
 11
-301.6075
 21
46.61413
  0
LINE
  8
0
  6
CONTINUOUS
 62
     7
 10
-308.9526
 20
47.50017
 11
-308.4037
 21
47.50017
  0
LINE
  8
0
  6
CONTINUOUS
 62
     7
 10
-307.5252
 20
47.50017
 11
-307.2993
 21
47.50017
  0
LINE
  8
0
  6
CONTINUOUS
 62
     7
 10
-305.9568
 20
47.50017
 11
-305.2498
 21
47.50017
  0
LINE
  8
0
  6
CONTINUOUS
 62
     7
 10
-307.5252
 20
47.14671
 11
-307.2993
 21
47.14671
  0
LINE
  8
0
  6
CONTINUOUS
 62
     7
 10
-307.5252
 20
47.50017
 11
-307.5252
 21
47.14671
  0
LINE
  8
0
  6
CONTINUOUS
 62
     7
 10
-307.2993
 20
47.50017
 11
-307.2993
 21
47.14671
  0
LINE
  8
0
  6
CONTINUOUS
 62
     7
 10
-307.1415
 20
47.50017
 11
-307.1415
 21
47.14671
  0
LINE
  8
0
  6
CONTINUOUS
 62
     7
 10
-306.9155
 20
47.50017
 11
-306.9155
 21
47.14671
  0
LINE
  8
0
  6
CONTINUOUS
 62
     7
 10
-307.1415
 20
47.50017
 11
-306.9155
 21
47.50017
  0
LINE
  8
0
  6
CONTINUOUS
 62
     7
 10
-307.1415
 20
47.14671
 11
-306.9155
 21
47.14671
  0
LINE
  8
0
  6
CONTINUOUS
 62
     7
 10
-314.5612
 20
52.00014
 11
-313.5612
 21
54.00013
  0
LINE
  8
0
  6
CONTINUOUS
 62
     7
 10
-313.8113
 20
53.2939
 11
-313.8113
 21
52.60014
  0
LINE
  8
0
  6
CONTINUOUS
 62
     7
 10
-312.5613
 20
61.80019
 11
-301.5613
 21
61.80019
  0
LINE
  8
0
  6
CONTINUOUS
 62
     7
 10
-303.0613
 20
54.27928
 11
-303.0613
 21
61.80019
  0
LINE
  8
0
  6
CONTINUOUS
 62
     7
 10
-311.0613
 20
54.27928
 11
-311.0613
 21
61.80019
  0
LINE
  8
0
  6
CONTINUOUS
 62
     7
 10
-312.5613
 20
54.21623
 11
-312.5613
 21
61.80019
  0
LINE
  8
0
  6
CONTINUOUS
 62
     7
 10
-301.5613
 20
54.21623
 11
-301.5613
 21
61.80019
  0
LINE
  8
0
  6
CENTER
 62
     2
 10
-309.5613
 20
58.80019
 11
-309.5613
 21
84.80016
  0
LINE
  8
0
  6
CENTER
 62
     2
 10
-304.5613
 20
58.80019
 11
-304.5613
 21
84.80016
  0
LINE
  8
0
  6
CONTINUOUS
 62
     7
 10
-310.4113
 20
71.80016
 11
-308.7113
 21
71.80016
  0
LINE
  8
0
  6
CONTINUOUS
 62
     7
 10
-309.8813
 20
81.80016
 11
-309.2413
 21
81.80016
  0
LINE
  8
0
  6
CONTINUOUS
 62
     7
 10
-304.2413
 20
71.80016
 11
-304.2413
 21
81.80016
  0
LINE
  8
0
  6
CONTINUOUS
 62
     7
 10
-304.8813
 20
71.80016
 11
-304.8813
 21
81.80016
  0
LINE
  8
0
  6
CONTINUOUS
 62
     7
 10
-309.2413
 20
71.80016
 11
-309.2413
 21
81.80016
  0
LINE
  8
0
  6
CONTINUOUS
 62
     7
 10
-309.8813
 20
71.80016
 11
-309.8813
 21
81.80016
  0
LINE
  8
0
  6
CONTINUOUS
 62
     7
 10
-308.7113
 20
61.80019
 11
-308.7113
 21
66.46584
  0
LINE
  8
0
  6
CONTINUOUS
 62
     7
 10
-310.4113
 20
61.80019
 11
-310.4113
 21
66.92134
  0
LINE
  8
0
  6
CONTINUOUS
 62
     7
 10
-305.4113
 20
61.80019
 11
-305.4113
 21
65.58159
  0
LINE
  8
0
  6
CONTINUOUS
 62
     7
 10
-303.7113
 20
61.80019
 11
-303.7113
 21
65.12608
  0
LINE
  8
0
  6
CONTINUOUS
 62
     7
 10
-305.4113
 20
71.80016
 11
-303.7113
 21
71.80016
  0
LINE
  8
0
  6
CONTINUOUS
 62
     7
 10
-304.8813
 20
81.80016
 11
-304.2413
 21
81.80016
  0
LINE
  8
0
  6
CONTINUOUS
 62
     7
 10
-311.0613
 20
60.30019
 11
-303.0613
 21
60.30019
  0
LINE
  8
0
  6
PHANTOM
 62
     2
 10
-301.7113
 20
66.1431
 11
-312.4113
 21
69.01016
  0
LINE
  8
0
  6
PHANTOM
 62
     2
 10
-301.7113
 20
64.59023
 11
-312.4113
 21
67.45729
  0
LINE
  8
0
  6
CONTINUOUS
 62
     7
 10
-310.4113
 20
68.47426
 11
-310.4113
 21
71.80016
  0
LINE
  8
0
  6
CONTINUOUS
 62
     7
 10
-308.7113
 20
68.01875
 11
-308.7113
 21
71.80016
  0
LINE
  8
0
  6
CONTINUOUS
 62
     7
 10
-305.4113
 20
67.13451
 11
-305.4113
 21
71.80016
  0
LINE
  8
0
  6
CONTINUOUS
 62
     7
 10
-303.7113
 20
66.679
 11
-303.7113
 21
71.80016
  0
LINE
  8
0
  6
CENTER
 62
     2
 10
-45.73399
 20
22.30006
 11
-39.9026
 21
22.30006
  0
LINE
  8
0
  6
CENTER
 62
     2
 10
-40.65892
 20
1.60005
 11
-33.22795
 21
1.60005
  0
LINE
  8
0
  6
CENTER
 62
     2
 10
-52.2245
 20
-28.39995
 11
-45.15392
 21
-28.39995
  0
LINE
  8
0
  6
CENTER
 62
     2
 10
-49.3123
 20
-24.28719
 11
-49.3123
 21
-32.69183
  0
LINE
  8
0
  6
CENTER
 62
     2
 10
-36.3123
 20
6.19136
 11
-36.3123
 21
-2.81662
  0
LINE
  8
0
  6
CENTER
 62
     2
 10
-48.45976
 20
-5.39995
 11
-36.83141
 21
-5.39995
  0
LINE
  8
0
  6
CENTER
 62
     2
 10
-48.8958
 20
-21.39995
 11
-36.73454
 21
-21.39995
  0
LINE
  8
0
  6
CONTINUOUS
 62
     7
 10
-34.81239
 20
25.80006
 11
-33.81239
 21
24.80006
  0
LINE
  8
0
  6
CONTINUOUS
 62
     7
 10
-50.81231
 20
25.80009
 11
-51.81229
 21
24.80011
  0
LINE
  8
0
  6
CONTINUOUS
 62
     7
 10
-51.3123
 20
-42.79994
 11
-34.3123
 21
-42.79994
  0
LINE
  8
0
  6
CONTINUOUS
 62
     7
 10
-51.8123
 20
-34.39995
 11
-33.8123
 21
-34.39995
  0
LINE
  8
0
  6
CONTINUOUS
 62
     7
 10
-51.8123
 20
7.60005
 11
-33.8123
 21
7.60005
  0
LINE
  8
0
  6
CONTINUOUS
 62
     7
 10
-51.8123
 20
24.80006
 11
-51.8123
 21
-42.29994
  0
LINE
  8
0
  6
CONTINUOUS
 62
     7
 10
-51.8123
 20
24.80006
 11
-33.8123
 21
24.80006
  0
LINE
  8
0
  6
CENTER
 62
     2
 10
-42.3123
 20
0.73148
 11
-42.3123
 21
-11.84198
  0
LINE
  8
0
  6
CENTER
 62
     2
 10
-43.3123
 20
-14.81543
 11
-43.3123
 21
-27.55879
  0
LINE
  8
0
  6
CENTER
 62
     2
 10
-42.8123
 20
64.19936
 11
-42.8123
 21
-47.61662
  0
LINE
  8
0
  6
CONTINUOUS
 62
     7
 10
-33.8123
 20
24.80003
 11
-33.8123
 21
-42.29994
  0
LINE
  8
0
  6
CONTINUOUS
 62
     7
 10
-50.8123
 20
25.80006
 11
-34.8123
 21
25.80006
  0
LINE
  8
0
  6
CENTER
 62
     2
 10
-48.8123
 20
-38.30569
 11
-48.8123
 21
-44.25526
  0
LINE
  8
0
  6
CONTINUOUS
 62
     7
 10
-45.61229
 20
-39.89995
 11
-45.61229
 21
-42.29994
  0
LINE
  8
0
  6
CONTINUOUS
 62
     7
 10
-51.3123
 20
-39.39995
 11
-46.11229
 21
-39.39995
  0
LINE
  8
0
  6
CONTINUOUS
 62
     7
 10
-51.61229
 20
-40.57178
 11
-51.61229
 21
-39.39995
  0
LINE
  8
0
  6
CONTINUOUS
 62
     7
 10
-46.01228
 20
-40.57178
 11
-46.01228
 21
-39.39995
  0
LINE
  8
0
  6
CONTINUOUS
 62
     7
 10
-50.3123
 20
52.00005
 11
-50.3123
 21
25.80006
  0
LINE
  8
0
  6
CONTINUOUS
 62
     7
 10
-50.3123
 20
51.00005
 11
-49.8123
 21
51.00005
  0
LINE
  8
0
  6
CONTINUOUS
 62
     7
 10
-35.3123
 20
52.00005
 11
-35.3123
 21
25.80006
  0
LINE
  8
0
  6
CONTINUOUS
 62
     7
 10
-50.3123
 20
52.00005
 11
-48.3123
 21
52.00005
  0
LINE
  8
0
  6
CONTINUOUS
 62
     7
 10
-49.3123
 20
54.00005
 11
-49.13805
 21
54.00005
  0
LINE
  8
0
  6
CONTINUOUS
 62
     7
 10
-35.31236
 20
52.00003
 11
-36.31236
 21
54.00004
  0
LINE
  8
0
  6
CONTINUOUS
 62
     7
 10
-50.31237
 20
52.00005
 11
-49.31238
 21
54.00003
  0
LINE
  8
0
  6
CONTINUOUS
 62
     7
 10
-48.3123
 20
52.60005
 11
-49.86229
 21
52.60005
  0
LINE
  8
0
  6
CONTINUOUS
 62
     7
 10
-49.86229
 20
52.60005
 11
-49.86229
 21
52.00005
  0
LINE
  8
0
  6
CONTINUOUS
 62
     7
 10
-49.5623
 20
53.29381
 11
-49.5623
 21
52.60005
  0
LINE
  8
0
  6
CONTINUOUS
 62
     7
 10
-35.8123
 20
51.80006
 11
-35.8123
 21
46.80006
  0
LINE
  8
0
  6
CONTINUOUS
 62
     7
 10
-49.8123
 20
51.80006
 11
-49.8123
 21
46.80006
  0
LINE
  8
0
  6
CONTINUOUS
 62
     7
 10
-49.8123
 20
46.00005
 11
-49.8123
 21
26.60005
  0
LINE
  8
0
  6
CONTINUOUS
 62
     7
 10
-35.8123
 20
46.00005
 11
-35.8123
 21
26.60005
  0
LINE
  8
0
  6
CONTINUOUS
 62
     7
 10
-48.3123
 20
27.30006
 11
-37.3123
 21
27.30006
  0
LINE
  8
0
  6
CONTINUOUS
 62
     7
 10
-48.3123
 20
35.80006
 11
-37.3123
 21
35.80006
  0
LINE
  8
0
  6
CONTINUOUS
 62
     7
 10
-48.3123
 20
35.80006
 11
-48.3123
 21
27.30006
  0
LINE
  8
0
  6
CONTINUOUS
 62
     7
 10
-37.3123
 20
35.80006
 11
-37.3123
 21
27.30006
  0
LINE
  8
0
  6
CENTER
 62
     2
 10
-46.8123
 20
38.30006
 11
-38.8123
 21
38.30006
  0
LINE
  8
0
  6
CONTINUOUS
 62
     7
 10
-44.8123
 20
39.30006
 11
-40.8123
 21
39.30006
  0
LINE
  8
0
  6
CONTINUOUS
 62
     7
 10
-44.8123
 20
37.30006
 11
-40.8123
 21
37.30006
  0
LINE
  8
0
  6
CONTINUOUS
 62
     7
 10
-44.8123
 20
39.30006
 11
-44.8123
 21
37.30006
  0
LINE
  8
0
  6
CONTINUOUS
 62
     7
 10
-40.8123
 20
39.30006
 11
-40.8123
 21
37.30006
  0
LINE
  8
0
  6
CONTINUOUS
 62
     7
 10
-45.3123
 20
39.80006
 11
-40.3123
 21
39.80006
  0
LINE
  8
0
  6
CONTINUOUS
 62
     7
 10
-45.3123
 20
39.80006
 11
-45.3123
 21
36.80006
  0
LINE
  8
0
  6
CONTINUOUS
 62
     7
 10
-45.3123
 20
36.80006
 11
-40.3123
 21
36.80006
  0
LINE
  8
0
  6
CONTINUOUS
 62
     7
 10
-40.3123
 20
39.80006
 11
-40.3123
 21
36.80006
  0
LINE
  8
0
  6
CONTINUOUS
 62
     7
 10
-44.81237
 20
39.29998
 11
-45.31239
 21
39.8
  0
LINE
  8
0
  6
CONTINUOUS
 62
     7
 10
-40.81234
 20
39.30007
 11
-40.31235
 21
39.80006
  0
LINE
  8
0
  6
CONTINUOUS
 62
     7
 10
-40.81235
 20
37.3
 11
-40.31235
 21
36.8
  0
LINE
  8
0
  6
CONTINUOUS
 62
     7
 10
-44.81231
 20
37.30006
 11
-45.31234
 21
36.80003
  0
LINE
  8
0
  6
CONTINUOUS
 62
     7
 10
-49.8123
 20
51.80006
 11
-47.01228
 21
51.80006
  0
LINE
  8
0
  6
CONTINUOUS
 62
     7
 10
-46.81227
 20
59.80006
 11
-38.8123
 21
59.80006
  0
LINE
  8
0
  6
CONTINUOUS
 62
     7
 10
-46.8123
 20
54.12877
 11
-38.8123
 21
54.12877
  0
LINE
  8
0
  6
CONTINUOUS
 62
     7
 10
-49.8123
 20
46.80006
 11
-35.8123
 21
46.80006
  0
LINE
  8
0
  6
CONTINUOUS
 62
     7
 10
-38.61229
 20
51.80006
 11
-38.61229
 21
46.80006
  0
LINE
  8
0
  6
CONTINUOUS
 62
     7
 10
-47.01231
 20
51.80006
 11
-47.01231
 21
46.80006
  0
LINE
  8
0
  6
CONTINUOUS
 62
     7
 10
-38.61229
 20
51.80006
 11
-35.8123
 21
51.80006
  0
LINE
  8
0
  6
CONTINUOUS
 62
     7
 10
-48.31227
 20
61.80006
 11
-37.3123
 21
61.80006
  0
LINE
  8
0
  6
CONTINUOUS
 62
     7
 10
-38.8123
 20
46.80006
 11
-38.8123
 21
61.80006
  0
LINE
  8
0
  6
CONTINUOUS
 62
     7
 10
-46.8123
 20
46.80006
 11
-46.8123
 21
61.80006
  0
LINE
  8
0
  6
CONTINUOUS
 62
     7
 10
-48.3123
 20
51.80006
 11
-48.3123
 21
61.80006
  0
LINE
  8
0
  6
CONTINUOUS
 62
     7
 10
-37.3123
 20
51.80006
 11
-37.3123
 21
61.80006
  0
LINE
  8
0
  6
CENTER
 62
     2
 10
-45.3123
 20
58.80006
 11
-45.3123
 21
84.80003
  0
LINE
  8
0
  6
CENTER
 62
     2
 10
-40.3123
 20
58.80006
 11
-40.3123
 21
84.80003
  0
LINE
  8
0
  6
CONTINUOUS
 62
     7
 10
-46.16228
 20
71.80003
 11
-44.4623
 21
71.80003
  0
LINE
  8
0
  6
CONTINUOUS
 62
     7
 10
-45.63228
 20
81.80003
 11
-44.99229
 21
81.80003
  0
LINE
  8
0
  6
CONTINUOUS
 62
     7
 10
-39.99229
 20
71.80003
 11
-39.99229
 21
81.80003
  0
LINE
  8
0
  6
CONTINUOUS
 62
     7
 10
-40.63231
 20
71.80003
 11
-40.63231
 21
81.80003
  0
LINE
  8
0
  6
CONTINUOUS
 62
     7
 10
-44.99229
 20
71.80003
 11
-44.99229
 21
81.80003
  0
LINE
  8
0
  6
CONTINUOUS
 62
     7
 10
-45.63231
 20
71.80003
 11
-45.63231
 21
81.80003
  0
LINE
  8
0
  6
CONTINUOUS
 62
     7
 10
-44.4623
 20
61.80006
 11
-44.4623
 21
66.46571
  0
LINE
  8
0
  6
CONTINUOUS
 62
     7
 10
-46.16231
 20
61.80006
 11
-46.16231
 21
66.92122
  0
LINE
  8
0
  6
CONTINUOUS
 62
     7
 10
-41.16231
 20
61.80006
 11
-41.16231
 21
65.58147
  0
LINE
  8
0
  6
CONTINUOUS
 62
     7
 10
-39.4623
 20
61.80006
 11
-39.4623
 21
65.12596
  0
LINE
  8
0
  6
CONTINUOUS
 62
     7
 10
-41.16228
 20
71.80003
 11
-39.4623
 21
71.80003
  0
LINE
  8
0
  6
CONTINUOUS
 62
     7
 10
-40.63228
 20
81.80003
 11
-39.99229
 21
81.80003
  0
LINE
  8
0
  6
PHANTOM
 62
     2
 10
-37.46229
 20
66.14302
 11
-48.16229
 21
69.01008
  0
LINE
  8
0
  6
PHANTOM
 62
     2
 10
-37.46232
 20
64.59009
 11
-48.16232
 21
67.45715
  0
LINE
  8
0
  6
CONTINUOUS
 62
     7
 10
-46.16231
 20
68.47414
 11
-46.16231
 21
71.80003
  0
LINE
  8
0
  6
CONTINUOUS
 62
     7
 10
-44.4623
 20
68.01863
 11
-44.4623
 21
71.80003
  0
LINE
  8
0
  6
CONTINUOUS
 62
     7
 10
-41.16231
 20
67.13438
 11
-41.16231
 21
71.80003
  0
LINE
  8
0
  6
CONTINUOUS
 62
     7
 10
-39.4623
 20
66.67888
 11
-39.4623
 21
71.80003
  0
LINE
  8
0
  6
CONTINUOUS
 62
     7
 10
-37.3123
 20
52.00005
 11
-35.3123
 21
52.00005
  0
LINE
  8
0
  6
CONTINUOUS
 62
     7
 10
-35.8123
 20
51.00005
 11
-35.3123
 21
51.00005
  0
LINE
  8
0
  6
CONTINUOUS
 62
     7
 10
-36.3123
 20
54.00005
 11
-37.3123
 21
54.00005
  0
LINE
  8
0
  6
CENTER
 62
     2
 10
-175.9642
 20
-184.179
 11
-169.1067
 21
-184.179
  0
LINE
  8
0
  6
CENTER
 62
     2
 10
-194.5854
 20
-174.179
 11
-188.0624
 21
-174.179
  0
LINE
  8
0
  6
CENTER
 62
     2
 10
-172.4368
 20
-180.7817
 11
-172.4368
 21
-187.3604
  0
LINE
  8
0
  6
CENTER
 62
     2
 10
-191.4368
 20
-170.8578
 11
-191.4368
 21
-177.6038
  0
LINE
  8
0
  6
CONTINUOUS
 62
     7
 10
-171.0125
 20
-174.0276
 11
-170.5882
 21
-174.4518
  0
LINE
  8
0
  6
CONTINUOUS
 62
     7
 10
-170.5882
 20
-172.7549
 11
-170.1639
 21
-172.3306
  0
LINE
  8
0
  6
CONTINUOUS
 62
     7
 10
-171.0125
 20
-172.3306
 11
-170.5882
 21
-171.9063
  0
LINE
  8
0
  6
CONTINUOUS
 62
     7
 10
-172.2853
 20
-171.9062
 11
-171.861
 21
-172.3305
  0
LINE
  8
0
  6
CONTINUOUS
 62
     7
 10
-172.7096
 20
-172.3305
 11
-172.2853
 21
-172.7548
  0
LINE
  8
0
  6
CONTINUOUS
 62
     7
 10
-170.5882
 20
-171.9063
 11
-170.164
 21
-172.3305
  0
LINE
  8
0
  6
CONTINUOUS
 62
     7
 10
-172.7095
 20
-174.0276
 11
-172.2853
 21
-174.4519
  0
LINE
  8
0
  6
CONTINUOUS
 62
     7
 10
-170.5882
 20
-173.6033
 11
-170.164
 21
-174.0275
  0
LINE
  8
0
  6
CENTER
 62
     2
 10
-181.9368
 20
-167.429
 11
-181.9368
 21
-191.4065
  0
LINE
  8
0
  6
CENTER
 62
     2
 10
-197.833
 20
-179.179
 11
-157.6034
 21
-179.179
  0
LINE
  8
0
  6
CONTINUOUS
 62
     7
 10
-194.9368
 20
-188.179
 11
-168.9368
 21
-188.179
  0
LINE
  8
0
  6
CONTINUOUS
 62
     7
 10
-194.9368
 20
-170.179
 11
-168.9368
 21
-170.179
  0
LINE
  8
0
  6
CONTINUOUS
 62
     7
 10
-168.4368
 20
-170.679
 11
-168.4368
 21
-187.679
  0
LINE
  8
0
  6
CONTINUOUS
 62
     7
 10
-195.4368
 20
-170.679
 11
-195.4368
 21
-187.679
  0
LINE
  8
0
  6
CENTER
 62
     2
 10
-175.5746
 20
-173.179
 11
-167.2668
 21
-173.179
  0
LINE
  8
0
  6
CENTER
 62
     2
 10
-196.6157
 20
-185.179
 11
-188.2688
 21
-185.179
  0
LINE
  8
0
  6
CENTER
 62
     2
 10
-192.4368
 20
-181.1467
 11
-192.4368
 21
-189.0888
  0
LINE
  8
0
  6
CENTER
 62
     2
 10
-171.4368
 20
-169.3219
 11
-171.4368
 21
-177.0463
  0
LINE
  8
0
  6
CONTINUOUS
 62
     7
 10
-189.2367
 20
-185.179
 11
-189.2367
 21
-187.679
  0
LINE
  8
0
  6
CONTINUOUS
 62
     7
 10
-194.9368
 20
-181.979
 11
-192.4368
 21
-181.979
  0
LINE
  8
0
  6
CONTINUOUS
 62
     7
 10
-171.4368
 20
-176.379
 11
-168.9368
 21
-176.379
  0
LINE
  8
0
  6
CONTINUOUS
 62
     7
 10
-174.6368
 20
-170.679
 11
-174.6368
 21
-173.179
  0
LINE
  8
0
  6
CONTINUOUS
 62
     7
 10
-193.7095
 20
-184.3306
 11
-193.2853
 21
-183.9063
  0
LINE
  8
0
  6
CONTINUOUS
 62
     7
 10
-191.5882
 20
-186.4519
 11
-191.164
 21
-186.0276
  0
LINE
  8
0
  6
CONTINUOUS
 62
     7
 10
-193.7095
 20
-186.0276
 11
-193.2852
 21
-185.6033
  0
LINE
  8
0
  6
CONTINUOUS
 62
     7
 10
-193.2853
 20
-186.4519
 11
-192.861
 21
-186.0276
  0
LINE
  8
0
  6
CONTINUOUS
 62
     7
 10
-193.7096
 20
-186.0276
 11
-193.2853
 21
-186.4519
  0
LINE
  8
0
  6
CONTINUOUS
 62
     7
 10
-191.5882
 20
-183.9063
 11
-191.164
 21
-184.3305
  0
LINE
  8
0
  6
CONTINUOUS
 62
     7
 10
-193.7095
 20
-184.3305
 11
-193.2853
 21
-184.7548
  0
LINE
  8
0
  6
CONTINUOUS
 62
     7
 10
-193.2853
 20
-183.9063
 11
-192.8611
 21
-184.3306
  0
LINE
  8
0
  6
CONTINUOUS
 62
     7
 10
-192.0125
 20
-184.3306
 11
-191.5882
 21
-183.9063
  0
LINE
  8
0
  6
CONTINUOUS
 62
     7
 10
-191.5882
 20
-184.7548
 11
-191.1639
 21
-184.3306
  0
LINE
  8
0
  6
CONTINUOUS
 62
     7
 10
-192.0125
 20
-186.0276
 11
-191.5882
 21
-186.4518
  0
LINE
  8
0
  6
CONTINUOUS
 62
     7
 10
-191.5883
 20
-185.6034
 11
-191.164
 21
-186.0276
  0
LINE
  8
0
  6
CONTINUOUS
 62
     7
 10
-172.7095
 20
-172.3306
 11
-172.2852
 21
-171.9063
  0
LINE
  8
0
  6
CONTINUOUS
 62
     7
 10
-170.5882
 20
-174.4519
 11
-170.1639
 21
-174.0277
  0
LINE
  8
0
  6
CONTINUOUS
 62
     7
 10
-172.7095
 20
-174.0276
 11
-172.2852
 21
-173.6034
  0
LINE
  8
0
  6
CONTINUOUS
 62
     7
 10
-172.2852
 20
-174.4519
 11
-171.861
 21
-174.0276
  0
LINE
  8
0
  6
CONTINUOUS
 62
     7
 10
-159.9368
 20
-172.979
 11
-159.9368
 21
-185.379
  0
LINE
  8
0
  6
CONTINUOUS
 62
     7
 10
-168.4368
 20
-186.179
 11
-160.7367
 21
-186.179
  0
LINE
  8
0
  6
CONTINUOUS
 62
     7
 10
-168.4368
 20
-172.179
 11
-160.7367
 21
-172.179
  0
LINE
  8
0
  6
CONTINUOUS
 62
     7
 10
63.01199
 20
-40.57159
 11
63.01199
 21
-39.39977
  0
LINE
  8
0
  6
CONTINUOUS
 62
     7
 10
68.612
 20
-40.57159
 11
68.612
 21
-39.39977
  0
LINE
  8
0
  6
CONTINUOUS
 62
     7
 10
41.812
 20
24.80023
 11
68.812
 21
24.80023
  0
LINE
  8
0
  6
CENTER
 62
     2
 10
55.312
 20
57.35023
 11
55.312
 21
-46.14977
  0
LINE
  8
0
  6
CONTINUOUS
 62
     7
 10
68.812
 20
24.80023
 11
68.812
 21
-42.29976
  0
LINE
  8
0
  6
CONTINUOUS
 62
     7
 10
42.312
 20
-42.79976
 11
68.312
 21
-42.79976
  0
LINE
  8
0
  6
CONTINUOUS
 62
     7
 10
42.81203
 20
25.80013
 11
41.81203
 21
24.80013
  0
LINE
  8
0
  6
CONTINUOUS
 62
     7
 10
67.81199
 20
25.80025
 11
68.81199
 21
24.80025
  0
LINE
  8
0
  6
CONTINUOUS
 62
     7
 10
65.812
 20
-26.74146
 11
68.812
 21
-26.74146
  0
LINE
  8
0
  6
CONTINUOUS
 62
     7
 10
65.812
 20
-30.05809
 11
68.812
 21
-30.05809
  0
LINE
  8
0
  6
CONTINUOUS
 62
     7
 10
65.812
 20
-26.74146
 11
65.812
 21
-30.05809
  0
LINE
  8
0
  6
CONTINUOUS
 62
     7
 10
42.81201
 20
25.80023
 11
76.51199
 21
25.80023
  0
LINE
  8
0
  6
CENTER
 62
     2
 10
65.812
 20
-38.52448
 11
65.812
 21
-43.97198
  0
LINE
  8
0
  6
CONTINUOUS
 62
     7
 10
63.112
 20
-39.39977
 11
68.312
 21
-39.39977
  0
LINE
  8
0
  6
CONTINUOUS
 62
     7
 10
62.612
 20
-39.89977
 11
62.612
 21
-42.29976
  0
LINE
  8
0
  6
CONTINUOUS
 62
     7
 10
41.81204
 20
-34.39977
 11
68.812
 21
-34.39977
  0
LINE
  8
0
  6
CONTINUOUS
 62
     7
 10
41.81204
 20
7.60023
 11
68.812
 21
7.60023
  0
LINE
  8
0
  6
CONTINUOUS
 62
     7
 10
41.81204
 20
24.80023
 11
41.81204
 21
-42.29976
  0
LINE
  8
0
  6
PHANTOM
 62
     2
 10
74.66199
 20
65.26007
 11
68.962
 21
66.78738
  0
LINE
  8
0
  6
PHANTOM
 62
     2
 10
74.662
 20
66.81301
 11
68.96198
 21
68.34033
  0
LINE
  8
0
  6
CONTINUOUS
 62
     7
 10
72.662
 20
67.34892
 11
72.662
 21
71.80022
  0
LINE
  8
0
  6
CONTINUOUS
 62
     7
 10
70.96201
 20
67.80443
 11
70.96201
 21
71.80022
  0
LINE
  8
0
  6
CONTINUOUS
 62
     7
 10
43.312
 20
51.00023
 11
67.312
 21
51.00023
  0
LINE
  8
0
  6
CENTER
 62
     2
 10
46.312
 20
57.00023
 11
46.312
 21
48.00023
  0
LINE
  8
0
  6
CONTINUOUS
 62
     7
 10
67.312
 20
52.00023
 11
67.312
 21
25.80023
  0
LINE
  8
0
  6
CONTINUOUS
 62
     7
 10
66.13777
 20
54.00023
 11
66.312
 21
54.00023
  0
LINE
  8
0
  6
CONTINUOUS
 62
     7
 10
62.062
 20
53.29399
 11
62.062
 21
52.60023
  0
LINE
  8
0
  6
CONTINUOUS
 62
     7
 10
66.562
 20
53.29399
 11
66.562
 21
52.60023
  0
LINE
  8
0
  6
CONTINUOUS
 62
     7
 10
61.76199
 20
52.60023
 11
61.76199
 21
52.00023
  0
LINE
  8
0
  6
CONTINUOUS
 62
     7
 10
66.862
 20
52.60023
 11
66.862
 21
52.00023
  0
LINE
  8
0
  6
CONTINUOUS
 62
     7
 10
64.61203
 20
52.60026
 11
64.7728
 21
52.00024
  0
LINE
  8
0
  6
CONTINUOUS
 62
     7
 10
64.01194
 20
52.00026
 11
63.85117
 21
52.60024
  0
LINE
  8
0
  6
CONTINUOUS
 62
     7
 10
66.862
 20
52.60023
 11
61.76199
 21
52.60023
  0
LINE
  8
0
  6
CENTER
 62
     2
 10
64.312
 20
57.00023
 11
64.312
 21
48.00023
  0
LINE
  8
0
  6
CONTINUOUS
 62
     7
 10
61.312
 20
54.00023
 11
61.312
 21
52.00023
  0
LINE
  8
0
  6
CONTINUOUS
 62
     7
 10
67.31195
 20
52.00024
 11
66.31196
 21
54.00023
  0
LINE
  8
0
  6
CONTINUOUS
 62
     7
 10
43.31202
 20
52.00023
 11
44.31202
 21
54.00023
  0
LINE
  8
0
  6
CONTINUOUS
 62
     7
 10
43.312
 20
52.00023
 11
67.312
 21
52.00023
  0
LINE
  8
0
  6
CONTINUOUS
 62
     7
 10
43.312
 20
52.00023
 11
43.312
 21
25.80023
  0
LINE
  8
0
  6
CONTINUOUS
 62
     7
 10
44.312
 20
54.00023
 11
62.48622
 21
54.00023
  0
LINE
  8
0
  6
CONTINUOUS
 62
     7
 10
67.312
 20
51.80022
 11
74.312
 21
51.80022
  0
LINE
  8
0
  6
CONTINUOUS
 62
     7
 10
77.312
 20
46.00023
 11
77.312
 21
26.60023
  0
LINE
  8
0
  6
CONTINUOUS
 62
     7
 10
67.312
 20
46.80025
 11
76.51199
 21
46.80025
  0
LINE
  8
0
  6
CONTINUOUS
 62
     7
 10
76.312
 20
61.80022
 11
75.312
 21
61.80022
  0
LINE
  8
0
  6
CONTINUOUS
 62
     7
 10
69.312
 20
60.30022
 11
68.312
 21
60.30022
  0
LINE
  8
0
  6
CONTINUOUS
 62
     7
 10
68.312
 20
61.80025
 11
68.312
 21
60.30025
  0
LINE
  8
0
  6
CONTINUOUS
 62
     7
 10
69.312
 20
60.30025
 11
69.312
 21
53.80025
  0
LINE
  8
0
  6
CONTINUOUS
 62
     7
 10
70.71201
 20
61.80025
 11
70.71201
 21
51.80025
  0
LINE
  8
0
  6
CONTINUOUS
 62
     7
 10
72.51199
 20
61.80025
 11
72.51199
 21
51.80025
  0
LINE
  8
0
  6
CONTINUOUS
 62
     7
 10
75.312
 20
46.80025
 11
75.312
 21
54.12895
  0
LINE
  8
0
  6
CONTINUOUS
 62
     7
 10
76.312
 20
61.80025
 11
76.312
 21
59.80025
  0
LINE
  8
0
  6
CONTINUOUS
 62
     7
 10
75.312
 20
61.80025
 11
75.312
 21
60.30025
  0
LINE
  8
0
  6
CONTINUOUS
 62
     7
 10
76.3119
 20
59.80026
 11
75.3119
 21
54.12899
  0
LINE
  8
0
  6
CONTINUOUS
 62
     7
 10
75.31189
 20
60.30028
 11
74.31189
 21
54.62897
  0
LINE
  8
0
  6
CONTINUOUS
 62
     7
 10
73.312
 20
51.80025
 11
73.312
 21
52.30025
  0
LINE
  8
0
  6
CONTINUOUS
 62
     7
 10
69.312
 20
53.80025
 11
68.312
 21
53.80025
  0
LINE
  8
0
  6
CONTINUOUS
 62
     7
 10
73.61187
 20
61.50017
 11
73.31187
 21
61.80016
  0
LINE
  8
0
  6
CONTINUOUS
 62
     7
 10
73.31207
 20
55.30017
 11
73.61206
 21
55.60017
  0
LINE
  8
0
  6
CONTINUOUS
 62
     7
 10
73.612
 20
55.60023
 11
73.612
 21
61.50026
  0
LINE
  8
0
  6
CONTINUOUS
 62
     7
 10
74.312
 20
54.30025
 11
74.312
 21
54.62895
  0
LINE
  8
0
  6
CONTINUOUS
 62
     7
 10
73.312
 20
54.30025
 11
73.312
 21
61.80025
  0
LINE
  8
0
  6
CONTINUOUS
 62
     7
 10
73.312
 20
61.80022
 11
68.312
 21
61.80022
  0
LINE
  8
0
  6
CENTER
 62
     2
 10
71.812
 20
58.80025
 11
71.812
 21
84.80022
  0
LINE
  8
0
  6
CONTINUOUS
 62
     7
 10
70.96201
 20
61.80025
 11
70.96201
 21
66.25151
  0
LINE
  8
0
  6
CONTINUOUS
 62
     7
 10
72.662
 20
61.80025
 11
72.662
 21
65.79601
  0
LINE
  8
0
  6
CONTINUOUS
 62
     7
 10
72.132
 20
71.80022
 11
72.132
 21
81.80022
  0
LINE
  8
0
  6
CONTINUOUS
 62
     7
 10
71.492
 20
71.80022
 11
71.492
 21
81.80022
  0
LINE
  8
0
  6
CONTINUOUS
 62
     7
 10
72.66199
 20
71.80022
 11
70.96199
 21
71.80022
  0
LINE
  8
0
  6
CONTINUOUS
 62
     7
 10
72.13199
 20
81.80022
 11
71.49199
 21
81.80022
  0
LINE
  8
0
  6
CONTINUOUS
 62
     7
 10
74.312
 20
52.30025
 11
74.312
 21
46.80025
  0
LINE
  8
0
  6
CONTINUOUS
 62
     7
 10
68.312
 20
53.80025
 11
68.312
 21
51.80025
  0
LINE
  8
0
  6
CENTER
 62
     2
 10
168.9368
 20
64.6256
 11
168.9368
 21
-47.61665
  0
LINE
  8
0
  6
CONTINUOUS
 62
     7
 10
177.9368
 20
24.80002
 11
177.9368
 21
-42.29997
  0
LINE
  8
0
  6
CONTINUOUS
 62
     7
 10
159.9368
 20
24.80002
 11
159.9368
 21
-42.29997
  0
LINE
  8
0
  6
CONTINUOUS
 62
     7
 10
159.9368
 20
7.60002
 11
177.9368
 21
7.60002
  0
LINE
  8
0
  6
CONTINUOUS
 62
     7
 10
159.9368
 20
-34.39998
 11
177.9368
 21
-34.39998
  0
LINE
  8
0
  6
CONTINUOUS
 62
     7
 10
160.4368
 20
-42.79997
 11
177.4368
 21
-42.79997
  0
LINE
  8
0
  6
CONTINUOUS
 62
     7
 10
160.9368
 20
25.80001
 11
159.9368
 21
24.80001
  0
LINE
  8
0
  6
CONTINUOUS
 62
     7
 10
176.9368
 20
25.8
 11
177.9368
 21
24.79999
  0
LINE
  8
0
  6
CENTER
 62
     2
 10
175.4368
 20
6.19131
 11
175.4368
 21
-2.81665
  0
LINE
  8
0
  6
CENTER
 62
     2
 10
162.4368
 20
-24.28723
 11
162.4368
 21
-32.69186
  0
LINE
  8
0
  6
CENTER
 62
     2
 10
159.5246
 20
-28.39998
 11
166.5951
 21
-28.39998
  0
LINE
  8
0
  6
CENTER
 62
     2
 10
171.0902
 20
1.60002
 11
178.5211
 21
1.60002
  0
LINE
  8
0
  6
CENTER
 62
     2
 10
166.0151
 20
22.30002
 11
171.8465
 21
22.30002
  0
LINE
  8
0
  6
CONTINUOUS
 62
     7
 10
160.9368
 20
25.80002
 11
176.9368
 21
25.80002
  0
LINE
  8
0
  6
CENTER
 62
     2
 10
162.9368
 20
-38.30573
 11
162.9368
 21
-44.25529
  0
LINE
  8
0
  6
CONTINUOUS
 62
     7
 10
166.1368
 20
-39.89998
 11
166.1368
 21
-42.29997
  0
LINE
  8
0
  6
CONTINUOUS
 62
     7
 10
160.4368
 20
-39.39998
 11
165.6368
 21
-39.39998
  0
LINE
  8
0
  6
CONTINUOUS
 62
     7
 10
160.1368
 20
-40.57181
 11
160.1368
 21
-39.39998
  0
LINE
  8
0
  6
CONTINUOUS
 62
     7
 10
165.7368
 20
-40.57181
 11
165.7368
 21
-39.39998
  0
LINE
  8
0
  6
CONTINUOUS
 62
     7
 10
159.9368
 20
24.80002
 11
177.9368
 21
24.80002
  0
LINE
  8
0
  6
CONTINUOUS
 62
     7
 10
161.4368
 20
52.00002
 11
161.4368
 21
25.80002
  0
LINE
  8
0
  6
CONTINUOUS
 62
     7
 10
161.4368
 20
51.00002
 11
161.9368
 21
51.00002
  0
LINE
  8
0
  6
CONTINUOUS
 62
     7
 10
176.4368
 20
52.00002
 11
176.4368
 21
25.80002
  0
LINE
  8
0
  6
CONTINUOUS
 62
     7
 10
161.4368
 20
52.00002
 11
163.4368
 21
52.00002
  0
LINE
  8
0
  6
CONTINUOUS
 62
     7
 10
162.4368
 20
54.00002
 11
162.611
 21
54.00002
  0
LINE
  8
0
  6
CONTINUOUS
 62
     7
 10
176.4368
 20
52.0
 11
175.4368
 21
54.00002
  0
LINE
  8
0
  6
CONTINUOUS
 62
     7
 10
161.4368
 20
52.00003
 11
162.4368
 21
54.00004
  0
LINE
  8
0
  6
CONTINUOUS
 62
     7
 10
163.4368
 20
52.60002
 11
161.8868
 21
52.60002
  0
LINE
  8
0
  6
CONTINUOUS
 62
     7
 10
161.8868
 20
52.60002
 11
161.8868
 21
52.00002
  0
LINE
  8
0
  6
CONTINUOUS
 62
     7
 10
162.1868
 20
53.29375
 11
162.1868
 21
52.60002
  0
LINE
  8
0
  6
CONTINUOUS
 62
     7
 10
175.9368
 20
51.80003
 11
175.9368
 21
46.80003
  0
LINE
  8
0
  6
CONTINUOUS
 62
     7
 10
161.9368
 20
51.80003
 11
161.9368
 21
46.80003
  0
LINE
  8
0
  6
CONTINUOUS
 62
     7
 10
161.9368
 20
46.00002
 11
161.9368
 21
26.60002
  0
LINE
  8
0
  6
CONTINUOUS
 62
     7
 10
175.9368
 20
46.00002
 11
175.9368
 21
26.60002
  0
LINE
  8
0
  6
CONTINUOUS
 62
     7
 10
163.4368
 20
27.30002
 11
174.4368
 21
27.30002
  0
LINE
  8
0
  6
CONTINUOUS
 62
     7
 10
163.4368
 20
35.80003
 11
174.4368
 21
35.80003
  0
LINE
  8
0
  6
CONTINUOUS
 62
     7
 10
163.4368
 20
35.80003
 11
163.4368
 21
27.30002
  0
LINE
  8
0
  6
CONTINUOUS
 62
     7
 10
174.4368
 20
35.80003
 11
174.4368
 21
27.30002
  0
LINE
  8
0
  6
CENTER
 62
     2
 10
164.9368
 20
38.30003
 11
172.9368
 21
38.30003
  0
LINE
  8
0
  6
CONTINUOUS
 62
     7
 10
166.9368
 20
39.30003
 11
170.9368
 21
39.30003
  0
LINE
  8
0
  6
CONTINUOUS
 62
     7
 10
166.9368
 20
37.30003
 11
170.9368
 21
37.30003
  0
LINE
  8
0
  6
CONTINUOUS
 62
     7
 10
166.9368
 20
39.30003
 11
166.9368
 21
37.30003
  0
LINE
  8
0
  6
CONTINUOUS
 62
     7
 10
170.9368
 20
39.30003
 11
170.9368
 21
37.30003
  0
LINE
  8
0
  6
CONTINUOUS
 62
     7
 10
166.4368
 20
39.80003
 11
171.4368
 21
39.80003
  0
LINE
  8
0
  6
CONTINUOUS
 62
     7
 10
166.4368
 20
39.80003
 11
166.4368
 21
36.80003
  0
LINE
  8
0
  6
CONTINUOUS
 62
     7
 10
166.4368
 20
36.80003
 11
171.4368
 21
36.80003
  0
LINE
  8
0
  6
CONTINUOUS
 62
     7
 10
171.4368
 20
39.80003
 11
171.4368
 21
36.80003
  0
LINE
  8
0
  6
CONTINUOUS
 62
     7
 10
166.9368
 20
39.29999
 11
166.4368
 21
39.79999
  0
LINE
  8
0
  6
CONTINUOUS
 62
     7
 10
170.9368
 20
39.3
 11
171.4368
 21
39.8
  0
LINE
  8
0
  6
CONTINUOUS
 62
     7
 10
170.9368
 20
37.3
 11
171.4368
 21
36.8
  0
LINE
  8
0
  6
CONTINUOUS
 62
     7
 10
166.9368
 20
37.30002
 11
166.4368
 21
36.80002
  0
LINE
  8
0
  6
CONTINUOUS
 62
     7
 10
161.9368
 20
51.80003
 11
164.7368
 21
51.80003
  0
LINE
  8
0
  6
CONTINUOUS
 62
     7
 10
164.9368
 20
59.80003
 11
172.9368
 21
59.80003
  0
LINE
  8
0
  6
CONTINUOUS
 62
     7
 10
164.9368
 20
54.12874
 11
172.9368
 21
54.12874
  0
LINE
  8
0
  6
CONTINUOUS
 62
     7
 10
161.9368
 20
46.80003
 11
175.9368
 21
46.80003
  0
LINE
  8
0
  6
CONTINUOUS
 62
     7
 10
173.1368
 20
51.80003
 11
173.1368
 21
46.80003
  0
LINE
  8
0
  6
CONTINUOUS
 62
     7
 10
164.7368
 20
51.80003
 11
164.7368
 21
46.80003
  0
LINE
  8
0
  6
CONTINUOUS
 62
     7
 10
173.1368
 20
51.80003
 11
175.9368
 21
51.80003
  0
LINE
  8
0
  6
CONTINUOUS
 62
     7
 10
163.4368
 20
61.80003
 11
174.4368
 21
61.80003
  0
LINE
  8
0
  6
CONTINUOUS
 62
     7
 10
172.9368
 20
46.80003
 11
172.9368
 21
61.80003
  0
LINE
  8
0
  6
CONTINUOUS
 62
     7
 10
164.9368
 20
46.80003
 11
164.9368
 21
61.80003
  0
LINE
  8
0
  6
CONTINUOUS
 62
     7
 10
163.4368
 20
51.80003
 11
163.4368
 21
61.80003
  0
LINE
  8
0
  6
CONTINUOUS
 62
     7
 10
174.4368
 20
51.80003
 11
174.4368
 21
61.80003
  0
LINE
  8
0
  6
CENTER
 62
     2
 10
166.4368
 20
58.80003
 11
166.4368
 21
84.80003
  0
LINE
  8
0
  6
CENTER
 62
     2
 10
171.4368
 20
58.80003
 11
171.4368
 21
84.80003
  0
LINE
  8
0
  6
CONTINUOUS
 62
     7
 10
165.5868
 20
71.80003
 11
167.2868
 21
71.80003
  0
LINE
  8
0
  6
CONTINUOUS
 62
     7
 10
166.1168
 20
81.80003
 11
166.7568
 21
81.80003
  0
LINE
  8
0
  6
CONTINUOUS
 62
     7
 10
171.7568
 20
71.80003
 11
171.7568
 21
81.80003
  0
LINE
  8
0
  6
CONTINUOUS
 62
     7
 10
171.1168
 20
71.80003
 11
171.1168
 21
81.80003
  0
LINE
  8
0
  6
CONTINUOUS
 62
     7
 10
166.7568
 20
71.80003
 11
166.7568
 21
81.80003
  0
LINE
  8
0
  6
CONTINUOUS
 62
     7
 10
166.1168
 20
71.80003
 11
166.1168
 21
81.80003
  0
LINE
  8
0
  6
CONTINUOUS
 62
     7
 10
167.2868
 20
61.80003
 11
167.2868
 21
66.46568
  0
LINE
  8
0
  6
CONTINUOUS
 62
     7
 10
165.5868
 20
61.80003
 11
165.5868
 21
66.92119
  0
LINE
  8
0
  6
CONTINUOUS
 62
     7
 10
170.5868
 20
61.80003
 11
170.5868
 21
65.58144
  0
LINE
  8
0
  6
CONTINUOUS
 62
     7
 10
172.2868
 20
61.80003
 11
172.2868
 21
65.12593
  0
LINE
  8
0
  6
CONTINUOUS
 62
     7
 10
170.5868
 20
71.80003
 11
172.2868
 21
71.80003
  0
LINE
  8
0
  6
CONTINUOUS
 62
     7
 10
171.1168
 20
81.80003
 11
171.7568
 21
81.80003
  0
LINE
  8
0
  6
PHANTOM
 62
     2
 10
174.2868
 20
66.14299
 11
163.5868
 21
69.01005
  0
LINE
  8
0
  6
PHANTOM
 62
     2
 10
174.2868
 20
64.59005
 11
163.5868
 21
67.45712
  0
LINE
  8
0
  6
CONTINUOUS
 62
     7
 10
165.5868
 20
68.47411
 11
165.5868
 21
71.80003
  0
LINE
  8
0
  6
CONTINUOUS
 62
     7
 10
167.2868
 20
68.0186
 11
167.2868
 21
71.80003
  0
LINE
  8
0
  6
CONTINUOUS
 62
     7
 10
170.5868
 20
67.13435
 11
170.5868
 21
71.80003
  0
LINE
  8
0
  6
CONTINUOUS
 62
     7
 10
172.2868
 20
66.67885
 11
172.2868
 21
71.80003
  0
LINE
  8
0
  6
CONTINUOUS
 62
     7
 10
174.4368
 20
52.00002
 11
176.4368
 21
52.00002
  0
LINE
  8
0
  6
CONTINUOUS
 62
     7
 10
175.9368
 20
51.00002
 11
176.4368
 21
51.00002
  0
LINE
  8
0
  6
CONTINUOUS
 62
     7
 10
175.4368
 20
54.00002
 11
174.4368
 21
54.00002
  0
LINE
  8
0
  6
CENTER
 62
     2
 10
285.5612
 20
57.35014
 11
285.5612
 21
-46.14986
  0
LINE
  8
0
  6
CONTINUOUS
 62
     7
 10
272.0612
 20
24.80014
 11
272.0612
 21
-42.29985
  0
LINE
  8
0
  6
CONTINUOUS
 62
     7
 10
298.5612
 20
-42.79985
 11
272.5612
 21
-42.79985
  0
LINE
  8
0
  6
CONTINUOUS
 62
     7
 10
298.0611
 20
25.80007
 11
299.0611
 21
24.80007
  0
LINE
  8
0
  6
CONTINUOUS
 62
     7
 10
273.0611
 20
25.80011
 11
272.0611
 21
24.80011
  0
LINE
  8
0
  6
CONTINUOUS
 62
     7
 10
275.0612
 20
-0.05817
 11
272.0612
 21
-0.05817
  0
LINE
  8
0
  6
CONTINUOUS
 62
     7
 10
275.0612
 20
3.25847
 11
272.0612
 21
3.25847
  0
LINE
  8
0
  6
CONTINUOUS
 62
     7
 10
275.0612
 20
-0.05817
 11
275.0612
 21
3.25845
  0
LINE
  8
0
  6
CONTINUOUS
 62
     7
 10
298.0611
 20
25.80014
 11
264.3611
 21
25.80014
  0
LINE
  8
0
  6
CENTER
 62
     2
 10
296.0612
 20
-38.52457
 11
296.0612
 21
-43.97208
  0
LINE
  8
0
  6
CONTINUOUS
 62
     7
 10
293.3611
 20
-39.39986
 11
298.5612
 21
-39.39986
  0
LINE
  8
0
  6
CONTINUOUS
 62
     7
 10
292.8611
 20
-39.89986
 11
292.8611
 21
-42.29985
  0
LINE
  8
0
  6
CONTINUOUS
 62
     7
 10
293.2611
 20
-40.57169
 11
293.2611
 21
-39.39986
  0
LINE
  8
0
  6
CONTINUOUS
 62
     7
 10
298.8611
 20
-40.57169
 11
298.8611
 21
-39.39986
  0
LINE
  8
0
  6
CONTINUOUS
 62
     7
 10
299.0612
 20
24.80014
 11
272.0612
 21
24.80014
  0
LINE
  8
0
  6
CONTINUOUS
 62
     7
 10
299.0612
 20
-34.39986
 11
272.0612
 21
-34.39986
  0
LINE
  8
0
  6
CONTINUOUS
 62
     7
 10
299.0612
 20
24.80014
 11
299.0612
 21
-42.29985
  0
LINE
  8
0
  6
CONTINUOUS
 62
     7
 10
299.0612
 20
7.60014
 11
272.0612
 21
7.60014
  0
LINE
  8
0
  6
PHANTOM
 62
     2
 10
271.9111
 20
65.25989
 11
266.2111
 21
66.7872
  0
LINE
  8
0
  6
PHANTOM
 62
     2
 10
271.9111
 20
66.81284
 11
266.2111
 21
68.34016
  0
LINE
  8
0
  6
CONTINUOUS
 62
     7
 10
269.9111
 20
67.34886
 11
269.9111
 21
71.80016
  0
LINE
  8
0
  6
CONTINUOUS
 62
     7
 10
268.2112
 20
67.80437
 11
268.2112
 21
71.80016
  0
LINE
  8
0
  6
CONTINUOUS
 62
     7
 10
273.5612
 20
51.00014
 11
297.5612
 21
51.00014
  0
LINE
  8
0
  6
CENTER
 62
     2
 10
276.5612
 20
57.00014
 11
276.5612
 21
48.00014
  0
LINE
  8
0
  6
CONTINUOUS
 62
     7
 10
297.5612
 20
52.00014
 11
297.5612
 21
25.80014
  0
LINE
  8
0
  6
CONTINUOUS
 62
     7
 10
296.3869
 20
54.00014
 11
296.5612
 21
54.00014
  0
LINE
  8
0
  6
CONTINUOUS
 62
     7
 10
292.3112
 20
53.29387
 11
292.3112
 21
52.60014
  0
LINE
  8
0
  6
CONTINUOUS
 62
     7
 10
296.8112
 20
53.2939
 11
296.8112
 21
52.60014
  0
LINE
  8
0
  6
CONTINUOUS
 62
     7
 10
292.0111
 20
52.60014
 11
292.0111
 21
52.00014
  0
LINE
  8
0
  6
CONTINUOUS
 62
     7
 10
297.1111
 20
52.60014
 11
297.1111
 21
52.00014
  0
LINE
  8
0
  6
CONTINUOUS
 62
     7
 10
294.8613
 20
52.60017
 11
295.022
 21
52.00018
  0
LINE
  8
0
  6
CONTINUOUS
 62
     7
 10
294.2612
 20
52.00018
 11
294.1005
 21
52.60018
  0
LINE
  8
0
  6
CONTINUOUS
 62
     7
 10
297.1111
 20
52.60014
 11
292.0111
 21
52.60014
  0
LINE
  8
0
  6
CENTER
 62
     2
 10
294.5612
 20
57.00014
 11
294.5612
 21
48.00014
  0
LINE
  8
0
  6
CONTINUOUS
 62
     7
 10
291.5612
 20
54.00014
 11
291.5612
 21
52.00014
  0
LINE
  8
0
  6
CONTINUOUS
 62
     7
 10
297.561
 20
52.0001
 11
296.561
 21
54.0001
  0
LINE
  8
0
  6
CONTINUOUS
 62
     7
 10
273.5612
 20
52.00015
 11
274.5612
 21
54.00017
  0
LINE
  8
0
  6
CONTINUOUS
 62
     7
 10
273.5612
 20
52.00014
 11
297.5612
 21
52.00014
  0
LINE
  8
0
  6
CONTINUOUS
 62
     7
 10
273.5612
 20
52.00014
 11
273.5612
 21
25.80014
  0
LINE
  8
0
  6
CONTINUOUS
 62
     7
 10
274.5612
 20
54.00014
 11
292.7354
 21
54.00014
  0
LINE
  8
0
  6
CONTINUOUS
 62
     7
 10
273.5612
 20
51.80013
 11
266.5612
 21
51.80013
  0
LINE
  8
0
  6
CONTINUOUS
 62
     7
 10
263.5612
 20
46.00014
 11
263.5612
 21
26.60014
  0
LINE
  8
0
  6
CONTINUOUS
 62
     7
 10
273.5612
 20
46.80016
 11
264.3611
 21
46.80016
  0
LINE
  8
0
  6
CONTINUOUS
 62
     7
 10
264.5612
 20
61.80016
 11
265.5612
 21
61.80016
  0
LINE
  8
0
  6
CONTINUOUS
 62
     7
 10
271.5612
 20
60.30016
 11
272.5612
 21
60.30016
  0
LINE
  8
0
  6
CONTINUOUS
 62
     7
 10
272.5612
 20
61.80016
 11
272.5612
 21
60.30016
  0
LINE
  8
0
  6
CONTINUOUS
 62
     7
 10
271.5612
 20
60.30016
 11
271.5612
 21
53.80016
  0
LINE
  8
0
  6
CONTINUOUS
 62
     7
 10
270.1611
 20
61.80016
 11
270.1611
 21
51.80016
  0
LINE
  8
0
  6
CONTINUOUS
 62
     7
 10
268.3611
 20
61.80016
 11
268.3611
 21
51.80016
  0
LINE
  8
0
  6
CONTINUOUS
 62
     7
 10
265.5612
 20
46.80016
 11
265.5612
 21
54.12886
  0
LINE
  8
0
  6
CONTINUOUS
 62
     7
 10
264.5612
 20
61.80016
 11
264.5612
 21
59.80016
  0
LINE
  8
0
  6
CONTINUOUS
 62
     7
 10
265.5612
 20
61.80016
 11
265.5612
 21
60.30016
  0
LINE
  8
0
  6
CONTINUOUS
 62
     7
 10
264.5613
 20
59.80019
 11
265.5613
 21
54.12889
  0
LINE
  8
0
  6
CONTINUOUS
 62
     7
 10
265.5613
 20
60.30017
 11
266.5613
 21
54.6289
  0
LINE
  8
0
  6
CONTINUOUS
 62
     7
 10
267.5612
 20
51.80016
 11
267.5612
 21
52.30016
  0
LINE
  8
0
  6
CONTINUOUS
 62
     7
 10
271.5612
 20
53.80016
 11
272.5612
 21
53.80016
  0
LINE
  8
0
  6
CONTINUOUS
 62
     7
 10
267.2612
 20
61.50008
 11
267.5612
 21
61.80007
  0
LINE
  8
0
  6
CONTINUOUS
 62
     7
 10
267.561
 20
55.30006
 11
267.261
 21
55.60006
  0
LINE
  8
0
  6
CONTINUOUS
 62
     7
 10
267.2611
 20
55.60014
 11
267.2611
 21
61.50017
  0
LINE
  8
0
  6
CONTINUOUS
 62
     7
 10
266.5612
 20
54.30016
 11
266.5612
 21
54.62886
  0
LINE
  8
0
  6
CONTINUOUS
 62
     7
 10
267.5612
 20
54.30016
 11
267.5612
 21
61.80016
  0
LINE
  8
0
  6
CONTINUOUS
 62
     7
 10
267.5612
 20
61.80016
 11
272.5612
 21
61.80016
  0
LINE
  8
0
  6
CENTER
 62
     2
 10
269.0612
 20
58.80016
 11
269.0612
 21
84.80016
  0
LINE
  8
0
  6
CONTINUOUS
 62
     7
 10
268.2112
 20
61.80016
 11
268.2112
 21
66.25145
  0
LINE
  8
0
  6
CONTINUOUS
 62
     7
 10
269.9111
 20
61.80016
 11
269.9111
 21
65.79594
  0
LINE
  8
0
  6
CONTINUOUS
 62
     7
 10
268.7411
 20
71.80016
 11
268.7411
 21
81.80016
  0
LINE
  8
0
  6
CONTINUOUS
 62
     7
 10
269.3811
 20
71.80016
 11
269.3811
 21
81.80016
  0
LINE
  8
0
  6
CONTINUOUS
 62
     7
 10
268.2112
 20
71.80016
 11
269.9111
 21
71.80016
  0
LINE
  8
0
  6
CONTINUOUS
 62
     7
 10
268.7411
 20
81.80016
 11
269.3812
 21
81.80016
  0
LINE
  8
0
  6
CONTINUOUS
 62
     7
 10
266.5612
 20
52.30016
 11
266.5612
 21
46.80016
  0
LINE
  8
0
  6
CONTINUOUS
 62
     7
 10
272.5612
 20
53.80016
 11
272.5612
 21
51.80016
  0
LINE
  8
0
  6
CONTINUOUS
 62
     7
 10
161.9372
 20
124.2773
 11
160.9372
 21
124.2773
  0
LINE
  8
0
  6
CONTINUOUS
 62
     7
 10
175.9372
 20
123.2773
 11
177.4372
 21
123.2773
  0
LINE
  8
0
  6
CENTER
 62
     2
 10
168.9372
 20
152.6735
 11
168.9372
 21
112.4762
  0
LINE
  8
0
  6
CONTINUOUS
 62
     7
 10
177.9372
 20
149.7773
 11
177.9372
 21
123.7773
  0
LINE
  8
0
  6
CONTINUOUS
 62
     7
 10
159.9372
 20
149.7773
 11
159.9372
 21
123.7773
  0
LINE
  8
0
  6
CONTINUOUS
 62
     7
 10
160.4372
 20
123.2773
 11
161.9372
 21
123.2773
  0
LINE
  8
0
  6
CONTINUOUS
 62
     7
 10
160.4372
 20
150.2773
 11
177.4372
 21
150.2773
  0
LINE
  8
0
  6
CENTER
 62
     2
 10
157.1872
 20
136.7773
 11
181.1646
 21
136.7773
  0
LINE
  8
0
  6
CONTINUOUS
 62
     7
 10
176.9372
 20
149.2773
 11
176.9372
 21
124.2773
  0
LINE
  8
0
  6
CONTINUOUS
 62
     7
 10
160.9372
 20
149.2773
 11
160.9372
 21
124.2773
  0
LINE
  8
0
  6
CONTINUOUS
 62
     7
 10
176.9372
 20
149.2773
 11
160.9372
 21
149.2773
  0
LINE
  8
0
  6
CONTINUOUS
 62
     7
 10
176.9372
 20
124.2773
 11
175.9372
 21
124.2773
  0
LINE
  8
0
  6
CONTINUOUS
 62
     7
 10
160.9372
 20
124.2772
 11
160.0836
 21
123.4237
  0
LINE
  8
0
  6
CONTINUOUS
 62
     7
 10
160.9372
 20
149.2773
 11
160.0836
 21
150.1308
  0
LINE
  8
0
  6
CONTINUOUS
 62
     7
 10
176.9371
 20
124.2773
 11
177.7907
 21
123.4237
  0
LINE
  8
0
  6
CONTINUOUS
 62
     7
 10
176.9372
 20
149.2773
 11
177.7907
 21
150.1309
  0
LINE
  8
0
  6
CONTINUOUS
 62
     7
 10
167.4372
 20
127.7773
 11
167.4372
 21
124.7773
  0
LINE
  8
0
  6
CONTINUOUS
 62
     7
 10
170.4372
 20
145.7773
 11
170.4372
 21
148.7773
  0
LINE
  8
0
  6
CONTINUOUS
 62
     7
 10
173.4372
 20
142.7773
 11
176.4372
 21
142.7773
  0
LINE
  8
0
  6
CONTINUOUS
 62
     7
 10
164.4372
 20
130.7773
 11
161.4372
 21
130.7773
  0
LINE
  8
0
  6
CONTINUOUS
 62
     7
 10
170.4372
 20
147.7773
 11
162.4372
 21
147.7773
  0
LINE
  8
0
  6
CONTINUOUS
 62
     7
 10
175.4372
 20
125.7773
 11
167.4372
 21
125.7773
  0
LINE
  8
0
  6
CONTINUOUS
 62
     7
 10
175.4372
 20
142.7773
 11
175.4372
 21
125.7773
  0
LINE
  8
0
  6
CONTINUOUS
 62
     7
 10
162.4372
 20
147.7773
 11
162.4372
 21
130.7773
  0
LINE
  8
0
  6
CONTINUOUS
 62
     7
 10
162.2073
 20
127.4773
 11
161.9049
 21
127.4773
  0
LINE
  8
0
  6
CONTINUOUS
 62
     7
 10
162.2073
 20
128.0773
 11
161.9049
 21
128.0773
  0
LINE
  8
0
  6
CONTINUOUS
 62
     7
 10
161.9292
 20
128.2381
 11
162.2349
 21
128.2381
  0
LINE
  8
0
  6
CONTINUOUS
 62
     7
 10
175.6671
 20
146.0773
 11
175.9695
 21
146.0773
  0
LINE
  8
0
  6
CONTINUOUS
 62
     7
 10
175.6671
 20
145.4773
 11
175.9695
 21
145.4773
  0
LINE
  8
0
  6
CONTINUOUS
 62
     7
 10
175.9452
 20
145.3165
 11
175.6395
 21
145.3165
  0
LINE
  8
0
  6
CONTINUOUS
 62
     7
 10
163.7018
 20
128.8804
 11
164.0695
 21
128.5127
  0
LINE
  8
0
  6
CONTINUOUS
 62
     7
 10
163.3341
 20
128.5128
 11
163.7018
 21
128.1451
  0
LINE
  8
0
  6
CONTINUOUS
 62
     7
 10
163.7018
 20
128.8804
 11
163.3341
 21
128.5127
  0
LINE
  8
0
  6
CONTINUOUS
 62
     7
 10
165.5403
 20
127.0419
 11
165.1726
 21
126.6742
  0
LINE
  8
0
  6
CONTINUOUS
 62
     7
 10
165.8336
 20
129.5415
 11
164.8049
 21
128.5127
  0
LINE
  8
0
  6
CONTINUOUS
 62
     7
 10
166.2014
 20
129.1738
 11
165.1725
 21
128.145
  0
LINE
  8
0
  6
CONTINUOUS
 62
     7
 10
165.1726
 20
127.4096
 11
165.5403
 21
127.0419
  0
LINE
  8
0
  6
CONTINUOUS
 62
     7
 10
164.8049
 20
127.042
 11
165.1726
 21
126.6743
  0
LINE
  8
0
  6
CONTINUOUS
 62
     7
 10
163.7018
 20
127.4096
 11
162.673
 21
126.3808
  0
LINE
  8
0
  6
CONTINUOUS
 62
     7
 10
164.0695
 20
127.0419
 11
163.0407
 21
126.0131
  0
LINE
  8
0
  6
CONTINUOUS
 62
     7
 10
172.7018
 20
146.8804
 11
173.0695
 21
146.5127
  0
LINE
  8
0
  6
CONTINUOUS
 62
     7
 10
172.3341
 20
146.5127
 11
172.7018
 21
146.145
  0
LINE
  8
0
  6
CONTINUOUS
 62
     7
 10
172.7018
 20
146.8804
 11
172.3341
 21
146.5127
  0
LINE
  8
0
  6
CONTINUOUS
 62
     7
 10
174.5403
 20
145.0419
 11
174.1725
 21
144.6742
  0
LINE
  8
0
  6
CONTINUOUS
 62
     7
 10
174.8336
 20
147.5415
 11
173.8049
 21
146.5127
  0
LINE
  8
0
  6
CONTINUOUS
 62
     7
 10
175.2013
 20
147.1738
 11
174.1725
 21
146.145
  0
LINE
  8
0
  6
CONTINUOUS
 62
     7
 10
174.1726
 20
145.4096
 11
174.5403
 21
145.0419
  0
LINE
  8
0
  6
CONTINUOUS
 62
     7
 10
173.8049
 20
145.042
 11
174.1726
 21
144.6742
  0
LINE
  8
0
  6
CONTINUOUS
 62
     7
 10
172.7018
 20
145.4096
 11
171.673
 21
144.3808
  0
LINE
  8
0
  6
CONTINUOUS
 62
     7
 10
173.0695
 20
145.0419
 11
172.0407
 21
144.0132
  0
LINE
  8
0
  6
CONTINUOUS
 62
     7
 10
174.4372
 20
119.5773
 11
172.9372
 21
119.5773
  0
LINE
  8
0
  6
CONTINUOUS
 62
     7
 10
172.9372
 20
116.7773
 11
164.9372
 21
116.7773
  0
LINE
  8
0
  6
CONTINUOUS
 62
     7
 10
174.4372
 20
119.5773
 11
174.4372
 21
121.3773
  0
LINE
  8
0
  6
CONTINUOUS
 62
     7
 10
163.4372
 20
119.5773
 11
163.4372
 21
121.3773
  0
LINE
  8
0
  6
CONTINUOUS
 62
     7
 10
172.9372
 20
118.7773
 11
172.6372
 21
118.4773
  0
LINE
  8
0
  6
CONTINUOUS
 62
     7
 10
164.9372
 20
118.7773
 11
165.2372
 21
118.4773
  0
LINE
  8
0
  6
CONTINUOUS
 62
     7
 10
172.9372
 20
121.3773
 11
172.9372
 21
123.7773
  0
LINE
  8
0
  6
CONTINUOUS
 62
     7
 10
164.9372
 20
121.3773
 11
164.9372
 21
123.7773
  0
LINE
  8
0
  6
CONTINUOUS
 62
     7
 10
164.9372
 20
119.5773
 11
163.4372
 21
119.5773
  0
LINE
  8
0
  6
CENTER
 62
     2
 10
172.8872
 20
120.2773
 11
164.9872
 21
120.2773
  0
LINE
  8
0
  6
CENTER
 62
     2
 10
171.4372
 20
118.9273
 11
171.4372
 21
121.7273
  0
LINE
  8
0
  6
CENTER
 62
     2
 10
166.4372
 20
118.9273
 11
166.4372
 21
121.7273
  0
LINE
  8
0
  6
CONTINUOUS
 62
     7
 10
172.3872
 20
119.3273
 11
170.4872
 21
119.3273
  0
LINE
  8
0
  6
CONTINUOUS
 62
     7
 10
172.3872
 20
121.2273
 11
170.4872
 21
121.2273
  0
LINE
  8
0
  6
CONTINUOUS
 62
     7
 10
172.3872
 20
119.1273
 11
172.3872
 21
121.2273
  0
LINE
  8
0
  6
CONTINUOUS
 62
     7
 10
170.4872
 20
119.1273
 11
170.4872
 21
121.2273
  0
LINE
  8
0
  6
CONTINUOUS
 62
     7
 10
169.8872
 20
119.1273
 11
169.8872
 21
121.2273
  0
LINE
  8
0
  6
CONTINUOUS
 62
     7
 10
167.9872
 20
119.1273
 11
167.9872
 21
121.2273
  0
LINE
  8
0
  6
CONTINUOUS
 62
     7
 10
165.4872
 20
119.1273
 11
165.4872
 21
121.2273
  0
LINE
  8
0
  6
CONTINUOUS
 62
     7
 10
167.3872
 20
119.1273
 11
167.3872
 21
121.2273
  0
LINE
  8
0
  6
CONTINUOUS
 62
     7
 10
169.8872
 20
119.3273
 11
167.9872
 21
119.3273
  0
LINE
  8
0
  6
CONTINUOUS
 62
     7
 10
169.8872
 20
121.2273
 11
167.9872
 21
121.2273
  0
LINE
  8
0
  6
CONTINUOUS
 62
     7
 10
167.3872
 20
121.2273
 11
165.4872
 21
121.2273
  0
LINE
  8
0
  6
CONTINUOUS
 62
     7
 10
167.3872
 20
119.3273
 11
165.4872
 21
119.3273
  0
LINE
  8
0
  6
CONTINUOUS
 62
     7
 10
172.6372
 20
118.4773
 11
165.2372
 21
118.4773
  0
LINE
  8
0
  6
CONTINUOUS
 62
     7
 10
172.9372
 20
115.7773
 11
164.9372
 21
115.7773
  0
LINE
  8
0
  6
CONTINUOUS
 62
     7
 10
164.9372
 20
115.7773
 11
164.9372
 21
119.5773
  0
LINE
  8
0
  6
CONTINUOUS
 62
     7
 10
172.9372
 20
115.7773
 11
172.9372
 21
119.5773
  0
LINE
  8
0
  6
CONTINUOUS
 62
     7
 10
172.3872
 20
119.1273
 11
170.4872
 21
119.1273
  0
LINE
  8
0
  6
CONTINUOUS
 62
     7
 10
169.8872
 20
119.1273
 11
167.9872
 21
119.1273
  0
LINE
  8
0
  6
CONTINUOUS
 62
     7
 10
167.3872
 20
119.1273
 11
165.4872
 21
119.1273
  0
LINE
  8
0
  6
CONTINUOUS
 62
     7
 10
171.9372
 20
121.5273
 11
170.9372
 21
121.5273
  0
LINE
  8
0
  6
CONTINUOUS
 62
     7
 10
169.4372
 20
121.5273
 11
168.4372
 21
121.5273
  0
LINE
  8
0
  6
CONTINUOUS
 62
     7
 10
166.9372
 20
121.5273
 11
165.9372
 21
121.5273
  0
LINE
  8
0
  6
CONTINUOUS
 62
     7
 10
171.9372
 20
121.2273
 11
171.9372
 21
121.5273
  0
LINE
  8
0
  6
CONTINUOUS
 62
     7
 10
170.9372
 20
121.2273
 11
170.9372
 21
121.5273
  0
LINE
  8
0
  6
CONTINUOUS
 62
     7
 10
169.4372
 20
121.2273
 11
169.4372
 21
121.5273
  0
LINE
  8
0
  6
CONTINUOUS
 62
     7
 10
168.4372
 20
121.2273
 11
168.4372
 21
121.5273
  0
LINE
  8
0
  6
CONTINUOUS
 62
     7
 10
165.9372
 20
121.2273
 11
165.9372
 21
121.5273
  0
LINE
  8
0
  6
CONTINUOUS
 62
     7
 10
166.9372
 20
121.2273
 11
166.9372
 21
121.5273
  0
LINE
  8
0
  6
CONTINUOUS
 62
     7
 10
171.9372
 20
122.6523
 11
170.9372
 21
122.6523
  0
LINE
  8
0
  6
CONTINUOUS
 62
     7
 10
171.4372
 20
122.1523
 11
171.4372
 21
123.1523
  0
LINE
  8
0
  6
CONTINUOUS
 62
     7
 10
166.9372
 20
122.6523
 11
165.9372
 21
122.6523
  0
LINE
  8
0
  6
CENTER
 62
     2
 10
168.4372
 20
127.7773
 11
160.4372
 21
127.7773
  0
LINE
  8
0
  6
CENTER
 62
     2
 10
177.4372
 20
145.7773
 11
169.4372
 21
145.7773
  0
LINE
  8
0
  6
CENTER
 62
     2
 10
173.4372
 20
149.7773
 11
173.4372
 21
141.7773
  0
LINE
  8
0
  6
CENTER
 62
     2
 10
164.4372
 20
131.7773
 11
164.4372
 21
123.7773
  0
LINE
  8
0
  6
CONTINUOUS
 62
     7
 10
175.9372
 20
117.7773
 11
161.9372
 21
117.7773
  0
LINE
  8
0
  6
CONTINUOUS
 62
     7
 10
174.6372
 20
119.3773
 11
173.1372
 21
119.3773
  0
LINE
  8
0
  6
CONTINUOUS
 62
     7
 10
174.6372
 20
121.3773
 11
172.9372
 21
121.3773
  0
LINE
  8
0
  6
CONTINUOUS
 62
     7
 10
173.1372
 20
123.7773
 11
164.7372
 21
123.7773
  0
LINE
  8
0
  6
CONTINUOUS
 62
     7
 10
173.1372
 20
123.7773
 11
173.1372
 21
121.3773
  0
LINE
  8
0
  6
CONTINUOUS
 62
     7
 10
164.7372
 20
123.7773
 11
164.7372
 21
121.3773
  0
LINE
  8
0
  6
CONTINUOUS
 62
     7
 10
163.2372
 20
121.3773
 11
163.2372
 21
119.3773
  0
LINE
  8
0
  6
CONTINUOUS
 62
     7
 10
174.6372
 20
121.3773
 11
174.6372
 21
119.3773
  0
LINE
  8
0
  6
CONTINUOUS
 62
     7
 10
164.9372
 20
121.3773
 11
163.2372
 21
121.3773
  0
LINE
  8
0
  6
CONTINUOUS
 62
     7
 10
164.7372
 20
119.3773
 11
163.2372
 21
119.3773
  0
LINE
  8
0
  6
CONTINUOUS
 62
     7
 10
173.1372
 20
119.3773
 11
173.1372
 21
117.7773
  0
LINE
  8
0
  6
CONTINUOUS
 62
     7
 10
164.7372
 20
119.3773
 11
164.7372
 21
117.7773
  0
LINE
  8
0
  6
CONTINUOUS
 62
     7
 10
173.1372
 20
118.7773
 11
164.7372
 21
118.7773
  0
LINE
  8
0
  6
CONTINUOUS
 62
     7
 10
175.9372
 20
148.7773
 11
161.9372
 21
148.7773
  0
LINE
  8
0
  6
CONTINUOUS
 62
     7
 10
176.4372
 20
148.2773
 11
176.4372
 21
124.7773
  0
LINE
  8
0
  6
CONTINUOUS
 62
     7
 10
161.4372
 20
148.2773
 11
161.4372
 21
124.7773
  0
LINE
  8
0
  6
CONTINUOUS
 62
     7
 10
176.4372
 20
124.7773
 11
161.4372
 21
124.7773
  0
LINE
  8
0
  6
CONTINUOUS
 62
     7
 10
175.9372
 20
124.7773
 11
175.9372
 21
115.5773
  0
LINE
  8
0
  6
CONTINUOUS
 62
     7
 10
175.1372
 20
114.7773
 11
162.7372
 21
114.7773
  0
LINE
  8
0
  6
CONTINUOUS
 62
     7
 10
161.9372
 20
124.7773
 11
161.9372
 21
115.5773
  0
LINE
  8
0
  6
CONTINUOUS
 62
     7
 10
173.9372
 20
116.2773
 11
172.9372
 21
116.2773
  0
LINE
  8
0
  6
CONTINUOUS
 62
     7
 10
173.4372
 20
115.5773
 11
164.4372
 21
115.5773
  0
LINE
  8
0
  6
CONTINUOUS
 62
     7
 10
174.4372
 20
117.7773
 11
174.4372
 21
116.7773
  0
LINE
  8
0
  6
CONTINUOUS
 62
     7
 10
163.4372
 20
117.7773
 11
163.4372
 21
116.7773
  0
LINE
  8
0
  6
CONTINUOUS
 62
     7
 10
173.4372
 20
116.2773
 11
173.4372
 21
115.5773
  0
LINE
  8
0
  6
CONTINUOUS
 62
     7
 10
164.4372
 20
116.2773
 11
164.4372
 21
115.5773
  0
LINE
  8
0
  6
CONTINUOUS
 62
     7
 10
164.9372
 20
116.2773
 11
163.9372
 21
116.2773
  0
LINE
  8
0
  6
CENTER
 62
     2
 10
173.937
 20
-166.2066
 11
173.937
 21
-159.349
  0
LINE
  8
0
  6
CENTER
 62
     2
 10
163.937
 20
-184.8278
 11
163.937
 21
-178.3048
  0
LINE
  8
0
  6
CENTER
 62
     2
 10
170.5396
 20
-162.6791
 11
177.1184
 21
-162.6791
  0
LINE
  8
0
  6
CENTER
 62
     2
 10
160.6157
 20
-181.6791
 11
167.3617
 21
-181.6791
  0
LINE
  8
0
  6
CONTINUOUS
 62
     7
 10
163.7855
 20
-161.2549
 11
164.2098
 21
-160.8306
  0
LINE
  8
0
  6
CONTINUOUS
 62
     7
 10
162.5127
 20
-160.8306
 11
162.0885
 21
-160.4063
  0
LINE
  8
0
  6
CONTINUOUS
 62
     7
 10
162.0885
 20
-161.2548
 11
161.6642
 21
-160.8306
  0
LINE
  8
0
  6
CONTINUOUS
 62
     7
 10
161.6642
 20
-162.5277
 11
162.0885
 21
-162.1034
  0
LINE
  8
0
  6
CONTINUOUS
 62
     7
 10
162.0885
 20
-162.952
 11
162.5127
 21
-162.5277
  0
LINE
  8
0
  6
CONTINUOUS
 62
     7
 10
161.6642
 20
-160.8306
 11
162.0884
 21
-160.4063
  0
LINE
  8
0
  6
CONTINUOUS
 62
     7
 10
163.7855
 20
-162.952
 11
164.2098
 21
-162.5277
  0
LINE
  8
0
  6
CONTINUOUS
 62
     7
 10
163.3613
 20
-160.8306
 11
163.7855
 21
-160.4064
  0
LINE
  8
0
  6
CENTER
 62
     2
 10
157.187
 20
-172.1791
 11
181.1644
 21
-172.1791
  0
LINE
  8
0
  6
CENTER
 62
     2
 10
168.937
 20
-188.0754
 11
168.937
 21
-147.8458
  0
LINE
  8
0
  6
CONTINUOUS
 62
     7
 10
177.937
 20
-185.1791
 11
177.937
 21
-159.1791
  0
LINE
  8
0
  6
CONTINUOUS
 62
     7
 10
159.937
 20
-185.1791
 11
159.937
 21
-159.1791
  0
LINE
  8
0
  6
CONTINUOUS
 62
     7
 10
160.437
 20
-158.6791
 11
177.437
 21
-158.6791
  0
LINE
  8
0
  6
CONTINUOUS
 62
     7
 10
160.437
 20
-185.6791
 11
177.437
 21
-185.6791
  0
LINE
  8
0
  6
CENTER
 62
     2
 10
162.937
 20
-165.817
 11
162.937
 21
-157.5092
  0
LINE
  8
0
  6
CENTER
 62
     2
 10
174.937
 20
-186.8581
 11
174.937
 21
-178.5112
  0
LINE
  8
0
  6
CENTER
 62
     2
 10
170.9047
 20
-182.6791
 11
178.8467
 21
-182.6791
  0
LINE
  8
0
  6
CENTER
 62
     2
 10
159.0799
 20
-161.6791
 11
166.8042
 21
-161.6791
  0
LINE
  8
0
  6
CONTINUOUS
 62
     7
 10
174.937
 20
-179.4791
 11
177.437
 21
-179.4791
  0
LINE
  8
0
  6
CONTINUOUS
 62
     7
 10
171.737
 20
-185.1791
 11
171.737
 21
-182.6791
  0
LINE
  8
0
  6
CONTINUOUS
 62
     7
 10
166.137
 20
-161.6791
 11
166.137
 21
-159.1791
  0
LINE
  8
0
  6
CONTINUOUS
 62
     7
 10
160.437
 20
-164.8791
 11
162.937
 21
-164.8791
  0
LINE
  8
0
  6
CONTINUOUS
 62
     7
 10
174.0884
 20
-183.952
 11
173.6642
 21
-183.5277
  0
LINE
  8
0
  6
CONTINUOUS
 62
     7
 10
176.2097
 20
-181.8306
 11
175.7855
 21
-181.4064
  0
LINE
  8
0
  6
CONTINUOUS
 62
     7
 10
175.7855
 20
-183.9519
 11
175.3612
 21
-183.5277
  0
LINE
  8
0
  6
CONTINUOUS
 62
     7
 10
176.2097
 20
-183.5276
 11
175.7855
 21
-183.1034
  0
LINE
  8
0
  6
CONTINUOUS
 62
     7
 10
175.7855
 20
-183.9519
 11
176.2098
 21
-183.5277
  0
LINE
  8
0
  6
CONTINUOUS
 62
     7
 10
173.6642
 20
-181.8306
 11
174.0885
 21
-181.4064
  0
LINE
  8
0
  6
CONTINUOUS
 62
     7
 10
174.0884
 20
-183.9519
 11
174.5127
 21
-183.5277
  0
LINE
  8
0
  6
CONTINUOUS
 62
     7
 10
173.6642
 20
-183.5277
 11
174.0885
 21
-183.1034
  0
LINE
  8
0
  6
CONTINUOUS
 62
     7
 10
174.0885
 20
-182.2549
 11
173.6642
 21
-181.8306
  0
LINE
  8
0
  6
CONTINUOUS
 62
     7
 10
174.5127
 20
-181.8306
 11
174.0884
 21
-181.4063
  0
LINE
  8
0
  6
CONTINUOUS
 62
     7
 10
175.7855
 20
-182.2549
 11
176.2098
 21
-181.8306
  0
LINE
  8
0
  6
CONTINUOUS
 62
     7
 10
175.3613
 20
-181.8306
 11
175.7856
 21
-181.4064
  0
LINE
  8
0
  6
CONTINUOUS
 62
     7
 10
162.0885
 20
-162.9519
 11
161.6642
 21
-162.5276
  0
LINE
  8
0
  6
CONTINUOUS
 62
     7
 10
164.2098
 20
-160.8306
 11
163.7855
 21
-160.4063
  0
LINE
  8
0
  6
CONTINUOUS
 62
     7
 10
163.7855
 20
-162.9519
 11
163.3613
 21
-162.5276
  0
LINE
  8
0
  6
CONTINUOUS
 62
     7
 10
164.2098
 20
-162.5276
 11
163.7855
 21
-162.1034
  0
LINE
  8
0
  6
CONTINUOUS
 62
     7
 10
162.737
 20
-150.1791
 11
175.137
 21
-150.1791
  0
LINE
  8
0
  6
CONTINUOUS
 62
     7
 10
175.937
 20
-158.6791
 11
175.937
 21
-150.9791
  0
LINE
  8
0
  6
CONTINUOUS
 62
     7
 10
161.937
 20
-158.6791
 11
161.937
 21
-150.9791
  0
ARC
  8
0
  6
CONTINUOUS
 62
     7
 10
273.0354
 20
-235.0457
 40
2.21188
 50
0.0
 51
89.99999
  0
ARC
  8
0
  6
CONTINUOUS
 62
     7
 10
291.2836
 20
-246.9346
 40
2.2119
 50
270.0
 51
0.0
  0
ARC
  8
0
  6
CONTINUOUS
 62
     7
 10
290.1776
 20
-236.1516
 40
3.31784
 50
0.0
 51
89.99999
  0
ARC
  8
0
  6
CONTINUOUS
 62
     7
 10
310.3611
 20
-236.8128
 40
2.21189
 50
295.0
 51
0.0
  0
ARC
  8
0
  6
CONTINUOUS
 62
     7
 10
310.3611
 20
-235.0457
 40
2.21188
 50
0.0
 51
89.99999
  0
ARC
  8
0
  6
CONTINUOUS
 62
     7
 10
327.5034
 20
-232.8338
 40
3.31784
 50
291.6884
 51
0.0
  0
ARC
  8
0
  6
CONTINUOUS
 62
     7
 10
326.3973
 20
-232.0834
 40
1.10595
 50
291.689
 51
0.0
  0
ARC
  8
0
  6
CONTINUOUS
 62
     7
 10
-194.9367
 20
135.2775
 40
0.5
 50
180.0
 51
270.0
  0
ARC
  8
0
  6
CONTINUOUS
 62
     7
 10
-168.9367
 20
135.2775
 40
0.5
 50
270.0
 51
0.0
  0
ARC
  8
0
  6
CONTINUOUS
 62
     7
 10
-168.9367
 20
152.2775
 40
0.5
 50
0.0
 51
89.99999
  0
ARC
  8
0
  6
CONTINUOUS
 62
     7
 10
-194.9367
 20
152.2775
 40
0.5
 50
89.99999
 51
180.0
  0
ARC
  8
0
  6
CONTINUOUS
 62
     7
 10
-172.9367
 20
139.2775
 40
3.0
 50
89.99999
 51
180.0
  0
ARC
  8
0
  6
CONTINUOUS
 62
     7
 10
-190.9367
 20
148.2775
 40
3.0
 50
270.0
 51
0.0
  0
ARC
  8
0
  6
CONTINUOUS
 62
     7
 10
-172.9367
 20
139.2775
 40
2.55
 50
276.7564
 51
263.2436
  0
ARC
  8
0
  6
CONTINUOUS
 62
     7
 10
-190.9367
 20
148.2775
 40
2.55
 50
96.7564
 51
83.24359
  0
CIRCLE
  8
0
  6
CONTINUOUS
 62
     7
 10
-172.9367
 20
139.2775
 40
2.25
  0
ARC
  8
0
  6
CONTINUOUS
 62
     7
 10
-172.9367
 20
140.3806
 40
0.51999
 50
225.0
 51
315.0
  0
ARC
  8
0
  6
CONTINUOUS
 62
     7
 10
-174.0398
 20
139.2775
 40
0.51999
 50
315.0
 51
45.0
  0
ARC
  8
0
  6
CONTINUOUS
 62
     7
 10
-171.8336
 20
139.2775
 40
0.51999
 50
135.0
 51
225.0
  0
ARC
  8
0
  6
CONTINUOUS
 62
     7
 10
-172.9367
 20
138.1745
 40
0.51999
 50
45.0
 51
135.0
  0
CIRCLE
  8
0
  6
CONTINUOUS
 62
     7
 10
-190.9367
 20
148.2775
 40
2.25
  0
ARC
  8
0
  6
CONTINUOUS
 62
     7
 10
-190.9367
 20
149.3806
 40
0.51999
 50
225.0
 51
315.0
  0
ARC
  8
0
  6
CONTINUOUS
 62
     7
 10
-192.0398
 20
148.2775
 40
0.51999
 50
315.0
 51
45.0
  0
ARC
  8
0
  6
CONTINUOUS
 62
     7
 10
-189.8336
 20
148.2775
 40
0.51999
 50
135.0
 51
225.0
  0
ARC
  8
0
  6
CONTINUOUS
 62
     7
 10
-190.9367
 20
147.1745
 40
0.51999
 50
45.0
 51
135.0
  0
CIRCLE
  8
0
  6
CONTINUOUS
 62
     7
 10
-165.4367
 20
146.2775
 40
0.85
  0
CIRCLE
  8
0
  6
CONTINUOUS
 62
     7
 10
-165.4367
 20
141.2775
 40
0.85
  0
ARC
  8
0
  6
CONTINUOUS
 62
     7
 10
-167.8117
 20
143.7775
 40
0.49999
 50
315.0
 51
225.0
  0
ARC
  8
0
  6
CONTINUOUS
 62
     7
 10
-193.4367
 20
150.7775
 40
0.5
 50
89.99999
 51
180.0
  0
ARC
  8
0
  6
CONTINUOUS
 62
     7
 10
-193.4367
 20
136.7775
 40
0.5
 50
180.0
 51
270.0
  0
ARC
  8
0
  6
CONTINUOUS
 62
     7
 10
-160.7367
 20
149.9776
 40
0.8
 50
0.0
 51
89.99999
  0
ARC
  8
0
  6
CONTINUOUS
 62
     7
 10
-160.7367
 20
137.5775
 40
0.8
 50
270.0
 51
0.0
  0
ARC
  8
0
  6
CONTINUOUS
 62
     7
 10
-161.9367
 20
148.7775
 40
0.5
 50
0.0
 51
89.99999
  0
ARC
  8
0
  6
CONTINUOUS
 62
     7
 10
-161.9367
 20
138.7775
 40
0.5
 50
270.0
 51
0.0
  0
ARC
  8
0
  6
CONTINUOUS
 62
     7
 10
-194.9368
 20
-42.29999
 40
0.5
 50
180.0
 51
270.0
  0
ARC
  8
0
  6
CONTINUOUS
 62
     7
 10
-168.9368
 20
-42.29999
 40
0.5
 50
270.0
 51
0.0
  0
ARC
  8
0
  6
CONTINUOUS
 62
     7
 10
-174.1368
 20
-39.89999
 40
0.5
 50
89.99999
 51
180.0
  0
ARC
  8
0
  6
CONTINUOUS
 62
     7
 10
-168.9368
 20
-38.89999
 40
0.5
 50
270.0
 51
0.0
  0
ARC
  8
0
  6
CONTINUOUS
 62
     7
 10
-175.1368
 20
-42.29999
 40
0.5
 50
270.0
 51
0.0
  0
ARC
  8
0
  6
CONTINUOUS
 62
     7
 10
-171.4368
 20
-36.8
 40
5.0
 50
240.5077
 51
299.4923
  0
ARC
  8
0
  6
CONTINUOUS
 62
     7
 10
-173.5701
 20
-40.57182
 40
0.66667
 50
180.0
 51
240.5079
  0
ARC
  8
0
  6
CONTINUOUS
 62
     7
 10
-169.3035
 20
-40.57182
 40
0.66666
 50
299.4921
 51
0.0
  0
CIRCLE
  8
0
  6
CONTINUOUS
 62
     7
 10
-174.4368
 20
1.60001
 40
1.6
  0
CIRCLE
  8
0
  6
CONTINUOUS
 62
     7
 10
-174.4368
 20
-28.39999
 40
1.6
  0
ARC
  8
0
  6
CONTINUOUS
 62
     7
 10
-172.9368
 20
48.3
 40
6.0
 50
73.80862
 51
106.1914
  0
ARC
  8
0
  6
CONTINUOUS
 62
     7
 10
-171.4868
 20
53.29375
 40
0.8
 50
0.0
 51
73.8082
  0
ARC
  8
0
  6
CONTINUOUS
 62
     7
 10
-174.3868
 20
53.29375
 40
0.8
 50
106.1918
 51
180.0
  0
ARC
  8
0
  6
CONTINUOUS
 62
     7
 10
-189.4868
 20
53.29375
 40
0.8
 50
61.98621
 51
73.8082
  0
ARC
  8
0
  6
CONTINUOUS
 62
     7
 10
-192.3868
 20
53.29375
 40
0.8
 50
106.1918
 51
118.0138
  0
ARC
  8
0
  6
CONTINUOUS
 62
     7
 10
-190.9368
 20
48.3
 40
6.0
 50
73.80862
 51
106.1914
  0
ARC
  8
0
  6
CONTINUOUS
 62
     7
 10
-160.7368
 20
46.00002
 40
0.8
 50
0.0
 51
89.99999
  0
ARC
  8
0
  6
CONTINUOUS
 62
     7
 10
-160.7368
 20
26.60002
 40
0.8
 50
270.0
 51
0.0
  0
ARC
  8
0
  6
CONTINUOUS
 62
     7
 10
-163.4368
 20
54.3
 40
0.5
 50
180.0
 51
0.0
  0
ARC
  8
0
  6
CONTINUOUS
 62
     7
 10
-163.4368
 20
52.3
 40
0.5
 50
0.0
 51
180.0
  0
CIRCLE
  8
0
  6
CONTINUOUS
 62
     7
 10
-307.0613
 20
17.50017
 40
2.0
  0
ARC
  8
0
  6
CONTINUOUS
 62
     7
 10
-313.0613
 20
-36.79982
 40
5.00001
 50
240.5075
 51
299.4925
  0
ARC
  8
0
  6
CONTINUOUS
 62
     7
 10
-315.1946
 20
-40.57166
 40
0.66666
 50
180.0
 51
240.5067
  0
ARC
  8
0
  6
CONTINUOUS
 62
     7
 10
-310.928
 20
-40.57166
 40
0.66667
 50
299.4933
 51
0.0
  0
ARC
  8
0
  6
CONTINUOUS
 62
     7
 10
-315.5613
 20
-38.89983
 40
0.5
 50
180.0
 51
270.0
  0
ARC
  8
0
  6
CONTINUOUS
 62
     7
 10
-310.3613
 20
-39.89983
 40
0.5
 50
0.0
 51
89.99999
  0
CIRCLE
  8
0
  6
CONTINUOUS
 62
     7
 10
-307.0613
 20
17.50017
 40
2.65
  0
CIRCLE
  8
0
  6
CONTINUOUS
 62
     7
 10
-313.5613
 20
1.60017
 40
1.6
  0
CIRCLE
  8
0
  6
CONTINUOUS
 62
     7
 10
-300.5613
 20
-28.39983
 40
1.6
  0
ARC
  8
0
  6
CONTINUOUS
 62
     7
 10
-298.5613
 20
-42.29982
 40
0.5
 50
270.0
 51
0.0
  0
ARC
  8
0
  6
CONTINUOUS
 62
     7
 10
-315.5613
 20
-42.29982
 40
0.5
 50
180.0
 51
270.0
  0
ARC
  8
0
  6
CONTINUOUS
 62
     7
 10
-309.3613
 20
-42.29982
 40
0.5
 50
180.0
 51
270.0
  0
CIRCLE
  8
0
  6
CONTINUOUS
 62
     7
 10
-306.5613
 20
-0.19983
 40
4.86435
  0
CIRCLE
  8
0
  6
CONTINUOUS
 62
     7
 10
-306.5613
 20
-0.19983
 40
4.28325
  0
CIRCLE
  8
0
  6
CONTINUOUS
 62
     7
 10
-307.5613
 20
-26.59982
 40
4.86435
  0
CIRCLE
  8
0
  6
CONTINUOUS
 62
     7
 10
-307.5613
 20
-26.59982
 40
4.28325
  0
CIRCLE
  8
0
  6
CONTINUOUS
 62
     7
 10
-307.0613
 20
-13.39983
 40
4.86435
  0
CIRCLE
  8
0
  6
CONTINUOUS
 62
     7
 10
-307.0613
 20
-13.39983
 40
4.28325
  0
ARC
  8
0
  6
CONTINUOUS
 62
     7
 10
-310.5076
 20
46.75349
 40
0.35345
 50
0.0
 51
89.99999
  0
ARC
  8
0
  6
CONTINUOUS
 62
     7
 10
-307.5915
 20
44.85362
 40
0.35346
 50
270.0
 51
0.0
  0
ARC
  8
0
  6
CONTINUOUS
 62
     7
 10
-307.7682
 20
46.57677
 40
0.53018
 50
0.0
 51
89.99999
  0
ARC
  8
0
  6
CONTINUOUS
 62
     7
 10
-304.5429
 20
46.75349
 40
0.35345
 50
0.0
 51
89.99999
  0
ARC
  8
0
  6
CONTINUOUS
 62
     7
 10
-304.5429
 20
46.47112
 40
0.35347
 50
295.0005
 51
0.0
  0
ARC
  8
0
  6
CONTINUOUS
 62
     7
 10
-301.8036
 20
47.10695
 40
0.53019
 50
291.6869
 51
0.0
  0
ARC
  8
0
  6
CONTINUOUS
 62
     7
 10
-301.9803
 20
47.22685
 40
0.17673
 50
291.687
 51
0.0
  0
ARC
  8
0
  6
CONTINUOUS
 62
     7
 10
-313.0113
 20
53.2939
 40
0.8
 50
106.1918
 51
180.0
  0
ARC
  8
0
  6
CONTINUOUS
 62
     7
 10
-311.5613
 20
48.30016
 40
6.0
 50
73.80876
 51
106.1912
  0
ARC
  8
0
  6
CONTINUOUS
 62
     7
 10
-310.1113
 20
53.2939
 40
0.79999
 50
0.0
 51
73.8082
  0
ARC
  8
0
  6
CONTINUOUS
 62
     7
 10
-302.5613
 20
48.30016
 40
6.0
 50
73.80876
 51
106.1912
  0
ARC
  8
0
  6
CONTINUOUS
 62
     7
 10
-304.0113
 20
53.2939
 40
0.8
 50
106.1918
 51
118.0148
  0
ARC
  8
0
  6
CONTINUOUS
 62
     7
 10
-301.1113
 20
53.2939
 40
0.80001
 50
61.98524
 51
73.8082
  0
ARC
  8
0
  6
CONTINUOUS
 62
     7
 10
-48.8123
 20
-36.79994
 40
5.0
 50
240.5076
 51
299.4923
  0
ARC
  8
0
  6
CONTINUOUS
 62
     7
 10
-50.94563
 20
-40.57178
 40
0.66667
 50
180.0
 51
240.5076
  0
ARC
  8
0
  6
CONTINUOUS
 62
     7
 10
-46.67897
 20
-40.57178
 40
0.66667
 50
299.4924
 51
0.0
  0
CIRCLE
  8
0
  6
CONTINUOUS
 62
     7
 10
-42.8123
 20
22.30006
 40
1.65
  0
ARC
  8
0
  6
CONTINUOUS
 62
     7
 10
-51.3123
 20
-42.29994
 40
0.5
 50
180.0
 51
270.0
  0
ARC
  8
0
  6
CONTINUOUS
 62
     7
 10
-34.3123
 20
-42.29994
 40
0.5
 50
270.0
 51
0.0
  0
CIRCLE
  8
0
  6
CONTINUOUS
 62
     7
 10
-49.3123
 20
-28.39995
 40
1.6
  0
CIRCLE
  8
0
  6
CONTINUOUS
 62
     7
 10
-36.3123
 20
1.60005
 40
1.6
  0
ARC
  8
0
  6
CONTINUOUS
 62
     7
 10
-36.3123
 20
1.60005
 40
3.0
 50
33.55732
 51
326.4427
  0
ARC
  8
0
  6
CONTINUOUS
 62
     7
 10
-49.3123
 20
-28.39995
 40
3.0
 50
0.0
 51
146.4427
  0
ARC
  8
0
  6
CONTINUOUS
 62
     7
 10
-49.3123
 20
-28.39995
 40
3.0
 50
213.5573
 51
0.0
  0
ARC
  8
0
  6
CONTINUOUS
 62
     7
 10
-46.11229
 20
-39.89995
 40
0.5
 50
0.0
 51
89.99999
  0
ARC
  8
0
  6
CONTINUOUS
 62
     7
 10
-51.3123
 20
-38.89995
 40
0.5
 50
180.0
 51
270.0
  0
ARC
  8
0
  6
CONTINUOUS
 62
     7
 10
-45.11229
 20
-42.29994
 40
0.5
 50
180.0
 51
270.0
  0
CIRCLE
  8
0
  6
CONTINUOUS
 62
     7
 10
-43.3123
 20
-21.39995
 40
4.86435
  0
CIRCLE
  8
0
  6
CONTINUOUS
 62
     7
 10
-43.3123
 20
-21.39995
 40
4.28325
  0
CIRCLE
  8
0
  6
CONTINUOUS
 62
     7
 10
-42.3123
 20
-5.39995
 40
4.86435
  0
CIRCLE
  8
0
  6
CONTINUOUS
 62
     7
 10
-42.3123
 20
-5.39995
 40
4.28325
  0
ARC
  8
0
  6
CONTINUOUS
 62
     7
 10
-47.3123
 20
48.30003
 40
6.0
 50
99.5941
 51
106.1913
  0
ARC
  8
0
  6
CONTINUOUS
 62
     7
 10
-48.76231
 20
53.29378
 40
0.8
 50
106.1913
 51
180.0
  0
ARC
  8
0
  6
CONTINUOUS
 62
     7
 10
-38.3123
 20
48.30003
 40
6.0
 50
73.80865
 51
80.40593
  0
ARC
  8
0
  6
CONTINUOUS
 62
     7
 10
-36.86229
 20
53.29381
 40
0.8
 50
61.98621
 51
73.80872
  0
ARC
  8
0
  6
CONTINUOUS
 62
     7
 10
-49.01228
 20
46.00005
 40
0.8
 50
89.99999
 51
180.0
  0
ARC
  8
0
  6
CONTINUOUS
 62
     7
 10
-36.61229
 20
46.00005
 40
0.8
 50
0.0
 51
89.99999
  0
ARC
  8
0
  6
CONTINUOUS
 62
     7
 10
-49.01228
 20
26.60005
 40
0.8
 50
180.0
 51
270.0
  0
ARC
  8
0
  6
CONTINUOUS
 62
     7
 10
-36.61229
 20
26.60005
 40
0.8
 50
270.0
 51
0.0
  0
CIRCLE
  8
0
  6
CONTINUOUS
 62
     7
 10
-172.4368
 20
-184.179
 40
1.5
  0
CIRCLE
  8
0
  6
CONTINUOUS
 62
     7
 10
-191.4368
 20
-174.179
 40
1.5
  0
CIRCLE
  8
0
  6
CONTINUOUS
 62
     7
 10
-191.4368
 20
-174.179
 40
1.0
  0
ARC
  8
0
  6
CONTINUOUS
 62
     7
 10
-194.9368
 20
-170.679
 40
0.5
 50
89.99999
 51
180.0
  0
ARC
  8
0
  6
CONTINUOUS
 62
     7
 10
-168.9368
 20
-170.679
 40
0.5
 50
0.0
 51
89.99999
  0
ARC
  8
0
  6
CONTINUOUS
 62
     7
 10
-168.9368
 20
-187.679
 40
0.5
 50
270.0
 51
0.0
  0
ARC
  8
0
  6
CONTINUOUS
 62
     7
 10
-194.9368
 20
-187.679
 40
0.5
 50
180.0
 51
270.0
  0
ARC
  8
0
  6
CONTINUOUS
 62
     7
 10
-171.4368
 20
-173.179
 40
3.2
 50
180.0
 51
270.0
  0
ARC
  8
0
  6
CONTINUOUS
 62
     7
 10
-192.4368
 20
-185.179
 40
3.2
 50
0.0
 51
89.99999
  0
ARC
  8
0
  6
CONTINUOUS
 62
     7
 10
-194.9368
 20
-181.479
 40
0.5
 50
180.0
 51
270.0
  0
ARC
  8
0
  6
CONTINUOUS
 62
     7
 10
-188.7367
 20
-187.679
 40
0.5
 50
180.0
 51
270.0
  0
ARC
  8
0
  6
CONTINUOUS
 62
     7
 10
-175.1368
 20
-170.679
 40
0.5
 50
0.0
 51
89.99999
  0
ARC
  8
0
  6
CONTINUOUS
 62
     7
 10
-168.9368
 20
-176.879
 40
0.5
 50
0.0
 51
89.99999
  0
CIRCLE
  8
0
  6
CONTINUOUS
 62
     7
 10
-192.4368
 20
-185.179
 40
2.8
  0
ARC
  8
0
  6
CONTINUOUS
 62
     7
 10
-192.4368
 20
-183.9062
 40
0.60001
 50
225.0
 51
315.0
  0
ARC
  8
0
  6
CONTINUOUS
 62
     7
 10
-193.7095
 20
-185.179
 40
0.60001
 50
315.0
 51
45.0
  0
ARC
  8
0
  6
CONTINUOUS
 62
     7
 10
-191.164
 20
-185.179
 40
0.60001
 50
135.0
 51
225.0
  0
ARC
  8
0
  6
CONTINUOUS
 62
     7
 10
-192.4368
 20
-186.4518
 40
0.60001
 50
45.0
 51
135.0
  0
CIRCLE
  8
0
  6
CONTINUOUS
 62
     7
 10
-171.4368
 20
-173.179
 40
2.8
  0
ARC
  8
0
  6
CONTINUOUS
 62
     7
 10
-171.4368
 20
-171.9062
 40
0.60001
 50
225.0
 51
315.0
  0
ARC
  8
0
  6
CONTINUOUS
 62
     7
 10
-172.7095
 20
-173.179
 40
0.60001
 50
315.0
 51
45.0
  0
ARC
  8
0
  6
CONTINUOUS
 62
     7
 10
-170.164
 20
-173.179
 40
0.60001
 50
135.0
 51
225.0
  0
ARC
  8
0
  6
CONTINUOUS
 62
     7
 10
-171.4368
 20
-174.4518
 40
0.60001
 50
45.0
 51
135.0
  0
CIRCLE
  8
0
  6
CONTINUOUS
 62
     7
 10
-191.4368
 20
-174.179
 40
2.35
  0
CIRCLE
  8
0
  6
CONTINUOUS
 62
     7
 10
-172.4368
 20
-184.179
 40
2.35
  0
CIRCLE
  8
0
  6
CONTINUOUS
 62
     7
 10
-172.4368
 20
-184.179
 40
1.0
  0
ARC
  8
0
  6
CONTINUOUS
 62
     7
 10
-160.7367
 20
-172.979
 40
0.8
 50
0.0
 51
89.99999
  0
ARC
  8
0
  6
CONTINUOUS
 62
     7
 10
-160.7367
 20
-185.379
 40
0.8
 50
270.0
 51
0.0
  0
ARC
  8
0
  6
CONTINUOUS
 62
     7
 10
42.312
 20
-42.29976
 40
0.5
 50
180.0
 51
270.0
  0
ARC
  8
0
  6
CONTINUOUS
 62
     7
 10
68.312
 20
-42.29976
 40
0.5
 50
270.0
 51
0.0
  0
ARC
  8
0
  6
CONTINUOUS
 62
     7
 10
63.112
 20
-39.89977
 40
0.5
 50
89.99999
 51
180.0
  0
ARC
  8
0
  6
CONTINUOUS
 62
     7
 10
68.312
 20
-38.89977
 40
0.5
 50
270.0
 51
0.0
  0
ARC
  8
0
  6
CONTINUOUS
 62
     7
 10
62.112
 20
-42.29976
 40
0.5
 50
270.0
 51
0.0
  0
ARC
  8
0
  6
CONTINUOUS
 62
     7
 10
65.812
 20
-36.79976
 40
5.0
 50
240.5076
 51
299.4923
  0
ARC
  8
0
  6
CONTINUOUS
 62
     7
 10
63.67867
 20
-40.57159
 40
0.66667
 50
180.0
 51
240.5076
  0
ARC
  8
0
  6
CONTINUOUS
 62
     7
 10
67.94533
 20
-40.57159
 40
0.66666
 50
299.4921
 51
0.0
  0
ARC
  8
0
  6
CONTINUOUS
 62
     7
 10
64.312
 20
48.30022
 40
6.0
 50
73.80876
 51
106.1914
  0
ARC
  8
0
  6
CONTINUOUS
 62
     7
 10
65.76199
 20
53.29399
 40
0.8
 50
0.0
 51
73.80872
  0
ARC
  8
0
  6
CONTINUOUS
 62
     7
 10
62.862
 20
53.29399
 40
0.8
 50
106.1913
 51
180.0
  0
ARC
  8
0
  6
CONTINUOUS
 62
     7
 10
47.76199
 20
53.29396
 40
0.8
 50
61.98621
 51
73.80872
  0
ARC
  8
0
  6
CONTINUOUS
 62
     7
 10
44.862
 20
53.29396
 40
0.8
 50
106.1915
 51
118.0138
  0
ARC
  8
0
  6
CONTINUOUS
 62
     7
 10
46.312
 20
48.30022
 40
6.0
 50
73.80872
 51
106.1914
  0
ARC
  8
0
  6
CONTINUOUS
 62
     7
 10
76.51199
 20
46.00023
 40
0.8
 50
0.0
 51
89.99999
  0
ARC
  8
0
  6
CONTINUOUS
 62
     7
 10
76.51199
 20
26.60023
 40
0.8
 50
270.0
 51
0.0
  0
ARC
  8
0
  6
CONTINUOUS
 62
     7
 10
73.812
 20
54.30025
 40
0.5
 50
180.0
 51
0.0
  0
ARC
  8
0
  6
CONTINUOUS
 62
     7
 10
73.812
 20
52.30025
 40
0.5
 50
0.0
 51
180.0
  0
ARC
  8
0
  6
CONTINUOUS
 62
     7
 10
160.4368
 20
-42.29997
 40
0.5
 50
180.0
 51
270.0
  0
ARC
  8
0
  6
CONTINUOUS
 62
     7
 10
177.4368
 20
-42.29997
 40
0.5
 50
270.0
 51
0.0
  0
CIRCLE
  8
0
  6
CONTINUOUS
 62
     7
 10
162.4368
 20
-28.39998
 40
1.6
  0
CIRCLE
  8
0
  6
CONTINUOUS
 62
     7
 10
175.4368
 20
1.60002
 40
1.6
  0
ARC
  8
0
  6
CONTINUOUS
 62
     7
 10
175.4368
 20
1.60002
 40
3.0
 50
33.55732
 51
326.4427
  0
ARC
  8
0
  6
CONTINUOUS
 62
     7
 10
162.4368
 20
-28.39998
 40
3.0
 50
0.0
 51
146.4427
  0
ARC
  8
0
  6
CONTINUOUS
 62
     7
 10
162.4368
 20
-28.39998
 40
3.0
 50
213.5573
 51
0.0
  0
CIRCLE
  8
0
  6
CONTINUOUS
 62
     7
 10
168.9368
 20
22.30002
 40
1.65
  0
ARC
  8
0
  6
CONTINUOUS
 62
     7
 10
165.6368
 20
-39.89998
 40
0.5
 50
0.0
 51
89.99999
  0
ARC
  8
0
  6
CONTINUOUS
 62
     7
 10
160.4368
 20
-38.89998
 40
0.5
 50
180.0
 51
270.0
  0
ARC
  8
0
  6
CONTINUOUS
 62
     7
 10
166.6368
 20
-42.29997
 40
0.5
 50
180.0
 51
270.0
  0
ARC
  8
0
  6
CONTINUOUS
 62
     7
 10
162.9368
 20
-36.79997
 40
5.0
 50
240.5077
 51
299.4923
  0
ARC
  8
0
  6
CONTINUOUS
 62
     7
 10
160.8034
 20
-40.57181
 40
0.66667
 50
180.0
 51
240.5079
  0
ARC
  8
0
  6
CONTINUOUS
 62
     7
 10
165.0701
 20
-40.57181
 40
0.66666
 50
299.4921
 51
0.0
  0
ARC
  8
0
  6
CONTINUOUS
 62
     7
 10
164.4368
 20
48.3
 40
6.0
 50
99.59407
 51
106.1914
  0
ARC
  8
0
  6
CONTINUOUS
 62
     7
 10
162.9868
 20
53.29375
 40
0.8
 50
106.1918
 51
180.0
  0
ARC
  8
0
  6
CONTINUOUS
 62
     7
 10
173.4368
 20
48.3
 40
6.0
 50
73.80862
 51
80.40593
  0
ARC
  8
0
  6
CONTINUOUS
 62
     7
 10
174.8868
 20
53.29375
 40
0.8
 50
61.98621
 51
73.8082
  0
ARC
  8
0
  6
CONTINUOUS
 62
     7
 10
162.7368
 20
46.00002
 40
0.8
 50
89.99999
 51
180.0
  0
ARC
  8
0
  6
CONTINUOUS
 62
     7
 10
175.1368
 20
46.00002
 40
0.8
 50
0.0
 51
89.99999
  0
ARC
  8
0
  6
CONTINUOUS
 62
     7
 10
162.7368
 20
26.60002
 40
0.8
 50
180.0
 51
270.0
  0
ARC
  8
0
  6
CONTINUOUS
 62
     7
 10
175.1368
 20
26.60002
 40
0.8
 50
270.0
 51
0.0
  0
ARC
  8
0
  6
CONTINUOUS
 62
     7
 10
298.5612
 20
-42.29985
 40
0.5
 50
270.0
 51
0.0
  0
ARC
  8
0
  6
CONTINUOUS
 62
     7
 10
272.5612
 20
-42.29985
 40
0.5
 50
180.0
 51
270.0
  0
ARC
  8
0
  6
CONTINUOUS
 62
     7
 10
293.3611
 20
-39.89986
 40
0.5
 50
89.99999
 51
180.0
  0
ARC
  8
0
  6
CONTINUOUS
 62
     7
 10
298.5612
 20
-38.89986
 40
0.5
 50
270.0
 51
0.0
  0
ARC
  8
0
  6
CONTINUOUS
 62
     7
 10
292.3611
 20
-42.29985
 40
0.5
 50
270.0
 51
0.0
  0
ARC
  8
0
  6
CONTINUOUS
 62
     7
 10
296.0612
 20
-36.79985
 40
5.00001
 50
240.5075
 51
299.4925
  0
ARC
  8
0
  6
CONTINUOUS
 62
     7
 10
293.9278
 20
-40.57169
 40
0.66666
 50
180.0
 51
240.5067
  0
ARC
  8
0
  6
CONTINUOUS
 62
     7
 10
298.1945
 20
-40.57169
 40
0.66667
 50
299.4933
 51
0.0
  0
ARC
  8
0
  6
CONTINUOUS
 62
     7
 10
294.5612
 20
48.30016
 40
6.0
 50
73.80876
 51
106.1912
  0
ARC
  8
0
  6
CONTINUOUS
 62
     7
 10
296.0111
 20
53.29387
 40
0.79999
 50
0.0
 51
73.8082
  0
ARC
  8
0
  6
CONTINUOUS
 62
     7
 10
293.1111
 20
53.29387
 40
0.8
 50
106.1918
 51
180.0
  0
ARC
  8
0
  6
CONTINUOUS
 62
     7
 10
278.0111
 20
53.29387
 40
0.80001
 50
61.98524
 51
73.8082
  0
ARC
  8
0
  6
CONTINUOUS
 62
     7
 10
275.1111
 20
53.29387
 40
0.8
 50
106.1918
 51
118.0148
  0
ARC
  8
0
  6
CONTINUOUS
 62
     7
 10
276.5612
 20
48.30013
 40
6.0
 50
73.80876
 51
106.1912
  0
ARC
  8
0
  6
CONTINUOUS
 62
     7
 10
264.3611
 20
46.00014
 40
0.8
 50
89.99999
 51
180.0
  0
ARC
  8
0
  6
CONTINUOUS
 62
     7
 10
264.3611
 20
26.60014
 40
0.79999
 50
179.9998
 51
270.0
  0
ARC
  8
0
  6
CONTINUOUS
 62
     7
 10
267.0612
 20
54.30016
 40
0.5
 50
180.0
 51
0.0
  0
ARC
  8
0
  6
CONTINUOUS
 62
     7
 10
267.0612
 20
52.30016
 40
0.5
 50
0.0
 51
180.0
  0
ARC
  8
0
  6
CONTINUOUS
 62
     7
 10
160.4372
 20
149.7773
 40
0.5
 50
89.99999
 51
180.0
  0
ARC
  8
0
  6
CONTINUOUS
 62
     7
 10
160.4372
 20
123.7773
 40
0.5
 50
180.0
 51
270.0
  0
ARC
  8
0
  6
CONTINUOUS
 62
     7
 10
177.4372
 20
123.7773
 40
0.5
 50
270.0
 51
0.0
  0
ARC
  8
0
  6
CONTINUOUS
 62
     7
 10
177.4372
 20
149.7773
 40
0.5
 50
0.0
 51
89.99999
  0
ARC
  8
0
  6
CONTINUOUS
 62
     7
 10
164.4372
 20
127.7773
 40
3.0
 50
0.0
 51
89.99999
  0
ARC
  8
0
  6
CONTINUOUS
 62
     7
 10
173.4372
 20
145.7773
 40
3.0
 50
180.0
 51
270.0
  0
ARC
  8
0
  6
CONTINUOUS
 62
     7
 10
164.4372
 20
127.7773
 40
2.55
 50
186.7564
 51
173.2436
  0
ARC
  8
0
  6
CONTINUOUS
 62
     7
 10
173.4372
 20
145.7773
 40
2.55
 50
6.75641
 51
353.2436
  0
CIRCLE
  8
0
  6
CONTINUOUS
 62
     7
 10
164.4372
 20
127.7773
 40
2.25
  0
ARC
  8
0
  6
CONTINUOUS
 62
     7
 10
165.5403
 20
127.7773
 40
0.51999
 50
135.0
 51
225.0006
  0
ARC
  8
0
  6
CONTINUOUS
 62
     7
 10
164.4372
 20
128.8804
 40
0.51999
 50
225.0
 51
315.0
  0
ARC
  8
0
  6
CONTINUOUS
 62
     7
 10
164.4372
 20
126.6742
 40
0.52
 50
45.0006
 51
134.9994
  0
ARC
  8
0
  6
CONTINUOUS
 62
     7
 10
163.3341
 20
127.7773
 40
0.52
 50
314.9994
 51
45.0
  0
CIRCLE
  8
0
  6
CONTINUOUS
 62
     7
 10
173.4372
 20
145.7773
 40
2.25
  0
ARC
  8
0
  6
CONTINUOUS
 62
     7
 10
174.5403
 20
145.7773
 40
0.51999
 50
135.0
 51
225.0
  0
ARC
  8
0
  6
CONTINUOUS
 62
     7
 10
173.4372
 20
146.8804
 40
0.51999
 50
225.0
 51
315.0
  0
ARC
  8
0
  6
CONTINUOUS
 62
     7
 10
173.4372
 20
144.6742
 40
0.51999
 50
45.0
 51
135.0
  0
ARC
  8
0
  6
CONTINUOUS
 62
     7
 10
172.3341
 20
145.7773
 40
0.51999
 50
315.0
 51
45.0
  0
CIRCLE
  8
0
  6
CONTINUOUS
 62
     7
 10
171.4372
 20
120.2773
 40
0.85
  0
CIRCLE
  8
0
  6
CONTINUOUS
 62
     7
 10
166.4372
 20
120.2773
 40
0.85
  0
ARC
  8
0
  6
CONTINUOUS
 62
     7
 10
168.9372
 20
122.6523
 40
0.5
 50
225.0006
 51
134.9994
  0
ARC
  8
0
  6
CONTINUOUS
 62
     7
 10
175.9372
 20
148.2773
 40
0.5
 50
0.0
 51
89.99999
  0
ARC
  8
0
  6
CONTINUOUS
 62
     7
 10
161.9372
 20
148.2773
 40
0.5
 50
89.99999
 51
180.0
  0
ARC
  8
0
  6
CONTINUOUS
 62
     7
 10
175.1372
 20
115.5773
 40
0.8
 50
270.0
 51
0.0
  0
ARC
  8
0
  6
CONTINUOUS
 62
     7
 10
162.7372
 20
115.5773
 40
0.8
 50
180.0
 51
270.0
  0
ARC
  8
0
  6
CONTINUOUS
 62
     7
 10
173.9372
 20
116.7773
 40
0.5
 50
270.0
 51
0.0
  0
ARC
  8
0
  6
CONTINUOUS
 62
     7
 10
163.9372
 20
116.7773
 40
0.5
 50
180.0
 51
270.0
  0
CIRCLE
  8
0
  6
CONTINUOUS
 62
     7
 10
173.937
 20
-162.6791
 40
1.5
  0
CIRCLE
  8
0
  6
CONTINUOUS
 62
     7
 10
163.937
 20
-181.6791
 40
1.5
  0
CIRCLE
  8
0
  6
CONTINUOUS
 62
     7
 10
163.937
 20
-181.6791
 40
1.0
  0
ARC
  8
0
  6
CONTINUOUS
 62
     7
 10
160.437
 20
-185.1791
 40
0.5
 50
180.0
 51
270.0
  0
ARC
  8
0
  6
CONTINUOUS
 62
     7
 10
160.437
 20
-159.1791
 40
0.5
 50
89.99999
 51
180.0
  0
ARC
  8
0
  6
CONTINUOUS
 62
     7
 10
177.437
 20
-159.1791
 40
0.5
 50
0.0
 51
89.99999
  0
ARC
  8
0
  6
CONTINUOUS
 62
     7
 10
177.437
 20
-185.1791
 40
0.5
 50
270.0
 51
0.0
  0
ARC
  8
0
  6
CONTINUOUS
 62
     7
 10
162.937
 20
-161.6791
 40
3.2
 50
270.0
 51
0.0
  0
ARC
  8
0
  6
CONTINUOUS
 62
     7
 10
174.937
 20
-182.6791
 40
3.2
 50
89.99999
 51
180.0
  0
ARC
  8
0
  6
CONTINUOUS
 62
     7
 10
171.237
 20
-185.1791
 40
0.5
 50
270.0
 51
0.0
  0
ARC
  8
0
  6
CONTINUOUS
 62
     7
 10
177.437
 20
-178.9791
 40
0.5
 50
270.0
 51
0.0
  0
ARC
  8
0
  6
CONTINUOUS
 62
     7
 10
160.437
 20
-165.3791
 40
0.5
 50
89.99999
 51
180.0
  0
ARC
  8
0
  6
CONTINUOUS
 62
     7
 10
166.637
 20
-159.1791
 40
0.5
 50
89.99999
 51
180.0
  0
CIRCLE
  8
0
  6
CONTINUOUS
 62
     7
 10
174.937
 20
-182.6791
 40
2.8
  0
ARC
  8
0
  6
CONTINUOUS
 62
     7
 10
173.6642
 20
-182.6791
 40
0.60001
 50
315.0
 51
45.0
  0
ARC
  8
0
  6
CONTINUOUS
 62
     7
 10
174.937
 20
-183.9519
 40
0.60001
 50
45.0
 51
135.0
  0
ARC
  8
0
  6
CONTINUOUS
 62
     7
 10
174.937
 20
-181.4063
 40
0.60001
 50
225.0
 51
315.0
  0
ARC
  8
0
  6
CONTINUOUS
 62
     7
 10
176.2098
 20
-182.6791
 40
0.60001
 50
135.0
 51
225.0
  0
CIRCLE
  8
0
  6
CONTINUOUS
 62
     7
 10
162.937
 20
-161.6791
 40
2.8
  0
ARC
  8
0
  6
CONTINUOUS
 62
     7
 10
161.6642
 20
-161.6791
 40
0.60001
 50
315.0
 51
45.0
  0
ARC
  8
0
  6
CONTINUOUS
 62
     7
 10
162.937
 20
-162.9519
 40
0.60001
 50
45.0
 51
135.0
  0
ARC
  8
0
  6
CONTINUOUS
 62
     7
 10
162.937
 20
-160.4063
 40
0.60001
 50
225.0
 51
315.0
  0
ARC
  8
0
  6
CONTINUOUS
 62
     7
 10
164.2097
 20
-161.6791
 40
0.60001
 50
135.0
 51
225.0
  0
CIRCLE
  8
0
  6
CONTINUOUS
 62
     7
 10
163.937
 20
-181.6791
 40
2.35
  0
CIRCLE
  8
0
  6
CONTINUOUS
 62
     7
 10
173.937
 20
-162.6791
 40
2.35
  0
CIRCLE
  8
0
  6
CONTINUOUS
 62
     7
 10
173.937
 20
-162.6791
 40
1.0
  0
ARC
  8
0
  6
CONTINUOUS
 62
     7
 10
162.737
 20
-150.9791
 40
0.8
 50
89.99999
 51
180.0
  0
ARC
  8
0
  6
CONTINUOUS
 62
     7
 10
175.137
 20
-150.9791
 40
0.8
 50
0.0
 51
89.99999
  0
TEXT
  8
0
  6
CONTINUOUS
 62
     7
 10
-350.9787
 20
200.5946
 40
8.5
  1
MODEL : 180-4E1-PSL
 41
0.8
  7
STANDARD
  0
TEXT
  8
0
  6
CONTINUOUS
 62
     7
 10
229.0661
 20
236.2625
 40
8.5
  1
DATE : NOV ,1989
 41
0.8
  7
STANDARD
  0
TEXT
  8
0
  6
CONTINUOUS
 62
     7
 10
-366.8907
 20
235.5575
 40
10.0
  1
180 CONNECTOR,PSL
 41
0.69402
  7
STANDARD
  0
TEXT
  8
0
  6
CONTINUOUS
 62
     7
 10
19.88928
 20
200.5946
 40
8.5
  1
MODEL : A180-4E1-PSL
 41
0.8
  7
STANDARD
  0
TEXT
  8
0
  6
CONTINUOUS
 62
     7
 10
-312.8928
 20
4.66017
 40
2.0
  1
R1
 41
0.8
  7
STANDARD
  0
TEXT
  8
0
  6
CONTINUOUS
 62
     7
 10
-302.8928
 20
-20.33983
 40
2.0
  1
P
 41
0.8
  7
STANDARD
  0
TEXT
  8
0
  6
CONTINUOUS
 62
     7
 10
-304.8928
 20
-33.33982
 40
2.0
  1
R2
 41
0.8
  7
STANDARD
  0
TEXT
  8
0
  6
CONTINUOUS
 62
     7
 10
-39.14373
 20
-28.33995
 40
2.0
  1
B
 41
0.8
  7
STANDARD
  0
TEXT
  8
0
  6
CONTINUOUS
 62
     7
 10
-47.64373
 20
-0.33995
 40
2.0
  1
A
 41
0.8
  7
STANDARD
  0
ENDSEC
  0
EOF
