  0
SECTION
  2
HEADER
  9
$ACADVER
  1
AC1002
  9
$INSBASE
 10
0.0
 20
0.0
  9
$EXTMIN
 10
-370.8736
 20
-254.5585
  9
$EXTMAX
 10
370.8736
 20
254.5585
  9
$LIMMIN
 10
0.0
 20
0.0
  9
$LIMMAX
 10
12.0
 20
9.0
  9
$VIEWCTR
 10
28.6093211
 20
0.0
  9
$VIEWSIZE
 40
509.117
  9
$SNAPMODE
 70
     0
  9
$SNAPUNIT
 10
1.0
 20
1.0
  9
$SNAPBASE
 10
0.0
 20
0.0
  9
$SNAPANG
 50
0.0
  9
$SNAPSTYLE
 70
     0
  9
$SNAPISOPAIR
 70
     0
  9
$GRIDMODE
 70
     0
  9
$GRIDUNIT
 10
0.0
 20
0.0
  9
$ORTHOMODE
 70
     0
  9
$REGENMODE
 70
     1
  9
$FILLMODE
 70
     1
  9
$QTEXTMODE
 70
     0
  9
$DRAGMODE
 70
     2
  9
$LTSCALE
 40
1.0
  9
$OSMODE
 70
     0
  9
$ATTMODE
 70
     1
  9
$TEXTSIZE
 40
0.2
  9
$TRACEWID
 40
0.05
  9
$TEXTSTYLE
  7
AAA
  9
$CLAYER
  8
0
  9
$CELTYPE
  6
BYLAYER
  9
$CECOLOR
 62
   256
  9
$DIMSCALE
 40
1.0
  9
$DIMASZ
 40
0.18
  9
$DIMEXO
 40
0.0625
  9
$DIMDLI
 40
0.38
  9
$DIMRND
 40
0.0
  9
$DIMDLE
 40
0.0
  9
$DIMEXE
 40
0.18
  9
$DIMTP
 40
0.0
  9
$DIMTM
 40
0.0
  9
$DIMTXT
 40
0.18
  9
$DIMCEN
 40
0.09
  9
$DIMTSZ
 40
0.0
  9
$DIMTOL
 70
     0
  9
$DIMLIM
 70
     0
  9
$DIMTIH
 70
     1
  9
$DIMTOH
 70
     1
  9
$DIMSE1
 70
     0
  9
$DIMSE2
 70
     0
  9
$DIMTAD
 70
     0
  9
$DIMZIN
 70
     0
  9
$DIMBLK
  1

  9
$LUNITS
 70
     2
  9
$LUPREC
 70
     4
  9
$AXISMODE
 70
     0
  9
$AXISUNIT
 10
0.0
 20
0.0
  9
$SKETCHINC
 40
0.1
  9
$FILLETRAD
 40
0.0
  9
$AUNITS
 70
     0
  9
$AUPREC
 70
     0
  9
$MENU
  1
ACAD
  9
$ELEVATION
 40
0.0
  9
$THICKNESS
 40
0.0
  9
$VIEWDIR
 10
0.0
 20
0.0
 30
1.0
  9
$LIMCHECK
 70
     0
  9
$BLIPMODE
 70
     1
  9
$CHAMFERA
 40
0.0
  9
$CHAMFERB
 40
0.0
  9
$FASTZOOM
 70
     1
  9
$SKPOLY
 70
     0
  9
$TDCREATE
 40
2447876.8829282904
  9
$TDUPDATE
 40
2447876.8829282904
  9
$TDINDWG
 40
0.0131134259
  9
$TDUSRTIMER
 40
0.0131134259
  9
$USRTIMER
 70
     1
  9
$ANGBASE
 50
0.0
  9
$ANGDIR
 70
     0
  9
$PDMODE
 70
     0
  9
$PDSIZE
 40
0.0
  9
$PLINEWID
 40
0.0
  9
$COORDS
 70
     0
  9
$USERI1
 70
     0
  9
$USERI2
 70
     0
  9
$USERI3
 70
     0
  9
$USERI4
 70
     0
  9
$USERI5
 70
     0
  9
$USERR1
 40
0.0
  9
$USERR2
 40
0.0
  9
$USERR3
 40
0.0
  9
$USERR4
 40
0.0
  9
$USERR5
 40
0.0
  0
ENDSEC
  0
SECTION
  2
TABLES
  0
TABLE
  2
LTYPE
 70
     3
  0
LTYPE
  2
CONTINUOUS
 70
    64
  3
SOLID
 72
    65
 73
     0
 40
0.0
  0
LTYPE
  2
CENTER
 70
    64
  3
CENTER
 72
    65
 73
     4
 40
2.0
 49
1.25
 49
-0.25
 49
0.25
 49
-0.25
  0
LTYPE
  2
PHANTOM
 70
    64
  3
PHANTOM
 72
    65
 73
     6
 40
2.5
 49
1.25
 49
-0.25
 49
0.25
 49
-0.25
 49
0.25
 49
-0.25
  0
ENDTAB
  0
TABLE
  2
LAYER
 70
     1
  0
LAYER
  2
0
 70
    64
 62
     7
  6
CONTINUOUS
  0
ENDTAB
  0
TABLE
  2
STYLE
 70
     2
  0
STYLE
  2
AAA
 70
     0
 40
0.0
 41
1.0
 50
0.0
 71
     0
 42
0.2
  3
TXT
  4

  0
STYLE
  2
STANDARD
 70
    64
 40
0.0
 41
1.0
 50
0.0
 71
     0
 42
0.2
  3
TXT
  4
BIGFONT
  0
ENDTAB
  0
TABLE
  2
VIEW
 70
     0
  0
ENDTAB
  0
ENDSEC
  0
SECTION
  2
BLOCKS
  0
ENDSEC
  0
SECTION
  2
ENTITIES
  0
POINT
  8
0
  6
CONTINUOUS
 62
     7
 10
-168.4367
 20
150.2775
  0
POINT
  8
0
  6
CONTINUOUS
 62
     7
 10
-195.4367
 20
150.2775
  0
POINT
  8
0
  6
CONTINUOUS
 62
     7
 10
-195.4368
 20
1.60001
  0
POINT
  8
0
  6
CONTINUOUS
 62
     7
 10
-168.4368
 20
1.60001
  0
POINT
  8
0
  6
CONTINUOUS
 62
     7
 10
-168.4368
 20
-62.10001
  0
POINT
  8
0
  6
CONTINUOUS
 62
     7
 10
-168.4368
 20
25.10001
  0
POINT
  8
0
  6
CONTINUOUS
 62
     7
 10
-298.0613
 20
1.60017
  0
POINT
  8
0
  6
CONTINUOUS
 62
     7
 10
-313.5613
 20
1.60017
  0
POINT
  8
0
  6
CONTINUOUS
 62
     7
 10
-306.5613
 20
-0.19983
  0
POINT
  8
0
  6
CONTINUOUS
 62
     7
 10
-307.0613
 20
-13.39984
  0
POINT
  8
0
  6
CONTINUOUS
 62
     7
 10
-307.5613
 20
-26.59982
  0
POINT
  8
0
  6
CONTINUOUS
 62
     7
 10
-36.3123
 20
1.60011
  0
POINT
  8
0
  6
CONTINUOUS
 62
     7
 10
-42.8123
 20
-62.09988
  0
POINT
  8
0
  6
CONTINUOUS
 62
     7
 10
-43.3123
 20
-21.3999
  0
POINT
  8
0
  6
CONTINUOUS
 62
     7
 10
-42.3123
 20
-5.3999
  0
POINT
  8
0
  6
CONTINUOUS
 62
     7
 10
-42.8123
 20
25.10011
  0
POINT
  8
0
  6
CONTINUOUS
 62
     7
 10
-195.4367
 20
-185.679
  0
POINT
  8
0
  6
CONTINUOUS
 62
     7
 10
-168.4367
 20
-185.679
  0
POINT
  8
0
  6
CONTINUOUS
 62
     7
 10
175.4371
 20
150.2773
  0
POINT
  8
0
  6
CONTINUOUS
 62
     7
 10
175.4368
 20
1.60002
  0
POINT
  8
0
  6
CONTINUOUS
 62
     7
 10
168.9368
 20
-62.09998
  0
POINT
  8
0
  6
CONTINUOUS
 62
     7
 10
168.9368
 20
25.10002
  0
POINT
  8
0
  6
CONTINUOUS
 62
     7
 10
68.81206
 20
1.60023
  0
POINT
  8
0
  6
CONTINUOUS
 62
     7
 10
41.81206
 20
1.60023
  0
POINT
  8
0
  6
CONTINUOUS
 62
     7
 10
68.812
 20
25.10023
  0
POINT
  8
0
  6
CONTINUOUS
 62
     7
 10
68.812
 20
-62.09976
  0
POINT
  8
0
  6
CONTINUOUS
 62
     7
 10
299.0609
 20
1.60033
  0
POINT
  8
0
  6
CONTINUOUS
 62
     7
 10
272.061
 20
25.10033
  0
POINT
  8
0
  6
CONTINUOUS
 62
     7
 10
272.061
 20
-62.09967
  0
POINT
  8
0
  6
CONTINUOUS
 62
     7
 10
175.437
 20
-185.6791
  0
LINE
  8
0
  6
CONTINUOUS
 62
     7
 10
218.3292
 20
-225.9564
 11
370.8736
 21
-225.9564
  0
LINE
  8
0
  6
CONTINUOUS
 62
     7
 10
-218.3292
 20
225.9564
 11
-218.3292
 21
254.5585
  0
LINE
  8
0
  6
CONTINUOUS
 62
     7
 10
-370.8736
 20
225.9564
 11
-218.3292
 21
225.9564
  0
LINE
  8
0
  6
CONTINUOUS
 62
     7
 10
-370.8736
 20
254.5585
 11
370.8736
 21
254.5585
  0
LINE
  8
0
  6
CONTINUOUS
 62
     7
 10
-370.8736
 20
-254.5585
 11
370.8736
 21
-254.5585
  0
LINE
  8
0
  6
CONTINUOUS
 62
     7
 10
370.8736
 20
254.5585
 11
370.8736
 21
-254.5585
  0
LINE
  8
0
  6
CONTINUOUS
 62
     7
 10
-370.8736
 20
-254.5585
 11
-370.8736
 21
254.5585
  0
LINE
  8
0
  6
CONTINUOUS
 62
     7
 10
218.3292
 20
-225.9564
 11
218.3292
 21
-254.5585
  0
LINE
  8
0
  6
CONTINUOUS
 62
     7
 10
218.3292
 20
254.5585
 11
218.3292
 21
225.9564
  0
LINE
  8
0
  6
CONTINUOUS
 62
     7
 10
218.3292
 20
225.9564
 11
370.8736
 21
225.9564
  0
LINE
  8
0
  6
CONTINUOUS
 62
     7
 10
258.3816
 20
-232.8337
 11
258.3816
 21
-236.1516
  0
LINE
  8
0
  6
CONTINUOUS
 62
     7
 10
258.3816
 20
-236.1516
 11
270.8235
 21
-236.1516
  0
LINE
  8
0
  6
CONTINUOUS
 62
     7
 10
258.3816
 20
-249.1465
 11
275.2473
 21
-249.1465
  0
LINE
  8
0
  6
CONTINUOUS
 62
     7
 10
258.3816
 20
-245.8286
 11
270.8235
 21
-245.8286
  0
LINE
  8
0
  6
CONTINUOUS
 62
     7
 10
258.3816
 20
-232.8337
 11
273.0354
 21
-232.8337
  0
LINE
  8
0
  6
CONTINUOUS
 62
     7
 10
270.8235
 20
-236.1516
 11
270.8235
 21
-245.8286
  0
LINE
  8
0
  6
CONTINUOUS
 62
     7
 10
275.2473
 20
-235.0457
 11
275.2473
 21
-249.1465
  0
LINE
  8
0
  6
CONTINUOUS
 62
     7
 10
258.3816
 20
-245.8286
 11
258.3816
 21
-249.1465
  0
LINE
  8
0
  6
CONTINUOUS
 62
     7
 10
293.4954
 20
-236.1516
 11
293.4954
 21
-246.9346
  0
LINE
  8
0
  6
CONTINUOUS
 62
     7
 10
277.7357
 20
-232.8337
 11
277.7357
 21
-236.1516
  0
LINE
  8
0
  6
CONTINUOUS
 62
     7
 10
293.9378
 20
-232.585
 11
295.5138
 21
-232.585
  0
LINE
  8
0
  6
CONTINUOUS
 62
     7
 10
293.9378
 20
-230.373
 11
295.5138
 21
-230.373
  0
LINE
  8
0
  6
CONTINUOUS
 62
     7
 10
295.5138
 20
-230.373
 11
295.5138
 21
-232.585
  0
LINE
  8
0
  6
CONTINUOUS
 62
     7
 10
293.9378
 20
-230.373
 11
293.9378
 21
-232.585
  0
LINE
  8
0
  6
CONTINUOUS
 62
     7
 10
293.1083
 20
-230.373
 11
293.1083
 21
-232.585
  0
LINE
  8
0
  6
CONTINUOUS
 62
     7
 10
282.7661
 20
-230.373
 11
286.2009
 21
-230.373
  0
LINE
  8
0
  6
CONTINUOUS
 62
     7
 10
285.5413
 20
-232.8335
 11
286.2006
 21
-230.3727
  0
LINE
  8
0
  6
CONTINUOUS
 62
     7
 10
282.1067
 20
-232.8337
 11
282.766
 21
-230.373
  0
LINE
  8
0
  6
CONTINUOUS
 62
     7
 10
285.5416
 20
-232.8337
 11
290.1776
 21
-232.8337
  0
LINE
  8
0
  6
CONTINUOUS
 62
     7
 10
284.6526
 20
-236.1516
 11
289.0716
 21
-236.1516
  0
LINE
  8
0
  6
CONTINUOUS
 62
     7
 10
286.6429
 20
-249.1465
 11
291.2836
 21
-249.1465
  0
LINE
  8
0
  6
CONTINUOUS
 62
     7
 10
285.7537
 20
-245.8286
 11
286.6427
 21
-249.1463
  0
LINE
  8
0
  6
CONTINUOUS
 62
     7
 10
285.7538
 20
-245.8286
 11
289.0716
 21
-245.8286
  0
LINE
  8
0
  6
CONTINUOUS
 62
     7
 10
281.1707
 20
-249.1466
 11
284.6527
 21
-236.1517
  0
LINE
  8
0
  6
CONTINUOUS
 62
     7
 10
277.7357
 20
-236.1516
 11
281.2177
 21
-236.1516
  0
LINE
  8
0
  6
CONTINUOUS
 62
     7
 10
277.7354
 20
-249.1462
 11
281.2175
 21
-236.1513
  0
LINE
  8
0
  6
CONTINUOUS
 62
     7
 10
277.7357
 20
-249.1465
 11
281.1706
 21
-249.1465
  0
LINE
  8
0
  6
CONTINUOUS
 62
     7
 10
277.7357
 20
-232.8337
 11
282.1067
 21
-232.8337
  0
LINE
  8
0
  6
CONTINUOUS
 62
     7
 10
289.0716
 20
-236.1516
 11
289.0716
 21
-245.8286
  0
LINE
  8
0
  6
CONTINUOUS
 62
     7
 10
291.5323
 20
-230.373
 11
293.1083
 21
-230.373
  0
LINE
  8
0
  6
CONTINUOUS
 62
     7
 10
291.5323
 20
-232.585
 11
293.1083
 21
-232.585
  0
LINE
  8
0
  6
CONTINUOUS
 62
     7
 10
291.5323
 20
-230.373
 11
291.5323
 21
-232.585
  0
LINE
  8
0
  6
CONTINUOUS
 62
     7
 10
301.5135
 20
-230.373
 11
305.9373
 21
-230.373
  0
LINE
  8
0
  6
CONTINUOUS
 62
     7
 10
308.3423
 20
-240.1951
 11
311.2962
 21
-238.8176
  0
LINE
  8
0
  6
CONTINUOUS
 62
     7
 10
305.9373
 20
-242.7344
 11
305.9373
 21
-249.1465
  0
LINE
  8
0
  6
CONTINUOUS
 62
     7
 10
301.5135
 20
-243.379
 11
301.5135
 21
-249.1465
  0
LINE
  8
0
  6
CONTINUOUS
 62
     7
 10
305.9373
 20
-232.8337
 11
310.3611
 21
-232.8337
  0
LINE
  8
0
  6
CONTINUOUS
 62
     7
 10
305.9373
 20
-230.373
 11
305.9373
 21
-232.8337
  0
LINE
  8
0
  6
CONTINUOUS
 62
     7
 10
301.5135
 20
-230.373
 11
301.5135
 21
-232.8337
  0
LINE
  8
0
  6
CONTINUOUS
 62
     7
 10
312.573
 20
-235.0457
 11
312.573
 21
-236.8128
  0
LINE
  8
0
  6
CONTINUOUS
 62
     7
 10
308.3424
 20
-240.195
 11
312.5734
 21
-242.168
  0
LINE
  8
0
  6
CONTINUOUS
 62
     7
 10
305.9373
 20
-242.7343
 11
312.5731
 21
-245.8286
  0
LINE
  8
0
  6
CONTINUOUS
 62
     7
 10
296.2603
 20
-242.1678
 11
296.2603
 21
-245.8286
  0
LINE
  8
0
  6
CONTINUOUS
 62
     7
 10
296.2607
 20
-242.1682
 11
309.1626
 21
-236.1519
  0
LINE
  8
0
  6
CONTINUOUS
 62
     7
 10
296.2603
 20
-245.8286
 11
301.5136
 21
-243.3789
  0
LINE
  8
0
  6
CONTINUOUS
 62
     7
 10
312.573
 20
-242.1678
 11
312.573
 21
-245.8286
  0
LINE
  8
0
  6
CONTINUOUS
 62
     7
 10
296.2603
 20
-232.8337
 11
296.2603
 21
-236.1516
  0
LINE
  8
0
  6
CONTINUOUS
 62
     7
 10
301.5135
 20
-249.1465
 11
305.9373
 21
-249.1465
  0
LINE
  8
0
  6
CONTINUOUS
 62
     7
 10
296.2603
 20
-236.1516
 11
309.1621
 21
-236.1516
  0
LINE
  8
0
  6
CONTINUOUS
 62
     7
 10
296.2603
 20
-232.8337
 11
301.5135
 21
-232.8337
  0
LINE
  8
0
  6
CONTINUOUS
 62
     7
 10
327.504
 20
-236.4047
 11
328.73
 21
-235.9171
  0
LINE
  8
0
  6
CONTINUOUS
 62
     7
 10
327.5034
 20
-236.4044
 11
327.5034
 21
-249.1465
  0
LINE
  8
0
  6
CONTINUOUS
 62
     7
 10
323.0795
 20
-249.1465
 11
327.5034
 21
-249.1465
  0
LINE
  8
0
  6
CONTINUOUS
 62
     7
 10
313.9553
 20
-241.7925
 11
323.0794
 21
-238.1637
  0
LINE
  8
0
  6
CONTINUOUS
 62
     7
 10
313.9555
 20
-238.222
 11
326.8062
 21
-233.1111
  0
LINE
  8
0
  6
CONTINUOUS
 62
     7
 10
323.0795
 20
-238.1638
 11
323.0795
 21
-249.1465
  0
LINE
  8
0
  6
CONTINUOUS
 62
     7
 10
327.5034
 20
-231.3684
 11
327.5034
 21
-232.0834
  0
LINE
  8
0
  6
CONTINUOUS
 62
     7
 10
330.8211
 20
-231.3684
 11
330.8211
 21
-232.8338
  0
LINE
  8
0
  6
CONTINUOUS
 62
     7
 10
313.9554
 20
-238.2219
 11
313.9554
 21
-241.7925
  0
LINE
  8
0
  6
CONTINUOUS
 62
     7
 10
327.5034
 20
-231.3684
 11
330.8211
 21
-231.3684
  0
LINE
  8
0
  6
CONTINUOUS
 62
     7
 10
0.0
 20
254.5585
 11
0.0
 21
-254.5585
  0
LINE
  8
0
  6
CONTINUOUS
 62
     7
 10
-169.4367
 20
136.7775
 11
-169.4367
 21
135.7775
  0
LINE
  8
0
  6
CONTINUOUS
 62
     7
 10
-168.4367
 20
150.7775
 11
-168.4367
 21
152.2775
  0
LINE
  8
0
  6
CENTER
 62
     2
 10
-197.8329
 20
143.7775
 11
-157.6355
 21
143.7775
  0
LINE
  8
0
  6
CONTINUOUS
 62
     7
 10
-194.9367
 20
152.7775
 11
-168.9367
 21
152.7775
  0
LINE
  8
0
  6
CONTINUOUS
 62
     7
 10
-194.9367
 20
134.7775
 11
-168.9367
 21
134.7775
  0
LINE
  8
0
  6
CONTINUOUS
 62
     7
 10
-168.4367
 20
135.2775
 11
-168.4367
 21
136.7775
  0
LINE
  8
0
  6
CONTINUOUS
 62
     7
 10
-195.4367
 20
135.2775
 11
-195.4367
 21
152.2775
  0
LINE
  8
0
  6
CENTER
 62
     2
 10
-181.9367
 20
132.0275
 11
-181.9367
 21
156.0049
  0
LINE
  8
0
  6
CONTINUOUS
 62
     7
 10
-194.4366
 20
151.7775
 11
-169.4367
 21
151.7775
  0
LINE
  8
0
  6
CONTINUOUS
 62
     7
 10
-194.4366
 20
135.7775
 11
-169.4367
 21
135.7775
  0
LINE
  8
0
  6
CONTINUOUS
 62
     7
 10
-194.4366
 20
151.7775
 11
-194.4366
 21
135.7775
  0
LINE
  8
0
  6
CONTINUOUS
 62
     7
 10
-169.4367
 20
151.7775
 11
-169.4367
 21
150.7775
  0
LINE
  8
0
  6
CONTINUOUS
 62
     7
 10
-169.4367
 20
135.7774
 11
-168.5831
 21
134.9239
  0
LINE
  8
0
  6
CONTINUOUS
 62
     7
 10
-194.4367
 20
135.7775
 11
-195.2902
 21
134.924
  0
LINE
  8
0
  6
CONTINUOUS
 62
     7
 10
-169.4367
 20
151.7775
 11
-168.5831
 21
152.6311
  0
LINE
  8
0
  6
CONTINUOUS
 62
     7
 10
-194.4366
 20
151.7775
 11
-195.2902
 21
152.6311
  0
LINE
  8
0
  6
CONTINUOUS
 62
     7
 10
-172.9367
 20
142.2775
 11
-169.9367
 21
142.2775
  0
LINE
  8
0
  6
CONTINUOUS
 62
     7
 10
-190.9367
 20
145.2775
 11
-193.9367
 21
145.2775
  0
LINE
  8
0
  6
CONTINUOUS
 62
     7
 10
-187.9367
 20
148.2775
 11
-187.9367
 21
151.2775
  0
LINE
  8
0
  6
CONTINUOUS
 62
     7
 10
-175.9367
 20
139.2775
 11
-175.9367
 21
136.2775
  0
LINE
  8
0
  6
CONTINUOUS
 62
     7
 10
-192.9367
 20
145.2775
 11
-192.9367
 21
137.2775
  0
LINE
  8
0
  6
CONTINUOUS
 62
     7
 10
-170.9367
 20
150.2775
 11
-170.9367
 21
142.2775
  0
LINE
  8
0
  6
CONTINUOUS
 62
     7
 10
-187.9367
 20
150.2775
 11
-170.9367
 21
150.2775
  0
LINE
  8
0
  6
CONTINUOUS
 62
     7
 10
-192.9367
 20
137.2775
 11
-175.9367
 21
137.2775
  0
LINE
  8
0
  6
CONTINUOUS
 62
     7
 10
-172.6367
 20
137.0476
 11
-172.6367
 21
136.7452
  0
LINE
  8
0
  6
CONTINUOUS
 62
     7
 10
-173.2366
 20
137.0476
 11
-173.2366
 21
136.7452
  0
LINE
  8
0
  6
CONTINUOUS
 62
     7
 10
-173.3974
 20
136.7695
 11
-173.3974
 21
137.0752
  0
LINE
  8
0
  6
CONTINUOUS
 62
     7
 10
-191.2366
 20
150.5074
 11
-191.2366
 21
150.8098
  0
LINE
  8
0
  6
CONTINUOUS
 62
     7
 10
-190.6367
 20
150.5074
 11
-190.6367
 21
150.8098
  0
LINE
  8
0
  6
CONTINUOUS
 62
     7
 10
-190.4759
 20
150.7855
 11
-190.4759
 21
150.4798
  0
LINE
  8
0
  6
CONTINUOUS
 62
     7
 10
-174.0397
 20
138.5421
 11
-173.672
 21
138.9098
  0
LINE
  8
0
  6
CONTINUOUS
 62
     7
 10
-173.672
 20
138.1744
 11
-173.3043
 21
138.5421
  0
LINE
  8
0
  6
CONTINUOUS
 62
     7
 10
-174.0397
 20
138.5422
 11
-173.672
 21
138.1745
  0
LINE
  8
0
  6
CONTINUOUS
 62
     7
 10
-172.2013
 20
140.3806
 11
-171.8335
 21
140.0129
  0
LINE
  8
0
  6
CONTINUOUS
 62
     7
 10
-174.7008
 20
140.674
 11
-173.672
 21
139.6452
  0
LINE
  8
0
  6
CONTINUOUS
 62
     7
 10
-174.3331
 20
141.0417
 11
-173.3043
 21
140.013
  0
LINE
  8
0
  6
CONTINUOUS
 62
     7
 10
-172.5689
 20
140.0129
 11
-172.2012
 21
140.3806
  0
LINE
  8
0
  6
CONTINUOUS
 62
     7
 10
-172.2012
 20
139.6452
 11
-171.8335
 21
140.0129
  0
LINE
  8
0
  6
CONTINUOUS
 62
     7
 10
-172.5689
 20
138.5422
 11
-171.5401
 21
137.5134
  0
LINE
  8
0
  6
CONTINUOUS
 62
     7
 10
-172.2012
 20
138.9099
 11
-171.1725
 21
137.8811
  0
LINE
  8
0
  6
CONTINUOUS
 62
     7
 10
-192.0398
 20
147.5421
 11
-191.6721
 21
147.9098
  0
LINE
  8
0
  6
CONTINUOUS
 62
     7
 10
-191.6721
 20
147.1744
 11
-191.3044
 21
147.5421
  0
LINE
  8
0
  6
CONTINUOUS
 62
     7
 10
-192.0397
 20
147.5422
 11
-191.672
 21
147.1745
  0
LINE
  8
0
  6
CONTINUOUS
 62
     7
 10
-190.2013
 20
149.3806
 11
-189.8336
 21
149.0129
  0
LINE
  8
0
  6
CONTINUOUS
 62
     7
 10
-192.7009
 20
149.6741
 11
-191.6721
 21
148.6453
  0
LINE
  8
0
  6
CONTINUOUS
 62
     7
 10
-192.3331
 20
150.0417
 11
-191.3043
 21
149.013
  0
LINE
  8
0
  6
CONTINUOUS
 62
     7
 10
-190.569
 20
149.0129
 11
-190.2013
 21
149.3806
  0
LINE
  8
0
  6
CONTINUOUS
 62
     7
 10
-190.2013
 20
148.6452
 11
-189.8336
 21
149.0129
  0
LINE
  8
0
  6
CONTINUOUS
 62
     7
 10
-190.569
 20
147.5422
 11
-189.5402
 21
146.5134
  0
LINE
  8
0
  6
CONTINUOUS
 62
     7
 10
-190.2012
 20
147.9099
 11
-189.1725
 21
146.8811
  0
LINE
  8
0
  6
CONTINUOUS
 62
     7
 10
-164.7366
 20
149.2775
 11
-164.7366
 21
147.7775
  0
LINE
  8
0
  6
CONTINUOUS
 62
     7
 10
-161.9367
 20
147.7775
 11
-161.9367
 21
139.7775
  0
LINE
  8
0
  6
CONTINUOUS
 62
     7
 10
-164.7366
 20
149.2775
 11
-166.5367
 21
149.2775
  0
LINE
  8
0
  6
CONTINUOUS
 62
     7
 10
-164.7366
 20
138.2775
 11
-166.5367
 21
138.2775
  0
LINE
  8
0
  6
CONTINUOUS
 62
     7
 10
-163.9367
 20
147.7775
 11
-163.6366
 21
147.4775
  0
LINE
  8
0
  6
CONTINUOUS
 62
     7
 10
-163.9367
 20
139.7776
 11
-163.6367
 21
140.0775
  0
LINE
  8
0
  6
CONTINUOUS
 62
     7
 10
-166.5367
 20
147.7775
 11
-168.9367
 21
147.7775
  0
LINE
  8
0
  6
CONTINUOUS
 62
     7
 10
-166.5367
 20
139.7775
 11
-168.9367
 21
139.7775
  0
LINE
  8
0
  6
CONTINUOUS
 62
     7
 10
-164.7366
 20
139.7775
 11
-164.7366
 21
138.2775
  0
LINE
  8
0
  6
CENTER
 62
     2
 10
-165.4367
 20
147.7275
 11
-165.4367
 21
139.8275
  0
LINE
  8
0
  6
CENTER
 62
     2
 10
-164.0867
 20
146.2775
 11
-166.8867
 21
146.2775
  0
LINE
  8
0
  6
CENTER
 62
     2
 10
-164.0867
 20
141.2775
 11
-166.8867
 21
141.2775
  0
LINE
  8
0
  6
CONTINUOUS
 62
     7
 10
-164.4866
 20
147.2275
 11
-164.4866
 21
145.3275
  0
LINE
  8
0
  6
CONTINUOUS
 62
     7
 10
-166.3867
 20
147.2275
 11
-166.3867
 21
145.3275
  0
LINE
  8
0
  6
CONTINUOUS
 62
     7
 10
-164.2867
 20
147.2275
 11
-166.3867
 21
147.2275
  0
LINE
  8
0
  6
CONTINUOUS
 62
     7
 10
-164.2867
 20
145.3275
 11
-166.3867
 21
145.3275
  0
LINE
  8
0
  6
CONTINUOUS
 62
     7
 10
-164.2867
 20
144.7275
 11
-166.3866
 21
144.7275
  0
LINE
  8
0
  6
CONTINUOUS
 62
     7
 10
-164.2867
 20
142.8275
 11
-166.3866
 21
142.8275
  0
LINE
  8
0
  6
CONTINUOUS
 62
     7
 10
-164.2867
 20
140.3275
 11
-166.3866
 21
140.3275
  0
LINE
  8
0
  6
CONTINUOUS
 62
     7
 10
-164.2867
 20
142.2275
 11
-166.3867
 21
142.2275
  0
LINE
  8
0
  6
CONTINUOUS
 62
     7
 10
-164.4866
 20
144.7275
 11
-164.4866
 21
142.8275
  0
LINE
  8
0
  6
CONTINUOUS
 62
     7
 10
-166.3867
 20
144.7275
 11
-166.3867
 21
142.8275
  0
LINE
  8
0
  6
CONTINUOUS
 62
     7
 10
-166.3867
 20
142.2275
 11
-166.3867
 21
140.3275
  0
LINE
  8
0
  6
CONTINUOUS
 62
     7
 10
-164.4866
 20
142.2275
 11
-164.4866
 21
140.3275
  0
LINE
  8
0
  6
CONTINUOUS
 62
     7
 10
-163.6367
 20
147.4775
 11
-163.6367
 21
140.0775
  0
LINE
  8
0
  6
CONTINUOUS
 62
     7
 10
-160.9367
 20
147.7775
 11
-160.9367
 21
139.7775
  0
LINE
  8
0
  6
CONTINUOUS
 62
     7
 10
-160.9367
 20
139.7775
 11
-164.7366
 21
139.7775
  0
LINE
  8
0
  6
CONTINUOUS
 62
     7
 10
-160.9367
 20
147.7775
 11
-164.7366
 21
147.7775
  0
LINE
  8
0
  6
CONTINUOUS
 62
     7
 10
-164.2867
 20
147.2275
 11
-164.2867
 21
145.3275
  0
LINE
  8
0
  6
CONTINUOUS
 62
     7
 10
-164.2867
 20
144.7275
 11
-164.2867
 21
142.8275
  0
LINE
  8
0
  6
CONTINUOUS
 62
     7
 10
-164.2867
 20
142.2275
 11
-164.2867
 21
140.3275
  0
LINE
  8
0
  6
CONTINUOUS
 62
     7
 10
-166.6867
 20
146.7775
 11
-166.6867
 21
145.7775
  0
LINE
  8
0
  6
CONTINUOUS
 62
     7
 10
-166.6867
 20
144.2775
 11
-166.6867
 21
143.2775
  0
LINE
  8
0
  6
CONTINUOUS
 62
     7
 10
-166.6867
 20
141.7775
 11
-166.6867
 21
140.7775
  0
LINE
  8
0
  6
CONTINUOUS
 62
     7
 10
-166.3867
 20
146.7775
 11
-166.6867
 21
146.7775
  0
LINE
  8
0
  6
CONTINUOUS
 62
     7
 10
-166.3867
 20
145.7775
 11
-166.6867
 21
145.7775
  0
LINE
  8
0
  6
CONTINUOUS
 62
     7
 10
-166.3866
 20
144.2775
 11
-166.6867
 21
144.2775
  0
LINE
  8
0
  6
CONTINUOUS
 62
     7
 10
-166.3866
 20
143.2775
 11
-166.6867
 21
143.2775
  0
LINE
  8
0
  6
CONTINUOUS
 62
     7
 10
-166.3867
 20
140.7775
 11
-166.6867
 21
140.7775
  0
LINE
  8
0
  6
CONTINUOUS
 62
     7
 10
-166.3866
 20
141.7775
 11
-166.6867
 21
141.7775
  0
LINE
  8
0
  6
CONTINUOUS
 62
     7
 10
-167.8117
 20
146.7775
 11
-167.8117
 21
145.7775
  0
LINE
  8
0
  6
CONTINUOUS
 62
     7
 10
-167.3117
 20
146.2775
 11
-168.3117
 21
146.2775
  0
LINE
  8
0
  6
CONTINUOUS
 62
     7
 10
-167.8117
 20
141.7775
 11
-167.8117
 21
140.7775
  0
LINE
  8
0
  6
CENTER
 62
     2
 10
-172.9367
 20
143.2775
 11
-172.9367
 21
135.2775
  0
LINE
  8
0
  6
CENTER
 62
     2
 10
-190.9367
 20
152.2775
 11
-190.9367
 21
144.2775
  0
LINE
  8
0
  6
CENTER
 62
     2
 10
-194.9367
 20
148.2775
 11
-186.9367
 21
148.2775
  0
LINE
  8
0
  6
CENTER
 62
     2
 10
-176.9367
 20
139.2775
 11
-168.9367
 21
139.2775
  0
LINE
  8
0
  6
CONTINUOUS
 62
     7
 10
-162.9367
 20
150.7775
 11
-162.9367
 21
136.7775
  0
LINE
  8
0
  6
CONTINUOUS
 62
     7
 10
-164.5367
 20
149.4775
 11
-164.5367
 21
147.9775
  0
LINE
  8
0
  6
CONTINUOUS
 62
     7
 10
-166.5367
 20
149.4775
 11
-166.5367
 21
147.7775
  0
LINE
  8
0
  6
CONTINUOUS
 62
     7
 10
-168.9367
 20
147.9775
 11
-168.9367
 21
139.5775
  0
LINE
  8
0
  6
CONTINUOUS
 62
     7
 10
-168.9367
 20
147.9775
 11
-166.5367
 21
147.9775
  0
LINE
  8
0
  6
CONTINUOUS
 62
     7
 10
-168.9367
 20
139.5775
 11
-166.5367
 21
139.5775
  0
LINE
  8
0
  6
CONTINUOUS
 62
     7
 10
-166.5367
 20
138.0775
 11
-164.5367
 21
138.0775
  0
LINE
  8
0
  6
CONTINUOUS
 62
     7
 10
-166.5367
 20
149.4775
 11
-164.5367
 21
149.4775
  0
LINE
  8
0
  6
CONTINUOUS
 62
     7
 10
-166.5367
 20
139.7775
 11
-166.5367
 21
138.0775
  0
LINE
  8
0
  6
CONTINUOUS
 62
     7
 10
-164.5367
 20
139.5775
 11
-164.5367
 21
138.0775
  0
LINE
  8
0
  6
CONTINUOUS
 62
     7
 10
-164.5367
 20
147.9775
 11
-162.9367
 21
147.9775
  0
LINE
  8
0
  6
CONTINUOUS
 62
     7
 10
-164.5367
 20
139.5775
 11
-162.9367
 21
139.5775
  0
LINE
  8
0
  6
CONTINUOUS
 62
     7
 10
-163.9367
 20
147.9775
 11
-163.9367
 21
139.5775
  0
LINE
  8
0
  6
CONTINUOUS
 62
     7
 10
-193.9367
 20
150.7775
 11
-193.9367
 21
136.7775
  0
LINE
  8
0
  6
CONTINUOUS
 62
     7
 10
-193.4367
 20
151.2775
 11
-169.9367
 21
151.2775
  0
LINE
  8
0
  6
CONTINUOUS
 62
     7
 10
-193.4367
 20
136.2775
 11
-169.9367
 21
136.2775
  0
LINE
  8
0
  6
CONTINUOUS
 62
     7
 10
-169.9367
 20
151.2775
 11
-169.9367
 21
136.2775
  0
LINE
  8
0
  6
CONTINUOUS
 62
     7
 10
-169.9367
 20
150.7775
 11
-160.7366
 21
150.7775
  0
LINE
  8
0
  6
CONTINUOUS
 62
     7
 10
-159.9367
 20
149.9775
 11
-159.9367
 21
137.5775
  0
LINE
  8
0
  6
CONTINUOUS
 62
     7
 10
-169.9367
 20
136.7775
 11
-160.7366
 21
136.7775
  0
LINE
  8
0
  6
CONTINUOUS
 62
     7
 10
-161.4367
 20
148.7775
 11
-161.4367
 21
147.7775
  0
LINE
  8
0
  6
CONTINUOUS
 62
     7
 10
-160.7366
 20
148.2775
 11
-160.7366
 21
139.2775
  0
LINE
  8
0
  6
CONTINUOUS
 62
     7
 10
-162.9367
 20
149.2775
 11
-161.9367
 21
149.2775
  0
LINE
  8
0
  6
CONTINUOUS
 62
     7
 10
-162.9367
 20
138.2775
 11
-161.9367
 21
138.2775
  0
LINE
  8
0
  6
CONTINUOUS
 62
     7
 10
-161.4367
 20
148.2775
 11
-160.7366
 21
148.2775
  0
LINE
  8
0
  6
CONTINUOUS
 62
     7
 10
-161.4367
 20
139.2775
 11
-160.7366
 21
139.2775
  0
LINE
  8
0
  6
CONTINUOUS
 62
     7
 10
-161.4367
 20
139.7775
 11
-161.4367
 21
138.7775
  0
LINE
  8
0
  6
CENTER
 62
     2
 10
-181.9368
 20
60.34337
 11
-181.9368
 21
-98.89999
  0
LINE
  8
0
  6
CONTINUOUS
 62
     7
 10
-168.4368
 20
27.60001
 11
-168.4368
 21
-64.59998
  0
LINE
  8
0
  6
CONTINUOUS
 62
     7
 10
-195.4368
 20
27.60001
 11
-195.4368
 21
-64.59998
  0
LINE
  8
0
  6
CONTINUOUS
 62
     7
 10
-195.4368
 20
-34.39999
 11
-168.4368
 21
-34.39999
  0
LINE
  8
0
  6
CONTINUOUS
 62
     7
 10
-195.4368
 20
7.60001
 11
-168.4368
 21
7.60001
  0
LINE
  8
0
  6
CONTINUOUS
 62
     7
 10
-194.4368
 20
28.60008
 11
-195.4368
 21
27.60007
  0
LINE
  8
0
  6
CONTINUOUS
 62
     7
 10
-169.4368
 20
28.60002
 11
-168.4368
 21
27.59999
  0
LINE
  8
0
  6
CONTINUOUS
 62
     7
 10
-171.4368
 20
-26.74167
 11
-168.4368
 21
-26.74167
  0
LINE
  8
0
  6
CONTINUOUS
 62
     7
 10
-171.4368
 20
-30.05832
 11
-168.4368
 21
-30.05832
  0
LINE
  8
0
  6
CONTINUOUS
 62
     7
 10
-171.4368
 20
-26.74167
 11
-171.4368
 21
-30.05832
  0
LINE
  8
0
  6
CONTINUOUS
 62
     7
 10
-194.4368
 20
28.60001
 11
-160.7368
 21
28.60001
  0
LINE
  8
0
  6
CONTINUOUS
 62
     7
 10
-195.4368
 20
27.60001
 11
-168.4368
 21
27.60001
  0
LINE
  8
0
  6
CONTINUOUS
 62
     7
 10
-195.4368
 20
-64.59999
 11
-194.4368
 21
-65.59999
  0
LINE
  8
0
  6
CONTINUOUS
 62
     7
 10
-168.4368
 20
-64.59997
 11
-169.4368
 21
-65.59996
  0
LINE
  8
0
  6
CONTINUOUS
 62
     7
 10
-195.4368
 20
-64.60001
 11
-168.4368
 21
-64.60001
  0
LINE
  8
0
  6
CONTINUOUS
 62
     7
 10
-194.4368
 20
-65.60001
 11
-160.7368
 21
-65.60001
  0
LINE
  8
0
  6
CENTER
 62
     2
 10
-174.4368
 20
4.80864
 11
-174.4368
 21
-1.55508
  0
LINE
  8
0
  6
CENTER
 62
     2
 10
-177.4665
 20
-28.39999
 11
-167.453
 21
-28.39999
  0
LINE
  8
0
  6
CENTER
 62
     2
 10
-177.4665
 20
1.60001
 11
-171.3836
 21
1.60001
  0
LINE
  8
0
  6
CENTER
 62
     2
 10
-174.4368
 20
-25.5126
 11
-174.4368
 21
-31.50198
  0
LINE
  8
0
  6
PHANTOM
 62
     2
 10
-162.5868
 20
68.0599
 11
-168.2867
 21
69.58721
  0
LINE
  8
0
  6
PHANTOM
 62
     2
 10
-162.5868
 20
69.61281
 11
-168.2868
 21
71.14013
  0
LINE
  8
0
  6
CONTINUOUS
 62
     7
 10
-164.5868
 20
70.14871
 11
-164.5868
 21
74.60001
  0
LINE
  8
0
  6
CONTINUOUS
 62
     7
 10
-166.2868
 20
70.60422
 11
-166.2868
 21
74.60001
  0
LINE
  8
0
  6
CONTINUOUS
 62
     7
 10
-193.9368
 20
53.8
 11
-169.9368
 21
53.8
  0
LINE
  8
0
  6
CENTER
 62
     2
 10
-190.9368
 20
59.80002
 11
-190.9368
 21
50.8
  0
LINE
  8
0
  6
CONTINUOUS
 62
     7
 10
-169.9368
 20
54.8
 11
-169.9368
 21
28.60001
  0
LINE
  8
0
  6
CONTINUOUS
 62
     7
 10
-171.111
 20
56.8
 11
-170.9368
 21
56.8
  0
LINE
  8
0
  6
CONTINUOUS
 62
     7
 10
-175.1868
 20
56.09375
 11
-175.1868
 21
55.39999
  0
LINE
  8
0
  6
CONTINUOUS
 62
     7
 10
-170.6868
 20
56.09377
 11
-170.6868
 21
55.40001
  0
LINE
  8
0
  6
CONTINUOUS
 62
     7
 10
-175.4868
 20
55.40001
 11
-175.4868
 21
54.8
  0
LINE
  8
0
  6
CONTINUOUS
 62
     7
 10
-170.3868
 20
55.39999
 11
-170.3868
 21
54.8
  0
LINE
  8
0
  6
CONTINUOUS
 62
     7
 10
-172.6367
 20
55.40004
 11
-172.4759
 21
54.80005
  0
LINE
  8
0
  6
CONTINUOUS
 62
     7
 10
-173.2368
 20
54.80001
 11
-173.3975
 21
55.4
  0
LINE
  8
0
  6
CONTINUOUS
 62
     7
 10
-170.3868
 20
55.40001
 11
-175.4868
 21
55.40001
  0
LINE
  8
0
  6
CENTER
 62
     2
 10
-172.9368
 20
59.80002
 11
-172.9368
 21
50.8
  0
LINE
  8
0
  6
CONTINUOUS
 62
     7
 10
-175.9368
 20
56.8
 11
-175.9368
 21
54.8
  0
LINE
  8
0
  6
CONTINUOUS
 62
     7
 10
-169.9369
 20
54.79999
 11
-170.9368
 21
56.79998
  0
LINE
  8
0
  6
CONTINUOUS
 62
     7
 10
-193.9368
 20
54.80005
 11
-192.9368
 21
56.80005
  0
LINE
  8
0
  6
CONTINUOUS
 62
     7
 10
-193.9368
 20
54.8
 11
-169.9368
 21
54.8
  0
LINE
  8
0
  6
CONTINUOUS
 62
     7
 10
-193.9368
 20
54.8
 11
-193.9368
 21
28.60001
  0
LINE
  8
0
  6
CONTINUOUS
 62
     7
 10
-192.9368
 20
56.8
 11
-174.7626
 21
56.8
  0
LINE
  8
0
  6
CONTINUOUS
 62
     7
 10
-169.9368
 20
54.60001
 11
-162.9368
 21
54.60001
  0
LINE
  8
0
  6
CONTINUOUS
 62
     7
 10
-159.9368
 20
48.8
 11
-159.9368
 21
29.40001
  0
LINE
  8
0
  6
CONTINUOUS
 62
     7
 10
-169.9368
 20
49.60001
 11
-160.7368
 21
49.60001
  0
LINE
  8
0
  6
CONTINUOUS
 62
     7
 10
-160.9368
 20
64.60001
 11
-161.9368
 21
64.60001
  0
LINE
  8
0
  6
CONTINUOUS
 62
     7
 10
-167.9368
 20
63.10001
 11
-168.9368
 21
63.10001
  0
LINE
  8
0
  6
CONTINUOUS
 62
     7
 10
-168.9368
 20
64.60001
 11
-168.9368
 21
63.10001
  0
LINE
  8
0
  6
CONTINUOUS
 62
     7
 10
-167.9368
 20
63.10001
 11
-167.9368
 21
56.60001
  0
LINE
  8
0
  6
CONTINUOUS
 62
     7
 10
-166.5368
 20
64.60001
 11
-166.5368
 21
54.60001
  0
LINE
  8
0
  6
CONTINUOUS
 62
     7
 10
-164.7368
 20
64.60001
 11
-164.7368
 21
54.60001
  0
LINE
  8
0
  6
CONTINUOUS
 62
     7
 10
-161.9368
 20
49.60001
 11
-161.9368
 21
56.92873
  0
LINE
  8
0
  6
CONTINUOUS
 62
     7
 10
-160.9368
 20
64.60001
 11
-160.9368
 21
62.60001
  0
LINE
  8
0
  6
CONTINUOUS
 62
     7
 10
-161.9368
 20
64.60001
 11
-161.9368
 21
63.10001
  0
LINE
  8
0
  6
CONTINUOUS
 62
     7
 10
-160.9368
 20
62.60002
 11
-161.9368
 21
56.92874
  0
LINE
  8
0
  6
CONTINUOUS
 62
     7
 10
-161.9368
 20
63.10001
 11
-162.9368
 21
57.42872
  0
LINE
  8
0
  6
CONTINUOUS
 62
     7
 10
-163.9368
 20
54.60001
 11
-163.9368
 21
55.10001
  0
LINE
  8
0
  6
CONTINUOUS
 62
     7
 10
-167.9368
 20
56.60001
 11
-168.9368
 21
56.60001
  0
LINE
  8
0
  6
CONTINUOUS
 62
     7
 10
-163.6369
 20
64.29992
 11
-163.9369
 21
64.59988
  0
LINE
  8
0
  6
CONTINUOUS
 62
     7
 10
-163.9367
 20
58.09997
 11
-163.6367
 21
58.39997
  0
LINE
  8
0
  6
CONTINUOUS
 62
     7
 10
-163.6368
 20
58.40001
 11
-163.6368
 21
64.30002
  0
LINE
  8
0
  6
CONTINUOUS
 62
     7
 10
-162.9368
 20
57.10001
 11
-162.9368
 21
57.42873
  0
LINE
  8
0
  6
CONTINUOUS
 62
     7
 10
-163.9368
 20
57.10001
 11
-163.9368
 21
64.60001
  0
LINE
  8
0
  6
CONTINUOUS
 62
     7
 10
-163.9368
 20
64.60001
 11
-168.9368
 21
64.60001
  0
LINE
  8
0
  6
CENTER
 62
     2
 10
-165.4368
 20
61.60001
 11
-165.4368
 21
87.60001
  0
LINE
  8
0
  6
CONTINUOUS
 62
     7
 10
-166.2868
 20
64.60001
 11
-166.2868
 21
69.0513
  0
LINE
  8
0
  6
CONTINUOUS
 62
     7
 10
-164.5868
 20
64.60001
 11
-164.5868
 21
68.59579
  0
LINE
  8
0
  6
CONTINUOUS
 62
     7
 10
-165.1168
 20
74.60001
 11
-165.1168
 21
84.60001
  0
LINE
  8
0
  6
CONTINUOUS
 62
     7
 10
-165.7568
 20
74.60001
 11
-165.7568
 21
84.60001
  0
LINE
  8
0
  6
CONTINUOUS
 62
     7
 10
-164.5868
 20
74.60001
 11
-166.2868
 21
74.60001
  0
LINE
  8
0
  6
CONTINUOUS
 62
     7
 10
-165.1168
 20
84.60001
 11
-165.7568
 21
84.60001
  0
LINE
  8
0
  6
CONTINUOUS
 62
     7
 10
-162.9368
 20
55.10001
 11
-162.9368
 21
49.60001
  0
LINE
  8
0
  6
CONTINUOUS
 62
     7
 10
-168.9368
 20
56.60001
 11
-168.9368
 21
54.60001
  0
LINE
  8
0
  6
PHANTOM
 62
     2
 10
-168.2867
 20
-105.0598
 11
-162.5867
 21
-106.5871
  0
LINE
  8
0
  6
PHANTOM
 62
     2
 10
-168.2868
 20
-106.6127
 11
-162.5867
 21
-108.1401
  0
LINE
  8
0
  6
CONTINUOUS
 62
     7
 10
-166.2868
 20
-107.1487
 11
-166.2868
 21
-111.6
  0
LINE
  8
0
  6
CONTINUOUS
 62
     7
 10
-164.5868
 20
-107.6042
 11
-164.5868
 21
-111.6
  0
LINE
  8
0
  6
CONTINUOUS
 62
     7
 10
-169.9368
 20
-90.79999
 11
-193.9368
 21
-90.79999
  0
LINE
  8
0
  6
CENTER
 62
     2
 10
-172.9368
 20
-96.79999
 11
-172.9368
 21
-87.79999
  0
LINE
  8
0
  6
CONTINUOUS
 62
     7
 10
-193.9368
 20
-91.79999
 11
-193.9368
 21
-65.60001
  0
LINE
  8
0
  6
CONTINUOUS
 62
     7
 10
-192.7626
 20
-93.79999
 11
-192.9368
 21
-93.79999
  0
LINE
  8
0
  6
CONTINUOUS
 62
     7
 10
-188.6868
 20
-93.09375
 11
-188.6868
 21
-92.39999
  0
LINE
  8
0
  6
CONTINUOUS
 62
     7
 10
-193.1868
 20
-93.09375
 11
-193.1868
 21
-92.39999
  0
LINE
  8
0
  6
CONTINUOUS
 62
     7
 10
-188.3868
 20
-92.39999
 11
-188.3868
 21
-91.79999
  0
LINE
  8
0
  6
CONTINUOUS
 62
     7
 10
-193.4868
 20
-92.39999
 11
-193.4868
 21
-91.79999
  0
LINE
  8
0
  6
CONTINUOUS
 62
     7
 10
-191.2368
 20
-92.39999
 11
-191.3976
 21
-91.79998
  0
LINE
  8
0
  6
CONTINUOUS
 62
     7
 10
-190.6368
 20
-91.80003
 11
-190.476
 21
-92.40002
  0
LINE
  8
0
  6
CONTINUOUS
 62
     7
 10
-193.4868
 20
-92.39999
 11
-188.3868
 21
-92.39999
  0
LINE
  8
0
  6
CENTER
 62
     2
 10
-190.9368
 20
-96.79999
 11
-190.9368
 21
-87.79999
  0
LINE
  8
0
  6
CONTINUOUS
 62
     7
 10
-187.9368
 20
-93.79999
 11
-187.9368
 21
-91.79999
  0
LINE
  8
0
  6
CONTINUOUS
 62
     7
 10
-193.9367
 20
-91.80003
 11
-192.9367
 21
-93.80002
  0
LINE
  8
0
  6
CONTINUOUS
 62
     7
 10
-169.9368
 20
-91.8
 11
-170.9368
 21
-93.80001
  0
LINE
  8
0
  6
CONTINUOUS
 62
     7
 10
-169.9368
 20
-91.79999
 11
-193.9368
 21
-91.79999
  0
LINE
  8
0
  6
CONTINUOUS
 62
     7
 10
-169.9368
 20
-91.79999
 11
-169.9368
 21
-65.60001
  0
LINE
  8
0
  6
CONTINUOUS
 62
     7
 10
-170.9368
 20
-93.79999
 11
-189.111
 21
-93.79999
  0
LINE
  8
0
  6
CONTINUOUS
 62
     7
 10
-169.9368
 20
-91.59998
 11
-162.9368
 21
-91.59998
  0
LINE
  8
0
  6
CONTINUOUS
 62
     7
 10
-159.9368
 20
-85.79999
 11
-159.9368
 21
-66.39999
  0
LINE
  8
0
  6
CONTINUOUS
 62
     7
 10
-169.9368
 20
-86.60001
 11
-160.7368
 21
-86.60001
  0
LINE
  8
0
  6
CONTINUOUS
 62
     7
 10
-160.9368
 20
-101.6
 11
-161.9368
 21
-101.6
  0
LINE
  8
0
  6
CONTINUOUS
 62
     7
 10
-167.9368
 20
-100.1
 11
-168.9368
 21
-100.1
  0
LINE
  8
0
  6
CONTINUOUS
 62
     7
 10
-168.9368
 20
-101.6
 11
-168.9368
 21
-100.1
  0
LINE
  8
0
  6
CONTINUOUS
 62
     7
 10
-167.9368
 20
-100.1
 11
-167.9368
 21
-93.60001
  0
LINE
  8
0
  6
CONTINUOUS
 62
     7
 10
-166.5368
 20
-101.6
 11
-166.5368
 21
-91.60001
  0
LINE
  8
0
  6
CONTINUOUS
 62
     7
 10
-164.7368
 20
-101.6
 11
-164.7368
 21
-91.60001
  0
LINE
  8
0
  6
CONTINUOUS
 62
     7
 10
-161.9368
 20
-86.60001
 11
-161.9368
 21
-93.92871
  0
LINE
  8
0
  6
CONTINUOUS
 62
     7
 10
-160.9368
 20
-101.6
 11
-160.9368
 21
-99.60001
  0
LINE
  8
0
  6
CONTINUOUS
 62
     7
 10
-161.9368
 20
-101.6
 11
-161.9368
 21
-100.1
  0
LINE
  8
0
  6
CONTINUOUS
 62
     7
 10
-160.9368
 20
-99.6
 11
-161.9368
 21
-93.92873
  0
LINE
  8
0
  6
CONTINUOUS
 62
     7
 10
-161.9367
 20
-100.1
 11
-162.9367
 21
-94.42871
  0
LINE
  8
0
  6
CONTINUOUS
 62
     7
 10
-163.9368
 20
-91.60001
 11
-163.9368
 21
-92.10001
  0
LINE
  8
0
  6
CONTINUOUS
 62
     7
 10
-167.9368
 20
-93.60001
 11
-168.9368
 21
-93.60001
  0
LINE
  8
0
  6
CONTINUOUS
 62
     7
 10
-163.6369
 20
-101.2999
 11
-163.9369
 21
-101.5999
  0
LINE
  8
0
  6
CONTINUOUS
 62
     7
 10
-163.9368
 20
-95.09999
 11
-163.6368
 21
-95.39999
  0
LINE
  8
0
  6
CONTINUOUS
 62
     7
 10
-163.6368
 20
-95.40002
 11
-163.6368
 21
-101.3
  0
LINE
  8
0
  6
CONTINUOUS
 62
     7
 10
-162.9368
 20
-94.10001
 11
-162.9368
 21
-94.42871
  0
LINE
  8
0
  6
CONTINUOUS
 62
     7
 10
-163.9368
 20
-94.10001
 11
-163.9368
 21
-101.6
  0
LINE
  8
0
  6
CONTINUOUS
 62
     7
 10
-163.9368
 20
-101.6
 11
-168.9368
 21
-101.6
  0
LINE
  8
0
  6
CENTER
 62
     2
 10
-165.4368
 20
-98.60001
 11
-165.4368
 21
-124.6
  0
LINE
  8
0
  6
CONTINUOUS
 62
     7
 10
-164.5868
 20
-101.6
 11
-164.5868
 21
-106.0513
  0
LINE
  8
0
  6
CONTINUOUS
 62
     7
 10
-166.2868
 20
-101.6
 11
-166.2868
 21
-105.5958
  0
LINE
  8
0
  6
CONTINUOUS
 62
     7
 10
-165.1168
 20
-111.6
 11
-165.1168
 21
-121.6
  0
LINE
  8
0
  6
CONTINUOUS
 62
     7
 10
-165.7568
 20
-111.6
 11
-165.7568
 21
-121.6
  0
LINE
  8
0
  6
CONTINUOUS
 62
     7
 10
-164.5868
 20
-111.6
 11
-166.2868
 21
-111.6
  0
LINE
  8
0
  6
CONTINUOUS
 62
     7
 10
-165.1168
 20
-121.6
 11
-165.7568
 21
-121.6
  0
LINE
  8
0
  6
CONTINUOUS
 62
     7
 10
-162.9368
 20
-92.10001
 11
-162.9368
 21
-86.60001
  0
LINE
  8
0
  6
CONTINUOUS
 62
     7
 10
-168.9368
 20
-93.60001
 11
-168.9368
 21
-91.60001
  0
LINE
  8
0
  6
CONTINUOUS
 62
     7
 10
-316.0613
 20
7.60017
 11
-298.0613
 21
7.60017
  0
LINE
  8
0
  6
CENTER
 62
     2
 10
-307.0613
 20
67.41827
 11
-307.0613
 21
-104.0468
  0
LINE
  8
0
  6
CONTINUOUS
 62
     7
 10
-298.0613
 20
27.60017
 11
-298.0613
 21
-64.59982
  0
LINE
  8
0
  6
CONTINUOUS
 62
     7
 10
-316.0613
 20
27.60016
 11
-316.0613
 21
-64.59982
  0
LINE
  8
0
  6
CONTINUOUS
 62
     7
 10
-316.0613
 20
-34.39984
 11
-298.0613
 21
-34.39984
  0
LINE
  8
0
  6
CONTINUOUS
 62
     7
 10
-315.0612
 20
28.60016
 11
-316.0613
 21
27.60016
  0
LINE
  8
0
  6
CONTINUOUS
 62
     7
 10
-299.0613
 20
28.60016
 11
-298.0613
 21
27.60016
  0
LINE
  8
0
  6
CENTER
 62
     2
 10
-313.4094
 20
-26.59982
 11
-301.1439
 21
-26.59982
  0
LINE
  8
0
  6
CENTER
 62
     2
 10
-313.27
 20
-13.39984
 11
-300.7258
 21
-13.39984
  0
LINE
  8
0
  6
CENTER
 62
     2
 10
-312.7822
 20
-0.19983
 11
-300.7258
 21
-0.19983
  0
LINE
  8
0
  6
CENTER
 62
     2
 10
-313.5613
 20
4.35165
 11
-313.5613
 21
-0.81406
  0
LINE
  8
0
  6
CENTER
 62
     2
 10
-300.5613
 20
-25.68155
 11
-300.5613
 21
-31.20764
  0
LINE
  8
0
  6
CENTER
 62
     2
 10
-303.1368
 20
-28.39984
 11
-298.0613
 21
-28.39984
  0
LINE
  8
0
  6
CENTER
 62
     2
 10
-316.0613
 20
1.60017
 11
-311.0656
 21
1.60017
  0
LINE
  8
0
  6
CENTER
 62
     2
 10
-310.8253
 20
20.30017
 11
-303.257
 21
20.30017
  0
LINE
  8
0
  6
CONTINUOUS
 62
     7
 10
-315.0613
 20
28.60017
 11
-299.0613
 21
28.60017
  0
LINE
  8
0
  6
CONTINUOUS
 62
     7
 10
-316.0613
 20
27.60017
 11
-298.0613
 21
27.60017
  0
LINE
  8
0
  6
CONTINUOUS
 62
     7
 10
-308.4755
 20
18.88596
 11
-305.6471
 21
21.71438
  0
LINE
  8
0
  6
CONTINUOUS
 62
     7
 10
-308.4755
 20
21.71436
 11
-305.6471
 21
18.88593
  0
LINE
  8
0
  6
CONTINUOUS
 62
     7
 10
-308.9931
 20
20.81781
 11
-306.5436
 21
18.36831
  0
LINE
  8
0
  6
CONTINUOUS
 62
     7
 10
-307.5789
 20
22.23202
 11
-305.1294
 21
19.78252
  0
LINE
  8
0
  6
CONTINUOUS
 62
     7
 10
-308.9931
 20
19.78252
 11
-306.5436
 21
22.23201
  0
LINE
  8
0
  6
CONTINUOUS
 62
     7
 10
-307.5789
 20
18.36832
 11
-305.1294
 21
20.81781
  0
LINE
  8
0
  6
CONTINUOUS
 62
     7
 10
-316.0613
 20
-64.5998
 11
-315.0613
 21
-65.5998
  0
LINE
  8
0
  6
CONTINUOUS
 62
     7
 10
-298.0613
 20
-64.59978
 11
-299.0613
 21
-65.59978
  0
LINE
  8
0
  6
CONTINUOUS
 62
     7
 10
-316.0613
 20
-64.59982
 11
-298.0613
 21
-64.59982
  0
LINE
  8
0
  6
CONTINUOUS
 62
     7
 10
-299.0613
 20
-65.59982
 11
-315.0613
 21
-65.59982
  0
LINE
  8
0
  6
CENTER
 62
     2
 10
-302.8946
 20
-57.29984
 11
-311.228
 21
-57.29984
  0
LINE
  8
0
  6
CONTINUOUS
 62
     7
 10
-308.4755
 20
-58.71406
 11
-305.6471
 21
-55.8856
  0
LINE
  8
0
  6
CONTINUOUS
 62
     7
 10
-308.4755
 20
-55.8856
 11
-305.6471
 21
-58.71402
  0
LINE
  8
0
  6
CONTINUOUS
 62
     7
 10
-307.579
 20
-55.36798
 11
-305.1295
 21
-57.81745
  0
LINE
  8
0
  6
CONTINUOUS
 62
     7
 10
-308.9932
 20
-56.78219
 11
-306.5437
 21
-59.23169
  0
LINE
  8
0
  6
CONTINUOUS
 62
     7
 10
-308.9931
 20
-57.81749
 11
-306.5436
 21
-55.368
  0
LINE
  8
0
  6
CONTINUOUS
 62
     7
 10
-307.5789
 20
-59.2317
 11
-305.1294
 21
-56.78221
  0
LINE
  8
0
  6
CENTER
 62
     2
 10
-307.5613
 20
-20.39981
 11
-307.5613
 21
-32.56442
  0
LINE
  8
0
  6
CENTER
 62
     2
 10
-306.5613
 20
5.62318
 11
-306.5613
 21
-6.23346
  0
LINE
  8
0
  6
CONTINUOUS
 62
     7
 10
-314.1113
 20
55.40016
 11
-314.1113
 21
54.80017
  0
LINE
  8
0
  6
CONTINUOUS
 62
     7
 10
-309.0113
 20
55.40016
 11
-309.0113
 21
54.80017
  0
LINE
  8
0
  6
CONTINUOUS
 62
     7
 10
-309.0113
 20
55.40016
 11
-314.1113
 21
55.40016
  0
LINE
  8
0
  6
CONTINUOUS
 62
     7
 10
-314.5613
 20
53.80017
 11
-299.5613
 21
53.80017
  0
LINE
  8
0
  6
CONTINUOUS
 62
     7
 10
-314.5613
 20
54.80017
 11
-299.5613
 21
54.80017
  0
LINE
  8
0
  6
CONTINUOUS
 62
     7
 10
-299.5612
 20
54.80014
 11
-300.5612
 21
56.80016
  0
LINE
  8
0
  6
CENTER
 62
     2
 10
-302.5613
 20
59.80017
 11
-302.5613
 21
51.80017
  0
LINE
  8
0
  6
CONTINUOUS
 62
     7
 10
-309.7355
 20
56.80017
 11
-300.5613
 21
56.80017
  0
LINE
  8
0
  6
CONTINUOUS
 62
     7
 10
-309.3112
 20
56.0939
 11
-309.3112
 21
55.40015
  0
LINE
  8
0
  6
CONTINUOUS
 62
     7
 10
-313.5613
 20
56.80017
 11
-313.387
 21
56.80017
  0
LINE
  8
0
  6
CENTER
 62
     2
 10
-311.5613
 20
59.80017
 11
-311.5613
 21
51.80017
  0
LINE
  8
0
  6
CONTINUOUS
 62
     7
 10
-314.5613
 20
54.80017
 11
-314.5613
 21
28.60017
  0
LINE
  8
0
  6
CONTINUOUS
 62
     7
 10
-299.5613
 20
54.80017
 11
-299.5613
 21
28.60017
  0
LINE
  8
0
  6
CONTINUOUS
 62
     7
 10
-308.5613
 20
56.80017
 11
-308.5613
 21
54.80017
  0
LINE
  8
0
  6
CONTINUOUS
 62
     7
 10
-313.5613
 20
50.80017
 11
-300.5613
 21
50.80017
  0
LINE
  8
0
  6
CONTINUOUS
 62
     7
 10
-313.5613
 20
46.80017
 11
-300.5613
 21
46.80017
  0
LINE
  8
0
  6
CONTINUOUS
 62
     7
 10
-300.5613
 20
50.80017
 11
-300.5613
 21
46.80017
  0
LINE
  8
0
  6
CONTINUOUS
 62
     7
 10
-313.5613
 20
50.80017
 11
-313.5613
 21
46.80017
  0
LINE
  8
0
  6
CONTINUOUS
 62
     7
 10
-312.8492
 20
49.90695
 11
-310.5075
 21
49.90695
  0
LINE
  8
0
  6
CONTINUOUS
 62
     7
 10
-312.8492
 20
47.83037
 11
-310.861
 21
47.83037
  0
LINE
  8
0
  6
CONTINUOUS
 62
     7
 10
-312.8492
 20
47.30017
 11
-310.1541
 21
47.30017
  0
LINE
  8
0
  6
CONTINUOUS
 62
     7
 10
-312.8492
 20
49.37677
 11
-310.861
 21
49.37677
  0
LINE
  8
0
  6
CONTINUOUS
 62
     7
 10
-312.8492
 20
49.90695
 11
-312.8492
 21
49.37677
  0
LINE
  8
0
  6
CONTINUOUS
 62
     7
 10
-310.1541
 20
49.5535
 11
-310.1541
 21
47.30017
  0
LINE
  8
0
  6
CONTINUOUS
 62
     7
 10
-310.861
 20
49.37677
 11
-310.861
 21
47.83037
  0
LINE
  8
0
  6
CONTINUOUS
 62
     7
 10
-309.7564
 20
49.90695
 11
-309.7564
 21
49.37677
  0
LINE
  8
0
  6
CONTINUOUS
 62
     7
 10
-307.238
 20
49.37677
 11
-307.238
 21
47.65363
  0
LINE
  8
0
  6
CONTINUOUS
 62
     7
 10
-307.9449
 20
49.37677
 11
-307.9449
 21
47.83037
  0
LINE
  8
0
  6
CONTINUOUS
 62
     7
 10
-312.8492
 20
47.83037
 11
-312.8492
 21
47.30017
  0
LINE
  8
0
  6
CONTINUOUS
 62
     7
 10
-309.7564
 20
49.90695
 11
-309.0579
 21
49.90695
  0
LINE
  8
0
  6
CONTINUOUS
 62
     7
 10
-309.7564
 20
47.30017
 11
-309.2075
 21
47.30017
  0
LINE
  8
0
  6
CONTINUOUS
 62
     7
 10
-309.7564
 20
47.30017
 11
-309.1999
 21
49.37675
  0
LINE
  8
0
  6
CONTINUOUS
 62
     7
 10
-309.7564
 20
49.37677
 11
-309.2
 21
49.37677
  0
LINE
  8
0
  6
CONTINUOUS
 62
     7
 10
-309.2075
 20
47.30015
 11
-308.6511
 21
49.37674
  0
LINE
  8
0
  6
CONTINUOUS
 62
     7
 10
-308.4752
 20
47.83037
 11
-307.9449
 21
47.83037
  0
LINE
  8
0
  6
CONTINUOUS
 62
     7
 10
-308.4752
 20
47.83037
 11
-308.3331
 21
47.30019
  0
LINE
  8
0
  6
CONTINUOUS
 62
     7
 10
-308.3331
 20
47.30017
 11
-307.5915
 21
47.30017
  0
LINE
  8
0
  6
CONTINUOUS
 62
     7
 10
-308.6511
 20
49.37677
 11
-307.9449
 21
49.37677
  0
LINE
  8
0
  6
CONTINUOUS
 62
     7
 10
-308.509
 20
49.90695
 11
-307.7682
 21
49.90695
  0
LINE
  8
0
  6
CONTINUOUS
 62
     7
 10
-309.0579
 20
49.90695
 11
-308.9525
 21
50.30017
  0
LINE
  8
0
  6
CONTINUOUS
 62
     7
 10
-308.509
 20
49.90699
 11
-308.4037
 21
50.30023
  0
LINE
  8
0
  6
CONTINUOUS
 62
     7
 10
-306.7962
 20
49.90695
 11
-305.9567
 21
49.90695
  0
LINE
  8
0
  6
CONTINUOUS
 62
     7
 10
-306.7962
 20
49.37677
 11
-304.7345
 21
49.37677
  0
LINE
  8
0
  6
CONTINUOUS
 62
     7
 10
-305.9567
 20
47.30017
 11
-305.2498
 21
47.30017
  0
LINE
  8
0
  6
CONTINUOUS
 62
     7
 10
-306.7962
 20
49.90695
 11
-306.7962
 21
49.37677
  0
LINE
  8
0
  6
CONTINUOUS
 62
     7
 10
-304.1894
 20
48.41537
 11
-304.1894
 21
47.83037
  0
LINE
  8
0
  6
CONTINUOUS
 62
     7
 10
-306.7962
 20
47.83035
 11
-305.9567
 21
48.22181
  0
LINE
  8
0
  6
CONTINUOUS
 62
     7
 10
-306.7962
 20
48.41536
 11
-304.7344
 21
49.37676
  0
LINE
  8
0
  6
CONTINUOUS
 62
     7
 10
-306.7962
 20
48.41537
 11
-306.7962
 21
47.83037
  0
LINE
  8
0
  6
CONTINUOUS
 62
     7
 10
-305.2498
 20
48.32484
 11
-304.1894
 21
47.83037
  0
LINE
  8
0
  6
CONTINUOUS
 62
     7
 10
-304.8654
 20
48.7306
 11
-304.1894
 21
48.41534
  0
LINE
  8
0
  6
CONTINUOUS
 62
     7
 10
-304.1894
 20
49.5535
 11
-304.1894
 21
49.2711
  0
LINE
  8
0
  6
CONTINUOUS
 62
     7
 10
-305.9567
 20
50.30017
 11
-305.9567
 21
49.90695
  0
LINE
  8
0
  6
CONTINUOUS
 62
     7
 10
-305.2498
 20
50.30017
 11
-305.2498
 21
49.90695
  0
LINE
  8
0
  6
CONTINUOUS
 62
     7
 10
-305.2498
 20
49.90695
 11
-304.5428
 21
49.90695
  0
LINE
  8
0
  6
CONTINUOUS
 62
     7
 10
-305.9567
 20
48.2218
 11
-305.9567
 21
47.30017
  0
LINE
  8
0
  6
CONTINUOUS
 62
     7
 10
-305.2498
 20
48.32483
 11
-305.2498
 21
47.30017
  0
LINE
  8
0
  6
CONTINUOUS
 62
     7
 10
-304.8654
 20
48.73059
 11
-304.3934
 21
48.9507
  0
LINE
  8
0
  6
CONTINUOUS
 62
     7
 10
-301.8035
 20
50.14111
 11
-301.2733
 21
50.14111
  0
LINE
  8
0
  6
CONTINUOUS
 62
     7
 10
-303.9685
 20
49.04593
 11
-303.9685
 21
48.47534
  0
LINE
  8
0
  6
CONTINUOUS
 62
     7
 10
-301.2733
 20
50.14111
 11
-301.2733
 21
49.90695
  0
LINE
  8
0
  6
CONTINUOUS
 62
     7
 10
-301.8035
 20
50.14111
 11
-301.8035
 21
50.02686
  0
LINE
  8
0
  6
CONTINUOUS
 62
     7
 10
-302.5104
 20
49.05521
 11
-302.5104
 21
47.30017
  0
LINE
  8
0
  6
CONTINUOUS
 62
     7
 10
-303.9684
 20
49.04589
 11
-301.9149
 21
49.86262
  0
LINE
  8
0
  6
CONTINUOUS
 62
     7
 10
-303.9685
 20
48.47532
 11
-302.5105
 21
49.05519
  0
LINE
  8
0
  6
CONTINUOUS
 62
     7
 10
-302.5104
 20
47.30017
 11
-301.8035
 21
47.30017
  0
LINE
  8
0
  6
CONTINUOUS
 62
     7
 10
-301.8035
 20
49.33636
 11
-301.8035
 21
47.30017
  0
LINE
  8
0
  6
CONTINUOUS
 62
     7
 10
-301.8034
 20
49.33633
 11
-301.6075
 21
49.41425
  0
LINE
  8
0
  6
CONTINUOUS
 62
     7
 10
-308.9526
 20
50.30017
 11
-308.4037
 21
50.30017
  0
LINE
  8
0
  6
CONTINUOUS
 62
     7
 10
-307.5252
 20
50.30017
 11
-307.2992
 21
50.30017
  0
LINE
  8
0
  6
CONTINUOUS
 62
     7
 10
-305.9567
 20
50.30017
 11
-305.2498
 21
50.30017
  0
LINE
  8
0
  6
CONTINUOUS
 62
     7
 10
-307.5252
 20
49.94672
 11
-307.2992
 21
49.94672
  0
LINE
  8
0
  6
CONTINUOUS
 62
     7
 10
-307.5252
 20
50.30017
 11
-307.5252
 21
49.94672
  0
LINE
  8
0
  6
CONTINUOUS
 62
     7
 10
-307.2992
 20
50.30017
 11
-307.2992
 21
49.94672
  0
LINE
  8
0
  6
CONTINUOUS
 62
     7
 10
-307.1415
 20
50.30017
 11
-307.1415
 21
49.94672
  0
LINE
  8
0
  6
CONTINUOUS
 62
     7
 10
-306.9155
 20
50.30017
 11
-306.9155
 21
49.94672
  0
LINE
  8
0
  6
CONTINUOUS
 62
     7
 10
-307.1415
 20
50.30017
 11
-306.9155
 21
50.30017
  0
LINE
  8
0
  6
CONTINUOUS
 62
     7
 10
-307.1415
 20
49.94672
 11
-306.9155
 21
49.94672
  0
LINE
  8
0
  6
CONTINUOUS
 62
     7
 10
-314.5612
 20
54.80016
 11
-313.5612
 21
56.80016
  0
LINE
  8
0
  6
CONTINUOUS
 62
     7
 10
-313.8113
 20
56.0939
 11
-313.8113
 21
55.40016
  0
LINE
  8
0
  6
CONTINUOUS
 62
     7
 10
-312.5613
 20
64.60017
 11
-301.5613
 21
64.60017
  0
LINE
  8
0
  6
CONTINUOUS
 62
     7
 10
-303.0613
 20
57.07928
 11
-303.0613
 21
64.60017
  0
LINE
  8
0
  6
CONTINUOUS
 62
     7
 10
-311.0613
 20
57.07928
 11
-311.0613
 21
64.60017
  0
LINE
  8
0
  6
CONTINUOUS
 62
     7
 10
-312.5613
 20
57.01624
 11
-312.5613
 21
64.60017
  0
LINE
  8
0
  6
CONTINUOUS
 62
     7
 10
-301.5613
 20
57.01624
 11
-301.5613
 21
64.60017
  0
LINE
  8
0
  6
CENTER
 62
     2
 10
-309.5613
 20
61.60017
 11
-309.5613
 21
87.60017
  0
LINE
  8
0
  6
CENTER
 62
     2
 10
-304.5613
 20
61.60017
 11
-304.5613
 21
87.60017
  0
LINE
  8
0
  6
CONTINUOUS
 62
     7
 10
-310.4113
 20
74.60017
 11
-308.7113
 21
74.60017
  0
LINE
  8
0
  6
CONTINUOUS
 62
     7
 10
-309.8813
 20
84.60017
 11
-309.2413
 21
84.60017
  0
LINE
  8
0
  6
CONTINUOUS
 62
     7
 10
-304.2413
 20
74.60017
 11
-304.2413
 21
84.60017
  0
LINE
  8
0
  6
CONTINUOUS
 62
     7
 10
-304.8813
 20
74.60017
 11
-304.8813
 21
84.60017
  0
LINE
  8
0
  6
CONTINUOUS
 62
     7
 10
-309.2413
 20
74.60017
 11
-309.2413
 21
84.60017
  0
LINE
  8
0
  6
CONTINUOUS
 62
     7
 10
-309.8813
 20
74.60017
 11
-309.8813
 21
84.60017
  0
LINE
  8
0
  6
CONTINUOUS
 62
     7
 10
-308.7113
 20
64.60017
 11
-308.7113
 21
69.26584
  0
LINE
  8
0
  6
CONTINUOUS
 62
     7
 10
-310.4113
 20
64.60017
 11
-310.4113
 21
69.72134
  0
LINE
  8
0
  6
CONTINUOUS
 62
     7
 10
-305.4113
 20
64.60017
 11
-305.4113
 21
68.38159
  0
LINE
  8
0
  6
CONTINUOUS
 62
     7
 10
-303.7113
 20
64.60017
 11
-303.7113
 21
67.92609
  0
LINE
  8
0
  6
CONTINUOUS
 62
     7
 10
-305.4113
 20
74.60017
 11
-303.7113
 21
74.60017
  0
LINE
  8
0
  6
CONTINUOUS
 62
     7
 10
-304.8813
 20
84.60017
 11
-304.2413
 21
84.60017
  0
LINE
  8
0
  6
CONTINUOUS
 62
     7
 10
-311.0613
 20
63.10017
 11
-303.0613
 21
63.10017
  0
LINE
  8
0
  6
PHANTOM
 62
     2
 10
-301.7112
 20
68.94311
 11
-312.4113
 21
71.81017
  0
LINE
  8
0
  6
PHANTOM
 62
     2
 10
-301.7113
 20
67.39017
 11
-312.4113
 21
70.25723
  0
LINE
  8
0
  6
CONTINUOUS
 62
     7
 10
-310.4113
 20
71.27426
 11
-310.4113
 21
74.60017
  0
LINE
  8
0
  6
CONTINUOUS
 62
     7
 10
-308.7113
 20
70.81876
 11
-308.7113
 21
74.60017
  0
LINE
  8
0
  6
CONTINUOUS
 62
     7
 10
-305.4113
 20
69.93451
 11
-305.4113
 21
74.60017
  0
LINE
  8
0
  6
CONTINUOUS
 62
     7
 10
-303.7113
 20
69.479
 11
-303.7113
 21
74.60017
  0
LINE
  8
0
  6
CONTINUOUS
 62
     7
 10
-300.0113
 20
-92.39981
 11
-300.0113
 21
-91.7998
  0
LINE
  8
0
  6
CONTINUOUS
 62
     7
 10
-305.1113
 20
-92.39981
 11
-305.1113
 21
-91.7998
  0
LINE
  8
0
  6
CONTINUOUS
 62
     7
 10
-305.1113
 20
-92.39981
 11
-300.0113
 21
-92.39981
  0
LINE
  8
0
  6
CONTINUOUS
 62
     7
 10
-299.5613
 20
-90.7998
 11
-314.5613
 21
-90.7998
  0
LINE
  8
0
  6
CONTINUOUS
 62
     7
 10
-299.5613
 20
-91.7998
 11
-314.5613
 21
-91.7998
  0
LINE
  8
0
  6
CONTINUOUS
 62
     7
 10
-314.5613
 20
-91.79982
 11
-313.5613
 21
-93.7998
  0
LINE
  8
0
  6
CENTER
 62
     2
 10
-311.5613
 20
-96.7998
 11
-311.5613
 21
-88.7998
  0
LINE
  8
0
  6
CONTINUOUS
 62
     7
 10
-304.387
 20
-93.7998
 11
-313.5613
 21
-93.7998
  0
LINE
  8
0
  6
CONTINUOUS
 62
     7
 10
-304.8113
 20
-93.09354
 11
-304.8113
 21
-92.39978
  0
LINE
  8
0
  6
CONTINUOUS
 62
     7
 10
-300.5613
 20
-93.7998
 11
-300.7355
 21
-93.7998
  0
LINE
  8
0
  6
CENTER
 62
     2
 10
-302.5613
 20
-96.7998
 11
-302.5613
 21
-88.7998
  0
LINE
  8
0
  6
CONTINUOUS
 62
     7
 10
-299.5613
 20
-91.7998
 11
-299.5613
 21
-65.59982
  0
LINE
  8
0
  6
CONTINUOUS
 62
     7
 10
-314.5613
 20
-91.7998
 11
-314.5613
 21
-65.59982
  0
LINE
  8
0
  6
CONTINUOUS
 62
     7
 10
-305.5613
 20
-93.7998
 11
-305.5613
 21
-91.7998
  0
LINE
  8
0
  6
CONTINUOUS
 62
     7
 10
-300.5613
 20
-87.7998
 11
-313.5613
 21
-87.7998
  0
LINE
  8
0
  6
CONTINUOUS
 62
     7
 10
-300.5613
 20
-83.7998
 11
-313.5613
 21
-83.7998
  0
LINE
  8
0
  6
CONTINUOUS
 62
     7
 10
-313.5613
 20
-87.7998
 11
-313.5613
 21
-83.7998
  0
LINE
  8
0
  6
CONTINUOUS
 62
     7
 10
-300.5613
 20
-87.7998
 11
-300.5613
 21
-83.7998
  0
LINE
  8
0
  6
CONTINUOUS
 62
     7
 10
-301.2733
 20
-86.90659
 11
-303.6151
 21
-86.90659
  0
LINE
  8
0
  6
CONTINUOUS
 62
     7
 10
-301.2733
 20
-84.83002
 11
-303.2616
 21
-84.83002
  0
LINE
  8
0
  6
CONTINUOUS
 62
     7
 10
-301.2733
 20
-84.2998
 11
-303.9685
 21
-84.2998
  0
LINE
  8
0
  6
CONTINUOUS
 62
     7
 10
-301.2733
 20
-86.3764
 11
-303.2616
 21
-86.3764
  0
LINE
  8
0
  6
CONTINUOUS
 62
     7
 10
-301.2733
 20
-86.90659
 11
-301.2733
 21
-86.3764
  0
LINE
  8
0
  6
CONTINUOUS
 62
     7
 10
-303.9685
 20
-86.55313
 11
-303.9685
 21
-84.2998
  0
LINE
  8
0
  6
CONTINUOUS
 62
     7
 10
-303.2616
 20
-86.3764
 11
-303.2616
 21
-84.83002
  0
LINE
  8
0
  6
CONTINUOUS
 62
     7
 10
-304.3661
 20
-86.90659
 11
-304.3661
 21
-86.3764
  0
LINE
  8
0
  6
CONTINUOUS
 62
     7
 10
-306.8845
 20
-86.3764
 11
-306.8845
 21
-84.65326
  0
LINE
  8
0
  6
CONTINUOUS
 62
     7
 10
-306.1776
 20
-86.3764
 11
-306.1776
 21
-84.83002
  0
LINE
  8
0
  6
CONTINUOUS
 62
     7
 10
-301.2733
 20
-84.83002
 11
-301.2733
 21
-84.2998
  0
LINE
  8
0
  6
CONTINUOUS
 62
     7
 10
-304.3661
 20
-86.90659
 11
-305.0646
 21
-86.90659
  0
LINE
  8
0
  6
CONTINUOUS
 62
     7
 10
-304.3661
 20
-84.2998
 11
-304.915
 21
-84.2998
  0
LINE
  8
0
  6
CONTINUOUS
 62
     7
 10
-304.3661
 20
-84.29981
 11
-304.9226
 21
-86.3764
  0
LINE
  8
0
  6
CONTINUOUS
 62
     7
 10
-304.3661
 20
-86.3764
 11
-304.9225
 21
-86.3764
  0
LINE
  8
0
  6
CONTINUOUS
 62
     7
 10
-304.915
 20
-84.29978
 11
-305.4715
 21
-86.37637
  0
LINE
  8
0
  6
CONTINUOUS
 62
     7
 10
-305.6474
 20
-84.83002
 11
-306.1776
 21
-84.83002
  0
LINE
  8
0
  6
CONTINUOUS
 62
     7
 10
-305.6474
 20
-84.83
 11
-305.7895
 21
-84.29982
  0
LINE
  8
0
  6
CONTINUOUS
 62
     7
 10
-305.7895
 20
-84.2998
 11
-306.5311
 21
-84.2998
  0
LINE
  8
0
  6
CONTINUOUS
 62
     7
 10
-305.4714
 20
-86.3764
 11
-306.1776
 21
-86.3764
  0
LINE
  8
0
  6
CONTINUOUS
 62
     7
 10
-305.6135
 20
-86.90659
 11
-306.3544
 21
-86.90659
  0
LINE
  8
0
  6
CONTINUOUS
 62
     7
 10
-305.0646
 20
-86.90661
 11
-305.17
 21
-87.29981
  0
LINE
  8
0
  6
CONTINUOUS
 62
     7
 10
-305.6135
 20
-86.90659
 11
-305.7189
 21
-87.29983
  0
LINE
  8
0
  6
CONTINUOUS
 62
     7
 10
-307.3264
 20
-86.90659
 11
-308.1658
 21
-86.90659
  0
LINE
  8
0
  6
CONTINUOUS
 62
     7
 10
-307.3264
 20
-86.3764
 11
-309.3881
 21
-86.3764
  0
LINE
  8
0
  6
CONTINUOUS
 62
     7
 10
-308.1658
 20
-84.2998
 11
-308.8727
 21
-84.2998
  0
LINE
  8
0
  6
CONTINUOUS
 62
     7
 10
-307.3264
 20
-86.90659
 11
-307.3264
 21
-86.3764
  0
LINE
  8
0
  6
CONTINUOUS
 62
     7
 10
-309.9332
 20
-85.41501
 11
-309.9332
 21
-84.83002
  0
LINE
  8
0
  6
CONTINUOUS
 62
     7
 10
-307.3263
 20
-84.8299
 11
-308.1658
 21
-85.22137
  0
LINE
  8
0
  6
CONTINUOUS
 62
     7
 10
-307.3264
 20
-85.41499
 11
-309.3882
 21
-86.37638
  0
LINE
  8
0
  6
CONTINUOUS
 62
     7
 10
-307.3264
 20
-85.41501
 11
-307.3264
 21
-84.83002
  0
LINE
  8
0
  6
CONTINUOUS
 62
     7
 10
-308.8727
 20
-85.32447
 11
-309.9331
 21
-84.83
  0
LINE
  8
0
  6
CONTINUOUS
 62
     7
 10
-309.2571
 20
-85.73028
 11
-309.9332
 21
-85.41499
  0
LINE
  8
0
  6
CONTINUOUS
 62
     7
 10
-309.9332
 20
-86.55313
 11
-309.9332
 21
-86.27075
  0
LINE
  8
0
  6
CONTINUOUS
 62
     7
 10
-308.1658
 20
-87.2998
 11
-308.1658
 21
-86.90659
  0
LINE
  8
0
  6
CONTINUOUS
 62
     7
 10
-308.8727
 20
-87.2998
 11
-308.8727
 21
-86.90659
  0
LINE
  8
0
  6
CONTINUOUS
 62
     7
 10
-308.8727
 20
-86.90659
 11
-309.5797
 21
-86.90659
  0
LINE
  8
0
  6
CONTINUOUS
 62
     7
 10
-308.1658
 20
-85.22144
 11
-308.1658
 21
-84.2998
  0
LINE
  8
0
  6
CONTINUOUS
 62
     7
 10
-308.8727
 20
-85.32446
 11
-308.8727
 21
-84.2998
  0
LINE
  8
0
  6
CONTINUOUS
 62
     7
 10
-309.2572
 20
-85.73017
 11
-309.7292
 21
-85.95027
  0
LINE
  8
0
  6
CONTINUOUS
 62
     7
 10
-312.319
 20
-87.14075
 11
-312.8492
 21
-87.14075
  0
LINE
  8
0
  6
CONTINUOUS
 62
     7
 10
-310.1541
 20
-86.04556
 11
-310.1541
 21
-85.47498
  0
LINE
  8
0
  6
CONTINUOUS
 62
     7
 10
-312.8492
 20
-87.14075
 11
-312.8492
 21
-86.90659
  0
LINE
  8
0
  6
CONTINUOUS
 62
     7
 10
-312.319
 20
-87.14075
 11
-312.319
 21
-87.02649
  0
LINE
  8
0
  6
CONTINUOUS
 62
     7
 10
-311.6121
 20
-86.05487
 11
-311.6121
 21
-84.2998
  0
LINE
  8
0
  6
CONTINUOUS
 62
     7
 10
-310.1541
 20
-86.04553
 11
-312.2076
 21
-86.86225
  0
LINE
  8
0
  6
CONTINUOUS
 62
     7
 10
-310.1541
 20
-85.47504
 11
-311.6121
 21
-86.05493
  0
LINE
  8
0
  6
CONTINUOUS
 62
     7
 10
-311.6121
 20
-84.2998
 11
-312.319
 21
-84.2998
  0
LINE
  8
0
  6
CONTINUOUS
 62
     7
 10
-312.319
 20
-86.336
 11
-312.319
 21
-84.2998
  0
LINE
  8
0
  6
CONTINUOUS
 62
     7
 10
-312.3191
 20
-86.33585
 11
-312.515
 21
-86.4138
  0
LINE
  8
0
  6
CONTINUOUS
 62
     7
 10
-305.17
 20
-87.2998
 11
-305.7189
 21
-87.2998
  0
LINE
  8
0
  6
CONTINUOUS
 62
     7
 10
-306.5974
 20
-87.2998
 11
-306.8234
 21
-87.2998
  0
LINE
  8
0
  6
CONTINUOUS
 62
     7
 10
-308.1658
 20
-87.2998
 11
-308.8727
 21
-87.2998
  0
LINE
  8
0
  6
CONTINUOUS
 62
     7
 10
-306.5974
 20
-86.94635
 11
-306.8234
 21
-86.94635
  0
LINE
  8
0
  6
CONTINUOUS
 62
     7
 10
-306.5974
 20
-87.2998
 11
-306.5974
 21
-86.94635
  0
LINE
  8
0
  6
CONTINUOUS
 62
     7
 10
-306.8234
 20
-87.2998
 11
-306.8234
 21
-86.94635
  0
LINE
  8
0
  6
CONTINUOUS
 62
     7
 10
-306.9811
 20
-87.2998
 11
-306.9811
 21
-86.94635
  0
LINE
  8
0
  6
CONTINUOUS
 62
     7
 10
-307.2071
 20
-87.2998
 11
-307.2071
 21
-86.94635
  0
LINE
  8
0
  6
CONTINUOUS
 62
     7
 10
-306.9811
 20
-87.2998
 11
-307.2071
 21
-87.2998
  0
LINE
  8
0
  6
CONTINUOUS
 62
     7
 10
-306.9811
 20
-86.94635
 11
-307.2071
 21
-86.94635
  0
LINE
  8
0
  6
CONTINUOUS
 62
     7
 10
-299.5613
 20
-91.7998
 11
-300.5613
 21
-93.79981
  0
LINE
  8
0
  6
CONTINUOUS
 62
     7
 10
-300.3113
 20
-93.09357
 11
-300.3113
 21
-92.39981
  0
LINE
  8
0
  6
CONTINUOUS
 62
     7
 10
-301.5613
 20
-101.5998
 11
-312.5613
 21
-101.5998
  0
LINE
  8
0
  6
CONTINUOUS
 62
     7
 10
-311.0613
 20
-94.07892
 11
-311.0613
 21
-101.5998
  0
LINE
  8
0
  6
CONTINUOUS
 62
     7
 10
-303.0613
 20
-94.07892
 11
-303.0613
 21
-101.5998
  0
LINE
  8
0
  6
CONTINUOUS
 62
     7
 10
-301.5613
 20
-94.01587
 11
-301.5613
 21
-101.5998
  0
LINE
  8
0
  6
CONTINUOUS
 62
     7
 10
-312.5613
 20
-94.01587
 11
-312.5613
 21
-101.5998
  0
LINE
  8
0
  6
CENTER
 62
     2
 10
-304.5613
 20
-98.59982
 11
-304.5613
 21
-124.5998
  0
LINE
  8
0
  6
CENTER
 62
     2
 10
-309.5613
 20
-98.59982
 11
-309.5613
 21
-124.5998
  0
LINE
  8
0
  6
CONTINUOUS
 62
     7
 10
-303.7113
 20
-111.5998
 11
-305.4113
 21
-111.5998
  0
LINE
  8
0
  6
CONTINUOUS
 62
     7
 10
-304.2413
 20
-121.5998
 11
-304.8813
 21
-121.5998
  0
LINE
  8
0
  6
CONTINUOUS
 62
     7
 10
-309.8813
 20
-111.5998
 11
-309.8813
 21
-121.5998
  0
LINE
  8
0
  6
CONTINUOUS
 62
     7
 10
-309.2413
 20
-111.5998
 11
-309.2413
 21
-121.5998
  0
LINE
  8
0
  6
CONTINUOUS
 62
     7
 10
-304.8813
 20
-111.5998
 11
-304.8813
 21
-121.5998
  0
LINE
  8
0
  6
CONTINUOUS
 62
     7
 10
-304.2413
 20
-111.5998
 11
-304.2413
 21
-121.5998
  0
LINE
  8
0
  6
CONTINUOUS
 62
     7
 10
-305.4113
 20
-101.5998
 11
-305.4113
 21
-106.2655
  0
LINE
  8
0
  6
CONTINUOUS
 62
     7
 10
-303.7113
 20
-101.5998
 11
-303.7113
 21
-106.721
  0
LINE
  8
0
  6
CONTINUOUS
 62
     7
 10
-308.7113
 20
-101.5998
 11
-308.7113
 21
-105.3812
  0
LINE
  8
0
  6
CONTINUOUS
 62
     7
 10
-310.4113
 20
-101.5998
 11
-310.4113
 21
-104.9257
  0
LINE
  8
0
  6
CONTINUOUS
 62
     7
 10
-308.7113
 20
-111.5998
 11
-310.4113
 21
-111.5998
  0
LINE
  8
0
  6
CONTINUOUS
 62
     7
 10
-309.2413
 20
-121.5998
 11
-309.8813
 21
-121.5998
  0
LINE
  8
0
  6
CONTINUOUS
 62
     7
 10
-303.0613
 20
-100.0998
 11
-311.0613
 21
-100.0998
  0
LINE
  8
0
  6
PHANTOM
 62
     2
 10
-312.4113
 20
-105.9428
 11
-301.7113
 21
-108.8099
  0
LINE
  8
0
  6
PHANTOM
 62
     2
 10
-312.4113
 20
-104.3899
 11
-301.7113
 21
-107.257
  0
LINE
  8
0
  6
CONTINUOUS
 62
     7
 10
-303.7113
 20
-108.2739
 11
-303.7113
 21
-111.5998
  0
LINE
  8
0
  6
CONTINUOUS
 62
     7
 10
-305.4113
 20
-107.8184
 11
-305.4113
 21
-111.5998
  0
LINE
  8
0
  6
CONTINUOUS
 62
     7
 10
-308.7113
 20
-106.9341
 11
-308.7113
 21
-111.5998
  0
LINE
  8
0
  6
CONTINUOUS
 62
     7
 10
-310.4113
 20
-106.4786
 11
-310.4113
 21
-111.5998
  0
LINE
  8
0
  6
CENTER
 62
     2
 10
-42.8123
 20
67.09077
 11
-42.8123
 21
-104.5985
  0
LINE
  8
0
  6
CONTINUOUS
 62
     7
 10
-33.8123
 20
27.60011
 11
-33.8123
 21
-64.59985
  0
LINE
  8
0
  6
CONTINUOUS
 62
     7
 10
-51.8123
 20
27.60011
 11
-51.8123
 21
-64.59988
  0
LINE
  8
0
  6
CONTINUOUS
 62
     7
 10
-51.8123
 20
7.60011
 11
-33.8123
 21
7.60011
  0
LINE
  8
0
  6
CONTINUOUS
 62
     7
 10
-51.8123
 20
-34.3999
 11
-33.8123
 21
-34.3999
  0
LINE
  8
0
  6
CONTINUOUS
 62
     7
 10
-50.81228
 20
28.60011
 11
-51.81228
 21
27.60011
  0
LINE
  8
0
  6
CONTINUOUS
 62
     7
 10
-34.81234
 20
28.60009
 11
-33.81237
 21
27.60011
  0
LINE
  8
0
  6
CENTER
 62
     2
 10
-48.8958
 20
-21.3999
 11
-36.73454
 21
-21.3999
  0
LINE
  8
0
  6
CENTER
 62
     2
 10
-48.45976
 20
-5.3999
 11
-36.83147
 21
-5.3999
  0
LINE
  8
0
  6
CENTER
 62
     2
 10
-36.3123
 20
6.19141
 11
-36.3123
 21
-2.81656
  0
LINE
  8
0
  6
CENTER
 62
     2
 10
-49.3123
 20
-24.28714
 11
-49.3123
 21
-32.69177
  0
LINE
  8
0
  6
CENTER
 62
     2
 10
-52.2245
 20
-28.3999
 11
-45.15392
 21
-28.3999
  0
LINE
  8
0
  6
CENTER
 62
     2
 10
-40.65892
 20
1.60011
 11
-33.22795
 21
1.60011
  0
LINE
  8
0
  6
CENTER
 62
     2
 10
-45.73399
 20
25.10011
 11
-39.9026
 21
25.10011
  0
LINE
  8
0
  6
CONTINUOUS
 62
     7
 10
-50.8123
 20
28.60011
 11
-34.8123
 21
28.60011
  0
LINE
  8
0
  6
CONTINUOUS
 62
     7
 10
-51.8123
 20
27.60011
 11
-33.8123
 21
27.60011
  0
LINE
  8
0
  6
CONTINUOUS
 62
     7
 10
-51.81229
 20
-64.5999
 11
-50.81226
 21
-65.59991
  0
LINE
  8
0
  6
CONTINUOUS
 62
     7
 10
-33.81232
 20
-64.59986
 11
-34.81232
 21
-65.59986
  0
LINE
  8
0
  6
CONTINUOUS
 62
     7
 10
-51.8123
 20
-64.59988
 11
-33.8123
 21
-64.59988
  0
LINE
  8
0
  6
CONTINUOUS
 62
     7
 10
-34.8123
 20
-65.59988
 11
-50.81227
 21
-65.59988
  0
LINE
  8
0
  6
CENTER
 62
     2
 10
-39.31227
 20
-62.09988
 11
-45.64561
 21
-62.09988
  0
LINE
  8
0
  6
CENTER
 62
     2
 10
-42.3123
 20
0.93198
 11
-42.3123
 21
-11.54257
  0
LINE
  8
0
  6
CENTER
 62
     2
 10
-43.3123
 20
-15.0968
 11
-43.3123
 21
-27.43198
  0
LINE
  8
0
  6
CENTER
 62
     2
 10
-53.5685
 20
-13.3999
 11
-32.25652
 21
-13.3999
  0
LINE
  8
0
  6
CONTINUOUS
 62
     7
 10
-50.3123
 20
54.80011
 11
-50.3123
 21
28.60011
  0
LINE
  8
0
  6
CONTINUOUS
 62
     7
 10
-50.3123
 20
53.80011
 11
-49.8123
 21
53.80011
  0
LINE
  8
0
  6
CONTINUOUS
 62
     7
 10
-35.3123
 20
54.80011
 11
-35.3123
 21
28.60011
  0
LINE
  8
0
  6
CONTINUOUS
 62
     7
 10
-50.3123
 20
54.80011
 11
-48.3123
 21
54.80011
  0
LINE
  8
0
  6
CONTINUOUS
 62
     7
 10
-49.3123
 20
56.80011
 11
-49.13805
 21
56.80011
  0
LINE
  8
0
  6
CONTINUOUS
 62
     7
 10
-35.31236
 20
54.80013
 11
-36.31235
 21
56.80012
  0
LINE
  8
0
  6
CONTINUOUS
 62
     7
 10
-50.31231
 20
54.80013
 11
-49.31231
 21
56.80013
  0
LINE
  8
0
  6
CONTINUOUS
 62
     7
 10
-48.3123
 20
55.40012
 11
-49.86229
 21
55.40012
  0
LINE
  8
0
  6
CONTINUOUS
 62
     7
 10
-49.86229
 20
55.40012
 11
-49.86229
 21
54.80011
  0
LINE
  8
0
  6
CONTINUOUS
 62
     7
 10
-49.56227
 20
56.09386
 11
-49.56227
 21
55.40012
  0
LINE
  8
0
  6
CONTINUOUS
 62
     7
 10
-35.8123
 20
54.60011
 11
-35.8123
 21
49.60011
  0
LINE
  8
0
  6
CONTINUOUS
 62
     7
 10
-49.8123
 20
54.60011
 11
-49.8123
 21
49.60011
  0
LINE
  8
0
  6
CONTINUOUS
 62
     7
 10
-49.8123
 20
48.80011
 11
-49.8123
 21
29.40012
  0
LINE
  8
0
  6
CONTINUOUS
 62
     7
 10
-35.8123
 20
48.80011
 11
-35.8123
 21
29.40012
  0
LINE
  8
0
  6
CONTINUOUS
 62
     7
 10
-48.3123
 20
30.10011
 11
-37.3123
 21
30.10011
  0
LINE
  8
0
  6
CONTINUOUS
 62
     7
 10
-48.3123
 20
38.60011
 11
-37.3123
 21
38.60011
  0
LINE
  8
0
  6
CONTINUOUS
 62
     7
 10
-48.3123
 20
38.60011
 11
-48.3123
 21
30.10011
  0
LINE
  8
0
  6
CONTINUOUS
 62
     7
 10
-37.3123
 20
38.60011
 11
-37.3123
 21
30.10011
  0
LINE
  8
0
  6
CENTER
 62
     2
 10
-46.8123
 20
41.10011
 11
-38.8123
 21
41.10011
  0
LINE
  8
0
  6
CONTINUOUS
 62
     7
 10
-44.8123
 20
42.10011
 11
-40.8123
 21
42.10011
  0
LINE
  8
0
  6
CONTINUOUS
 62
     7
 10
-44.8123
 20
40.10011
 11
-40.8123
 21
40.10011
  0
LINE
  8
0
  6
CONTINUOUS
 62
     7
 10
-44.8123
 20
42.10011
 11
-44.8123
 21
40.10011
  0
LINE
  8
0
  6
CONTINUOUS
 62
     7
 10
-40.8123
 20
42.10011
 11
-40.8123
 21
40.10011
  0
LINE
  8
0
  6
CONTINUOUS
 62
     7
 10
-45.3123
 20
42.60011
 11
-40.3123
 21
42.60011
  0
LINE
  8
0
  6
CONTINUOUS
 62
     7
 10
-45.3123
 20
42.60011
 11
-45.3123
 21
39.60011
  0
LINE
  8
0
  6
CONTINUOUS
 62
     7
 10
-45.3123
 20
39.60011
 11
-40.3123
 21
39.60011
  0
LINE
  8
0
  6
CONTINUOUS
 62
     7
 10
-40.3123
 20
42.60011
 11
-40.3123
 21
39.60011
  0
LINE
  8
0
  6
CONTINUOUS
 62
     7
 10
-44.81232
 20
42.1001
 11
-45.31233
 21
42.60011
  0
LINE
  8
0
  6
CONTINUOUS
 62
     7
 10
-40.81233
 20
42.10013
 11
-40.31233
 21
42.60013
  0
LINE
  8
0
  6
CONTINUOUS
 62
     7
 10
-40.81231
 20
40.1001
 11
-40.31232
 21
39.60011
  0
LINE
  8
0
  6
CONTINUOUS
 62
     7
 10
-44.81232
 20
40.10014
 11
-45.31232
 21
39.60014
  0
LINE
  8
0
  6
CONTINUOUS
 62
     7
 10
-49.8123
 20
54.60011
 11
-47.01228
 21
54.60011
  0
LINE
  8
0
  6
CONTINUOUS
 62
     7
 10
-46.81227
 20
62.60011
 11
-38.8123
 21
62.60011
  0
LINE
  8
0
  6
CONTINUOUS
 62
     7
 10
-46.8123
 20
56.92883
 11
-38.8123
 21
56.92883
  0
LINE
  8
0
  6
CONTINUOUS
 62
     7
 10
-49.8123
 20
49.60011
 11
-35.8123
 21
49.60011
  0
LINE
  8
0
  6
CONTINUOUS
 62
     7
 10
-38.61229
 20
54.60011
 11
-38.61229
 21
49.60011
  0
LINE
  8
0
  6
CONTINUOUS
 62
     7
 10
-47.01231
 20
54.60011
 11
-47.01231
 21
49.60011
  0
LINE
  8
0
  6
CONTINUOUS
 62
     7
 10
-38.61229
 20
54.60011
 11
-35.8123
 21
54.60011
  0
LINE
  8
0
  6
CONTINUOUS
 62
     7
 10
-48.31227
 20
64.60011
 11
-37.3123
 21
64.60011
  0
LINE
  8
0
  6
CONTINUOUS
 62
     7
 10
-38.8123
 20
49.60011
 11
-38.8123
 21
64.60011
  0
LINE
  8
0
  6
CONTINUOUS
 62
     7
 10
-46.8123
 20
49.60011
 11
-46.8123
 21
64.60011
  0
LINE
  8
0
  6
CONTINUOUS
 62
     7
 10
-48.3123
 20
54.60011
 11
-48.3123
 21
64.60011
  0
LINE
  8
0
  6
CONTINUOUS
 62
     7
 10
-37.3123
 20
54.60011
 11
-37.3123
 21
64.60011
  0
LINE
  8
0
  6
CENTER
 62
     2
 10
-45.3123
 20
61.60011
 11
-45.3123
 21
87.60011
  0
LINE
  8
0
  6
CENTER
 62
     2
 10
-40.3123
 20
61.60011
 11
-40.3123
 21
87.60011
  0
LINE
  8
0
  6
CONTINUOUS
 62
     7
 10
-46.16228
 20
74.60011
 11
-44.4623
 21
74.60011
  0
LINE
  8
0
  6
CONTINUOUS
 62
     7
 10
-45.63228
 20
84.60011
 11
-44.99229
 21
84.60011
  0
LINE
  8
0
  6
CONTINUOUS
 62
     7
 10
-39.99229
 20
74.60011
 11
-39.99229
 21
84.60011
  0
LINE
  8
0
  6
CONTINUOUS
 62
     7
 10
-40.63231
 20
74.60011
 11
-40.63231
 21
84.60011
  0
LINE
  8
0
  6
CONTINUOUS
 62
     7
 10
-44.99229
 20
74.60011
 11
-44.99229
 21
84.60011
  0
LINE
  8
0
  6
CONTINUOUS
 62
     7
 10
-45.63231
 20
74.60011
 11
-45.63231
 21
84.60011
  0
LINE
  8
0
  6
CONTINUOUS
 62
     7
 10
-44.4623
 20
64.60011
 11
-44.4623
 21
69.26578
  0
LINE
  8
0
  6
CONTINUOUS
 62
     7
 10
-46.16231
 20
64.60011
 11
-46.16231
 21
69.72128
  0
LINE
  8
0
  6
CONTINUOUS
 62
     7
 10
-41.16231
 20
64.60011
 11
-41.16231
 21
68.38153
  0
LINE
  8
0
  6
CONTINUOUS
 62
     7
 10
-39.4623
 20
64.60011
 11
-39.4623
 21
67.92603
  0
LINE
  8
0
  6
CONTINUOUS
 62
     7
 10
-41.16228
 20
74.60011
 11
-39.4623
 21
74.60011
  0
LINE
  8
0
  6
CONTINUOUS
 62
     7
 10
-40.63228
 20
84.60011
 11
-39.99229
 21
84.60011
  0
LINE
  8
0
  6
PHANTOM
 62
     2
 10
-37.46231
 20
68.94305
 11
-48.16231
 21
71.8101
  0
LINE
  8
0
  6
PHANTOM
 62
     2
 10
-37.46231
 20
67.39014
 11
-48.16231
 21
70.25719
  0
LINE
  8
0
  6
CONTINUOUS
 62
     7
 10
-46.16231
 20
71.2742
 11
-46.16231
 21
74.60011
  0
LINE
  8
0
  6
CONTINUOUS
 62
     7
 10
-44.4623
 20
70.8187
 11
-44.4623
 21
74.60011
  0
LINE
  8
0
  6
CONTINUOUS
 62
     7
 10
-41.16231
 20
69.93445
 11
-41.16231
 21
74.60011
  0
LINE
  8
0
  6
CONTINUOUS
 62
     7
 10
-39.4623
 20
69.47894
 11
-39.4623
 21
74.60011
  0
LINE
  8
0
  6
CONTINUOUS
 62
     7
 10
-37.3123
 20
54.80011
 11
-35.3123
 21
54.80011
  0
LINE
  8
0
  6
CONTINUOUS
 62
     7
 10
-35.8123
 20
53.80011
 11
-35.3123
 21
53.80011
  0
LINE
  8
0
  6
CONTINUOUS
 62
     7
 10
-36.3123
 20
56.80011
 11
-37.3123
 21
56.80011
  0
LINE
  8
0
  6
CONTINUOUS
 62
     7
 10
-35.3123
 20
-91.79987
 11
-35.3123
 21
-65.59988
  0
LINE
  8
0
  6
CONTINUOUS
 62
     7
 10
-35.3123
 20
-90.7999
 11
-35.8123
 21
-90.7999
  0
LINE
  8
0
  6
CONTINUOUS
 62
     7
 10
-50.3123
 20
-91.79987
 11
-50.3123
 21
-65.59988
  0
LINE
  8
0
  6
CONTINUOUS
 62
     7
 10
-35.3123
 20
-91.79987
 11
-37.3123
 21
-91.79987
  0
LINE
  8
0
  6
CONTINUOUS
 62
     7
 10
-36.3123
 20
-93.7999
 11
-36.48656
 21
-93.7999
  0
LINE
  8
0
  6
CONTINUOUS
 62
     7
 10
-50.31229
 20
-91.7999
 11
-49.31231
 21
-93.79987
  0
LINE
  8
0
  6
CONTINUOUS
 62
     7
 10
-35.31227
 20
-91.79989
 11
-36.31227
 21
-93.79989
  0
LINE
  8
0
  6
CONTINUOUS
 62
     7
 10
-37.3123
 20
-92.3999
 11
-35.76231
 21
-92.3999
  0
LINE
  8
0
  6
CONTINUOUS
 62
     7
 10
-35.76231
 20
-92.3999
 11
-35.76231
 21
-91.7999
  0
LINE
  8
0
  6
CONTINUOUS
 62
     7
 10
-36.0623
 20
-93.09363
 11
-36.0623
 21
-92.3999
  0
LINE
  8
0
  6
CONTINUOUS
 62
     7
 10
-49.8123
 20
-91.59988
 11
-49.8123
 21
-86.59988
  0
LINE
  8
0
  6
CONTINUOUS
 62
     7
 10
-35.8123
 20
-91.59991
 11
-35.8123
 21
-86.59991
  0
LINE
  8
0
  6
CONTINUOUS
 62
     7
 10
-35.8123
 20
-85.7999
 11
-35.8123
 21
-66.3999
  0
LINE
  8
0
  6
CONTINUOUS
 62
     7
 10
-49.8123
 20
-85.7999
 11
-49.8123
 21
-66.3999
  0
LINE
  8
0
  6
CONTINUOUS
 62
     7
 10
-37.3123
 20
-67.09988
 11
-48.3123
 21
-67.09988
  0
LINE
  8
0
  6
CONTINUOUS
 62
     7
 10
-37.3123
 20
-75.59988
 11
-48.3123
 21
-75.59988
  0
LINE
  8
0
  6
CONTINUOUS
 62
     7
 10
-37.3123
 20
-75.59991
 11
-37.3123
 21
-67.09991
  0
LINE
  8
0
  6
CONTINUOUS
 62
     7
 10
-48.3123
 20
-75.59988
 11
-48.3123
 21
-67.09988
  0
LINE
  8
0
  6
CENTER
 62
     2
 10
-38.8123
 20
-78.09988
 11
-46.8123
 21
-78.09988
  0
LINE
  8
0
  6
CONTINUOUS
 62
     7
 10
-40.8123
 20
-79.09988
 11
-44.8123
 21
-79.09988
  0
LINE
  8
0
  6
CONTINUOUS
 62
     7
 10
-40.8123
 20
-77.09988
 11
-44.8123
 21
-77.09988
  0
LINE
  8
0
  6
CONTINUOUS
 62
     7
 10
-40.8123
 20
-79.09991
 11
-40.8123
 21
-77.09991
  0
LINE
  8
0
  6
CONTINUOUS
 62
     7
 10
-44.8123
 20
-79.09988
 11
-44.8123
 21
-77.09988
  0
LINE
  8
0
  6
CONTINUOUS
 62
     7
 10
-40.3123
 20
-79.59988
 11
-45.3123
 21
-79.59988
  0
LINE
  8
0
  6
CONTINUOUS
 62
     7
 10
-40.3123
 20
-79.59991
 11
-40.3123
 21
-76.59991
  0
LINE
  8
0
  6
CONTINUOUS
 62
     7
 10
-40.3123
 20
-76.59988
 11
-45.3123
 21
-76.59988
  0
LINE
  8
0
  6
CONTINUOUS
 62
     7
 10
-45.3123
 20
-79.59988
 11
-45.3123
 21
-76.59988
  0
LINE
  8
0
  6
CONTINUOUS
 62
     7
 10
-40.81232
 20
-79.09988
 11
-40.31234
 21
-79.59988
  0
LINE
  8
0
  6
CONTINUOUS
 62
     7
 10
-44.81229
 20
-79.09988
 11
-45.31229
 21
-79.59988
  0
LINE
  8
0
  6
CONTINUOUS
 62
     7
 10
-44.81231
 20
-77.09991
 11
-45.31234
 21
-76.59988
  0
LINE
  8
0
  6
CONTINUOUS
 62
     7
 10
-40.81236
 20
-77.09985
 11
-40.31236
 21
-76.59985
  0
LINE
  8
0
  6
CONTINUOUS
 62
     7
 10
-35.8123
 20
-91.59988
 11
-38.61229
 21
-91.59988
  0
LINE
  8
0
  6
CONTINUOUS
 62
     7
 10
-38.81233
 20
-99.59988
 11
-46.8123
 21
-99.59988
  0
LINE
  8
0
  6
CONTINUOUS
 62
     7
 10
-38.8123
 20
-93.92862
 11
-46.8123
 21
-93.92862
  0
LINE
  8
0
  6
CONTINUOUS
 62
     7
 10
-35.8123
 20
-86.59988
 11
-49.8123
 21
-86.59988
  0
LINE
  8
0
  6
CONTINUOUS
 62
     7
 10
-47.01231
 20
-91.59988
 11
-47.01231
 21
-86.59988
  0
LINE
  8
0
  6
CONTINUOUS
 62
     7
 10
-38.61229
 20
-91.59991
 11
-38.61229
 21
-86.59991
  0
LINE
  8
0
  6
CONTINUOUS
 62
     7
 10
-47.01231
 20
-91.59988
 11
-49.8123
 21
-91.59988
  0
LINE
  8
0
  6
CONTINUOUS
 62
     7
 10
-37.3123
 20
-101.5999
 11
-48.3123
 21
-101.5999
  0
LINE
  8
0
  6
CONTINUOUS
 62
     7
 10
-46.8123
 20
-86.59988
 11
-46.8123
 21
-101.5999
  0
LINE
  8
0
  6
CONTINUOUS
 62
     7
 10
-38.8123
 20
-86.59991
 11
-38.8123
 21
-101.5999
  0
LINE
  8
0
  6
CONTINUOUS
 62
     7
 10
-37.3123
 20
-91.59991
 11
-37.3123
 21
-101.5999
  0
LINE
  8
0
  6
CONTINUOUS
 62
     7
 10
-48.3123
 20
-91.59988
 11
-48.3123
 21
-101.5999
  0
LINE
  8
0
  6
CENTER
 62
     2
 10
-40.3123
 20
-98.59991
 11
-40.3123
 21
-124.5999
  0
LINE
  8
0
  6
CENTER
 62
     2
 10
-45.3123
 20
-98.59988
 11
-45.3123
 21
-124.5999
  0
LINE
  8
0
  6
CONTINUOUS
 62
     7
 10
-39.46233
 20
-111.5999
 11
-41.16231
 21
-111.5999
  0
LINE
  8
0
  6
CONTINUOUS
 62
     7
 10
-39.99232
 20
-121.5999
 11
-40.63231
 21
-121.5999
  0
LINE
  8
0
  6
CONTINUOUS
 62
     7
 10
-45.63231
 20
-111.5999
 11
-45.63231
 21
-121.5999
  0
LINE
  8
0
  6
CONTINUOUS
 62
     7
 10
-44.99229
 20
-111.5999
 11
-44.99229
 21
-121.5999
  0
LINE
  8
0
  6
CONTINUOUS
 62
     7
 10
-40.63231
 20
-111.5999
 11
-40.63231
 21
-121.5999
  0
LINE
  8
0
  6
CONTINUOUS
 62
     7
 10
-39.99229
 20
-111.5999
 11
-39.99229
 21
-121.5999
  0
LINE
  8
0
  6
CONTINUOUS
 62
     7
 10
-41.16231
 20
-101.5999
 11
-41.16231
 21
-106.2656
  0
LINE
  8
0
  6
CONTINUOUS
 62
     7
 10
-39.4623
 20
-101.5999
 11
-39.4623
 21
-106.7211
  0
LINE
  8
0
  6
CONTINUOUS
 62
     7
 10
-44.4623
 20
-101.5999
 11
-44.4623
 21
-105.3813
  0
LINE
  8
0
  6
CONTINUOUS
 62
     7
 10
-46.16231
 20
-101.5999
 11
-46.16231
 21
-104.9258
  0
LINE
  8
0
  6
CONTINUOUS
 62
     7
 10
-44.46233
 20
-111.5999
 11
-46.16231
 21
-111.5999
  0
LINE
  8
0
  6
CONTINUOUS
 62
     7
 10
-44.99232
 20
-121.5999
 11
-45.63231
 21
-121.5999
  0
LINE
  8
0
  6
PHANTOM
 62
     2
 10
-48.16236
 20
-105.9428
 11
-37.46237
 21
-108.8099
  0
LINE
  8
0
  6
PHANTOM
 62
     2
 10
-48.16233
 20
-104.3899
 11
-37.46234
 21
-107.257
  0
LINE
  8
0
  6
CONTINUOUS
 62
     7
 10
-39.4623
 20
-108.274
 11
-39.4623
 21
-111.5999
  0
LINE
  8
0
  6
CONTINUOUS
 62
     7
 10
-41.16231
 20
-107.8185
 11
-41.16231
 21
-111.5999
  0
LINE
  8
0
  6
CONTINUOUS
 62
     7
 10
-44.4623
 20
-106.9342
 11
-44.4623
 21
-111.5999
  0
LINE
  8
0
  6
CONTINUOUS
 62
     7
 10
-46.16231
 20
-106.4787
 11
-46.16231
 21
-111.5999
  0
LINE
  8
0
  6
CONTINUOUS
 62
     7
 10
-48.3123
 20
-91.79987
 11
-50.3123
 21
-91.79987
  0
LINE
  8
0
  6
CONTINUOUS
 62
     7
 10
-49.8123
 20
-90.7999
 11
-50.3123
 21
-90.7999
  0
LINE
  8
0
  6
CONTINUOUS
 62
     7
 10
-49.3123
 20
-93.7999
 11
-48.3123
 21
-93.7999
  0
LINE
  8
0
  6
CONTINUOUS
 62
     7
 10
-169.4367
 20
-186.179
 11
-169.4367
 21
-187.179
  0
LINE
  8
0
  6
CONTINUOUS
 62
     7
 10
-168.4367
 20
-172.179
 11
-168.4367
 21
-170.679
  0
LINE
  8
0
  6
CENTER
 62
     2
 10
-197.833
 20
-179.179
 11
-157.6356
 21
-179.179
  0
LINE
  8
0
  6
CONTINUOUS
 62
     7
 10
-194.9367
 20
-170.179
 11
-168.9367
 21
-170.179
  0
LINE
  8
0
  6
CONTINUOUS
 62
     7
 10
-194.9367
 20
-188.179
 11
-168.9367
 21
-188.179
  0
LINE
  8
0
  6
CONTINUOUS
 62
     7
 10
-168.4367
 20
-187.679
 11
-168.4367
 21
-186.179
  0
LINE
  8
0
  6
CONTINUOUS
 62
     7
 10
-195.4367
 20
-187.679
 11
-195.4367
 21
-170.679
  0
LINE
  8
0
  6
CENTER
 62
     2
 10
-181.9367
 20
-190.929
 11
-181.9367
 21
-166.9515
  0
LINE
  8
0
  6
CONTINUOUS
 62
     7
 10
-194.4367
 20
-171.179
 11
-169.4367
 21
-171.179
  0
LINE
  8
0
  6
CONTINUOUS
 62
     7
 10
-194.4367
 20
-187.179
 11
-169.4367
 21
-187.179
  0
LINE
  8
0
  6
CONTINUOUS
 62
     7
 10
-194.4367
 20
-171.179
 11
-194.4367
 21
-187.179
  0
LINE
  8
0
  6
CONTINUOUS
 62
     7
 10
-169.4367
 20
-171.179
 11
-169.4367
 21
-172.179
  0
LINE
  8
0
  6
CONTINUOUS
 62
     7
 10
-169.4367
 20
-187.179
 11
-168.5832
 21
-188.0325
  0
LINE
  8
0
  6
CONTINUOUS
 62
     7
 10
-194.4367
 20
-187.179
 11
-195.2903
 21
-188.0325
  0
LINE
  8
0
  6
CONTINUOUS
 62
     7
 10
-169.4367
 20
-171.1789
 11
-168.5832
 21
-170.3254
  0
LINE
  8
0
  6
CONTINUOUS
 62
     7
 10
-194.4368
 20
-171.179
 11
-195.2903
 21
-170.3254
  0
LINE
  8
0
  6
CONTINUOUS
 62
     7
 10
-172.9367
 20
-180.679
 11
-169.9367
 21
-180.679
  0
LINE
  8
0
  6
CONTINUOUS
 62
     7
 10
-190.9367
 20
-177.679
 11
-193.9367
 21
-177.679
  0
LINE
  8
0
  6
CONTINUOUS
 62
     7
 10
-187.9367
 20
-174.679
 11
-187.9367
 21
-171.679
  0
LINE
  8
0
  6
CONTINUOUS
 62
     7
 10
-175.9367
 20
-183.679
 11
-175.9367
 21
-186.679
  0
LINE
  8
0
  6
CONTINUOUS
 62
     7
 10
-192.9367
 20
-177.679
 11
-192.9367
 21
-185.679
  0
LINE
  8
0
  6
CONTINUOUS
 62
     7
 10
-170.9367
 20
-172.679
 11
-170.9367
 21
-180.679
  0
LINE
  8
0
  6
CONTINUOUS
 62
     7
 10
-187.9367
 20
-172.679
 11
-170.9367
 21
-172.679
  0
LINE
  8
0
  6
CONTINUOUS
 62
     7
 10
-192.9367
 20
-185.679
 11
-175.9367
 21
-185.679
  0
LINE
  8
0
  6
CONTINUOUS
 62
     7
 10
-172.6367
 20
-185.9089
 11
-172.6367
 21
-186.2113
  0
LINE
  8
0
  6
CONTINUOUS
 62
     7
 10
-173.2367
 20
-185.9089
 11
-173.2367
 21
-186.2113
  0
LINE
  8
0
  6
CONTINUOUS
 62
     7
 10
-173.3975
 20
-186.187
 11
-173.3975
 21
-185.8813
  0
LINE
  8
0
  6
CONTINUOUS
 62
     7
 10
-191.2367
 20
-172.4491
 11
-191.2367
 21
-172.1467
  0
LINE
  8
0
  6
CONTINUOUS
 62
     7
 10
-190.6367
 20
-172.4491
 11
-190.6367
 21
-172.1467
  0
LINE
  8
0
  6
CONTINUOUS
 62
     7
 10
-190.476
 20
-172.171
 11
-190.476
 21
-172.4767
  0
LINE
  8
0
  6
CONTINUOUS
 62
     7
 10
-174.0398
 20
-184.4144
 11
-173.6721
 21
-184.0467
  0
LINE
  8
0
  6
CONTINUOUS
 62
     7
 10
-173.6721
 20
-184.7821
 11
-173.3044
 21
-184.4144
  0
LINE
  8
0
  6
CONTINUOUS
 62
     7
 10
-174.0399
 20
-184.4143
 11
-173.6721
 21
-184.7821
  0
LINE
  8
0
  6
CONTINUOUS
 62
     7
 10
-172.2014
 20
-182.5759
 11
-171.8337
 21
-182.9436
  0
LINE
  8
0
  6
CONTINUOUS
 62
     7
 10
-174.701
 20
-182.2825
 11
-173.6721
 21
-183.3113
  0
LINE
  8
0
  6
CONTINUOUS
 62
     7
 10
-174.3332
 20
-181.9148
 11
-173.3044
 21
-182.9436
  0
LINE
  8
0
  6
CONTINUOUS
 62
     7
 10
-172.569
 20
-182.9436
 11
-172.2013
 21
-182.5759
  0
LINE
  8
0
  6
CONTINUOUS
 62
     7
 10
-172.2013
 20
-183.3113
 11
-171.8336
 21
-182.9436
  0
LINE
  8
0
  6
CONTINUOUS
 62
     7
 10
-172.5691
 20
-184.4144
 11
-171.5403
 21
-185.4431
  0
LINE
  8
0
  6
CONTINUOUS
 62
     7
 10
-172.2013
 20
-184.0467
 11
-171.1726
 21
-185.0754
  0
LINE
  8
0
  6
CONTINUOUS
 62
     7
 10
-192.0398
 20
-175.4144
 11
-191.6721
 21
-175.0467
  0
LINE
  8
0
  6
CONTINUOUS
 62
     7
 10
-191.672
 20
-175.7822
 11
-191.3044
 21
-175.4145
  0
LINE
  8
0
  6
CONTINUOUS
 62
     7
 10
-192.0398
 20
-175.4144
 11
-191.6721
 21
-175.7821
  0
LINE
  8
0
  6
CONTINUOUS
 62
     7
 10
-190.2014
 20
-173.5759
 11
-189.8337
 21
-173.9436
  0
LINE
  8
0
  6
CONTINUOUS
 62
     7
 10
-192.7009
 20
-173.2825
 11
-191.6722
 21
-174.3113
  0
LINE
  8
0
  6
CONTINUOUS
 62
     7
 10
-192.3332
 20
-172.9148
 11
-191.3045
 21
-173.9436
  0
LINE
  8
0
  6
CONTINUOUS
 62
     7
 10
-190.569
 20
-173.9436
 11
-190.2013
 21
-173.5759
  0
LINE
  8
0
  6
CONTINUOUS
 62
     7
 10
-190.2013
 20
-174.3114
 11
-189.8336
 21
-173.9437
  0
LINE
  8
0
  6
CONTINUOUS
 62
     7
 10
-190.5691
 20
-175.4144
 11
-189.5403
 21
-176.4432
  0
LINE
  8
0
  6
CONTINUOUS
 62
     7
 10
-190.2014
 20
-175.0467
 11
-189.1726
 21
-176.0755
  0
LINE
  8
0
  6
CONTINUOUS
 62
     7
 10
-164.7367
 20
-173.679
 11
-164.7367
 21
-175.179
  0
LINE
  8
0
  6
CONTINUOUS
 62
     7
 10
-161.9367
 20
-175.179
 11
-161.9367
 21
-183.179
  0
LINE
  8
0
  6
CONTINUOUS
 62
     7
 10
-164.7367
 20
-173.679
 11
-166.5367
 21
-173.679
  0
LINE
  8
0
  6
CONTINUOUS
 62
     7
 10
-164.7367
 20
-184.679
 11
-166.5367
 21
-184.679
  0
LINE
  8
0
  6
CONTINUOUS
 62
     7
 10
-163.9367
 20
-175.179
 11
-163.6367
 21
-175.479
  0
LINE
  8
0
  6
CONTINUOUS
 62
     7
 10
-163.9368
 20
-183.1789
 11
-163.6368
 21
-182.879
  0
LINE
  8
0
  6
CONTINUOUS
 62
     7
 10
-166.5367
 20
-175.179
 11
-168.9367
 21
-175.179
  0
LINE
  8
0
  6
CONTINUOUS
 62
     7
 10
-166.5367
 20
-183.179
 11
-168.9367
 21
-183.179
  0
LINE
  8
0
  6
CONTINUOUS
 62
     7
 10
-164.7367
 20
-183.179
 11
-164.7367
 21
-184.679
  0
LINE
  8
0
  6
CENTER
 62
     2
 10
-165.4367
 20
-175.229
 11
-165.4367
 21
-183.129
  0
LINE
  8
0
  6
CENTER
 62
     2
 10
-164.0867
 20
-176.679
 11
-166.8867
 21
-176.679
  0
LINE
  8
0
  6
CENTER
 62
     2
 10
-164.0867
 20
-181.679
 11
-166.8867
 21
-181.679
  0
LINE
  8
0
  6
CONTINUOUS
 62
     7
 10
-164.4867
 20
-175.729
 11
-164.4867
 21
-177.629
  0
LINE
  8
0
  6
CONTINUOUS
 62
     7
 10
-166.3867
 20
-175.729
 11
-166.3867
 21
-177.629
  0
LINE
  8
0
  6
CONTINUOUS
 62
     7
 10
-164.2867
 20
-175.729
 11
-166.3867
 21
-175.729
  0
LINE
  8
0
  6
CONTINUOUS
 62
     7
 10
-164.2867
 20
-177.629
 11
-166.3867
 21
-177.629
  0
LINE
  8
0
  6
CONTINUOUS
 62
     7
 10
-164.2867
 20
-178.229
 11
-166.3867
 21
-178.229
  0
LINE
  8
0
  6
CONTINUOUS
 62
     7
 10
-164.2867
 20
-180.129
 11
-166.3867
 21
-180.129
  0
LINE
  8
0
  6
CONTINUOUS
 62
     7
 10
-164.2867
 20
-182.629
 11
-166.3867
 21
-182.629
  0
LINE
  8
0
  6
CONTINUOUS
 62
     7
 10
-164.2867
 20
-180.729
 11
-166.3867
 21
-180.729
  0
LINE
  8
0
  6
CONTINUOUS
 62
     7
 10
-164.4867
 20
-178.229
 11
-164.4867
 21
-180.129
  0
LINE
  8
0
  6
CONTINUOUS
 62
     7
 10
-166.3867
 20
-178.229
 11
-166.3867
 21
-180.129
  0
LINE
  8
0
  6
CONTINUOUS
 62
     7
 10
-166.3867
 20
-180.729
 11
-166.3867
 21
-182.629
  0
LINE
  8
0
  6
CONTINUOUS
 62
     7
 10
-164.4867
 20
-180.729
 11
-164.4867
 21
-182.629
  0
LINE
  8
0
  6
CONTINUOUS
 62
     7
 10
-163.6367
 20
-175.479
 11
-163.6367
 21
-182.879
  0
LINE
  8
0
  6
CONTINUOUS
 62
     7
 10
-160.9367
 20
-175.179
 11
-160.9367
 21
-183.179
  0
LINE
  8
0
  6
CONTINUOUS
 62
     7
 10
-160.9367
 20
-183.179
 11
-164.7367
 21
-183.179
  0
LINE
  8
0
  6
CONTINUOUS
 62
     7
 10
-160.9367
 20
-175.179
 11
-164.7367
 21
-175.179
  0
LINE
  8
0
  6
CONTINUOUS
 62
     7
 10
-164.2867
 20
-175.729
 11
-164.2867
 21
-177.629
  0
LINE
  8
0
  6
CONTINUOUS
 62
     7
 10
-164.2867
 20
-178.229
 11
-164.2867
 21
-180.129
  0
LINE
  8
0
  6
CONTINUOUS
 62
     7
 10
-164.2867
 20
-180.729
 11
-164.2867
 21
-182.629
  0
LINE
  8
0
  6
CONTINUOUS
 62
     7
 10
-166.6867
 20
-176.179
 11
-166.6867
 21
-177.179
  0
LINE
  8
0
  6
CONTINUOUS
 62
     7
 10
-166.6867
 20
-178.679
 11
-166.6867
 21
-179.679
  0
LINE
  8
0
  6
CONTINUOUS
 62
     7
 10
-166.6867
 20
-181.179
 11
-166.6867
 21
-182.179
  0
LINE
  8
0
  6
CONTINUOUS
 62
     7
 10
-166.3867
 20
-176.179
 11
-166.6867
 21
-176.179
  0
LINE
  8
0
  6
CONTINUOUS
 62
     7
 10
-166.3867
 20
-177.179
 11
-166.6867
 21
-177.179
  0
LINE
  8
0
  6
CONTINUOUS
 62
     7
 10
-166.3867
 20
-178.679
 11
-166.6867
 21
-178.679
  0
LINE
  8
0
  6
CONTINUOUS
 62
     7
 10
-166.3867
 20
-179.679
 11
-166.6867
 21
-179.679
  0
LINE
  8
0
  6
CONTINUOUS
 62
     7
 10
-166.3867
 20
-182.179
 11
-166.6867
 21
-182.179
  0
LINE
  8
0
  6
CONTINUOUS
 62
     7
 10
-166.3867
 20
-181.179
 11
-166.6867
 21
-181.179
  0
LINE
  8
0
  6
CONTINUOUS
 62
     7
 10
-167.8117
 20
-176.179
 11
-167.8117
 21
-177.179
  0
LINE
  8
0
  6
CONTINUOUS
 62
     7
 10
-167.3117
 20
-176.679
 11
-168.3117
 21
-176.679
  0
LINE
  8
0
  6
CONTINUOUS
 62
     7
 10
-167.8117
 20
-181.179
 11
-167.8117
 21
-182.179
  0
LINE
  8
0
  6
CENTER
 62
     2
 10
-172.9367
 20
-179.679
 11
-172.9367
 21
-187.679
  0
LINE
  8
0
  6
CENTER
 62
     2
 10
-190.9367
 20
-170.679
 11
-190.9367
 21
-178.679
  0
LINE
  8
0
  6
CENTER
 62
     2
 10
-194.9367
 20
-174.679
 11
-186.9367
 21
-174.679
  0
LINE
  8
0
  6
CENTER
 62
     2
 10
-176.9367
 20
-183.679
 11
-168.9367
 21
-183.679
  0
LINE
  8
0
  6
CONTINUOUS
 62
     7
 10
-162.9367
 20
-172.179
 11
-162.9367
 21
-186.179
  0
LINE
  8
0
  6
CONTINUOUS
 62
     7
 10
-164.5367
 20
-173.479
 11
-164.5367
 21
-174.979
  0
LINE
  8
0
  6
CONTINUOUS
 62
     7
 10
-166.5367
 20
-173.479
 11
-166.5367
 21
-175.179
  0
LINE
  8
0
  6
CONTINUOUS
 62
     7
 10
-168.9367
 20
-174.979
 11
-168.9367
 21
-183.379
  0
LINE
  8
0
  6
CONTINUOUS
 62
     7
 10
-168.9367
 20
-174.979
 11
-166.5367
 21
-174.979
  0
LINE
  8
0
  6
CONTINUOUS
 62
     7
 10
-168.9367
 20
-183.379
 11
-166.5367
 21
-183.379
  0
LINE
  8
0
  6
CONTINUOUS
 62
     7
 10
-166.5367
 20
-184.879
 11
-164.5367
 21
-184.879
  0
LINE
  8
0
  6
CONTINUOUS
 62
     7
 10
-166.5367
 20
-173.479
 11
-164.5367
 21
-173.479
  0
LINE
  8
0
  6
CONTINUOUS
 62
     7
 10
-166.5367
 20
-183.179
 11
-166.5367
 21
-184.879
  0
LINE
  8
0
  6
CONTINUOUS
 62
     7
 10
-164.5367
 20
-183.379
 11
-164.5367
 21
-184.879
  0
LINE
  8
0
  6
CONTINUOUS
 62
     7
 10
-164.5367
 20
-174.979
 11
-162.9367
 21
-174.979
  0
LINE
  8
0
  6
CONTINUOUS
 62
     7
 10
-164.5367
 20
-183.379
 11
-162.9367
 21
-183.379
  0
LINE
  8
0
  6
CONTINUOUS
 62
     7
 10
-163.9367
 20
-174.979
 11
-163.9367
 21
-183.379
  0
LINE
  8
0
  6
CONTINUOUS
 62
     7
 10
-193.9367
 20
-172.179
 11
-193.9367
 21
-186.179
  0
LINE
  8
0
  6
CONTINUOUS
 62
     7
 10
-193.4367
 20
-171.679
 11
-169.9367
 21
-171.679
  0
LINE
  8
0
  6
CONTINUOUS
 62
     7
 10
-193.4367
 20
-186.679
 11
-169.9367
 21
-186.679
  0
LINE
  8
0
  6
CONTINUOUS
 62
     7
 10
-169.9367
 20
-171.679
 11
-169.9367
 21
-186.679
  0
LINE
  8
0
  6
CONTINUOUS
 62
     7
 10
-169.9367
 20
-172.179
 11
-160.7367
 21
-172.179
  0
LINE
  8
0
  6
CONTINUOUS
 62
     7
 10
-159.9367
 20
-172.979
 11
-159.9367
 21
-185.379
  0
LINE
  8
0
  6
CONTINUOUS
 62
     7
 10
-169.9367
 20
-186.179
 11
-160.7367
 21
-186.179
  0
LINE
  8
0
  6
CONTINUOUS
 62
     7
 10
-161.4367
 20
-174.179
 11
-161.4367
 21
-175.179
  0
LINE
  8
0
  6
CONTINUOUS
 62
     7
 10
-160.7367
 20
-174.679
 11
-160.7367
 21
-183.679
  0
LINE
  8
0
  6
CONTINUOUS
 62
     7
 10
-162.9367
 20
-173.679
 11
-161.9367
 21
-173.679
  0
LINE
  8
0
  6
CONTINUOUS
 62
     7
 10
-162.9367
 20
-184.679
 11
-161.9367
 21
-184.679
  0
LINE
  8
0
  6
CONTINUOUS
 62
     7
 10
-161.4367
 20
-174.679
 11
-160.7367
 21
-174.679
  0
LINE
  8
0
  6
CONTINUOUS
 62
     7
 10
-161.4367
 20
-183.679
 11
-160.7367
 21
-183.679
  0
LINE
  8
0
  6
CONTINUOUS
 62
     7
 10
-161.4367
 20
-183.179
 11
-161.4367
 21
-184.179
  0
LINE
  8
0
  6
CENTER
 62
     2
 10
55.312
 20
59.95024
 11
55.312
 21
-97.09396
  0
LINE
  8
0
  6
CONTINUOUS
 62
     7
 10
42.81199
 20
28.60012
 11
41.81201
 21
27.60014
  0
LINE
  8
0
  6
CONTINUOUS
 62
     7
 10
67.81209
 20
28.60027
 11
68.81209
 21
27.60027
  0
LINE
  8
0
  6
CONTINUOUS
 62
     7
 10
65.812
 20
-26.74146
 11
68.812
 21
-26.74146
  0
LINE
  8
0
  6
CONTINUOUS
 62
     7
 10
65.812
 20
-30.05807
 11
68.812
 21
-30.05807
  0
LINE
  8
0
  6
CONTINUOUS
 62
     7
 10
65.812
 20
-26.74146
 11
65.812
 21
-30.05807
  0
LINE
  8
0
  6
CONTINUOUS
 62
     7
 10
42.81206
 20
28.60023
 11
76.51201
 21
28.60023
  0
LINE
  8
0
  6
CONTINUOUS
 62
     7
 10
41.812
 20
27.60023
 11
68.812
 21
27.60023
  0
LINE
  8
0
  6
CONTINUOUS
 62
     7
 10
41.81206
 20
-34.39975
 11
68.812
 21
-34.39975
  0
LINE
  8
0
  6
CONTINUOUS
 62
     7
 10
41.81206
 20
7.60023
 11
68.812
 21
7.60023
  0
LINE
  8
0
  6
CONTINUOUS
 62
     7
 10
41.81206
 20
27.60023
 11
41.81206
 21
-64.59976
  0
LINE
  8
0
  6
CONTINUOUS
 62
     7
 10
41.81216
 20
-64.59966
 11
42.81216
 21
-65.59966
  0
LINE
  8
0
  6
CONTINUOUS
 62
     7
 10
68.812
 20
27.60023
 11
68.812
 21
-64.59976
  0
LINE
  8
0
  6
CONTINUOUS
 62
     7
 10
67.81201
 20
-65.59975
 11
68.81199
 21
-64.59978
  0
LINE
  8
0
  6
CONTINUOUS
 62
     7
 10
41.81206
 20
-64.59976
 11
68.812
 21
-64.59976
  0
LINE
  8
0
  6
CONTINUOUS
 62
     7
 10
42.81206
 20
-65.59976
 11
76.51201
 21
-65.59976
  0
LINE
  8
0
  6
CENTER
 62
     2
 10
64.24223
 20
-28.39977
 11
70.09019
 21
-28.39977
  0
LINE
  8
0
  6
CENTER
 62
     2
 10
39.89171
 20
-13.39977
 11
70.97868
 21
-13.39977
  0
LINE
  8
0
  6
PHANTOM
 62
     2
 10
74.66204
 20
68.06008
 11
68.962
 21
69.5874
  0
LINE
  8
0
  6
PHANTOM
 62
     2
 10
74.66201
 20
69.61307
 11
68.96202
 21
71.14037
  0
LINE
  8
0
  6
CONTINUOUS
 62
     7
 10
72.66203
 20
70.14894
 11
72.66203
 21
74.60023
  0
LINE
  8
0
  6
CONTINUOUS
 62
     7
 10
70.96202
 20
70.60445
 11
70.96202
 21
74.60023
  0
LINE
  8
0
  6
CONTINUOUS
 62
     7
 10
43.312
 20
53.80023
 11
67.312
 21
53.80023
  0
LINE
  8
0
  6
CENTER
 62
     2
 10
46.312
 20
59.80023
 11
46.312
 21
50.80023
  0
LINE
  8
0
  6
CONTINUOUS
 62
     7
 10
67.312
 20
54.80023
 11
67.312
 21
28.60023
  0
LINE
  8
0
  6
CONTINUOUS
 62
     7
 10
66.1378
 20
56.80023
 11
66.312
 21
56.80023
  0
LINE
  8
0
  6
CONTINUOUS
 62
     7
 10
62.062
 20
56.09398
 11
62.062
 21
55.40024
  0
LINE
  8
0
  6
CONTINUOUS
 62
     7
 10
66.562
 20
56.09398
 11
66.562
 21
55.40024
  0
LINE
  8
0
  6
CONTINUOUS
 62
     7
 10
61.76201
 20
55.40024
 11
61.76201
 21
54.80023
  0
LINE
  8
0
  6
CONTINUOUS
 62
     7
 10
66.86198
 20
55.40024
 11
66.86198
 21
54.80023
  0
LINE
  8
0
  6
CONTINUOUS
 62
     7
 10
64.61203
 20
55.40025
 11
64.7728
 21
54.80026
  0
LINE
  8
0
  6
CONTINUOUS
 62
     7
 10
64.01198
 20
54.80022
 11
63.85121
 21
55.40022
  0
LINE
  8
0
  6
CONTINUOUS
 62
     7
 10
66.86198
 20
55.40024
 11
61.76201
 21
55.40024
  0
LINE
  8
0
  6
CENTER
 62
     2
 10
64.312
 20
59.80023
 11
64.312
 21
50.80023
  0
LINE
  8
0
  6
CONTINUOUS
 62
     7
 10
61.312
 20
56.80023
 11
61.312
 21
54.80023
  0
LINE
  8
0
  6
CONTINUOUS
 62
     7
 10
67.31199
 20
54.80024
 11
66.31199
 21
56.80024
  0
LINE
  8
0
  6
CONTINUOUS
 62
     7
 10
43.31203
 20
54.80025
 11
44.31204
 21
56.80027
  0
LINE
  8
0
  6
CONTINUOUS
 62
     7
 10
43.312
 20
54.80023
 11
67.312
 21
54.80023
  0
LINE
  8
0
  6
CONTINUOUS
 62
     7
 10
43.312
 20
54.80023
 11
43.312
 21
28.60023
  0
LINE
  8
0
  6
CONTINUOUS
 62
     7
 10
44.312
 20
56.80023
 11
62.48625
 21
56.80023
  0
LINE
  8
0
  6
CONTINUOUS
 62
     7
 10
67.312
 20
54.60023
 11
74.312
 21
54.60023
  0
LINE
  8
0
  6
CONTINUOUS
 62
     7
 10
77.312
 20
48.80023
 11
77.312
 21
29.40024
  0
LINE
  8
0
  6
CONTINUOUS
 62
     7
 10
67.312
 20
49.60023
 11
76.51201
 21
49.60023
  0
LINE
  8
0
  6
CONTINUOUS
 62
     7
 10
76.312
 20
64.60023
 11
75.312
 21
64.60023
  0
LINE
  8
0
  6
CONTINUOUS
 62
     7
 10
69.312
 20
63.10023
 11
68.312
 21
63.10023
  0
LINE
  8
0
  6
CONTINUOUS
 62
     7
 10
68.312
 20
64.60023
 11
68.312
 21
63.10023
  0
LINE
  8
0
  6
CONTINUOUS
 62
     7
 10
69.312
 20
63.10023
 11
69.312
 21
56.60023
  0
LINE
  8
0
  6
CONTINUOUS
 62
     7
 10
70.71202
 20
64.60023
 11
70.71202
 21
54.60023
  0
LINE
  8
0
  6
CONTINUOUS
 62
     7
 10
72.51201
 20
64.60023
 11
72.51201
 21
54.60023
  0
LINE
  8
0
  6
CONTINUOUS
 62
     7
 10
75.312
 20
49.60023
 11
75.312
 21
56.92896
  0
LINE
  8
0
  6
CONTINUOUS
 62
     7
 10
76.312
 20
64.60023
 11
76.312
 21
62.60023
  0
LINE
  8
0
  6
CONTINUOUS
 62
     7
 10
75.312
 20
64.60023
 11
75.312
 21
63.10023
  0
LINE
  8
0
  6
CONTINUOUS
 62
     7
 10
76.31187
 20
62.6003
 11
75.31187
 21
56.929
  0
LINE
  8
0
  6
CONTINUOUS
 62
     7
 10
75.31191
 20
63.10027
 11
74.31191
 21
57.42899
  0
LINE
  8
0
  6
CONTINUOUS
 62
     7
 10
73.312
 20
54.60023
 11
73.312
 21
55.10023
  0
LINE
  8
0
  6
CONTINUOUS
 62
     7
 10
69.312
 20
56.60023
 11
68.312
 21
56.60023
  0
LINE
  8
0
  6
CONTINUOUS
 62
     7
 10
73.6119
 20
64.30019
 11
73.3119
 21
64.60018
  0
LINE
  8
0
  6
CONTINUOUS
 62
     7
 10
73.31207
 20
58.10017
 11
73.61205
 21
58.40016
  0
LINE
  8
0
  6
CONTINUOUS
 62
     7
 10
73.61198
 20
58.40024
 11
73.61198
 21
64.30025
  0
LINE
  8
0
  6
CONTINUOUS
 62
     7
 10
74.312
 20
57.10023
 11
74.312
 21
57.42896
  0
LINE
  8
0
  6
CONTINUOUS
 62
     7
 10
73.312
 20
57.10023
 11
73.312
 21
64.60023
  0
LINE
  8
0
  6
CONTINUOUS
 62
     7
 10
73.312
 20
64.60023
 11
68.312
 21
64.60023
  0
LINE
  8
0
  6
CENTER
 62
     2
 10
71.812
 20
61.60023
 11
71.812
 21
87.60023
  0
LINE
  8
0
  6
CONTINUOUS
 62
     7
 10
70.96202
 20
64.60023
 11
70.96202
 21
69.05153
  0
LINE
  8
0
  6
CONTINUOUS
 62
     7
 10
72.66203
 20
64.60023
 11
72.66203
 21
68.59602
  0
LINE
  8
0
  6
CONTINUOUS
 62
     7
 10
72.132
 20
74.60023
 11
72.132
 21
84.60023
  0
LINE
  8
0
  6
CONTINUOUS
 62
     7
 10
71.49199
 20
74.60023
 11
71.49199
 21
84.60023
  0
LINE
  8
0
  6
CONTINUOUS
 62
     7
 10
72.66203
 20
74.60023
 11
70.96202
 21
74.60023
  0
LINE
  8
0
  6
CONTINUOUS
 62
     7
 10
72.132
 20
84.60023
 11
71.49199
 21
84.60023
  0
LINE
  8
0
  6
CONTINUOUS
 62
     7
 10
74.312
 20
55.10023
 11
74.312
 21
49.60023
  0
LINE
  8
0
  6
CONTINUOUS
 62
     7
 10
68.312
 20
56.60023
 11
68.312
 21
54.60023
  0
LINE
  8
0
  6
PHANTOM
 62
     2
 10
68.96197
 20
-105.0595
 11
74.66201
 21
-106.5869
  0
LINE
  8
0
  6
PHANTOM
 62
     2
 10
68.96208
 20
-106.6125
 11
74.66207
 21
-108.1398
  0
LINE
  8
0
  6
CONTINUOUS
 62
     7
 10
70.96202
 20
-107.1485
 11
70.96202
 21
-111.5998
  0
LINE
  8
0
  6
CONTINUOUS
 62
     7
 10
72.66203
 20
-107.604
 11
72.66203
 21
-111.5998
  0
LINE
  8
0
  6
CONTINUOUS
 62
     7
 10
67.312
 20
-90.79977
 11
43.312
 21
-90.79977
  0
LINE
  8
0
  6
CENTER
 62
     2
 10
64.312
 20
-96.79977
 11
64.312
 21
-87.79977
  0
LINE
  8
0
  6
CONTINUOUS
 62
     7
 10
43.312
 20
-91.79977
 11
43.312
 21
-65.59976
  0
LINE
  8
0
  6
CONTINUOUS
 62
     7
 10
44.48625
 20
-93.79977
 11
44.312
 21
-93.79977
  0
LINE
  8
0
  6
CONTINUOUS
 62
     7
 10
48.562
 20
-93.09351
 11
48.562
 21
-92.39975
  0
LINE
  8
0
  6
CONTINUOUS
 62
     7
 10
44.062
 20
-93.09351
 11
44.062
 21
-92.39975
  0
LINE
  8
0
  6
CONTINUOUS
 62
     7
 10
48.86198
 20
-92.39975
 11
48.86198
 21
-91.79977
  0
LINE
  8
0
  6
CONTINUOUS
 62
     7
 10
43.76201
 20
-92.39975
 11
43.76201
 21
-91.79977
  0
LINE
  8
0
  6
CONTINUOUS
 62
     7
 10
46.01186
 20
-92.39981
 11
45.85109
 21
-91.79982
  0
LINE
  8
0
  6
CONTINUOUS
 62
     7
 10
46.61185
 20
-91.79982
 11
46.77262
 21
-92.39981
  0
LINE
  8
0
  6
CONTINUOUS
 62
     7
 10
43.76201
 20
-92.39975
 11
48.86198
 21
-92.39975
  0
LINE
  8
0
  6
CENTER
 62
     2
 10
46.312
 20
-96.79977
 11
46.312
 21
-87.79977
  0
LINE
  8
0
  6
CONTINUOUS
 62
     7
 10
49.312
 20
-93.79977
 11
49.312
 21
-91.79977
  0
LINE
  8
0
  6
CONTINUOUS
 62
     7
 10
43.31213
 20
-91.7997
 11
44.31213
 21
-93.7997
  0
LINE
  8
0
  6
CONTINUOUS
 62
     7
 10
67.31198
 20
-91.79977
 11
66.312
 21
-93.79974
  0
LINE
  8
0
  6
CONTINUOUS
 62
     7
 10
67.312
 20
-91.79977
 11
43.312
 21
-91.79977
  0
LINE
  8
0
  6
CONTINUOUS
 62
     7
 10
67.312
 20
-91.79977
 11
67.312
 21
-65.59976
  0
LINE
  8
0
  6
CONTINUOUS
 62
     7
 10
66.312
 20
-93.79977
 11
48.1378
 21
-93.79977
  0
LINE
  8
0
  6
CONTINUOUS
 62
     7
 10
67.312
 20
-91.59976
 11
74.312
 21
-91.59976
  0
LINE
  8
0
  6
CONTINUOUS
 62
     7
 10
77.312
 20
-85.79977
 11
77.312
 21
-66.39975
  0
LINE
  8
0
  6
CONTINUOUS
 62
     7
 10
67.312
 20
-86.59976
 11
76.51201
 21
-86.59976
  0
LINE
  8
0
  6
CONTINUOUS
 62
     7
 10
76.312
 20
-101.5998
 11
75.312
 21
-101.5998
  0
LINE
  8
0
  6
CONTINUOUS
 62
     7
 10
69.312
 20
-100.0998
 11
68.312
 21
-100.0998
  0
LINE
  8
0
  6
CONTINUOUS
 62
     7
 10
68.312
 20
-101.5998
 11
68.312
 21
-100.0998
  0
LINE
  8
0
  6
CONTINUOUS
 62
     7
 10
69.312
 20
-100.0998
 11
69.312
 21
-93.59976
  0
LINE
  8
0
  6
CONTINUOUS
 62
     7
 10
70.71202
 20
-101.5998
 11
70.71202
 21
-91.59976
  0
LINE
  8
0
  6
CONTINUOUS
 62
     7
 10
72.51201
 20
-101.5998
 11
72.51201
 21
-91.59976
  0
LINE
  8
0
  6
CONTINUOUS
 62
     7
 10
75.312
 20
-86.59976
 11
75.312
 21
-93.9285
  0
LINE
  8
0
  6
CONTINUOUS
 62
     7
 10
76.312
 20
-101.5998
 11
76.312
 21
-99.59976
  0
LINE
  8
0
  6
CONTINUOUS
 62
     7
 10
75.312
 20
-101.5998
 11
75.312
 21
-100.0998
  0
LINE
  8
0
  6
CONTINUOUS
 62
     7
 10
76.31178
 20
-99.59982
 11
75.31178
 21
-93.92854
  0
LINE
  8
0
  6
CONTINUOUS
 62
     7
 10
75.31183
 20
-100.0998
 11
74.31182
 21
-94.42854
  0
LINE
  8
0
  6
CONTINUOUS
 62
     7
 10
73.312
 20
-91.59976
 11
73.312
 21
-92.09976
  0
LINE
  8
0
  6
CONTINUOUS
 62
     7
 10
69.312
 20
-93.59976
 11
68.312
 21
-93.59976
  0
LINE
  8
0
  6
CONTINUOUS
 62
     7
 10
73.61187
 20
-101.2997
 11
73.31191
 21
-101.5997
  0
LINE
  8
0
  6
CONTINUOUS
 62
     7
 10
73.31209
 20
-95.09967
 11
73.61208
 21
-95.39967
  0
LINE
  8
0
  6
CONTINUOUS
 62
     7
 10
73.61198
 20
-95.39975
 11
73.61198
 21
-101.2998
  0
LINE
  8
0
  6
CONTINUOUS
 62
     7
 10
74.312
 20
-94.09976
 11
74.312
 21
-94.4285
  0
LINE
  8
0
  6
CONTINUOUS
 62
     7
 10
73.312
 20
-94.09976
 11
73.312
 21
-101.5998
  0
LINE
  8
0
  6
CONTINUOUS
 62
     7
 10
73.312
 20
-101.5998
 11
68.312
 21
-101.5998
  0
LINE
  8
0
  6
CENTER
 62
     2
 10
71.812
 20
-98.59976
 11
71.812
 21
-124.5998
  0
LINE
  8
0
  6
CONTINUOUS
 62
     7
 10
72.66203
 20
-101.5998
 11
72.66203
 21
-106.0511
  0
LINE
  8
0
  6
CONTINUOUS
 62
     7
 10
70.96202
 20
-101.5998
 11
70.96202
 21
-105.5956
  0
LINE
  8
0
  6
CONTINUOUS
 62
     7
 10
72.132
 20
-111.5998
 11
72.132
 21
-121.5998
  0
LINE
  8
0
  6
CONTINUOUS
 62
     7
 10
71.49199
 20
-111.5998
 11
71.49199
 21
-121.5998
  0
LINE
  8
0
  6
CONTINUOUS
 62
     7
 10
72.66203
 20
-111.5998
 11
70.96202
 21
-111.5998
  0
LINE
  8
0
  6
CONTINUOUS
 62
     7
 10
72.132
 20
-121.5998
 11
71.49199
 21
-121.5998
  0
LINE
  8
0
  6
CONTINUOUS
 62
     7
 10
74.312
 20
-92.09976
 11
74.312
 21
-86.59976
  0
LINE
  8
0
  6
CONTINUOUS
 62
     7
 10
68.312
 20
-93.59976
 11
68.312
 21
-91.59976
  0
LINE
  8
0
  6
CENTER
 62
     2
 10
168.9368
 20
67.45645
 11
168.9368
 21
-104.4305
  0
LINE
  8
0
  6
CONTINUOUS
 62
     7
 10
177.9368
 20
27.60002
 11
177.9368
 21
-64.59995
  0
LINE
  8
0
  6
CONTINUOUS
 62
     7
 10
159.9368
 20
7.60002
 11
177.9368
 21
7.60002
  0
LINE
  8
0
  6
CONTINUOUS
 62
     7
 10
159.9368
 20
-34.39999
 11
177.9368
 21
-34.39999
  0
LINE
  8
0
  6
CONTINUOUS
 62
     7
 10
160.9368
 20
28.6
 11
159.9368
 21
27.59999
  0
LINE
  8
0
  6
CONTINUOUS
 62
     7
 10
176.9368
 20
28.59997
 11
177.9368
 21
27.59996
  0
LINE
  8
0
  6
CENTER
 62
     2
 10
175.4368
 20
6.19131
 11
175.4368
 21
-2.81665
  0
LINE
  8
0
  6
CENTER
 62
     2
 10
162.4368
 20
-24.28723
 11
162.4368
 21
-32.69186
  0
LINE
  8
0
  6
CENTER
 62
     2
 10
159.5246
 20
-28.39998
 11
166.6691
 21
-28.39998
  0
LINE
  8
0
  6
CENTER
 62
     2
 10
171.0902
 20
1.60002
 11
178.5212
 21
1.60002
  0
LINE
  8
0
  6
CENTER
 62
     2
 10
166.0151
 20
25.10002
 11
171.8465
 21
25.10002
  0
LINE
  8
0
  6
CONTINUOUS
 62
     7
 10
160.9368
 20
28.60002
 11
176.9368
 21
28.60002
  0
LINE
  8
0
  6
CONTINUOUS
 62
     7
 10
159.9368
 20
27.60002
 11
177.9368
 21
27.60002
  0
LINE
  8
0
  6
CONTINUOUS
 62
     7
 10
159.9368
 20
27.60002
 11
159.9368
 21
-64.59998
  0
LINE
  8
0
  6
CONTINUOUS
 62
     7
 10
159.9368
 20
-64.59991
 11
160.9368
 21
-65.59991
  0
LINE
  8
0
  6
CONTINUOUS
 62
     7
 10
176.9368
 20
-65.59993
 11
177.9368
 21
-64.59995
  0
LINE
  8
0
  6
CONTINUOUS
 62
     7
 10
159.9368
 20
-64.59998
 11
177.9368
 21
-64.59998
  0
LINE
  8
0
  6
CONTINUOUS
 62
     7
 10
176.9368
 20
-65.59998
 11
160.9368
 21
-65.59998
  0
LINE
  8
0
  6
CENTER
 62
     2
 10
171.8812
 20
-62.09998
 11
165.9702
 21
-62.09998
  0
LINE
  8
0
  6
CENTER
 62
     2
 10
158.836
 20
-13.39998
 11
179.6138
 21
-13.39998
  0
LINE
  8
0
  6
CONTINUOUS
 62
     7
 10
161.4368
 20
54.80002
 11
161.4368
 21
28.60002
  0
LINE
  8
0
  6
CONTINUOUS
 62
     7
 10
161.4368
 20
53.80002
 11
161.9368
 21
53.80002
  0
LINE
  8
0
  6
CONTINUOUS
 62
     7
 10
176.4368
 20
54.80002
 11
176.4368
 21
28.60002
  0
LINE
  8
0
  6
CONTINUOUS
 62
     7
 10
161.4368
 20
54.80002
 11
163.4368
 21
54.80002
  0
LINE
  8
0
  6
CONTINUOUS
 62
     7
 10
162.4368
 20
56.80002
 11
162.611
 21
56.80002
  0
LINE
  8
0
  6
CONTINUOUS
 62
     7
 10
176.4368
 20
54.80002
 11
175.4368
 21
56.80002
  0
LINE
  8
0
  6
CONTINUOUS
 62
     7
 10
161.4368
 20
54.80002
 11
162.4368
 21
56.80001
  0
LINE
  8
0
  6
CONTINUOUS
 62
     7
 10
163.4368
 20
55.40002
 11
161.8868
 21
55.40002
  0
LINE
  8
0
  6
CONTINUOUS
 62
     7
 10
161.8868
 20
55.40002
 11
161.8868
 21
54.80002
  0
LINE
  8
0
  6
CONTINUOUS
 62
     7
 10
162.1868
 20
56.09377
 11
162.1868
 21
55.40002
  0
LINE
  8
0
  6
CONTINUOUS
 62
     7
 10
175.9368
 20
54.60002
 11
175.9368
 21
49.60002
  0
LINE
  8
0
  6
CONTINUOUS
 62
     7
 10
161.9368
 20
54.60002
 11
161.9368
 21
49.60002
  0
LINE
  8
0
  6
CONTINUOUS
 62
     7
 10
161.9368
 20
48.80002
 11
161.9368
 21
29.40002
  0
LINE
  8
0
  6
CONTINUOUS
 62
     7
 10
175.9368
 20
48.80002
 11
175.9368
 21
29.40002
  0
LINE
  8
0
  6
CONTINUOUS
 62
     7
 10
163.4368
 20
30.10002
 11
174.4368
 21
30.10002
  0
LINE
  8
0
  6
CONTINUOUS
 62
     7
 10
163.4368
 20
38.60002
 11
174.4368
 21
38.60002
  0
LINE
  8
0
  6
CONTINUOUS
 62
     7
 10
163.4368
 20
38.60002
 11
163.4368
 21
30.10002
  0
LINE
  8
0
  6
CONTINUOUS
 62
     7
 10
174.4368
 20
38.60002
 11
174.4368
 21
30.10002
  0
LINE
  8
0
  6
CENTER
 62
     2
 10
164.9368
 20
41.10002
 11
172.9368
 21
41.10002
  0
LINE
  8
0
  6
CONTINUOUS
 62
     7
 10
166.9368
 20
42.10002
 11
170.9368
 21
42.10002
  0
LINE
  8
0
  6
CONTINUOUS
 62
     7
 10
166.9368
 20
40.10002
 11
170.9368
 21
40.10002
  0
LINE
  8
0
  6
CONTINUOUS
 62
     7
 10
166.9368
 20
42.10002
 11
166.9368
 21
40.10002
  0
LINE
  8
0
  6
CONTINUOUS
 62
     7
 10
170.9368
 20
42.10002
 11
170.9368
 21
40.10002
  0
LINE
  8
0
  6
CONTINUOUS
 62
     7
 10
166.4368
 20
42.60002
 11
171.4368
 21
42.60002
  0
LINE
  8
0
  6
CONTINUOUS
 62
     7
 10
166.4368
 20
42.60002
 11
166.4368
 21
39.60002
  0
LINE
  8
0
  6
CONTINUOUS
 62
     7
 10
166.4368
 20
39.60002
 11
171.4368
 21
39.60002
  0
LINE
  8
0
  6
CONTINUOUS
 62
     7
 10
171.4368
 20
42.60002
 11
171.4368
 21
39.60002
  0
LINE
  8
0
  6
CONTINUOUS
 62
     7
 10
166.9368
 20
42.10002
 11
166.4368
 21
42.60002
  0
LINE
  8
0
  6
CONTINUOUS
 62
     7
 10
170.9368
 20
42.10004
 11
171.4368
 21
42.60003
  0
LINE
  8
0
  6
CONTINUOUS
 62
     7
 10
170.9368
 20
40.10002
 11
171.4368
 21
39.60002
  0
LINE
  8
0
  6
CONTINUOUS
 62
     7
 10
166.9368
 20
40.10003
 11
166.4368
 21
39.60001
  0
LINE
  8
0
  6
CONTINUOUS
 62
     7
 10
161.9368
 20
54.60002
 11
164.7368
 21
54.60002
  0
LINE
  8
0
  6
CONTINUOUS
 62
     7
 10
164.9368
 20
62.60002
 11
172.9368
 21
62.60002
  0
LINE
  8
0
  6
CONTINUOUS
 62
     7
 10
164.9368
 20
56.92874
 11
172.9368
 21
56.92874
  0
LINE
  8
0
  6
CONTINUOUS
 62
     7
 10
161.9368
 20
49.60002
 11
175.9368
 21
49.60002
  0
LINE
  8
0
  6
CONTINUOUS
 62
     7
 10
173.1368
 20
54.60002
 11
173.1368
 21
49.60002
  0
LINE
  8
0
  6
CONTINUOUS
 62
     7
 10
164.7368
 20
54.60002
 11
164.7368
 21
49.60002
  0
LINE
  8
0
  6
CONTINUOUS
 62
     7
 10
173.1368
 20
54.60002
 11
175.9368
 21
54.60002
  0
LINE
  8
0
  6
CONTINUOUS
 62
     7
 10
163.4368
 20
64.60002
 11
174.4368
 21
64.60002
  0
LINE
  8
0
  6
CONTINUOUS
 62
     7
 10
172.9368
 20
49.60002
 11
172.9368
 21
64.60002
  0
LINE
  8
0
  6
CONTINUOUS
 62
     7
 10
164.9368
 20
49.60002
 11
164.9368
 21
64.60002
  0
LINE
  8
0
  6
CONTINUOUS
 62
     7
 10
163.4368
 20
54.60002
 11
163.4368
 21
64.60002
  0
LINE
  8
0
  6
CONTINUOUS
 62
     7
 10
174.4368
 20
54.60002
 11
174.4368
 21
64.60002
  0
LINE
  8
0
  6
CENTER
 62
     2
 10
166.4368
 20
61.60002
 11
166.4368
 21
87.60002
  0
LINE
  8
0
  6
CENTER
 62
     2
 10
171.4368
 20
61.60002
 11
171.4368
 21
87.60002
  0
LINE
  8
0
  6
CONTINUOUS
 62
     7
 10
165.5868
 20
74.60002
 11
167.2868
 21
74.60002
  0
LINE
  8
0
  6
CONTINUOUS
 62
     7
 10
166.1168
 20
84.60002
 11
166.7568
 21
84.60002
  0
LINE
  8
0
  6
CONTINUOUS
 62
     7
 10
171.7568
 20
74.60002
 11
171.7568
 21
84.60002
  0
LINE
  8
0
  6
CONTINUOUS
 62
     7
 10
171.1168
 20
74.60002
 11
171.1168
 21
84.60002
  0
LINE
  8
0
  6
CONTINUOUS
 62
     7
 10
166.7568
 20
74.60002
 11
166.7568
 21
84.60002
  0
LINE
  8
0
  6
CONTINUOUS
 62
     7
 10
166.1168
 20
74.60002
 11
166.1168
 21
84.60002
  0
LINE
  8
0
  6
CONTINUOUS
 62
     7
 10
167.2868
 20
64.60002
 11
167.2868
 21
69.26569
  0
LINE
  8
0
  6
CONTINUOUS
 62
     7
 10
165.5868
 20
64.60002
 11
165.5868
 21
69.72119
  0
LINE
  8
0
  6
CONTINUOUS
 62
     7
 10
170.5868
 20
64.60002
 11
170.5868
 21
68.38144
  0
LINE
  8
0
  6
CONTINUOUS
 62
     7
 10
172.2868
 20
64.60002
 11
172.2868
 21
67.92593
  0
LINE
  8
0
  6
CONTINUOUS
 62
     7
 10
170.5868
 20
74.60002
 11
172.2868
 21
74.60002
  0
LINE
  8
0
  6
CONTINUOUS
 62
     7
 10
171.1168
 20
84.60002
 11
171.7568
 21
84.60002
  0
LINE
  8
0
  6
PHANTOM
 62
     2
 10
174.2868
 20
68.94293
 11
163.5868
 21
71.80999
  0
LINE
  8
0
  6
PHANTOM
 62
     2
 10
174.2867
 20
67.39005
 11
163.5867
 21
70.2571
  0
LINE
  8
0
  6
CONTINUOUS
 62
     7
 10
165.5868
 20
71.27411
 11
165.5868
 21
74.60002
  0
LINE
  8
0
  6
CONTINUOUS
 62
     7
 10
167.2868
 20
70.8186
 11
167.2868
 21
74.60002
  0
LINE
  8
0
  6
CONTINUOUS
 62
     7
 10
170.5868
 20
69.93436
 11
170.5868
 21
74.60002
  0
LINE
  8
0
  6
CONTINUOUS
 62
     7
 10
172.2868
 20
69.47885
 11
172.2868
 21
74.60002
  0
LINE
  8
0
  6
CONTINUOUS
 62
     7
 10
174.4368
 20
54.80002
 11
176.4368
 21
54.80002
  0
LINE
  8
0
  6
CONTINUOUS
 62
     7
 10
175.9368
 20
53.80002
 11
176.4368
 21
53.80002
  0
LINE
  8
0
  6
CONTINUOUS
 62
     7
 10
175.4368
 20
56.80002
 11
174.4368
 21
56.80002
  0
LINE
  8
0
  6
CONTINUOUS
 62
     7
 10
176.4368
 20
-91.79996
 11
176.4368
 21
-65.59998
  0
LINE
  8
0
  6
CONTINUOUS
 62
     7
 10
176.4368
 20
-90.79999
 11
175.9368
 21
-90.79999
  0
LINE
  8
0
  6
CONTINUOUS
 62
     7
 10
161.4368
 20
-91.79996
 11
161.4368
 21
-65.59998
  0
LINE
  8
0
  6
CONTINUOUS
 62
     7
 10
176.4368
 20
-91.79996
 11
174.4368
 21
-91.79996
  0
LINE
  8
0
  6
CONTINUOUS
 62
     7
 10
175.4368
 20
-93.79999
 11
175.2625
 21
-93.79999
  0
LINE
  8
0
  6
CONTINUOUS
 62
     7
 10
161.4369
 20
-91.79995
 11
162.4369
 21
-93.79995
  0
LINE
  8
0
  6
CONTINUOUS
 62
     7
 10
176.4368
 20
-91.79999
 11
175.4368
 21
-93.8
  0
LINE
  8
0
  6
CONTINUOUS
 62
     7
 10
174.4368
 20
-92.39999
 11
175.9868
 21
-92.39999
  0
LINE
  8
0
  6
CONTINUOUS
 62
     7
 10
175.9868
 20
-92.39999
 11
175.9868
 21
-91.79999
  0
LINE
  8
0
  6
CONTINUOUS
 62
     7
 10
175.6868
 20
-93.09372
 11
175.6868
 21
-92.39999
  0
LINE
  8
0
  6
CONTINUOUS
 62
     7
 10
161.9368
 20
-91.59998
 11
161.9368
 21
-86.59998
  0
LINE
  8
0
  6
CONTINUOUS
 62
     7
 10
175.9368
 20
-91.60001
 11
175.9368
 21
-86.60001
  0
LINE
  8
0
  6
CONTINUOUS
 62
     7
 10
175.9368
 20
-85.79999
 11
175.9368
 21
-66.39999
  0
LINE
  8
0
  6
CONTINUOUS
 62
     7
 10
161.9368
 20
-85.79999
 11
161.9368
 21
-66.39999
  0
LINE
  8
0
  6
CONTINUOUS
 62
     7
 10
174.4368
 20
-67.09998
 11
163.4368
 21
-67.09998
  0
LINE
  8
0
  6
CONTINUOUS
 62
     7
 10
174.4368
 20
-75.59998
 11
163.4368
 21
-75.59998
  0
LINE
  8
0
  6
CONTINUOUS
 62
     7
 10
174.4368
 20
-75.60001
 11
174.4368
 21
-67.10001
  0
LINE
  8
0
  6
CONTINUOUS
 62
     7
 10
163.4368
 20
-75.59998
 11
163.4368
 21
-67.09998
  0
LINE
  8
0
  6
CENTER
 62
     2
 10
172.9368
 20
-78.09998
 11
164.9368
 21
-78.09998
  0
LINE
  8
0
  6
CONTINUOUS
 62
     7
 10
170.9368
 20
-79.09998
 11
166.9368
 21
-79.09998
  0
LINE
  8
0
  6
CONTINUOUS
 62
     7
 10
170.9368
 20
-77.09998
 11
166.9368
 21
-77.09998
  0
LINE
  8
0
  6
CONTINUOUS
 62
     7
 10
170.9368
 20
-79.10001
 11
170.9368
 21
-77.10001
  0
LINE
  8
0
  6
CONTINUOUS
 62
     7
 10
166.9368
 20
-79.09998
 11
166.9368
 21
-77.09998
  0
LINE
  8
0
  6
CONTINUOUS
 62
     7
 10
171.4368
 20
-79.59998
 11
166.4368
 21
-79.59998
  0
LINE
  8
0
  6
CONTINUOUS
 62
     7
 10
171.4368
 20
-79.60001
 11
171.4368
 21
-76.60001
  0
LINE
  8
0
  6
CONTINUOUS
 62
     7
 10
171.4368
 20
-76.59998
 11
166.4368
 21
-76.59998
  0
LINE
  8
0
  6
CONTINUOUS
 62
     7
 10
166.4368
 20
-79.59998
 11
166.4368
 21
-76.59998
  0
LINE
  8
0
  6
CONTINUOUS
 62
     7
 10
170.9368
 20
-79.09993
 11
171.4368
 21
-79.59993
  0
LINE
  8
0
  6
CONTINUOUS
 62
     7
 10
166.9368
 20
-79.10001
 11
166.4368
 21
-79.6
  0
LINE
  8
0
  6
CONTINUOUS
 62
     7
 10
166.9368
 20
-77.09997
 11
166.4368
 21
-76.59997
  0
LINE
  8
0
  6
CONTINUOUS
 62
     7
 10
170.9368
 20
-77.1
 11
171.4368
 21
-76.60001
  0
LINE
  8
0
  6
CONTINUOUS
 62
     7
 10
175.9368
 20
-91.59998
 11
173.1368
 21
-91.59998
  0
LINE
  8
0
  6
CONTINUOUS
 62
     7
 10
172.9368
 20
-99.59998
 11
164.9368
 21
-99.59998
  0
LINE
  8
0
  6
CONTINUOUS
 62
     7
 10
172.9368
 20
-93.92871
 11
164.9368
 21
-93.92871
  0
LINE
  8
0
  6
CONTINUOUS
 62
     7
 10
175.9368
 20
-86.59998
 11
161.9368
 21
-86.59998
  0
LINE
  8
0
  6
CONTINUOUS
 62
     7
 10
164.7368
 20
-91.59998
 11
164.7368
 21
-86.59998
  0
LINE
  8
0
  6
CONTINUOUS
 62
     7
 10
173.1368
 20
-91.60001
 11
173.1368
 21
-86.60001
  0
LINE
  8
0
  6
CONTINUOUS
 62
     7
 10
164.7368
 20
-91.59998
 11
161.9368
 21
-91.59998
  0
LINE
  8
0
  6
CONTINUOUS
 62
     7
 10
174.4368
 20
-101.6
 11
163.4368
 21
-101.6
  0
LINE
  8
0
  6
CONTINUOUS
 62
     7
 10
164.9368
 20
-86.59998
 11
164.9368
 21
-101.6
  0
LINE
  8
0
  6
CONTINUOUS
 62
     7
 10
172.9368
 20
-86.60001
 11
172.9368
 21
-101.6
  0
LINE
  8
0
  6
CONTINUOUS
 62
     7
 10
174.4368
 20
-91.60001
 11
174.4368
 21
-101.6
  0
LINE
  8
0
  6
CONTINUOUS
 62
     7
 10
163.4368
 20
-91.59998
 11
163.4368
 21
-101.6
  0
LINE
  8
0
  6
CENTER
 62
     2
 10
171.4368
 20
-98.60001
 11
171.4368
 21
-124.6
  0
LINE
  8
0
  6
CENTER
 62
     2
 10
166.4368
 20
-98.59998
 11
166.4368
 21
-124.6
  0
LINE
  8
0
  6
CONTINUOUS
 62
     7
 10
172.2868
 20
-111.6
 11
170.5868
 21
-111.6
  0
LINE
  8
0
  6
CONTINUOUS
 62
     7
 10
171.7568
 20
-121.6
 11
171.1168
 21
-121.6
  0
LINE
  8
0
  6
CONTINUOUS
 62
     7
 10
166.1168
 20
-111.6
 11
166.1168
 21
-121.6
  0
LINE
  8
0
  6
CONTINUOUS
 62
     7
 10
166.7568
 20
-111.6
 11
166.7568
 21
-121.6
  0
LINE
  8
0
  6
CONTINUOUS
 62
     7
 10
171.1168
 20
-111.6
 11
171.1168
 21
-121.6
  0
LINE
  8
0
  6
CONTINUOUS
 62
     7
 10
171.7568
 20
-111.6
 11
171.7568
 21
-121.6
  0
LINE
  8
0
  6
CONTINUOUS
 62
     7
 10
170.5868
 20
-101.6
 11
170.5868
 21
-106.2657
  0
LINE
  8
0
  6
CONTINUOUS
 62
     7
 10
172.2868
 20
-101.6
 11
172.2868
 21
-106.7212
  0
LINE
  8
0
  6
CONTINUOUS
 62
     7
 10
167.2868
 20
-101.6
 11
167.2868
 21
-105.3814
  0
LINE
  8
0
  6
CONTINUOUS
 62
     7
 10
165.5868
 20
-101.6
 11
165.5868
 21
-104.9259
  0
LINE
  8
0
  6
CONTINUOUS
 62
     7
 10
167.2868
 20
-111.6
 11
165.5868
 21
-111.6
  0
LINE
  8
0
  6
CONTINUOUS
 62
     7
 10
166.7568
 20
-121.6
 11
166.1168
 21
-121.6
  0
LINE
  8
0
  6
PHANTOM
 62
     2
 10
163.5868
 20
-105.9429
 11
174.2868
 21
-108.81
  0
LINE
  8
0
  6
PHANTOM
 62
     2
 10
163.5867
 20
-104.39
 11
174.2867
 21
-107.2571
  0
LINE
  8
0
  6
CONTINUOUS
 62
     7
 10
172.2868
 20
-108.2741
 11
172.2868
 21
-111.6
  0
LINE
  8
0
  6
CONTINUOUS
 62
     7
 10
170.5868
 20
-107.8186
 11
170.5868
 21
-111.6
  0
LINE
  8
0
  6
CONTINUOUS
 62
     7
 10
167.2868
 20
-106.9343
 11
167.2868
 21
-111.6
  0
LINE
  8
0
  6
CONTINUOUS
 62
     7
 10
165.5868
 20
-106.4788
 11
165.5868
 21
-111.6
  0
LINE
  8
0
  6
CONTINUOUS
 62
     7
 10
163.4368
 20
-91.79996
 11
161.4368
 21
-91.79996
  0
LINE
  8
0
  6
CONTINUOUS
 62
     7
 10
161.9368
 20
-90.79999
 11
161.4368
 21
-90.79999
  0
LINE
  8
0
  6
CONTINUOUS
 62
     7
 10
162.4368
 20
-93.79999
 11
163.4368
 21
-93.79999
  0
LINE
  8
0
  6
CENTER
 62
     2
 10
285.5609
 20
59.95033
 11
285.5609
 21
-98.39969
  0
LINE
  8
0
  6
CONTINUOUS
 62
     7
 10
272.061
 20
27.60033
 11
272.061
 21
-64.59967
  0
LINE
  8
0
  6
CONTINUOUS
 62
     7
 10
299.0609
 20
27.60033
 11
299.0609
 21
-64.59967
  0
LINE
  8
0
  6
CONTINUOUS
 62
     7
 10
298.0609
 20
28.60028
 11
299.0609
 21
27.60028
  0
LINE
  8
0
  6
CONTINUOUS
 62
     7
 10
273.0609
 20
28.60032
 11
272.0609
 21
27.60032
  0
LINE
  8
0
  6
CONTINUOUS
 62
     7
 10
275.061
 20
3.25864
 11
272.061
 21
3.25864
  0
LINE
  8
0
  6
CONTINUOUS
 62
     7
 10
275.061
 20
-0.05798
 11
272.061
 21
-0.05798
  0
LINE
  8
0
  6
CONTINUOUS
 62
     7
 10
275.061
 20
3.25864
 11
275.061
 21
-0.05798
  0
LINE
  8
0
  6
CONTINUOUS
 62
     7
 10
298.0609
 20
28.60033
 11
264.3609
 21
28.60033
  0
LINE
  8
0
  6
CONTINUOUS
 62
     7
 10
299.0609
 20
27.60033
 11
272.061
 21
27.60033
  0
LINE
  8
0
  6
CENTER
 62
     2
 10
269.561
 20
-13.39967
 11
301.8146
 21
-13.39967
  0
LINE
  8
0
  6
CONTINUOUS
 62
     7
 10
299.0609
 20
-34.39969
 11
272.061
 21
-34.39969
  0
LINE
  8
0
  6
CONTINUOUS
 62
     7
 10
299.0609
 20
7.60033
 11
272.061
 21
7.60033
  0
LINE
  8
0
  6
CONTINUOUS
 62
     7
 10
272.0609
 20
-64.59969
 11
273.0609
 21
-65.59969
  0
LINE
  8
0
  6
CONTINUOUS
 62
     7
 10
299.0609
 20
-64.59962
 11
298.0609
 21
-65.59963
  0
LINE
  8
0
  6
CONTINUOUS
 62
     7
 10
272.061
 20
-64.59967
 11
299.0609
 21
-64.59967
  0
LINE
  8
0
  6
CONTINUOUS
 62
     7
 10
298.0609
 20
-65.59964
 11
264.3609
 21
-65.59964
  0
LINE
  8
0
  6
CENTER
 62
     2
 10
270.537
 20
1.60033
 11
276.0937
 21
1.60033
  0
LINE
  8
0
  6
PHANTOM
 62
     2
 10
271.9109
 20
68.06021
 11
266.2109
 21
69.58752
  0
LINE
  8
0
  6
PHANTOM
 62
     2
 10
271.9109
 20
69.61317
 11
266.2109
 21
71.14048
  0
LINE
  8
0
  6
CONTINUOUS
 62
     7
 10
269.9109
 20
70.14903
 11
269.9109
 21
74.60033
  0
LINE
  8
0
  6
CONTINUOUS
 62
     7
 10
268.2109
 20
70.60454
 11
268.2109
 21
74.60033
  0
LINE
  8
0
  6
CONTINUOUS
 62
     7
 10
273.5609
 20
53.80032
 11
297.5609
 21
53.80032
  0
LINE
  8
0
  6
CENTER
 62
     2
 10
276.5609
 20
59.80034
 11
276.5609
 21
50.80032
  0
LINE
  8
0
  6
CONTINUOUS
 62
     7
 10
297.5609
 20
54.80032
 11
297.5609
 21
28.60033
  0
LINE
  8
0
  6
CONTINUOUS
 62
     7
 10
296.3867
 20
56.80032
 11
296.5609
 21
56.80032
  0
LINE
  8
0
  6
CONTINUOUS
 62
     7
 10
292.3109
 20
56.09407
 11
292.3109
 21
55.40033
  0
LINE
  8
0
  6
CONTINUOUS
 62
     7
 10
296.8109
 20
56.09409
 11
296.8109
 21
55.40033
  0
LINE
  8
0
  6
CONTINUOUS
 62
     7
 10
292.0109
 20
55.40033
 11
292.0109
 21
54.80032
  0
LINE
  8
0
  6
CONTINUOUS
 62
     7
 10
297.1109
 20
55.40033
 11
297.1109
 21
54.80032
  0
LINE
  8
0
  6
CONTINUOUS
 62
     7
 10
294.8609
 20
55.40034
 11
295.0217
 21
54.80033
  0
LINE
  8
0
  6
CONTINUOUS
 62
     7
 10
294.2609
 20
54.80033
 11
294.1001
 21
55.40033
  0
LINE
  8
0
  6
CONTINUOUS
 62
     7
 10
297.1109
 20
55.40033
 11
292.0109
 21
55.40033
  0
LINE
  8
0
  6
CENTER
 62
     2
 10
294.5609
 20
59.80034
 11
294.5609
 21
50.80032
  0
LINE
  8
0
  6
CONTINUOUS
 62
     7
 10
291.5609
 20
56.80032
 11
291.5609
 21
54.80032
  0
LINE
  8
0
  6
CONTINUOUS
 62
     7
 10
297.5609
 20
54.80032
 11
296.5609
 21
56.80032
  0
LINE
  8
0
  6
CONTINUOUS
 62
     7
 10
273.5609
 20
54.80035
 11
274.5609
 21
56.80033
  0
LINE
  8
0
  6
CONTINUOUS
 62
     7
 10
273.5609
 20
54.80032
 11
297.5609
 21
54.80032
  0
LINE
  8
0
  6
CONTINUOUS
 62
     7
 10
273.5609
 20
54.80032
 11
273.5609
 21
28.60033
  0
LINE
  8
0
  6
CONTINUOUS
 62
     7
 10
274.5609
 20
56.80032
 11
292.7352
 21
56.80032
  0
LINE
  8
0
  6
CONTINUOUS
 62
     7
 10
273.5609
 20
54.60033
 11
266.5609
 21
54.60033
  0
LINE
  8
0
  6
CONTINUOUS
 62
     7
 10
263.5609
 20
48.80032
 11
263.5609
 21
29.40033
  0
LINE
  8
0
  6
CONTINUOUS
 62
     7
 10
273.5609
 20
49.60034
 11
264.3609
 21
49.60034
  0
LINE
  8
0
  6
CONTINUOUS
 62
     7
 10
264.5609
 20
64.60033
 11
265.5609
 21
64.60033
  0
LINE
  8
0
  6
CONTINUOUS
 62
     7
 10
271.5609
 20
63.10033
 11
272.5609
 21
63.10033
  0
LINE
  8
0
  6
CONTINUOUS
 62
     7
 10
272.5609
 20
64.60034
 11
272.5609
 21
63.10034
  0
LINE
  8
0
  6
CONTINUOUS
 62
     7
 10
271.5609
 20
63.10034
 11
271.5609
 21
56.60034
  0
LINE
  8
0
  6
CONTINUOUS
 62
     7
 10
270.1609
 20
64.60034
 11
270.1609
 21
54.60034
  0
LINE
  8
0
  6
CONTINUOUS
 62
     7
 10
268.3609
 20
64.60034
 11
268.3609
 21
54.60034
  0
LINE
  8
0
  6
CONTINUOUS
 62
     7
 10
265.5609
 20
49.60034
 11
265.5609
 21
56.92905
  0
LINE
  8
0
  6
CONTINUOUS
 62
     7
 10
264.5609
 20
64.60034
 11
264.5609
 21
62.60034
  0
LINE
  8
0
  6
CONTINUOUS
 62
     7
 10
265.5609
 20
64.60034
 11
265.5609
 21
63.10034
  0
LINE
  8
0
  6
CONTINUOUS
 62
     7
 10
264.5609
 20
62.60033
 11
265.5609
 21
56.92904
  0
LINE
  8
0
  6
CONTINUOUS
 62
     7
 10
265.5609
 20
63.10032
 11
266.5609
 21
57.42904
  0
LINE
  8
0
  6
CONTINUOUS
 62
     7
 10
267.5609
 20
54.60034
 11
267.5609
 21
55.10034
  0
LINE
  8
0
  6
CONTINUOUS
 62
     7
 10
271.5609
 20
56.60034
 11
272.5609
 21
56.60034
  0
LINE
  8
0
  6
CONTINUOUS
 62
     7
 10
267.261
 20
64.30025
 11
267.561
 21
64.60024
  0
LINE
  8
0
  6
CONTINUOUS
 62
     7
 10
267.5609
 20
58.1004
 11
267.261
 21
58.4004
  0
LINE
  8
0
  6
CONTINUOUS
 62
     7
 10
267.2609
 20
58.40033
 11
267.2609
 21
64.30035
  0
LINE
  8
0
  6
CONTINUOUS
 62
     7
 10
266.5609
 20
57.10034
 11
266.5609
 21
57.42905
  0
LINE
  8
0
  6
CONTINUOUS
 62
     7
 10
267.5609
 20
57.10034
 11
267.5609
 21
64.60034
  0
LINE
  8
0
  6
CONTINUOUS
 62
     7
 10
267.5609
 20
64.60033
 11
272.5609
 21
64.60033
  0
LINE
  8
0
  6
CENTER
 62
     2
 10
269.0609
 20
61.60034
 11
269.0609
 21
87.60033
  0
LINE
  8
0
  6
CONTINUOUS
 62
     7
 10
268.2109
 20
64.60034
 11
268.2109
 21
69.05162
  0
LINE
  8
0
  6
CONTINUOUS
 62
     7
 10
269.9109
 20
64.60034
 11
269.9109
 21
68.59612
  0
LINE
  8
0
  6
CONTINUOUS
 62
     7
 10
268.7409
 20
74.60033
 11
268.7409
 21
84.60033
  0
LINE
  8
0
  6
CONTINUOUS
 62
     7
 10
269.3809
 20
74.60033
 11
269.3809
 21
84.60033
  0
LINE
  8
0
  6
CONTINUOUS
 62
     7
 10
268.2109
 20
74.60033
 11
269.9109
 21
74.60033
  0
LINE
  8
0
  6
CONTINUOUS
 62
     7
 10
268.7409
 20
84.60033
 11
269.3809
 21
84.60033
  0
LINE
  8
0
  6
CONTINUOUS
 62
     7
 10
266.5609
 20
55.10034
 11
266.5609
 21
49.60034
  0
LINE
  8
0
  6
CONTINUOUS
 62
     7
 10
272.5609
 20
56.60034
 11
272.5609
 21
54.60034
  0
LINE
  8
0
  6
PHANTOM
 62
     2
 10
266.2109
 20
-105.0595
 11
271.9109
 21
-106.5868
  0
LINE
  8
0
  6
PHANTOM
 62
     2
 10
266.2109
 20
-106.6124
 11
271.9109
 21
-108.1397
  0
LINE
  8
0
  6
CONTINUOUS
 62
     7
 10
268.2109
 20
-107.1483
 11
268.2109
 21
-111.5996
  0
LINE
  8
0
  6
CONTINUOUS
 62
     7
 10
269.9109
 20
-107.6039
 11
269.9109
 21
-111.5996
  0
LINE
  8
0
  6
CONTINUOUS
 62
     7
 10
297.5609
 20
-90.79965
 11
273.5609
 21
-90.79965
  0
LINE
  8
0
  6
CENTER
 62
     2
 10
294.5609
 20
-96.79965
 11
294.5609
 21
-87.79965
  0
LINE
  8
0
  6
CONTINUOUS
 62
     7
 10
273.5609
 20
-91.79965
 11
273.5609
 21
-65.59967
  0
LINE
  8
0
  6
CONTINUOUS
 62
     7
 10
274.7352
 20
-93.79965
 11
274.5609
 21
-93.79965
  0
LINE
  8
0
  6
CONTINUOUS
 62
     7
 10
278.8109
 20
-93.09341
 11
278.8109
 21
-92.39966
  0
LINE
  8
0
  6
CONTINUOUS
 62
     7
 10
274.3109
 20
-93.09341
 11
274.3109
 21
-92.39966
  0
LINE
  8
0
  6
CONTINUOUS
 62
     7
 10
279.1109
 20
-92.39966
 11
279.1109
 21
-91.79965
  0
LINE
  8
0
  6
CONTINUOUS
 62
     7
 10
274.0109
 20
-92.39966
 11
274.0109
 21
-91.79965
  0
LINE
  8
0
  6
CONTINUOUS
 62
     7
 10
276.2609
 20
-92.39969
 11
276.1001
 21
-91.79968
  0
LINE
  8
0
  6
CONTINUOUS
 62
     7
 10
276.8609
 20
-91.7997
 11
277.0216
 21
-92.39968
  0
LINE
  8
0
  6
CONTINUOUS
 62
     7
 10
274.0109
 20
-92.39966
 11
279.1109
 21
-92.39966
  0
LINE
  8
0
  6
CENTER
 62
     2
 10
276.5609
 20
-96.79965
 11
276.5609
 21
-87.79965
  0
LINE
  8
0
  6
CONTINUOUS
 62
     7
 10
279.5609
 20
-93.79965
 11
279.5609
 21
-91.79965
  0
LINE
  8
0
  6
CONTINUOUS
 62
     7
 10
273.561
 20
-91.79966
 11
274.561
 21
-93.79964
  0
LINE
  8
0
  6
CONTINUOUS
 62
     7
 10
297.561
 20
-91.79967
 11
296.561
 21
-93.79966
  0
LINE
  8
0
  6
CONTINUOUS
 62
     7
 10
297.5609
 20
-91.79965
 11
273.5609
 21
-91.79965
  0
LINE
  8
0
  6
CONTINUOUS
 62
     7
 10
297.5609
 20
-91.79965
 11
297.5609
 21
-65.59967
  0
LINE
  8
0
  6
CONTINUOUS
 62
     7
 10
296.5609
 20
-93.79965
 11
278.3867
 21
-93.79965
  0
LINE
  8
0
  6
CONTINUOUS
 62
     7
 10
273.5609
 20
-91.59964
 11
266.5609
 21
-91.59964
  0
LINE
  8
0
  6
CONTINUOUS
 62
     7
 10
263.5609
 20
-85.79965
 11
263.5609
 21
-66.39966
  0
LINE
  8
0
  6
CONTINUOUS
 62
     7
 10
273.5609
 20
-86.59967
 11
264.3609
 21
-86.59967
  0
LINE
  8
0
  6
CONTINUOUS
 62
     7
 10
264.5609
 20
-101.5997
 11
265.5609
 21
-101.5997
  0
LINE
  8
0
  6
CONTINUOUS
 62
     7
 10
271.5609
 20
-100.0997
 11
272.5609
 21
-100.0997
  0
LINE
  8
0
  6
CONTINUOUS
 62
     7
 10
272.5609
 20
-101.5997
 11
272.5609
 21
-100.0997
  0
LINE
  8
0
  6
CONTINUOUS
 62
     7
 10
271.5609
 20
-100.0997
 11
271.5609
 21
-93.59967
  0
LINE
  8
0
  6
CONTINUOUS
 62
     7
 10
270.1609
 20
-101.5997
 11
270.1609
 21
-91.59967
  0
LINE
  8
0
  6
CONTINUOUS
 62
     7
 10
268.3609
 20
-101.5997
 11
268.3609
 21
-91.59967
  0
LINE
  8
0
  6
CONTINUOUS
 62
     7
 10
265.5609
 20
-86.59967
 11
265.5609
 21
-93.92838
  0
LINE
  8
0
  6
CONTINUOUS
 62
     7
 10
264.5609
 20
-101.5997
 11
264.5609
 21
-99.59967
  0
LINE
  8
0
  6
CONTINUOUS
 62
     7
 10
265.5609
 20
-101.5997
 11
265.5609
 21
-100.0997
  0
LINE
  8
0
  6
CONTINUOUS
 62
     7
 10
264.5609
 20
-99.59966
 11
265.5609
 21
-93.92839
  0
LINE
  8
0
  6
CONTINUOUS
 62
     7
 10
265.5609
 20
-100.0997
 11
266.5609
 21
-94.42841
  0
LINE
  8
0
  6
CONTINUOUS
 62
     7
 10
267.5609
 20
-91.59967
 11
267.5609
 21
-92.09967
  0
LINE
  8
0
  6
CONTINUOUS
 62
     7
 10
271.5609
 20
-93.59967
 11
272.5609
 21
-93.59967
  0
LINE
  8
0
  6
CONTINUOUS
 62
     7
 10
267.261
 20
-101.2995
 11
267.561
 21
-101.5995
  0
LINE
  8
0
  6
CONTINUOUS
 62
     7
 10
267.5609
 20
-95.09962
 11
267.2609
 21
-95.39961
  0
LINE
  8
0
  6
CONTINUOUS
 62
     7
 10
267.2609
 20
-95.39969
 11
267.2609
 21
-101.2997
  0
LINE
  8
0
  6
CONTINUOUS
 62
     7
 10
266.5609
 20
-94.09967
 11
266.5609
 21
-94.42838
  0
LINE
  8
0
  6
CONTINUOUS
 62
     7
 10
267.5609
 20
-94.09967
 11
267.5609
 21
-101.5997
  0
LINE
  8
0
  6
CONTINUOUS
 62
     7
 10
267.5609
 20
-101.5997
 11
272.5609
 21
-101.5997
  0
LINE
  8
0
  6
CENTER
 62
     2
 10
269.0609
 20
-98.59967
 11
269.0609
 21
-124.5996
  0
LINE
  8
0
  6
CONTINUOUS
 62
     7
 10
269.9109
 20
-101.5997
 11
269.9109
 21
-106.0509
  0
LINE
  8
0
  6
CONTINUOUS
 62
     7
 10
268.2109
 20
-101.5997
 11
268.2109
 21
-105.5954
  0
LINE
  8
0
  6
CONTINUOUS
 62
     7
 10
268.7409
 20
-111.5996
 11
268.7409
 21
-121.5996
  0
LINE
  8
0
  6
CONTINUOUS
 62
     7
 10
269.3809
 20
-111.5996
 11
269.3809
 21
-121.5996
  0
LINE
  8
0
  6
CONTINUOUS
 62
     7
 10
268.2109
 20
-111.5996
 11
269.9109
 21
-111.5996
  0
LINE
  8
0
  6
CONTINUOUS
 62
     7
 10
268.7409
 20
-121.5996
 11
269.3809
 21
-121.5996
  0
LINE
  8
0
  6
CONTINUOUS
 62
     7
 10
266.5609
 20
-92.09967
 11
266.5609
 21
-86.59967
  0
LINE
  8
0
  6
CONTINUOUS
 62
     7
 10
272.5609
 20
-93.59967
 11
272.5609
 21
-91.59967
  0
LINE
  8
0
  6
CONTINUOUS
 62
     7
 10
175.937
 20
-159.6791
 11
176.937
 21
-159.6791
  0
LINE
  8
0
  6
CONTINUOUS
 62
     7
 10
161.937
 20
-158.6791
 11
160.437
 21
-158.6791
  0
LINE
  8
0
  6
CENTER
 62
     2
 10
168.937
 20
-188.0753
 11
168.937
 21
-147.878
  0
LINE
  8
0
  6
CONTINUOUS
 62
     7
 10
159.937
 20
-185.1791
 11
159.937
 21
-159.1791
  0
LINE
  8
0
  6
CONTINUOUS
 62
     7
 10
177.937
 20
-185.1791
 11
177.937
 21
-159.1791
  0
LINE
  8
0
  6
CONTINUOUS
 62
     7
 10
177.437
 20
-158.6791
 11
175.937
 21
-158.6791
  0
LINE
  8
0
  6
CONTINUOUS
 62
     7
 10
177.437
 20
-185.6791
 11
160.437
 21
-185.6791
  0
LINE
  8
0
  6
CENTER
 62
     2
 10
180.687
 20
-172.1791
 11
156.7096
 21
-172.1791
  0
LINE
  8
0
  6
CONTINUOUS
 62
     7
 10
160.937
 20
-184.679
 11
160.937
 21
-159.6791
  0
LINE
  8
0
  6
CONTINUOUS
 62
     7
 10
176.937
 20
-184.679
 11
176.937
 21
-159.6791
  0
LINE
  8
0
  6
CONTINUOUS
 62
     7
 10
160.937
 20
-184.679
 11
176.937
 21
-184.679
  0
LINE
  8
0
  6
CONTINUOUS
 62
     7
 10
160.937
 20
-159.6791
 11
161.937
 21
-159.6791
  0
LINE
  8
0
  6
CONTINUOUS
 62
     7
 10
176.937
 20
-159.6791
 11
177.7906
 21
-158.8255
  0
LINE
  8
0
  6
CONTINUOUS
 62
     7
 10
176.937
 20
-184.6791
 11
177.7906
 21
-185.5326
  0
LINE
  8
0
  6
CONTINUOUS
 62
     7
 10
160.937
 20
-159.679
 11
160.0835
 21
-158.8255
  0
LINE
  8
0
  6
CONTINUOUS
 62
     7
 10
160.937
 20
-184.6791
 11
160.0835
 21
-185.5326
  0
LINE
  8
0
  6
CONTINUOUS
 62
     7
 10
170.437
 20
-163.1791
 11
170.437
 21
-160.1791
  0
LINE
  8
0
  6
CONTINUOUS
 62
     7
 10
167.437
 20
-181.1791
 11
167.437
 21
-184.1791
  0
LINE
  8
0
  6
CONTINUOUS
 62
     7
 10
164.437
 20
-178.1791
 11
161.437
 21
-178.1791
  0
LINE
  8
0
  6
CONTINUOUS
 62
     7
 10
173.437
 20
-166.1791
 11
176.437
 21
-166.1791
  0
LINE
  8
0
  6
CONTINUOUS
 62
     7
 10
167.437
 20
-183.1791
 11
175.437
 21
-183.1791
  0
LINE
  8
0
  6
CONTINUOUS
 62
     7
 10
162.437
 20
-161.1791
 11
170.437
 21
-161.1791
  0
LINE
  8
0
  6
CONTINUOUS
 62
     7
 10
162.437
 20
-178.1791
 11
162.437
 21
-161.1791
  0
LINE
  8
0
  6
CONTINUOUS
 62
     7
 10
175.437
 20
-183.1791
 11
175.437
 21
-166.1791
  0
LINE
  8
0
  6
CONTINUOUS
 62
     7
 10
175.6669
 20
-162.8791
 11
175.9693
 21
-162.8791
  0
LINE
  8
0
  6
CONTINUOUS
 62
     7
 10
175.6669
 20
-163.4791
 11
175.9693
 21
-163.4791
  0
LINE
  8
0
  6
CONTINUOUS
 62
     7
 10
175.945
 20
-163.6398
 11
175.6393
 21
-163.6398
  0
LINE
  8
0
  6
CONTINUOUS
 62
     7
 10
162.2071
 20
-181.4791
 11
161.9047
 21
-181.4791
  0
LINE
  8
0
  6
CONTINUOUS
 62
     7
 10
162.2071
 20
-180.8791
 11
161.9047
 21
-180.8791
  0
LINE
  8
0
  6
CONTINUOUS
 62
     7
 10
161.929
 20
-180.7183
 11
162.2347
 21
-180.7183
  0
LINE
  8
0
  6
CONTINUOUS
 62
     7
 10
174.1724
 20
-164.2822
 11
173.8047
 21
-163.9145
  0
LINE
  8
0
  6
CONTINUOUS
 62
     7
 10
174.54
 20
-163.9146
 11
174.1723
 21
-163.5469
  0
LINE
  8
0
  6
CONTINUOUS
 62
     7
 10
174.1724
 20
-164.2822
 11
174.5401
 21
-163.9144
  0
LINE
  8
0
  6
CONTINUOUS
 62
     7
 10
172.3339
 20
-162.4437
 11
172.7016
 21
-162.076
  0
LINE
  8
0
  6
CONTINUOUS
 62
     7
 10
172.0405
 20
-164.9433
 11
173.0693
 21
-163.9144
  0
LINE
  8
0
  6
CONTINUOUS
 62
     7
 10
171.6728
 20
-164.5755
 11
172.7016
 21
-163.5467
  0
LINE
  8
0
  6
CONTINUOUS
 62
     7
 10
172.7016
 20
-162.8114
 11
172.3339
 21
-162.4437
  0
LINE
  8
0
  6
CONTINUOUS
 62
     7
 10
173.0692
 20
-162.4438
 11
172.7016
 21
-162.0761
  0
LINE
  8
0
  6
CONTINUOUS
 62
     7
 10
174.1724
 20
-162.8114
 11
175.2011
 21
-161.7826
  0
LINE
  8
0
  6
CONTINUOUS
 62
     7
 10
173.8047
 20
-162.4436
 11
174.8335
 21
-161.4149
  0
LINE
  8
0
  6
CONTINUOUS
 62
     7
 10
165.1724
 20
-182.2822
 11
164.8047
 21
-181.9145
  0
LINE
  8
0
  6
CONTINUOUS
 62
     7
 10
165.54
 20
-181.9146
 11
165.1723
 21
-181.5469
  0
LINE
  8
0
  6
CONTINUOUS
 62
     7
 10
165.1724
 20
-182.2821
 11
165.5401
 21
-181.9144
  0
LINE
  8
0
  6
CONTINUOUS
 62
     7
 10
163.3339
 20
-180.4437
 11
163.7016
 21
-180.076
  0
LINE
  8
0
  6
CONTINUOUS
 62
     7
 10
163.0405
 20
-182.9433
 11
164.0693
 21
-181.9145
  0
LINE
  8
0
  6
CONTINUOUS
 62
     7
 10
162.6728
 20
-182.5755
 11
163.7016
 21
-181.5468
  0
LINE
  8
0
  6
CONTINUOUS
 62
     7
 10
163.7016
 20
-180.8114
 11
163.3339
 21
-180.4437
  0
LINE
  8
0
  6
CONTINUOUS
 62
     7
 10
164.0692
 20
-180.4438
 11
163.7015
 21
-180.0761
  0
LINE
  8
0
  6
CONTINUOUS
 62
     7
 10
165.1724
 20
-180.8114
 11
166.2012
 21
-179.7826
  0
LINE
  8
0
  6
CONTINUOUS
 62
     7
 10
164.8047
 20
-180.4437
 11
165.8335
 21
-179.4149
  0
LINE
  8
0
  6
CONTINUOUS
 62
     7
 10
163.437
 20
-154.9791
 11
164.937
 21
-154.9791
  0
LINE
  8
0
  6
CONTINUOUS
 62
     7
 10
164.937
 20
-152.1791
 11
172.937
 21
-152.1791
  0
LINE
  8
0
  6
CONTINUOUS
 62
     7
 10
163.437
 20
-154.9791
 11
163.437
 21
-156.7791
  0
LINE
  8
0
  6
CONTINUOUS
 62
     7
 10
174.437
 20
-154.9791
 11
174.437
 21
-156.7791
  0
LINE
  8
0
  6
CONTINUOUS
 62
     7
 10
164.937
 20
-154.1791
 11
165.237
 21
-153.8791
  0
LINE
  8
0
  6
CONTINUOUS
 62
     7
 10
172.937
 20
-154.1792
 11
172.637
 21
-153.8792
  0
LINE
  8
0
  6
CONTINUOUS
 62
     7
 10
164.937
 20
-156.7791
 11
164.937
 21
-159.1791
  0
LINE
  8
0
  6
CONTINUOUS
 62
     7
 10
172.937
 20
-156.7791
 11
172.937
 21
-159.1791
  0
LINE
  8
0
  6
CONTINUOUS
 62
     7
 10
172.937
 20
-154.9791
 11
174.437
 21
-154.9791
  0
LINE
  8
0
  6
CENTER
 62
     2
 10
164.987
 20
-155.6791
 11
172.887
 21
-155.6791
  0
LINE
  8
0
  6
CENTER
 62
     2
 10
166.437
 20
-154.3291
 11
166.437
 21
-157.1291
  0
LINE
  8
0
  6
CENTER
 62
     2
 10
171.437
 20
-154.3291
 11
171.437
 21
-157.1291
  0
LINE
  8
0
  6
CONTINUOUS
 62
     7
 10
165.487
 20
-154.7291
 11
167.387
 21
-154.7291
  0
LINE
  8
0
  6
CONTINUOUS
 62
     7
 10
165.487
 20
-156.6291
 11
167.387
 21
-156.6291
  0
LINE
  8
0
  6
CONTINUOUS
 62
     7
 10
165.487
 20
-154.5291
 11
165.487
 21
-156.6291
  0
LINE
  8
0
  6
CONTINUOUS
 62
     7
 10
167.387
 20
-154.5291
 11
167.387
 21
-156.6291
  0
LINE
  8
0
  6
CONTINUOUS
 62
     7
 10
167.987
 20
-154.5291
 11
167.987
 21
-156.6291
  0
LINE
  8
0
  6
CONTINUOUS
 62
     7
 10
169.887
 20
-154.5291
 11
169.887
 21
-156.6291
  0
LINE
  8
0
  6
CONTINUOUS
 62
     7
 10
172.387
 20
-154.5291
 11
172.387
 21
-156.6291
  0
LINE
  8
0
  6
CONTINUOUS
 62
     7
 10
170.487
 20
-154.5291
 11
170.487
 21
-156.6291
  0
LINE
  8
0
  6
CONTINUOUS
 62
     7
 10
167.987
 20
-154.7291
 11
169.887
 21
-154.7291
  0
LINE
  8
0
  6
CONTINUOUS
 62
     7
 10
167.987
 20
-156.6291
 11
169.887
 21
-156.6291
  0
LINE
  8
0
  6
CONTINUOUS
 62
     7
 10
170.487
 20
-156.6291
 11
172.387
 21
-156.6291
  0
LINE
  8
0
  6
CONTINUOUS
 62
     7
 10
170.487
 20
-154.7291
 11
172.387
 21
-154.7291
  0
LINE
  8
0
  6
CONTINUOUS
 62
     7
 10
165.237
 20
-153.8791
 11
172.637
 21
-153.8791
  0
LINE
  8
0
  6
CONTINUOUS
 62
     7
 10
164.937
 20
-151.1791
 11
172.937
 21
-151.1791
  0
LINE
  8
0
  6
CONTINUOUS
 62
     7
 10
172.937
 20
-151.1791
 11
172.937
 21
-154.9791
  0
LINE
  8
0
  6
CONTINUOUS
 62
     7
 10
164.937
 20
-151.1791
 11
164.937
 21
-154.9791
  0
LINE
  8
0
  6
CONTINUOUS
 62
     7
 10
165.487
 20
-154.5291
 11
167.387
 21
-154.5291
  0
LINE
  8
0
  6
CONTINUOUS
 62
     7
 10
167.987
 20
-154.5291
 11
169.887
 21
-154.5291
  0
LINE
  8
0
  6
CONTINUOUS
 62
     7
 10
170.487
 20
-154.5291
 11
172.387
 21
-154.5291
  0
LINE
  8
0
  6
CONTINUOUS
 62
     7
 10
165.937
 20
-156.9291
 11
166.937
 21
-156.9291
  0
LINE
  8
0
  6
CONTINUOUS
 62
     7
 10
168.437
 20
-156.9291
 11
169.437
 21
-156.9291
  0
LINE
  8
0
  6
CONTINUOUS
 62
     7
 10
170.937
 20
-156.9291
 11
171.937
 21
-156.9291
  0
LINE
  8
0
  6
CONTINUOUS
 62
     7
 10
165.937
 20
-156.6291
 11
165.937
 21
-156.9291
  0
LINE
  8
0
  6
CONTINUOUS
 62
     7
 10
166.937
 20
-156.6291
 11
166.937
 21
-156.9291
  0
LINE
  8
0
  6
CONTINUOUS
 62
     7
 10
168.437
 20
-156.6291
 11
168.437
 21
-156.9291
  0
LINE
  8
0
  6
CONTINUOUS
 62
     7
 10
169.437
 20
-156.6291
 11
169.437
 21
-156.9291
  0
LINE
  8
0
  6
CONTINUOUS
 62
     7
 10
171.937
 20
-156.6291
 11
171.937
 21
-156.9291
  0
LINE
  8
0
  6
CONTINUOUS
 62
     7
 10
170.937
 20
-156.6291
 11
170.937
 21
-156.9291
  0
LINE
  8
0
  6
CONTINUOUS
 62
     7
 10
165.937
 20
-158.0541
 11
166.937
 21
-158.0541
  0
LINE
  8
0
  6
CONTINUOUS
 62
     7
 10
166.437
 20
-157.5541
 11
166.437
 21
-158.5541
  0
LINE
  8
0
  6
CONTINUOUS
 62
     7
 10
170.937
 20
-158.0541
 11
171.937
 21
-158.0541
  0
LINE
  8
0
  6
CENTER
 62
     2
 10
169.437
 20
-163.1791
 11
177.437
 21
-163.1791
  0
LINE
  8
0
  6
CENTER
 62
     2
 10
160.437
 20
-181.1791
 11
168.437
 21
-181.1791
  0
LINE
  8
0
  6
CENTER
 62
     2
 10
164.437
 20
-185.1791
 11
164.437
 21
-177.1791
  0
LINE
  8
0
  6
CENTER
 62
     2
 10
173.437
 20
-167.1791
 11
173.437
 21
-159.1791
  0
LINE
  8
0
  6
CONTINUOUS
 62
     7
 10
161.937
 20
-153.1791
 11
175.937
 21
-153.1791
  0
LINE
  8
0
  6
CONTINUOUS
 62
     7
 10
163.237
 20
-154.7791
 11
164.737
 21
-154.7791
  0
LINE
  8
0
  6
CONTINUOUS
 62
     7
 10
163.237
 20
-156.7791
 11
164.937
 21
-156.7791
  0
LINE
  8
0
  6
CONTINUOUS
 62
     7
 10
164.737
 20
-159.1791
 11
173.137
 21
-159.1791
  0
LINE
  8
0
  6
CONTINUOUS
 62
     7
 10
164.737
 20
-159.1791
 11
164.737
 21
-156.7791
  0
LINE
  8
0
  6
CONTINUOUS
 62
     7
 10
173.137
 20
-159.1791
 11
173.137
 21
-156.7791
  0
LINE
  8
0
  6
CONTINUOUS
 62
     7
 10
174.637
 20
-156.7791
 11
174.637
 21
-154.7791
  0
LINE
  8
0
  6
CONTINUOUS
 62
     7
 10
163.237
 20
-156.7791
 11
163.237
 21
-154.7791
  0
LINE
  8
0
  6
CONTINUOUS
 62
     7
 10
172.937
 20
-156.7791
 11
174.637
 21
-156.7791
  0
LINE
  8
0
  6
CONTINUOUS
 62
     7
 10
173.137
 20
-154.7791
 11
174.637
 21
-154.7791
  0
LINE
  8
0
  6
CONTINUOUS
 62
     7
 10
164.737
 20
-154.7791
 11
164.737
 21
-153.1791
  0
LINE
  8
0
  6
CONTINUOUS
 62
     7
 10
173.137
 20
-154.7791
 11
173.137
 21
-153.1791
  0
LINE
  8
0
  6
CONTINUOUS
 62
     7
 10
164.737
 20
-154.1791
 11
173.137
 21
-154.1791
  0
LINE
  8
0
  6
CONTINUOUS
 62
     7
 10
161.937
 20
-184.1791
 11
175.937
 21
-184.1791
  0
LINE
  8
0
  6
CONTINUOUS
 62
     7
 10
161.437
 20
-183.6791
 11
161.437
 21
-160.1791
  0
LINE
  8
0
  6
CONTINUOUS
 62
     7
 10
176.437
 20
-183.6791
 11
176.437
 21
-160.1791
  0
LINE
  8
0
  6
CONTINUOUS
 62
     7
 10
161.437
 20
-160.1791
 11
176.437
 21
-160.1791
  0
LINE
  8
0
  6
CONTINUOUS
 62
     7
 10
161.937
 20
-160.1791
 11
161.937
 21
-150.9791
  0
LINE
  8
0
  6
CONTINUOUS
 62
     7
 10
162.737
 20
-150.1791
 11
175.137
 21
-150.1791
  0
LINE
  8
0
  6
CONTINUOUS
 62
     7
 10
175.937
 20
-160.1791
 11
175.937
 21
-150.9791
  0
LINE
  8
0
  6
CONTINUOUS
 62
     7
 10
163.937
 20
-151.6791
 11
164.937
 21
-151.6791
  0
LINE
  8
0
  6
CONTINUOUS
 62
     7
 10
164.437
 20
-150.9791
 11
173.437
 21
-150.9791
  0
LINE
  8
0
  6
CONTINUOUS
 62
     7
 10
163.437
 20
-153.1791
 11
163.437
 21
-152.1791
  0
LINE
  8
0
  6
CONTINUOUS
 62
     7
 10
174.437
 20
-153.1791
 11
174.437
 21
-152.1791
  0
LINE
  8
0
  6
CONTINUOUS
 62
     7
 10
164.437
 20
-151.6791
 11
164.437
 21
-150.9791
  0
LINE
  8
0
  6
CONTINUOUS
 62
     7
 10
173.437
 20
-151.6791
 11
173.437
 21
-150.9791
  0
LINE
  8
0
  6
CONTINUOUS
 62
     7
 10
172.937
 20
-151.6791
 11
173.937
 21
-151.6791
  0
LINE
  8
0
  6
CONTINUOUS
 62
     7
 10
161.9371
 20
124.2773
 11
160.9371
 21
124.2773
  0
LINE
  8
0
  6
CONTINUOUS
 62
     7
 10
175.9371
 20
123.2773
 11
177.4371
 21
123.2773
  0
LINE
  8
0
  6
CENTER
 62
     2
 10
168.9371
 20
152.6735
 11
168.9371
 21
112.4762
  0
LINE
  8
0
  6
CONTINUOUS
 62
     7
 10
177.9371
 20
149.7773
 11
177.9371
 21
123.7773
  0
LINE
  8
0
  6
CONTINUOUS
 62
     7
 10
159.9371
 20
149.7773
 11
159.9371
 21
123.7773
  0
LINE
  8
0
  6
CONTINUOUS
 62
     7
 10
160.4371
 20
123.2773
 11
161.9371
 21
123.2773
  0
LINE
  8
0
  6
CONTINUOUS
 62
     7
 10
160.4371
 20
150.2773
 11
177.4371
 21
150.2773
  0
LINE
  8
0
  6
CENTER
 62
     2
 10
157.1871
 20
136.7773
 11
181.1646
 21
136.7773
  0
LINE
  8
0
  6
CONTINUOUS
 62
     7
 10
176.9371
 20
149.2773
 11
176.9371
 21
124.2773
  0
LINE
  8
0
  6
CONTINUOUS
 62
     7
 10
160.9371
 20
149.2773
 11
160.9371
 21
124.2773
  0
LINE
  8
0
  6
CONTINUOUS
 62
     7
 10
176.9371
 20
149.2773
 11
160.9371
 21
149.2773
  0
LINE
  8
0
  6
CONTINUOUS
 62
     7
 10
176.9371
 20
124.2773
 11
175.9371
 21
124.2773
  0
LINE
  8
0
  6
CONTINUOUS
 62
     7
 10
160.9371
 20
124.2772
 11
160.0836
 21
123.4236
  0
LINE
  8
0
  6
CONTINUOUS
 62
     7
 10
160.9371
 20
149.2773
 11
160.0835
 21
150.1308
  0
LINE
  8
0
  6
CONTINUOUS
 62
     7
 10
176.9371
 20
124.2773
 11
177.7906
 21
123.4237
  0
LINE
  8
0
  6
CONTINUOUS
 62
     7
 10
176.9371
 20
149.2773
 11
177.7907
 21
150.1309
  0
LINE
  8
0
  6
CONTINUOUS
 62
     7
 10
167.4371
 20
127.7773
 11
167.4371
 21
124.7773
  0
LINE
  8
0
  6
CONTINUOUS
 62
     7
 10
170.4371
 20
145.7773
 11
170.4371
 21
148.7773
  0
LINE
  8
0
  6
CONTINUOUS
 62
     7
 10
173.4371
 20
142.7773
 11
176.4371
 21
142.7773
  0
LINE
  8
0
  6
CONTINUOUS
 62
     7
 10
164.4371
 20
130.7773
 11
161.4371
 21
130.7773
  0
LINE
  8
0
  6
CONTINUOUS
 62
     7
 10
170.4371
 20
147.7773
 11
162.4371
 21
147.7773
  0
LINE
  8
0
  6
CONTINUOUS
 62
     7
 10
175.4371
 20
125.7773
 11
167.4371
 21
125.7773
  0
LINE
  8
0
  6
CONTINUOUS
 62
     7
 10
175.4371
 20
142.7773
 11
175.4371
 21
125.7773
  0
LINE
  8
0
  6
CONTINUOUS
 62
     7
 10
162.4371
 20
147.7773
 11
162.4371
 21
130.7773
  0
LINE
  8
0
  6
CONTINUOUS
 62
     7
 10
162.2072
 20
127.4773
 11
161.9048
 21
127.4773
  0
LINE
  8
0
  6
CONTINUOUS
 62
     7
 10
162.2072
 20
128.0773
 11
161.9048
 21
128.0773
  0
LINE
  8
0
  6
CONTINUOUS
 62
     7
 10
161.9291
 20
128.2381
 11
162.2348
 21
128.2381
  0
LINE
  8
0
  6
CONTINUOUS
 62
     7
 10
175.667
 20
146.0773
 11
175.9694
 21
146.0773
  0
LINE
  8
0
  6
CONTINUOUS
 62
     7
 10
175.667
 20
145.4773
 11
175.9694
 21
145.4773
  0
LINE
  8
0
  6
CONTINUOUS
 62
     7
 10
175.9451
 20
145.3165
 11
175.6394
 21
145.3165
  0
LINE
  8
0
  6
CONTINUOUS
 62
     7
 10
163.7018
 20
128.8804
 11
164.0694
 21
128.5127
  0
LINE
  8
0
  6
CONTINUOUS
 62
     7
 10
163.334
 20
128.5127
 11
163.7017
 21
128.145
  0
LINE
  8
0
  6
CONTINUOUS
 62
     7
 10
163.7017
 20
128.8804
 11
163.334
 21
128.5127
  0
LINE
  8
0
  6
CONTINUOUS
 62
     7
 10
165.5402
 20
127.0419
 11
165.1725
 21
126.6742
  0
LINE
  8
0
  6
CONTINUOUS
 62
     7
 10
165.8336
 20
129.5415
 11
164.8048
 21
128.5127
  0
LINE
  8
0
  6
CONTINUOUS
 62
     7
 10
166.2013
 20
129.1738
 11
165.1725
 21
128.145
  0
LINE
  8
0
  6
CONTINUOUS
 62
     7
 10
165.1725
 20
127.4096
 11
165.5402
 21
127.0419
  0
LINE
  8
0
  6
CONTINUOUS
 62
     7
 10
164.8048
 20
127.0419
 11
165.1725
 21
126.6742
  0
LINE
  8
0
  6
CONTINUOUS
 62
     7
 10
163.7018
 20
127.4096
 11
162.673
 21
126.3808
  0
LINE
  8
0
  6
CONTINUOUS
 62
     7
 10
164.0694
 20
127.0419
 11
163.0406
 21
126.0131
  0
LINE
  8
0
  6
CONTINUOUS
 62
     7
 10
172.7017
 20
146.8803
 11
173.0694
 21
146.5126
  0
LINE
  8
0
  6
CONTINUOUS
 62
     7
 10
172.3341
 20
146.5126
 11
172.7018
 21
146.145
  0
LINE
  8
0
  6
CONTINUOUS
 62
     7
 10
172.7018
 20
146.8804
 11
172.334
 21
146.5127
  0
LINE
  8
0
  6
CONTINUOUS
 62
     7
 10
174.5402
 20
145.0419
 11
174.1725
 21
144.6742
  0
LINE
  8
0
  6
CONTINUOUS
 62
     7
 10
174.8336
 20
147.5415
 11
173.8048
 21
146.5127
  0
LINE
  8
0
  6
CONTINUOUS
 62
     7
 10
175.2013
 20
147.1738
 11
174.1725
 21
146.145
  0
LINE
  8
0
  6
CONTINUOUS
 62
     7
 10
174.1725
 20
145.4095
 11
174.5402
 21
145.0419
  0
LINE
  8
0
  6
CONTINUOUS
 62
     7
 10
173.8048
 20
145.0419
 11
174.1725
 21
144.6742
  0
LINE
  8
0
  6
CONTINUOUS
 62
     7
 10
172.7017
 20
145.4096
 11
171.6729
 21
144.3808
  0
LINE
  8
0
  6
CONTINUOUS
 62
     7
 10
173.0694
 20
145.0419
 11
172.0406
 21
144.0131
  0
LINE
  8
0
  6
CONTINUOUS
 62
     7
 10
174.4371
 20
119.5773
 11
172.9371
 21
119.5773
  0
LINE
  8
0
  6
CONTINUOUS
 62
     7
 10
172.9371
 20
116.7773
 11
164.9371
 21
116.7773
  0
LINE
  8
0
  6
CONTINUOUS
 62
     7
 10
174.4371
 20
119.5773
 11
174.4371
 21
121.3773
  0
LINE
  8
0
  6
CONTINUOUS
 62
     7
 10
163.4371
 20
119.5773
 11
163.4371
 21
121.3773
  0
LINE
  8
0
  6
CONTINUOUS
 62
     7
 10
172.9371
 20
118.7772
 11
172.6371
 21
118.4772
  0
LINE
  8
0
  6
CONTINUOUS
 62
     7
 10
164.9372
 20
118.7773
 11
165.2372
 21
118.4773
  0
LINE
  8
0
  6
CONTINUOUS
 62
     7
 10
172.9371
 20
121.3773
 11
172.9371
 21
123.7773
  0
LINE
  8
0
  6
CONTINUOUS
 62
     7
 10
164.9371
 20
121.3773
 11
164.9371
 21
123.7773
  0
LINE
  8
0
  6
CONTINUOUS
 62
     7
 10
164.9371
 20
119.5773
 11
163.4371
 21
119.5773
  0
LINE
  8
0
  6
CENTER
 62
     2
 10
172.8871
 20
120.2773
 11
164.9871
 21
120.2773
  0
LINE
  8
0
  6
CENTER
 62
     2
 10
171.4371
 20
118.9273
 11
171.4371
 21
121.7273
  0
LINE
  8
0
  6
CENTER
 62
     2
 10
166.4371
 20
118.9273
 11
166.4371
 21
121.7273
  0
LINE
  8
0
  6
CONTINUOUS
 62
     7
 10
172.3871
 20
119.3273
 11
170.4871
 21
119.3273
  0
LINE
  8
0
  6
CONTINUOUS
 62
     7
 10
172.3871
 20
121.2273
 11
170.4871
 21
121.2273
  0
LINE
  8
0
  6
CONTINUOUS
 62
     7
 10
172.3871
 20
119.1273
 11
172.3871
 21
121.2273
  0
LINE
  8
0
  6
CONTINUOUS
 62
     7
 10
170.4871
 20
119.1273
 11
170.4871
 21
121.2273
  0
LINE
  8
0
  6
CONTINUOUS
 62
     7
 10
169.8871
 20
119.1273
 11
169.8871
 21
121.2273
  0
LINE
  8
0
  6
CONTINUOUS
 62
     7
 10
167.9871
 20
119.1273
 11
167.9871
 21
121.2273
  0
LINE
  8
0
  6
CONTINUOUS
 62
     7
 10
165.4871
 20
119.1273
 11
165.4871
 21
121.2273
  0
LINE
  8
0
  6
CONTINUOUS
 62
     7
 10
167.3871
 20
119.1273
 11
167.3871
 21
121.2273
  0
LINE
  8
0
  6
CONTINUOUS
 62
     7
 10
169.8871
 20
119.3273
 11
167.9871
 21
119.3273
  0
LINE
  8
0
  6
CONTINUOUS
 62
     7
 10
169.8871
 20
121.2273
 11
167.9871
 21
121.2273
  0
LINE
  8
0
  6
CONTINUOUS
 62
     7
 10
167.3871
 20
121.2273
 11
165.4871
 21
121.2273
  0
LINE
  8
0
  6
CONTINUOUS
 62
     7
 10
167.3871
 20
119.3273
 11
165.4871
 21
119.3273
  0
LINE
  8
0
  6
CONTINUOUS
 62
     7
 10
172.6371
 20
118.4773
 11
165.2371
 21
118.4773
  0
LINE
  8
0
  6
CONTINUOUS
 62
     7
 10
172.9371
 20
115.7773
 11
164.9371
 21
115.7773
  0
LINE
  8
0
  6
CONTINUOUS
 62
     7
 10
164.9371
 20
115.7773
 11
164.9371
 21
119.5773
  0
LINE
  8
0
  6
CONTINUOUS
 62
     7
 10
172.9371
 20
115.7773
 11
172.9371
 21
119.5773
  0
LINE
  8
0
  6
CONTINUOUS
 62
     7
 10
172.3871
 20
119.1273
 11
170.4871
 21
119.1273
  0
LINE
  8
0
  6
CONTINUOUS
 62
     7
 10
169.8871
 20
119.1273
 11
167.9871
 21
119.1273
  0
LINE
  8
0
  6
CONTINUOUS
 62
     7
 10
167.3871
 20
119.1273
 11
165.4871
 21
119.1273
  0
LINE
  8
0
  6
CONTINUOUS
 62
     7
 10
171.9371
 20
121.5273
 11
170.9371
 21
121.5273
  0
LINE
  8
0
  6
CONTINUOUS
 62
     7
 10
169.4371
 20
121.5273
 11
168.4371
 21
121.5273
  0
LINE
  8
0
  6
CONTINUOUS
 62
     7
 10
166.9371
 20
121.5273
 11
165.9371
 21
121.5273
  0
LINE
  8
0
  6
CONTINUOUS
 62
     7
 10
171.9371
 20
121.2273
 11
171.9371
 21
121.5273
  0
LINE
  8
0
  6
CONTINUOUS
 62
     7
 10
170.9371
 20
121.2273
 11
170.9371
 21
121.5273
  0
LINE
  8
0
  6
CONTINUOUS
 62
     7
 10
169.4371
 20
121.2273
 11
169.4371
 21
121.5273
  0
LINE
  8
0
  6
CONTINUOUS
 62
     7
 10
168.4371
 20
121.2273
 11
168.4371
 21
121.5273
  0
LINE
  8
0
  6
CONTINUOUS
 62
     7
 10
165.9371
 20
121.2273
 11
165.9371
 21
121.5273
  0
LINE
  8
0
  6
CONTINUOUS
 62
     7
 10
166.9371
 20
121.2273
 11
166.9371
 21
121.5273
  0
LINE
  8
0
  6
CONTINUOUS
 62
     7
 10
171.9371
 20
122.6523
 11
170.9371
 21
122.6523
  0
LINE
  8
0
  6
CONTINUOUS
 62
     7
 10
171.4371
 20
122.1523
 11
171.4371
 21
123.1523
  0
LINE
  8
0
  6
CONTINUOUS
 62
     7
 10
166.9371
 20
122.6523
 11
165.9371
 21
122.6523
  0
LINE
  8
0
  6
CENTER
 62
     2
 10
168.4371
 20
127.7773
 11
160.4371
 21
127.7773
  0
LINE
  8
0
  6
CENTER
 62
     2
 10
177.4371
 20
145.7773
 11
169.4371
 21
145.7773
  0
LINE
  8
0
  6
CENTER
 62
     2
 10
173.4371
 20
149.7773
 11
173.4371
 21
141.7773
  0
LINE
  8
0
  6
CENTER
 62
     2
 10
164.4371
 20
131.7773
 11
164.4371
 21
123.7773
  0
LINE
  8
0
  6
CONTINUOUS
 62
     7
 10
175.9371
 20
117.7773
 11
161.9371
 21
117.7773
  0
LINE
  8
0
  6
CONTINUOUS
 62
     7
 10
174.6371
 20
119.3773
 11
173.1371
 21
119.3773
  0
LINE
  8
0
  6
CONTINUOUS
 62
     7
 10
174.6371
 20
121.3773
 11
172.9371
 21
121.3773
  0
LINE
  8
0
  6
CONTINUOUS
 62
     7
 10
173.1371
 20
123.7773
 11
164.7371
 21
123.7773
  0
LINE
  8
0
  6
CONTINUOUS
 62
     7
 10
173.1371
 20
123.7773
 11
173.1371
 21
121.3773
  0
LINE
  8
0
  6
CONTINUOUS
 62
     7
 10
164.7371
 20
123.7773
 11
164.7371
 21
121.3773
  0
LINE
  8
0
  6
CONTINUOUS
 62
     7
 10
163.2371
 20
121.3773
 11
163.2371
 21
119.3773
  0
LINE
  8
0
  6
CONTINUOUS
 62
     7
 10
174.6371
 20
121.3773
 11
174.6371
 21
119.3773
  0
LINE
  8
0
  6
CONTINUOUS
 62
     7
 10
164.9371
 20
121.3773
 11
163.2371
 21
121.3773
  0
LINE
  8
0
  6
CONTINUOUS
 62
     7
 10
164.7371
 20
119.3773
 11
163.2371
 21
119.3773
  0
LINE
  8
0
  6
CONTINUOUS
 62
     7
 10
173.1371
 20
119.3773
 11
173.1371
 21
117.7773
  0
LINE
  8
0
  6
CONTINUOUS
 62
     7
 10
164.7371
 20
119.3773
 11
164.7371
 21
117.7773
  0
LINE
  8
0
  6
CONTINUOUS
 62
     7
 10
173.1371
 20
118.7773
 11
164.7371
 21
118.7773
  0
LINE
  8
0
  6
CONTINUOUS
 62
     7
 10
175.9371
 20
148.7773
 11
161.9371
 21
148.7773
  0
LINE
  8
0
  6
CONTINUOUS
 62
     7
 10
176.4371
 20
148.2773
 11
176.4371
 21
124.7773
  0
LINE
  8
0
  6
CONTINUOUS
 62
     7
 10
161.4371
 20
148.2773
 11
161.4371
 21
124.7773
  0
LINE
  8
0
  6
CONTINUOUS
 62
     7
 10
176.4371
 20
124.7773
 11
161.4371
 21
124.7773
  0
LINE
  8
0
  6
CONTINUOUS
 62
     7
 10
175.9371
 20
124.7773
 11
175.9371
 21
115.5773
  0
LINE
  8
0
  6
CONTINUOUS
 62
     7
 10
175.1371
 20
114.7773
 11
162.7371
 21
114.7773
  0
LINE
  8
0
  6
CONTINUOUS
 62
     7
 10
161.9371
 20
124.7773
 11
161.9371
 21
115.5773
  0
LINE
  8
0
  6
CONTINUOUS
 62
     7
 10
173.9371
 20
116.2773
 11
172.9371
 21
116.2773
  0
LINE
  8
0
  6
CONTINUOUS
 62
     7
 10
173.4371
 20
115.5773
 11
164.4371
 21
115.5773
  0
LINE
  8
0
  6
CONTINUOUS
 62
     7
 10
174.4371
 20
117.7773
 11
174.4371
 21
116.7773
  0
LINE
  8
0
  6
CONTINUOUS
 62
     7
 10
163.4371
 20
117.7773
 11
163.4371
 21
116.7773
  0
LINE
  8
0
  6
CONTINUOUS
 62
     7
 10
173.4371
 20
116.2773
 11
173.4371
 21
115.5773
  0
LINE
  8
0
  6
CONTINUOUS
 62
     7
 10
164.4371
 20
116.2773
 11
164.4371
 21
115.5773
  0
LINE
  8
0
  6
CONTINUOUS
 62
     7
 10
164.9371
 20
116.2773
 11
163.9371
 21
116.2773
  0
ARC
  8
0
  6
CONTINUOUS
 62
     7
 10
273.0354
 20
-235.0457
 40
2.21188
 50
0.0
 51
89.99999
  0
ARC
  8
0
  6
CONTINUOUS
 62
     7
 10
291.2836
 20
-246.9346
 40
2.2119
 50
270.0
 51
0.0
  0
ARC
  8
0
  6
CONTINUOUS
 62
     7
 10
290.1776
 20
-236.1516
 40
3.31784
 50
0.0
 51
89.99999
  0
ARC
  8
0
  6
CONTINUOUS
 62
     7
 10
310.3611
 20
-236.8128
 40
2.21189
 50
295.0
 51
0.0
  0
ARC
  8
0
  6
CONTINUOUS
 62
     7
 10
310.3611
 20
-235.0457
 40
2.21188
 50
0.0
 51
89.99999
  0
ARC
  8
0
  6
CONTINUOUS
 62
     7
 10
327.5034
 20
-232.8338
 40
3.31784
 50
291.6884
 51
0.0
  0
ARC
  8
0
  6
CONTINUOUS
 62
     7
 10
326.3973
 20
-232.0834
 40
1.10595
 50
291.689
 51
0.0
  0
ARC
  8
0
  6
CONTINUOUS
 62
     7
 10
-194.9367
 20
135.2775
 40
0.5
 50
180.0
 51
270.0
  0
ARC
  8
0
  6
CONTINUOUS
 62
     7
 10
-168.9367
 20
135.2775
 40
0.5
 50
270.0
 51
0.0
  0
ARC
  8
0
  6
CONTINUOUS
 62
     7
 10
-168.9367
 20
152.2775
 40
0.5
 50
0.0
 51
89.99999
  0
ARC
  8
0
  6
CONTINUOUS
 62
     7
 10
-194.9367
 20
152.2775
 40
0.5
 50
89.99999
 51
180.0
  0
ARC
  8
0
  6
CONTINUOUS
 62
     7
 10
-172.9367
 20
139.2775
 40
3.0
 50
89.99999
 51
180.0
  0
ARC
  8
0
  6
CONTINUOUS
 62
     7
 10
-190.9367
 20
148.2775
 40
3.0
 50
270.0
 51
0.0
  0
ARC
  8
0
  6
CONTINUOUS
 62
     7
 10
-172.9367
 20
139.2775
 40
2.55
 50
276.7564
 51
263.2436
  0
ARC
  8
0
  6
CONTINUOUS
 62
     7
 10
-190.9367
 20
148.2775
 40
2.55
 50
96.7564
 51
83.24359
  0
CIRCLE
  8
0
  6
CONTINUOUS
 62
     7
 10
-172.9367
 20
139.2775
 40
2.25
  0
ARC
  8
0
  6
CONTINUOUS
 62
     7
 10
-172.9367
 20
140.3806
 40
0.51999
 50
225.0
 51
315.0
  0
ARC
  8
0
  6
CONTINUOUS
 62
     7
 10
-174.0397
 20
139.2775
 40
0.51999
 50
315.0
 51
45.0
  0
ARC
  8
0
  6
CONTINUOUS
 62
     7
 10
-171.8336
 20
139.2775
 40
0.51999
 50
135.0
 51
225.0
  0
ARC
  8
0
  6
CONTINUOUS
 62
     7
 10
-172.9367
 20
138.1744
 40
0.51999
 50
45.0
 51
135.0
  0
CIRCLE
  8
0
  6
CONTINUOUS
 62
     7
 10
-190.9367
 20
148.2775
 40
2.25
  0
ARC
  8
0
  6
CONTINUOUS
 62
     7
 10
-190.9367
 20
149.3806
 40
0.51999
 50
225.0
 51
315.0
  0
ARC
  8
0
  6
CONTINUOUS
 62
     7
 10
-192.0397
 20
148.2775
 40
0.51999
 50
315.0
 51
45.0
  0
ARC
  8
0
  6
CONTINUOUS
 62
     7
 10
-189.8336
 20
148.2775
 40
0.51999
 50
135.0
 51
225.0
  0
ARC
  8
0
  6
CONTINUOUS
 62
     7
 10
-190.9367
 20
147.1744
 40
0.51999
 50
45.0
 51
135.0
  0
CIRCLE
  8
0
  6
CONTINUOUS
 62
     7
 10
-165.4367
 20
146.2775
 40
0.85
  0
CIRCLE
  8
0
  6
CONTINUOUS
 62
     7
 10
-165.4367
 20
141.2775
 40
0.85
  0
ARC
  8
0
  6
CONTINUOUS
 62
     7
 10
-167.8117
 20
143.7775
 40
0.49999
 50
315.0
 51
225.0
  0
ARC
  8
0
  6
CONTINUOUS
 62
     7
 10
-193.4367
 20
150.7775
 40
0.5
 50
89.99999
 51
180.0
  0
ARC
  8
0
  6
CONTINUOUS
 62
     7
 10
-193.4367
 20
136.7775
 40
0.5
 50
180.0
 51
270.0
  0
ARC
  8
0
  6
CONTINUOUS
 62
     7
 10
-160.7366
 20
149.9775
 40
0.8
 50
0.0
 51
89.99999
  0
ARC
  8
0
  6
CONTINUOUS
 62
     7
 10
-160.7366
 20
137.5775
 40
0.8
 50
270.0
 51
0.0
  0
ARC
  8
0
  6
CONTINUOUS
 62
     7
 10
-161.9367
 20
148.7775
 40
0.5
 50
0.0
 51
89.99999
  0
ARC
  8
0
  6
CONTINUOUS
 62
     7
 10
-161.9367
 20
138.7775
 40
0.5
 50
270.0
 51
0.0
  0
CIRCLE
  8
0
  6
CONTINUOUS
 62
     7
 10
-174.4368
 20
1.60001
 40
1.6
  0
CIRCLE
  8
0
  6
CONTINUOUS
 62
     7
 10
-174.4368
 20
-28.39999
 40
1.6
  0
ARC
  8
0
  6
CONTINUOUS
 62
     7
 10
-172.9368
 20
51.10001
 40
6.0
 50
73.80862
 51
106.1914
  0
ARC
  8
0
  6
CONTINUOUS
 62
     7
 10
-171.4868
 20
56.09375
 40
0.8
 50
0.0
 51
73.8082
  0
ARC
  8
0
  6
CONTINUOUS
 62
     7
 10
-174.3868
 20
56.09375
 40
0.8
 50
106.1918
 51
180.0
  0
ARC
  8
0
  6
CONTINUOUS
 62
     7
 10
-189.4868
 20
56.09375
 40
0.8
 50
61.98621
 51
73.8082
  0
ARC
  8
0
  6
CONTINUOUS
 62
     7
 10
-192.3868
 20
56.09373
 40
0.8
 50
106.1918
 51
118.0138
  0
ARC
  8
0
  6
CONTINUOUS
 62
     7
 10
-190.9368
 20
51.09999
 40
6.0
 50
73.80862
 51
106.1914
  0
ARC
  8
0
  6
CONTINUOUS
 62
     7
 10
-160.7368
 20
48.8
 40
0.8
 50
0.0
 51
89.99999
  0
ARC
  8
0
  6
CONTINUOUS
 62
     7
 10
-160.7368
 20
29.40001
 40
0.8
 50
270.0
 51
0.0
  0
ARC
  8
0
  6
CONTINUOUS
 62
     7
 10
-163.4368
 20
57.10001
 40
0.5
 50
180.0
 51
0.0
  0
ARC
  8
0
  6
CONTINUOUS
 62
     7
 10
-163.4368
 20
55.10001
 40
0.5
 50
0.0
 51
180.0
  0
ARC
  8
0
  6
CONTINUOUS
 62
     7
 10
-190.9368
 20
-88.10001
 40
6.0
 50
253.8088
 51
286.1914
  0
ARC
  8
0
  6
CONTINUOUS
 62
     7
 10
-192.3868
 20
-93.09375
 40
0.8
 50
180.0
 51
253.8083
  0
ARC
  8
0
  6
CONTINUOUS
 62
     7
 10
-189.4868
 20
-93.09375
 40
0.8
 50
286.1919
 51
0.0
  0
ARC
  8
0
  6
CONTINUOUS
 62
     7
 10
-174.3868
 20
-93.09375
 40
0.8
 50
241.9862
 51
253.8093
  0
ARC
  8
0
  6
CONTINUOUS
 62
     7
 10
-171.4868
 20
-93.09372
 40
0.8
 50
286.1919
 51
298.0138
  0
ARC
  8
0
  6
CONTINUOUS
 62
     7
 10
-172.9368
 20
-88.09998
 40
6.0
 50
253.8088
 51
286.1914
  0
ARC
  8
0
  6
CONTINUOUS
 62
     7
 10
-160.7368
 20
-85.79999
 40
0.8
 50
270.0
 51
0.0
  0
ARC
  8
0
  6
CONTINUOUS
 62
     7
 10
-160.7368
 20
-66.39999
 40
0.8
 50
0.0
 51
89.99999
  0
ARC
  8
0
  6
CONTINUOUS
 62
     7
 10
-163.4368
 20
-94.10001
 40
0.5
 50
0.0
 51
180.0
  0
ARC
  8
0
  6
CONTINUOUS
 62
     7
 10
-163.4368
 20
-92.10001
 40
0.5
 50
180.0
 51
0.0
  0
CIRCLE
  8
0
  6
CONTINUOUS
 62
     7
 10
-300.5613
 20
-28.39984
 40
1.6
  0
CIRCLE
  8
0
  6
CONTINUOUS
 62
     7
 10
-313.5613
 20
1.60017
 40
1.6
  0
CIRCLE
  8
0
  6
CONTINUOUS
 62
     7
 10
-307.0613
 20
20.30017
 40
2.65
  0
CIRCLE
  8
0
  6
CONTINUOUS
 62
     7
 10
-306.5613
 20
-0.19983
 40
4.86435
  0
CIRCLE
  8
0
  6
CONTINUOUS
 62
     7
 10
-306.5613
 20
-0.19983
 40
4.28325
  0
CIRCLE
  8
0
  6
CONTINUOUS
 62
     7
 10
-307.5613
 20
-26.59982
 40
4.86435
  0
CIRCLE
  8
0
  6
CONTINUOUS
 62
     7
 10
-307.5613
 20
-26.59982
 40
4.28325
  0
CIRCLE
  8
0
  6
CONTINUOUS
 62
     7
 10
-307.0613
 20
-13.39984
 40
4.86435
  0
CIRCLE
  8
0
  6
CONTINUOUS
 62
     7
 10
-307.0613
 20
-13.39984
 40
4.28325
  0
CIRCLE
  8
0
  6
CONTINUOUS
 62
     7
 10
-307.0613
 20
20.30017
 40
2.0
  0
CIRCLE
  8
0
  6
CONTINUOUS
 62
     7
 10
-307.0613
 20
-57.29984
 40
2.65
  0
CIRCLE
  8
0
  6
CONTINUOUS
 62
     7
 10
-307.0613
 20
-57.29984
 40
2.0
  0
ARC
  8
0
  6
CONTINUOUS
 62
     7
 10
-310.5075
 20
49.5535
 40
0.35345
 50
0.0
 51
89.99999
  0
ARC
  8
0
  6
CONTINUOUS
 62
     7
 10
-307.5915
 20
47.65363
 40
0.35346
 50
270.0
 51
0.0
  0
ARC
  8
0
  6
CONTINUOUS
 62
     7
 10
-307.7682
 20
49.37677
 40
0.53018
 50
0.0
 51
89.99999
  0
ARC
  8
0
  6
CONTINUOUS
 62
     7
 10
-304.5428
 20
49.5535
 40
0.35345
 50
0.0
 51
89.99999
  0
ARC
  8
0
  6
CONTINUOUS
 62
     7
 10
-304.5428
 20
49.2711
 40
0.35347
 50
295.0005
 51
0.0
  0
ARC
  8
0
  6
CONTINUOUS
 62
     7
 10
-301.8035
 20
49.90695
 40
0.53019
 50
291.6869
 51
0.0
  0
ARC
  8
0
  6
CONTINUOUS
 62
     7
 10
-301.9803
 20
50.02686
 40
0.17673
 50
291.687
 51
0.0
  0
ARC
  8
0
  6
CONTINUOUS
 62
     7
 10
-313.0113
 20
56.0939
 40
0.8
 50
106.1918
 51
180.0
  0
ARC
  8
0
  6
CONTINUOUS
 62
     7
 10
-311.5613
 20
51.10016
 40
6.0
 50
73.80876
 51
106.1912
  0
ARC
  8
0
  6
CONTINUOUS
 62
     7
 10
-310.1113
 20
56.0939
 40
0.79999
 50
0.0
 51
73.8082
  0
ARC
  8
0
  6
CONTINUOUS
 62
     7
 10
-302.5613
 20
51.10016
 40
6.0
 50
73.80876
 51
106.1912
  0
ARC
  8
0
  6
CONTINUOUS
 62
     7
 10
-304.0113
 20
56.0939
 40
0.8
 50
106.1918
 51
118.0148
  0
ARC
  8
0
  6
CONTINUOUS
 62
     7
 10
-301.1113
 20
56.0939
 40
0.80001
 50
61.98524
 51
73.8082
  0
ARC
  8
0
  6
CONTINUOUS
 62
     7
 10
-303.6151
 20
-86.55313
 40
0.35345
 50
180.0
 51
270.0
  0
ARC
  8
0
  6
CONTINUOUS
 62
     7
 10
-306.5311
 20
-84.65326
 40
0.35346
 50
89.99999
 51
180.0
  0
ARC
  8
0
  6
CONTINUOUS
 62
     7
 10
-306.3544
 20
-86.3764
 40
0.53018
 50
180.0
 51
270.0
  0
ARC
  8
0
  6
CONTINUOUS
 62
     7
 10
-309.5797
 20
-86.55313
 40
0.35345
 50
180.0
 51
270.0
  0
ARC
  8
0
  6
CONTINUOUS
 62
     7
 10
-309.5797
 20
-86.27075
 40
0.35346
 50
115.0008
 51
180.0
  0
ARC
  8
0
  6
CONTINUOUS
 62
     7
 10
-312.319
 20
-86.90659
 40
0.53019
 50
111.6869
 51
180.0
  0
ARC
  8
0
  6
CONTINUOUS
 62
     7
 10
-312.1423
 20
-87.02649
 40
0.17673
 50
111.6866
 51
180.0
  0
ARC
  8
0
  6
CONTINUOUS
 62
     7
 10
-301.1113
 20
-93.09354
 40
0.80001
 50
286.1917
 51
0.0
  0
ARC
  8
0
  6
CONTINUOUS
 62
     7
 10
-302.5613
 20
-88.09979
 40
6.0
 50
253.8088
 51
286.1912
  0
ARC
  8
0
  6
CONTINUOUS
 62
     7
 10
-304.0113
 20
-93.09357
 40
0.79999
 50
180.0
 51
253.8083
  0
ARC
  8
0
  6
CONTINUOUS
 62
     7
 10
-311.5613
 20
-88.09979
 40
6.0
 50
253.8088
 51
286.1912
  0
ARC
  8
0
  6
CONTINUOUS
 62
     7
 10
-310.1113
 20
-93.09354
 40
0.80001
 50
286.1917
 51
298.0128
  0
ARC
  8
0
  6
CONTINUOUS
 62
     7
 10
-313.0113
 20
-93.09357
 40
0.80001
 50
241.9852
 51
253.8083
  0
CIRCLE
  8
0
  6
CONTINUOUS
 62
     7
 10
-49.3123
 20
-28.3999
 40
1.6
  0
CIRCLE
  8
0
  6
CONTINUOUS
 62
     7
 10
-36.3123
 20
1.60011
 40
1.6
  0
ARC
  8
0
  6
CONTINUOUS
 62
     7
 10
-36.3123
 20
1.60011
 40
3.0
 50
33.55732
 51
326.4427
  0
ARC
  8
0
  6
CONTINUOUS
 62
     7
 10
-49.3123
 20
-28.3999
 40
3.0
 50
0.0
 51
146.4427
  0
ARC
  8
0
  6
CONTINUOUS
 62
     7
 10
-49.3123
 20
-28.3999
 40
3.0
 50
213.5573
 51
0.0
  0
CIRCLE
  8
0
  6
CONTINUOUS
 62
     7
 10
-42.8123
 20
25.10011
 40
1.65
  0
CIRCLE
  8
0
  6
CONTINUOUS
 62
     7
 10
-43.3123
 20
-21.3999
 40
4.86435
  0
CIRCLE
  8
0
  6
CONTINUOUS
 62
     7
 10
-43.3123
 20
-21.3999
 40
4.28325
  0
CIRCLE
  8
0
  6
CONTINUOUS
 62
     7
 10
-42.3123
 20
-5.3999
 40
4.86435
  0
CIRCLE
  8
0
  6
CONTINUOUS
 62
     7
 10
-42.3123
 20
-5.3999
 40
4.28325
  0
CIRCLE
  8
0
  6
CONTINUOUS
 62
     7
 10
-42.8123
 20
-62.09988
 40
1.65
  0
ARC
  8
0
  6
CONTINUOUS
 62
     7
 10
-47.3123
 20
51.1001
 40
6.0
 50
99.5941
 51
106.1913
  0
ARC
  8
0
  6
CONTINUOUS
 62
     7
 10
-48.76231
 20
56.09384
 40
0.8
 50
106.1913
 51
180.0
  0
ARC
  8
0
  6
CONTINUOUS
 62
     7
 10
-38.3123
 20
51.1001
 40
6.0
 50
73.80865
 51
80.40593
  0
ARC
  8
0
  6
CONTINUOUS
 62
     7
 10
-36.86229
 20
56.09386
 40
0.8
 50
61.98621
 51
73.80872
  0
ARC
  8
0
  6
CONTINUOUS
 62
     7
 10
-49.01228
 20
48.80011
 40
0.8
 50
89.99999
 51
180.0
  0
ARC
  8
0
  6
CONTINUOUS
 62
     7
 10
-36.61229
 20
48.80011
 40
0.8
 50
0.0
 51
89.99999
  0
ARC
  8
0
  6
CONTINUOUS
 62
     7
 10
-49.01228
 20
29.40012
 40
0.8
 50
180.0
 51
270.0
  0
ARC
  8
0
  6
CONTINUOUS
 62
     7
 10
-36.61229
 20
29.40012
 40
0.8
 50
270.0
 51
0.0
  0
ARC
  8
0
  6
CONTINUOUS
 62
     7
 10
-38.3123
 20
-88.09988
 40
6.0
 50
279.5941
 51
286.1913
  0
ARC
  8
0
  6
CONTINUOUS
 62
     7
 10
-36.86229
 20
-93.09363
 40
0.8
 50
286.1912
 51
0.0
  0
ARC
  8
0
  6
CONTINUOUS
 62
     7
 10
-47.3123
 20
-88.09988
 40
6.0
 50
253.8086
 51
260.4059
  0
ARC
  8
0
  6
CONTINUOUS
 62
     7
 10
-48.76231
 20
-93.09363
 40
0.8
 50
241.9862
 51
253.8088
  0
ARC
  8
0
  6
CONTINUOUS
 62
     7
 10
-36.61229
 20
-85.7999
 40
0.8
 50
270.0
 51
0.0
  0
ARC
  8
0
  6
CONTINUOUS
 62
     7
 10
-49.01231
 20
-85.7999
 40
0.8
 50
180.0
 51
270.0
  0
ARC
  8
0
  6
CONTINUOUS
 62
     7
 10
-36.61229
 20
-66.3999
 40
0.8
 50
0.0
 51
89.99999
  0
ARC
  8
0
  6
CONTINUOUS
 62
     7
 10
-49.01231
 20
-66.3999
 40
0.8
 50
89.99999
 51
180.0
  0
ARC
  8
0
  6
CONTINUOUS
 62
     7
 10
-194.9367
 20
-187.679
 40
0.5
 50
180.0
 51
270.0
  0
ARC
  8
0
  6
CONTINUOUS
 62
     7
 10
-168.9367
 20
-187.679
 40
0.5
 50
270.0
 51
0.0
  0
ARC
  8
0
  6
CONTINUOUS
 62
     7
 10
-168.9367
 20
-170.679
 40
0.5
 50
0.0
 51
89.99999
  0
ARC
  8
0
  6
CONTINUOUS
 62
     7
 10
-194.9367
 20
-170.679
 40
0.5
 50
89.99999
 51
180.0
  0
ARC
  8
0
  6
CONTINUOUS
 62
     7
 10
-172.9367
 20
-183.679
 40
3.0
 50
89.99999
 51
180.0
  0
ARC
  8
0
  6
CONTINUOUS
 62
     7
 10
-190.9367
 20
-174.679
 40
3.0
 50
270.0
 51
0.0
  0
ARC
  8
0
  6
CONTINUOUS
 62
     7
 10
-172.9367
 20
-183.679
 40
2.55
 50
276.7564
 51
263.2436
  0
ARC
  8
0
  6
CONTINUOUS
 62
     7
 10
-190.9367
 20
-174.679
 40
2.55
 50
96.7564
 51
83.24359
  0
CIRCLE
  8
0
  6
CONTINUOUS
 62
     7
 10
-172.9367
 20
-183.679
 40
2.25
  0
ARC
  8
0
  6
CONTINUOUS
 62
     7
 10
-172.9367
 20
-182.5759
 40
0.51999
 50
225.0
 51
315.0
  0
ARC
  8
0
  6
CONTINUOUS
 62
     7
 10
-174.0398
 20
-183.679
 40
0.51999
 50
315.0
 51
45.0
  0
ARC
  8
0
  6
CONTINUOUS
 62
     7
 10
-171.8336
 20
-183.679
 40
0.51999
 50
135.0
 51
225.0
  0
ARC
  8
0
  6
CONTINUOUS
 62
     7
 10
-172.9367
 20
-184.7821
 40
0.51999
 50
45.0
 51
135.0
  0
CIRCLE
  8
0
  6
CONTINUOUS
 62
     7
 10
-190.9367
 20
-174.679
 40
2.25
  0
ARC
  8
0
  6
CONTINUOUS
 62
     7
 10
-190.9367
 20
-173.5759
 40
0.51999
 50
225.0
 51
315.0
  0
ARC
  8
0
  6
CONTINUOUS
 62
     7
 10
-192.0398
 20
-174.679
 40
0.51999
 50
315.0
 51
45.0
  0
ARC
  8
0
  6
CONTINUOUS
 62
     7
 10
-189.8336
 20
-174.679
 40
0.51999
 50
135.0
 51
225.0
  0
ARC
  8
0
  6
CONTINUOUS
 62
     7
 10
-190.9367
 20
-175.7821
 40
0.51999
 50
45.0
 51
135.0
  0
CIRCLE
  8
0
  6
CONTINUOUS
 62
     7
 10
-165.4367
 20
-176.679
 40
0.85
  0
CIRCLE
  8
0
  6
CONTINUOUS
 62
     7
 10
-165.4367
 20
-181.679
 40
0.85
  0
ARC
  8
0
  6
CONTINUOUS
 62
     7
 10
-167.8117
 20
-179.179
 40
0.49999
 50
315.0
 51
225.0
  0
ARC
  8
0
  6
CONTINUOUS
 62
     7
 10
-193.4367
 20
-172.179
 40
0.5
 50
89.99999
 51
180.0
  0
ARC
  8
0
  6
CONTINUOUS
 62
     7
 10
-193.4367
 20
-186.179
 40
0.5
 50
180.0
 51
270.0
  0
ARC
  8
0
  6
CONTINUOUS
 62
     7
 10
-160.7367
 20
-172.979
 40
0.8
 50
0.0
 51
89.99999
  0
ARC
  8
0
  6
CONTINUOUS
 62
     7
 10
-160.7367
 20
-185.379
 40
0.8
 50
270.0
 51
0.0
  0
ARC
  8
0
  6
CONTINUOUS
 62
     7
 10
-161.9367
 20
-174.179
 40
0.5
 50
0.0
 51
89.99999
  0
ARC
  8
0
  6
CONTINUOUS
 62
     7
 10
-161.9367
 20
-184.179
 40
0.5
 50
270.0
 51
0.0
  0
ARC
  8
0
  6
CONTINUOUS
 62
     7
 10
64.312
 20
51.10023
 40
6.0
 50
73.80876
 51
106.1914
  0
ARC
  8
0
  6
CONTINUOUS
 62
     7
 10
65.76201
 20
56.09398
 40
0.8
 50
0.0
 51
73.80872
  0
ARC
  8
0
  6
CONTINUOUS
 62
     7
 10
62.86198
 20
56.09398
 40
0.8
 50
106.1913
 51
180.0
  0
ARC
  8
0
  6
CONTINUOUS
 62
     7
 10
47.76201
 20
56.09396
 40
0.8
 50
61.98621
 51
73.80872
  0
ARC
  8
0
  6
CONTINUOUS
 62
     7
 10
44.86198
 20
56.09396
 40
0.8
 50
106.1915
 51
118.0138
  0
ARC
  8
0
  6
CONTINUOUS
 62
     7
 10
46.312
 20
51.10022
 40
6.0
 50
73.80872
 51
106.1914
  0
ARC
  8
0
  6
CONTINUOUS
 62
     7
 10
76.51201
 20
48.80023
 40
0.8
 50
0.0
 51
89.99999
  0
ARC
  8
0
  6
CONTINUOUS
 62
     7
 10
76.51201
 20
29.40024
 40
0.8
 50
270.0
 51
0.0
  0
ARC
  8
0
  6
CONTINUOUS
 62
     7
 10
73.812
 20
57.10023
 40
0.5
 50
180.0
 51
0.0
  0
ARC
  8
0
  6
CONTINUOUS
 62
     7
 10
73.812
 20
55.10023
 40
0.5
 50
0.0
 51
180.0
  0
ARC
  8
0
  6
CONTINUOUS
 62
     7
 10
46.312
 20
-88.09976
 40
6.0
 50
253.8087
 51
286.1914
  0
ARC
  8
0
  6
CONTINUOUS
 62
     7
 10
44.86198
 20
-93.09351
 40
0.8
 50
180.0
 51
253.8088
  0
ARC
  8
0
  6
CONTINUOUS
 62
     7
 10
47.76201
 20
-93.09351
 40
0.8
 50
286.1913
 51
0.0
  0
ARC
  8
0
  6
CONTINUOUS
 62
     7
 10
62.86198
 20
-93.09351
 40
0.8
 50
241.9862
 51
253.8088
  0
ARC
  8
0
  6
CONTINUOUS
 62
     7
 10
65.76201
 20
-93.09348
 40
0.8
 50
286.1913
 51
298.0138
  0
ARC
  8
0
  6
CONTINUOUS
 62
     7
 10
64.312
 20
-88.09976
 40
6.0
 50
253.8087
 51
286.1914
  0
ARC
  8
0
  6
CONTINUOUS
 62
     7
 10
76.51201
 20
-85.79977
 40
0.8
 50
270.0
 51
0.0
  0
ARC
  8
0
  6
CONTINUOUS
 62
     7
 10
76.51201
 20
-66.39975
 40
0.8
 50
0.0
 51
89.99999
  0
ARC
  8
0
  6
CONTINUOUS
 62
     7
 10
73.812
 20
-94.09976
 40
0.5
 50
0.0
 51
180.0
  0
ARC
  8
0
  6
CONTINUOUS
 62
     7
 10
73.812
 20
-92.09976
 40
0.5
 50
180.0
 51
0.0
  0
CIRCLE
  8
0
  6
CONTINUOUS
 62
     7
 10
162.4368
 20
-28.39998
 40
1.6
  0
CIRCLE
  8
0
  6
CONTINUOUS
 62
     7
 10
175.4368
 20
1.60002
 40
1.6
  0
ARC
  8
0
  6
CONTINUOUS
 62
     7
 10
175.4368
 20
1.60002
 40
3.0
 50
33.55732
 51
326.4427
  0
ARC
  8
0
  6
CONTINUOUS
 62
     7
 10
162.4368
 20
-28.39998
 40
3.0
 50
0.0
 51
146.4427
  0
ARC
  8
0
  6
CONTINUOUS
 62
     7
 10
162.4368
 20
-28.39998
 40
3.0
 50
213.5573
 51
0.0
  0
CIRCLE
  8
0
  6
CONTINUOUS
 62
     7
 10
168.9368
 20
25.10002
 40
1.65
  0
CIRCLE
  8
0
  6
CONTINUOUS
 62
     7
 10
168.9368
 20
-62.09998
 40
1.65
  0
ARC
  8
0
  6
CONTINUOUS
 62
     7
 10
164.4368
 20
51.10001
 40
6.0
 50
99.59407
 51
106.1914
  0
ARC
  8
0
  6
CONTINUOUS
 62
     7
 10
162.9868
 20
56.09375
 40
0.8
 50
106.1918
 51
180.0
  0
ARC
  8
0
  6
CONTINUOUS
 62
     7
 10
173.4368
 20
51.10001
 40
6.0
 50
73.80862
 51
80.40593
  0
ARC
  8
0
  6
CONTINUOUS
 62
     7
 10
174.8868
 20
56.09377
 40
0.8
 50
61.98621
 51
73.8082
  0
ARC
  8
0
  6
CONTINUOUS
 62
     7
 10
162.7368
 20
48.80002
 40
0.8
 50
89.99999
 51
180.0
  0
ARC
  8
0
  6
CONTINUOUS
 62
     7
 10
175.1368
 20
48.80002
 40
0.8
 50
0.0
 51
89.99999
  0
ARC
  8
0
  6
CONTINUOUS
 62
     7
 10
162.7368
 20
29.40002
 40
0.8
 50
180.0
 51
270.0
  0
ARC
  8
0
  6
CONTINUOUS
 62
     7
 10
175.1368
 20
29.40002
 40
0.8
 50
270.0
 51
0.0
  0
ARC
  8
0
  6
CONTINUOUS
 62
     7
 10
173.4368
 20
-88.09998
 40
6.0
 50
279.5941
 51
286.1914
  0
ARC
  8
0
  6
CONTINUOUS
 62
     7
 10
174.8868
 20
-93.09372
 40
0.80001
 50
286.1917
 51
0.0
  0
ARC
  8
0
  6
CONTINUOUS
 62
     7
 10
164.4368
 20
-88.09998
 40
6.0
 50
253.8086
 51
260.4059
  0
ARC
  8
0
  6
CONTINUOUS
 62
     7
 10
162.9868
 20
-93.09372
 40
0.8
 50
241.9862
 51
253.8083
  0
ARC
  8
0
  6
CONTINUOUS
 62
     7
 10
175.1368
 20
-85.79999
 40
0.8
 50
270.0
 51
0.0
  0
ARC
  8
0
  6
CONTINUOUS
 62
     7
 10
162.7368
 20
-85.79999
 40
0.8
 50
180.0
 51
270.0
  0
ARC
  8
0
  6
CONTINUOUS
 62
     7
 10
175.1368
 20
-66.39999
 40
0.8
 50
0.0
 51
89.99999
  0
ARC
  8
0
  6
CONTINUOUS
 62
     7
 10
162.7368
 20
-66.39999
 40
0.8
 50
89.99999
 51
180.0
  0
ARC
  8
0
  6
CONTINUOUS
 62
     7
 10
294.5609
 20
51.10033
 40
6.0
 50
73.80876
 51
106.1912
  0
ARC
  8
0
  6
CONTINUOUS
 62
     7
 10
296.0109
 20
56.09407
 40
0.79999
 50
0.0
 51
73.8082
  0
ARC
  8
0
  6
CONTINUOUS
 62
     7
 10
293.1109
 20
56.09407
 40
0.8
 50
106.1918
 51
180.0
  0
ARC
  8
0
  6
CONTINUOUS
 62
     7
 10
278.0109
 20
56.09407
 40
0.80001
 50
61.98524
 51
73.8082
  0
ARC
  8
0
  6
CONTINUOUS
 62
     7
 10
275.1109
 20
56.09406
 40
0.8
 50
106.1918
 51
118.0148
  0
ARC
  8
0
  6
CONTINUOUS
 62
     7
 10
276.5609
 20
51.10031
 40
6.0
 50
73.80876
 51
106.1912
  0
ARC
  8
0
  6
CONTINUOUS
 62
     7
 10
264.361
 20
48.80032
 40
0.8
 50
89.99999
 51
180.0
  0
ARC
  8
0
  6
CONTINUOUS
 62
     7
 10
264.3609
 20
29.40033
 40
0.79999
 50
179.9998
 51
270.0
  0
ARC
  8
0
  6
CONTINUOUS
 62
     7
 10
267.0609
 20
57.10034
 40
0.5
 50
180.0
 51
0.0
  0
ARC
  8
0
  6
CONTINUOUS
 62
     7
 10
267.0609
 20
55.10034
 40
0.5
 50
0.0
 51
180.0
  0
ARC
  8
0
  6
CONTINUOUS
 62
     7
 10
276.5609
 20
-88.09967
 40
6.0
 50
253.8088
 51
286.1915
  0
ARC
  8
0
  6
CONTINUOUS
 62
     7
 10
275.1109
 20
-93.09341
 40
0.79999
 50
180.0
 51
253.8083
  0
ARC
  8
0
  6
CONTINUOUS
 62
     7
 10
278.0109
 20
-93.09341
 40
0.8
 50
286.1919
 51
0.0
  0
ARC
  8
0
  6
CONTINUOUS
 62
     7
 10
293.1109
 20
-93.09341
 40
0.79999
 50
241.9872
 51
253.8083
  0
ARC
  8
0
  6
CONTINUOUS
 62
     7
 10
296.0109
 20
-93.09338
 40
0.8
 50
286.1919
 51
298.0148
  0
ARC
  8
0
  6
CONTINUOUS
 62
     7
 10
294.5609
 20
-88.09964
 40
6.0
 50
253.8088
 51
286.1915
  0
ARC
  8
0
  6
CONTINUOUS
 62
     7
 10
264.361
 20
-85.79965
 40
0.79999
 50
180.0
 51
270.0
  0
ARC
  8
0
  6
CONTINUOUS
 62
     7
 10
264.3609
 20
-66.39966
 40
0.8
 50
89.99999
 51
180.0
  0
ARC
  8
0
  6
CONTINUOUS
 62
     7
 10
267.0609
 20
-94.09967
 40
0.5
 50
0.0
 51
180.0
  0
ARC
  8
0
  6
CONTINUOUS
 62
     7
 10
267.0609
 20
-92.09967
 40
0.5
 50
180.0
 51
0.0
  0
ARC
  8
0
  6
CONTINUOUS
 62
     7
 10
177.437
 20
-185.1791
 40
0.5
 50
270.0
 51
0.0
  0
ARC
  8
0
  6
CONTINUOUS
 62
     7
 10
177.437
 20
-159.1791
 40
0.5
 50
0.0
 51
89.99999
  0
ARC
  8
0
  6
CONTINUOUS
 62
     7
 10
160.437
 20
-159.1791
 40
0.5
 50
89.99999
 51
180.0
  0
ARC
  8
0
  6
CONTINUOUS
 62
     7
 10
160.437
 20
-185.1791
 40
0.5
 50
180.0
 51
270.0
  0
ARC
  8
0
  6
CONTINUOUS
 62
     7
 10
173.437
 20
-163.1791
 40
3.0
 50
180.0
 51
270.0
  0
ARC
  8
0
  6
CONTINUOUS
 62
     7
 10
164.437
 20
-181.1791
 40
3.0
 50
0.0
 51
89.99999
  0
ARC
  8
0
  6
CONTINUOUS
 62
     7
 10
173.437
 20
-163.1791
 40
2.55
 50
6.75641
 51
353.2436
  0
ARC
  8
0
  6
CONTINUOUS
 62
     7
 10
164.437
 20
-181.1791
 40
2.55
 50
186.7564
 51
173.2436
  0
CIRCLE
  8
0
  6
CONTINUOUS
 62
     7
 10
173.437
 20
-163.1791
 40
2.25
  0
ARC
  8
0
  6
CONTINUOUS
 62
     7
 10
172.3339
 20
-163.1791
 40
0.51999
 50
315.0
 51
45.0
  0
ARC
  8
0
  6
CONTINUOUS
 62
     7
 10
173.437
 20
-164.2822
 40
0.51999
 50
45.0
 51
135.0
  0
ARC
  8
0
  6
CONTINUOUS
 62
     7
 10
173.437
 20
-162.076
 40
0.51999
 50
225.0
 51
315.0
  0
ARC
  8
0
  6
CONTINUOUS
 62
     7
 10
174.5401
 20
-163.1791
 40
0.51999
 50
135.0
 51
225.0
  0
CIRCLE
  8
0
  6
CONTINUOUS
 62
     7
 10
164.437
 20
-181.1791
 40
2.25
  0
ARC
  8
0
  6
CONTINUOUS
 62
     7
 10
163.3339
 20
-181.1791
 40
0.51999
 50
315.0
 51
45.0
  0
ARC
  8
0
  6
CONTINUOUS
 62
     7
 10
164.437
 20
-182.2822
 40
0.51999
 50
45.0
 51
135.0
  0
ARC
  8
0
  6
CONTINUOUS
 62
     7
 10
164.437
 20
-180.076
 40
0.51999
 50
225.0
 51
315.0
  0
ARC
  8
0
  6
CONTINUOUS
 62
     7
 10
165.5401
 20
-181.1791
 40
0.51999
 50
135.0
 51
225.0
  0
CIRCLE
  8
0
  6
CONTINUOUS
 62
     7
 10
166.437
 20
-155.6791
 40
0.85
  0
CIRCLE
  8
0
  6
CONTINUOUS
 62
     7
 10
171.437
 20
-155.6791
 40
0.85
  0
ARC
  8
0
  6
CONTINUOUS
 62
     7
 10
168.937
 20
-158.0541
 40
0.49999
 50
45.0
 51
315.0
  0
ARC
  8
0
  6
CONTINUOUS
 62
     7
 10
161.937
 20
-183.6791
 40
0.5
 50
180.0
 51
270.0
  0
ARC
  8
0
  6
CONTINUOUS
 62
     7
 10
175.937
 20
-183.6791
 40
0.5
 50
270.0
 51
0.0
  0
ARC
  8
0
  6
CONTINUOUS
 62
     7
 10
162.737
 20
-150.9791
 40
0.8
 50
89.99999
 51
180.0
  0
ARC
  8
0
  6
CONTINUOUS
 62
     7
 10
175.137
 20
-150.9791
 40
0.8
 50
0.0
 51
89.99999
  0
ARC
  8
0
  6
CONTINUOUS
 62
     7
 10
163.937
 20
-152.1791
 40
0.5
 50
89.99999
 51
180.0
  0
ARC
  8
0
  6
CONTINUOUS
 62
     7
 10
173.937
 20
-152.1791
 40
0.5
 50
0.0
 51
89.99999
  0
ARC
  8
0
  6
CONTINUOUS
 62
     7
 10
160.4371
 20
149.7773
 40
0.5
 50
89.99999
 51
180.0
  0
ARC
  8
0
  6
CONTINUOUS
 62
     7
 10
160.4371
 20
123.7773
 40
0.5
 50
180.0
 51
270.0
  0
ARC
  8
0
  6
CONTINUOUS
 62
     7
 10
177.4371
 20
123.7773
 40
0.5
 50
270.0
 51
0.0
  0
ARC
  8
0
  6
CONTINUOUS
 62
     7
 10
177.4371
 20
149.7773
 40
0.5
 50
0.0
 51
89.99999
  0
ARC
  8
0
  6
CONTINUOUS
 62
     7
 10
164.4371
 20
127.7773
 40
3.0
 50
0.0
 51
89.99999
  0
ARC
  8
0
  6
CONTINUOUS
 62
     7
 10
173.4371
 20
145.7773
 40
3.0
 50
180.0
 51
270.0
  0
ARC
  8
0
  6
CONTINUOUS
 62
     7
 10
164.4371
 20
127.7773
 40
2.55
 50
186.7564
 51
173.2436
  0
ARC
  8
0
  6
CONTINUOUS
 62
     7
 10
173.4371
 20
145.7773
 40
2.55
 50
6.75641
 51
353.2436
  0
CIRCLE
  8
0
  6
CONTINUOUS
 62
     7
 10
164.4371
 20
127.7773
 40
2.25
  0
ARC
  8
0
  6
CONTINUOUS
 62
     7
 10
165.5402
 20
127.7773
 40
0.51999
 50
135.0
 51
225.0006
  0
ARC
  8
0
  6
CONTINUOUS
 62
     7
 10
164.4371
 20
128.8804
 40
0.51999
 50
225.0
 51
315.0
  0
ARC
  8
0
  6
CONTINUOUS
 62
     7
 10
164.4371
 20
126.6742
 40
0.52
 50
45.0006
 51
134.9994
  0
ARC
  8
0
  6
CONTINUOUS
 62
     7
 10
163.334
 20
127.7773
 40
0.52
 50
314.9994
 51
45.0
  0
CIRCLE
  8
0
  6
CONTINUOUS
 62
     7
 10
173.4371
 20
145.7773
 40
2.25
  0
ARC
  8
0
  6
CONTINUOUS
 62
     7
 10
174.5402
 20
145.7773
 40
0.51999
 50
135.0
 51
225.0
  0
ARC
  8
0
  6
CONTINUOUS
 62
     7
 10
173.4371
 20
146.8804
 40
0.51999
 50
225.0
 51
315.0
  0
ARC
  8
0
  6
CONTINUOUS
 62
     7
 10
173.4371
 20
144.6742
 40
0.51999
 50
45.0
 51
135.0
  0
ARC
  8
0
  6
CONTINUOUS
 62
     7
 10
172.334
 20
145.7773
 40
0.51999
 50
315.0
 51
45.0
  0
CIRCLE
  8
0
  6
CONTINUOUS
 62
     7
 10
171.4371
 20
120.2773
 40
0.85
  0
CIRCLE
  8
0
  6
CONTINUOUS
 62
     7
 10
166.4371
 20
120.2773
 40
0.85
  0
ARC
  8
0
  6
CONTINUOUS
 62
     7
 10
168.9371
 20
122.6523
 40
0.5
 50
225.0006
 51
134.9994
  0
ARC
  8
0
  6
CONTINUOUS
 62
     7
 10
175.9371
 20
148.2773
 40
0.5
 50
0.0
 51
89.99999
  0
ARC
  8
0
  6
CONTINUOUS
 62
     7
 10
161.9371
 20
148.2773
 40
0.5
 50
89.99999
 51
180.0
  0
ARC
  8
0
  6
CONTINUOUS
 62
     7
 10
175.1371
 20
115.5773
 40
0.8
 50
270.0
 51
0.0
  0
ARC
  8
0
  6
CONTINUOUS
 62
     7
 10
162.7371
 20
115.5773
 40
0.8
 50
180.0
 51
270.0
  0
ARC
  8
0
  6
CONTINUOUS
 62
     7
 10
173.9371
 20
116.7773
 40
0.5
 50
270.0
 51
0.0
  0
ARC
  8
0
  6
CONTINUOUS
 62
     7
 10
163.9371
 20
116.7773
 40
0.5
 50
180.0
 51
270.0
  0
TEXT
  8
0
  6
CONTINUOUS
 62
     7
 10
-350.9787
 20
200.5946
 40
8.5
  1
MODEL : 183-4E2-PSL
 41
0.8
  7
STANDARD
  0
TEXT
  8
0
  6
CONTINUOUS
 62
     7
 10
229.0661
 20
236.2625
 40
8.5
  1
DATE : NOV ,1989
 41
0.8
  7
STANDARD
  0
TEXT
  8
0
  6
CONTINUOUS
 62
     7
 10
-366.8907
 20
235.5575
 40
10.0
  1
180 CONNECTOR PSL
 41
0.69402
  7
STANDARD
  0
TEXT
  8
0
  6
CONTINUOUS
 62
     7
 10
19.88928
 20
200.5946
 40
8.5
  1
MODEL : A183-4E2-PSL
 41
0.8
  7
STANDARD
  0
TEXT
  8
0
  6
CONTINUOUS
 62
     7
 10
-304.8927
 20
-33.33984
 40
2.0
  1
R2
 41
0.8
  7
STANDARD
  0
TEXT
  8
0
  6
CONTINUOUS
 62
     7
 10
-302.8927
 20
-20.33984
 40
2.0
  1
P
 41
0.8
  7
STANDARD
  0
TEXT
  8
0
  6
CONTINUOUS
 62
     7
 10
-312.8927
 20
4.66017
 40
2.0
  1
R1
 41
0.8
  7
STANDARD
  0
TEXT
  8
0
  6
CONTINUOUS
 62
     7
 10
-39.14373
 20
-28.3399
 40
2.0
  1
B
 41
0.8
  7
STANDARD
  0
TEXT
  8
0
  6
CONTINUOUS
 62
     7
 10
-49.08944
 20
-0.3399
 40
2.0
  1
A
 41
0.8
  7
STANDARD
  0
ENDSEC
  0
EOF
