  0
SECTION
  2
HEADER
  9
$ACADVER
  1
AC1002
  9
$INSBASE
 10
0.0
 20
0.0
  9
$EXTMIN
 10
-262.2472
 20
-180.0
  9
$EXTMAX
 10
262.2472
 20
180.0
  9
$LIMMIN
 10
0.0
 20
0.0
  9
$LIMMAX
 10
12.0
 20
9.0
  9
$VIEWCTR
 10
20.22981726
 20
0.0
  9
$VIEWSIZE
 40
360.0
  9
$SNAPMODE
 70
     0
  9
$SNAPUNIT
 10
1.0
 20
1.0
  9
$SNAPBASE
 10
0.0
 20
0.0
  9
$SNAPANG
 50
0.0
  9
$SNAPSTYLE
 70
     0
  9
$SNAPISOPAIR
 70
     0
  9
$GRIDMODE
 70
     0
  9
$GRIDUNIT
 10
0.0
 20
0.0
  9
$ORTHOMODE
 70
     0
  9
$REGENMODE
 70
     1
  9
$FILLMODE
 70
     1
  9
$QTEXTMODE
 70
     0
  9
$DRAGMODE
 70
     2
  9
$LTSCALE
 40
1.0
  9
$OSMODE
 70
     0
  9
$ATTMODE
 70
     1
  9
$TEXTSIZE
 40
0.2
  9
$TRACEWID
 40
0.05
  9
$TEXTSTYLE
  7
AAA
  9
$CLAYER
  8
0
  9
$CELTYPE
  6
BYLAYER
  9
$CECOLOR
 62
   256
  9
$DIMSCALE
 40
1.0
  9
$DIMASZ
 40
0.18
  9
$DIMEXO
 40
0.0625
  9
$DIMDLI
 40
0.38
  9
$DIMRND
 40
0.0
  9
$DIMDLE
 40
0.0
  9
$DIMEXE
 40
0.18
  9
$DIMTP
 40
0.0
  9
$DIMTM
 40
0.0
  9
$DIMTXT
 40
0.18
  9
$DIMCEN
 40
0.09
  9
$DIMTSZ
 40
0.0
  9
$DIMTOL
 70
     0
  9
$DIMLIM
 70
     0
  9
$DIMTIH
 70
     1
  9
$DIMTOH
 70
     1
  9
$DIMSE1
 70
     0
  9
$DIMSE2
 70
     0
  9
$DIMTAD
 70
     0
  9
$DIMZIN
 70
     0
  9
$DIMBLK
  1

  9
$LUNITS
 70
     2
  9
$LUPREC
 70
     4
  9
$AXISMODE
 70
     0
  9
$AXISUNIT
 10
0.0
 20
0.0
  9
$SKETCHINC
 40
0.1
  9
$FILLETRAD
 40
0.0
  9
$AUNITS
 70
     0
  9
$AUPREC
 70
     0
  9
$MENU
  1
ACAD
  9
$ELEVATION
 40
0.0
  9
$THICKNESS
 40
0.0
  9
$VIEWDIR
 10
0.0
 20
0.0
 30
1.0
  9
$LIMCHECK
 70
     0
  9
$BLIPMODE
 70
     1
  9
$CHAMFERA
 40
0.0
  9
$CHAMFERB
 40
0.0
  9
$FASTZOOM
 70
     1
  9
$SKPOLY
 70
     0
  9
$TDCREATE
 40
2447882.6348727347
  9
$TDUPDATE
 40
2447882.6348727347
  9
$TDINDWG
 40
0.0043981481
  9
$TDUSRTIMER
 40
0.0043981481
  9
$USRTIMER
 70
     1
  9
$ANGBASE
 50
0.0
  9
$ANGDIR
 70
     0
  9
$PDMODE
 70
     0
  9
$PDSIZE
 40
0.0
  9
$PLINEWID
 40
0.0
  9
$COORDS
 70
     0
  9
$USERI1
 70
     0
  9
$USERI2
 70
     0
  9
$USERI3
 70
     0
  9
$USERI4
 70
     0
  9
$USERI5
 70
     0
  9
$USERR1
 40
0.0
  9
$USERR2
 40
0.0
  9
$USERR3
 40
0.0
  9
$USERR4
 40
0.0
  9
$USERR5
 40
0.0
  0
ENDSEC
  0
SECTION
  2
TABLES
  0
TABLE
  2
LTYPE
 70
     3
  0
LTYPE
  2
CONTINUOUS
 70
    64
  3
SOLID
 72
    65
 73
     0
 40
0.0
  0
LTYPE
  2
CENTER
 70
    64
  3
CENTER
 72
    65
 73
     4
 40
2.0
 49
1.25
 49
-0.25
 49
0.25
 49
-0.25
  0
LTYPE
  2
PHANTOM
 70
    64
  3
PHANTOM
 72
    65
 73
     6
 40
2.5
 49
1.25
 49
-0.25
 49
0.25
 49
-0.25
 49
0.25
 49
-0.25
  0
ENDTAB
  0
TABLE
  2
LAYER
 70
     1
  0
LAYER
  2
0
 70
    64
 62
     7
  6
CONTINUOUS
  0
ENDTAB
  0
TABLE
  2
STYLE
 70
     2
  0
STYLE
  2
AAA
 70
     0
 40
0.0
 41
1.0
 50
0.0
 71
     0
 42
0.2
  3
TXT
  4

  0
STYLE
  2
STANDARD
 70
    64
 40
0.0
 41
1.0
 50
0.0
 71
     0
 42
0.2
  3
TXT
  4
BIGFONT
  0
ENDTAB
  0
TABLE
  2
VIEW
 70
     0
  0
ENDTAB
  0
ENDSEC
  0
SECTION
  2
BLOCKS
  0
ENDSEC
  0
SECTION
  2
ENTITIES
  0
POINT
  8
0
  6
CONTINUOUS
 62
     7
 10
10.0
 20
115.0
  0
POINT
  8
0
  6
CONTINUOUS
 62
     7
 10
57.0
 20
115.0
  0
POINT
  8
0
  6
CONTINUOUS
 62
     7
 10
56.99998
 20
-24.99999
  0
POINT
  8
0
  6
CONTINUOUS
 62
     7
 10
9.99998
 20
-24.99999
  0
POINT
  8
0
  6
CONTINUOUS
 62
     7
 10
9.99998
 20
-5.99999
  0
POINT
  8
0
  6
CONTINUOUS
 62
     7
 10
165.4999
 20
-24.99998
  0
POINT
  8
0
  6
CONTINUOUS
 62
     7
 10
149.9999
 20
-24.99998
  0
POINT
  8
0
  6
CONTINUOUS
 62
     7
 10
149.9999
 20
-5.99998
  0
POINT
  8
0
  6
CONTINUOUS
 62
     7
 10
-150.0
 20
-24.99998
  0
POINT
  8
0
  6
CONTINUOUS
 62
     7
 10
-150.0
 20
-5.99998
  0
LINE
  8
0
  6
CONTINUOUS
 62
     7
 10
-262.2472
 20
-180.0
 11
-262.2472
 21
180.0
  0
LINE
  8
0
  6
CONTINUOUS
 62
     7
 10
262.2472
 20
180.0
 11
262.2472
 21
-180.0
  0
LINE
  8
0
  6
CONTINUOUS
 62
     7
 10
-262.2472
 20
-180.0
 11
262.2472
 21
-180.0
  0
LINE
  8
0
  6
CONTINUOUS
 62
     7
 10
-262.2472
 20
180.0
 11
262.2472
 21
180.0
  0
LINE
  8
0
  6
CONTINUOUS
 62
     7
 10
-262.2472
 20
159.7753
 11
-154.382
 21
159.7753
  0
LINE
  8
0
  6
CONTINUOUS
 62
     7
 10
-154.382
 20
159.7753
 11
-154.382
 21
180.0
  0
LINE
  8
0
  6
CONTINUOUS
 62
     7
 10
154.382
 20
-159.7753
 11
262.2472
 21
-159.7753
  0
LINE
  8
0
  6
CONTINUOUS
 62
     7
 10
182.7034
 20
-164.6383
 11
193.0652
 21
-164.6383
  0
LINE
  8
0
  6
CONTINUOUS
 62
     7
 10
182.7034
 20
-173.8271
 11
191.5012
 21
-173.8271
  0
LINE
  8
0
  6
CONTINUOUS
 62
     7
 10
182.7034
 20
-176.1732
 11
194.6293
 21
-176.1732
  0
LINE
  8
0
  6
CONTINUOUS
 62
     7
 10
182.7034
 20
-166.9844
 11
191.5012
 21
-166.9844
  0
LINE
  8
0
  6
CONTINUOUS
 62
     7
 10
182.7034
 20
-164.6383
 11
182.7034
 21
-166.9844
  0
LINE
  8
0
  6
CONTINUOUS
 62
     7
 10
194.6293
 20
-166.2024
 11
194.6293
 21
-176.1732
  0
LINE
  8
0
  6
CONTINUOUS
 62
     7
 10
191.5012
 20
-166.9844
 11
191.5012
 21
-173.8271
  0
LINE
  8
0
  6
CONTINUOUS
 62
     7
 10
196.3888
 20
-164.6383
 11
196.3888
 21
-166.9844
  0
LINE
  8
0
  6
CONTINUOUS
 62
     7
 10
207.5326
 20
-166.9844
 11
207.5326
 21
-174.6092
  0
LINE
  8
0
  6
CONTINUOUS
 62
     7
 10
204.4045
 20
-166.9844
 11
204.4045
 21
-173.8271
  0
LINE
  8
0
  6
CONTINUOUS
 62
     7
 10
182.7034
 20
-173.8271
 11
182.7034
 21
-176.1732
  0
LINE
  8
0
  6
CONTINUOUS
 62
     7
 10
196.3888
 20
-164.6383
 11
199.4796
 21
-164.6383
  0
LINE
  8
0
  6
CONTINUOUS
 62
     7
 10
196.3888
 20
-176.1732
 11
198.8176
 21
-176.1732
  0
LINE
  8
0
  6
CONTINUOUS
 62
     7
 10
196.3887
 20
-176.1731
 11
198.8509
 21
-166.9843
  0
LINE
  8
0
  6
CONTINUOUS
 62
     7
 10
196.3888
 20
-166.9844
 11
198.8509
 21
-166.9844
  0
LINE
  8
0
  6
CONTINUOUS
 62
     7
 10
198.8178
 20
-176.1733
 11
201.2799
 21
-166.9845
  0
LINE
  8
0
  6
CONTINUOUS
 62
     7
 10
202.0584
 20
-173.8271
 11
204.4045
 21
-173.8271
  0
LINE
  8
0
  6
CONTINUOUS
 62
     7
 10
202.0583
 20
-173.8271
 11
202.6869
 21
-176.1731
  0
LINE
  8
0
  6
CONTINUOUS
 62
     7
 10
202.6871
 20
-176.1732
 11
205.9686
 21
-176.1732
  0
LINE
  8
0
  6
CONTINUOUS
 62
     7
 10
201.2798
 20
-166.9844
 11
204.4045
 21
-166.9844
  0
LINE
  8
0
  6
CONTINUOUS
 62
     7
 10
201.9084
 20
-164.6383
 11
205.1865
 21
-164.6383
  0
LINE
  8
0
  6
CONTINUOUS
 62
     7
 10
199.4796
 20
-164.6384
 11
199.9458
 21
-162.8984
  0
LINE
  8
0
  6
CONTINUOUS
 62
     7
 10
201.9082
 20
-164.6382
 11
202.3744
 21
-162.8982
  0
LINE
  8
0
  6
CONTINUOUS
 62
     7
 10
209.4877
 20
-164.6383
 11
213.2023
 21
-164.6383
  0
LINE
  8
0
  6
CONTINUOUS
 62
     7
 10
209.4877
 20
-166.9844
 11
218.6106
 21
-166.9844
  0
LINE
  8
0
  6
CONTINUOUS
 62
     7
 10
213.2023
 20
-176.1732
 11
216.3303
 21
-176.1732
  0
LINE
  8
0
  6
CONTINUOUS
 62
     7
 10
209.4877
 20
-164.6383
 11
209.4877
 21
-166.9844
  0
LINE
  8
0
  6
CONTINUOUS
 62
     7
 10
221.0225
 20
-171.2385
 11
221.0225
 21
-173.8271
  0
LINE
  8
0
  6
CONTINUOUS
 62
     7
 10
209.4875
 20
-173.827
 11
213.2022
 21
-172.0948
  0
LINE
  8
0
  6
CONTINUOUS
 62
     7
 10
209.4879
 20
-171.2387
 11
218.6108
 21
-166.9846
  0
LINE
  8
0
  6
CONTINUOUS
 62
     7
 10
209.4877
 20
-171.2385
 11
209.4877
 21
-173.8271
  0
LINE
  8
0
  6
CONTINUOUS
 62
     7
 10
216.3302
 20
-171.6391
 11
221.0225
 21
-173.827
  0
LINE
  8
0
  6
CONTINUOUS
 62
     7
 10
218.0311
 20
-169.8436
 11
221.0228
 21
-171.2387
  0
LINE
  8
0
  6
CONTINUOUS
 62
     7
 10
221.0225
 20
-166.2024
 11
221.0225
 21
-167.4519
  0
LINE
  8
0
  6
CONTINUOUS
 62
     7
 10
213.2023
 20
-162.8984
 11
213.2023
 21
-164.6383
  0
LINE
  8
0
  6
CONTINUOUS
 62
     7
 10
216.3303
 20
-162.8984
 11
216.3303
 21
-164.6383
  0
LINE
  8
0
  6
CONTINUOUS
 62
     7
 10
216.3303
 20
-164.6383
 11
219.4585
 21
-164.6383
  0
LINE
  8
0
  6
CONTINUOUS
 62
     7
 10
213.2023
 20
-172.095
 11
213.2023
 21
-176.1732
  0
LINE
  8
0
  6
CONTINUOUS
 62
     7
 10
216.3303
 20
-171.6392
 11
216.3303
 21
-176.1732
  0
LINE
  8
0
  6
CONTINUOUS
 62
     7
 10
218.031
 20
-169.8436
 11
220.1197
 21
-168.8696
  0
LINE
  8
0
  6
CONTINUOUS
 62
     7
 10
231.5798
 20
-163.6022
 11
233.9258
 21
-163.6022
  0
LINE
  8
0
  6
CONTINUOUS
 62
     7
 10
222.0001
 20
-168.4483
 11
222.0001
 21
-170.9731
  0
LINE
  8
0
  6
CONTINUOUS
 62
     7
 10
233.9258
 20
-163.6022
 11
233.9258
 21
-164.6383
  0
LINE
  8
0
  6
CONTINUOUS
 62
     7
 10
231.5798
 20
-163.6022
 11
231.5798
 21
-164.1077
  0
LINE
  8
0
  6
CONTINUOUS
 62
     7
 10
228.4517
 20
-168.4072
 11
228.4517
 21
-176.1732
  0
LINE
  8
0
  6
CONTINUOUS
 62
     7
 10
222.0001
 20
-168.4484
 11
231.0869
 21
-164.8345
  0
LINE
  8
0
  6
CONTINUOUS
 62
     7
 10
222.0001
 20
-170.9732
 11
228.4517
 21
-168.4073
  0
LINE
  8
0
  6
CONTINUOUS
 62
     7
 10
228.4517
 20
-176.1732
 11
231.5798
 21
-176.1732
  0
LINE
  8
0
  6
CONTINUOUS
 62
     7
 10
231.5798
 20
-167.1632
 11
231.5798
 21
-176.1732
  0
LINE
  8
0
  6
CONTINUOUS
 62
     7
 10
231.5801
 20
-167.1633
 11
232.4471
 21
-166.8185
  0
LINE
  8
0
  6
CONTINUOUS
 62
     7
 10
199.7572
 20
-162.8984
 11
202.3746
 21
-162.8984
  0
LINE
  8
0
  6
CONTINUOUS
 62
     7
 10
206.2618
 20
-162.8984
 11
207.2589
 21
-162.8984
  0
LINE
  8
0
  6
CONTINUOUS
 62
     7
 10
213.2023
 20
-162.8984
 11
216.3303
 21
-162.8984
  0
LINE
  8
0
  6
CONTINUOUS
 62
     7
 10
206.2618
 20
-164.4624
 11
207.2589
 21
-164.4624
  0
LINE
  8
0
  6
CONTINUOUS
 62
     7
 10
206.2618
 20
-162.8984
 11
206.2618
 21
-164.4624
  0
LINE
  8
0
  6
CONTINUOUS
 62
     7
 10
207.2589
 20
-162.8984
 11
207.2589
 21
-164.4624
  0
LINE
  8
0
  6
CONTINUOUS
 62
     7
 10
207.8454
 20
-162.8984
 11
207.8454
 21
-164.4624
  0
LINE
  8
0
  6
CONTINUOUS
 62
     7
 10
208.9598
 20
-162.8984
 11
208.9598
 21
-164.4624
  0
LINE
  8
0
  6
CONTINUOUS
 62
     7
 10
207.8454
 20
-162.8984
 11
208.9598
 21
-162.8984
  0
LINE
  8
0
  6
CONTINUOUS
 62
     7
 10
207.8454
 20
-164.4624
 11
208.9598
 21
-164.4624
  0
LINE
  8
0
  6
CONTINUOUS
 62
     7
 10
154.382
 20
159.7753
 11
262.2472
 21
159.7753
  0
LINE
  8
0
  6
CONTINUOUS
 62
     7
 10
154.382
 20
180.0
 11
154.382
 21
159.7753
  0
LINE
  8
0
  6
CONTINUOUS
 62
     7
 10
154.382
 20
-159.7753
 11
154.382
 21
-180.0
  0
LINE
  8
0
  6
PHANTOM
 62
     2
 10
32.0
 20
140.5
 11
32.0
 21
130.5
  0
LINE
  8
0
  6
PHANTOM
 62
     2
 10
32.0
 20
140.5
 11
-42.0
 21
140.5
  0
LINE
  8
0
  6
PHANTOM
 62
     2
 10
32.00001
 20
102.5
 11
-42.0
 21
102.5
  0
LINE
  8
0
  6
PHANTOM
 62
     2
 10
-42.0
 20
140.5
 11
-42.0
 21
102.5
  0
LINE
  8
0
  6
CENTER
 62
     2
 10
5.0
 20
139.0
 11
5.0
 21
132.0
  0
LINE
  8
0
  6
CENTER
 62
     2
 10
-15.0
 20
139.0
 11
-15.0
 21
132.0
  0
LINE
  8
0
  6
CENTER
 62
     2
 10
-15.0
 20
111.0
 11
-15.0
 21
104.0
  0
LINE
  8
0
  6
CENTER
 62
     2
 10
5.0
 20
111.0
 11
5.0
 21
104.0
  0
LINE
  8
0
  6
CENTER
 62
     2
 10
-11.5
 20
135.5
 11
-18.5
 21
135.5
  0
LINE
  8
0
  6
CENTER
 62
     2
 10
8.5
 20
135.5
 11
1.5
 21
135.5
  0
LINE
  8
0
  6
CENTER
 62
     2
 10
-11.49999
 20
107.5
 11
-18.49999
 21
107.5
  0
LINE
  8
0
  6
CENTER
 62
     2
 10
8.50001
 20
107.5
 11
1.50001
 21
107.5
  0
LINE
  8
0
  6
PHANTOM
 62
     2
 10
33.2
 20
130.5
 11
-33.9
 21
130.5
  0
LINE
  8
0
  6
PHANTOM
 62
     2
 10
16.0
 20
130.5
 11
16.0
 21
112.5
  0
LINE
  8
0
  6
PHANTOM
 62
     2
 10
-26.0
 20
130.5
 11
-26.0
 21
112.5
  0
LINE
  8
0
  6
PHANTOM
 62
     2
 10
-34.40001
 20
130.0
 11
-34.40001
 21
113.0
  0
LINE
  8
0
  6
PHANTOM
 62
     2
 10
34.19995
 20
129.5
 11
33.19997
 21
130.5
  0
LINE
  8
0
  6
PHANTOM
 62
     2
 10
34.20001
 20
113.5
 11
33.20001
 21
112.5
  0
LINE
  8
0
  6
PHANTOM
 62
     2
 10
33.2
 20
130.5
 11
33.2
 21
112.5
  0
LINE
  8
0
  6
PHANTOM
 62
     2
 10
34.2
 20
129.5
 11
34.2
 21
113.5
  0
LINE
  8
0
  6
PHANTOM
 62
     2
 10
33.19997
 20
112.5
 11
-33.90001
 21
112.5
  0
LINE
  8
0
  6
PHANTOM
 62
     2
 10
60.40002
 20
129.0
 11
34.2
 21
129.0
  0
LINE
  8
0
  6
PHANTOM
 62
     2
 10
59.4
 20
129.0
 11
59.4
 21
114.0
  0
LINE
  8
0
  6
PHANTOM
 62
     2
 10
60.39998
 20
114.0
 11
34.2
 21
114.0
  0
LINE
  8
0
  6
PHANTOM
 62
     2
 10
60.4
 20
129.0
 11
60.4
 21
114.0
  0
LINE
  8
0
  6
PHANTOM
 62
     2
 10
60.39999
 20
114.0
 11
62.39999
 21
115.0
  0
LINE
  8
0
  6
PHANTOM
 62
     2
 10
60.39997
 20
128.9999
 11
62.39998
 21
127.9999
  0
LINE
  8
0
  6
PHANTOM
 62
     2
 10
62.4
 20
128.0
 11
62.4
 21
115.0
  0
LINE
  8
0
  6
CENTER
 62
     2
 10
55.2
 20
122.8
 11
49.2
 21
122.8
  0
LINE
  8
0
  6
CENTER
 62
     2
 10
55.2
 20
120.2
 11
49.2
 21
120.2
  0
LINE
  8
0
  6
CENTER
 62
     2
 10
52.2
 20
125.5
 11
52.2
 21
117.5
  0
LINE
  8
0
  6
PHANTOM
 62
     2
 10
50.5
 20
122.8
 11
50.5
 21
120.2
  0
LINE
  8
0
  6
PHANTOM
 62
     2
 10
53.9
 20
122.8
 11
53.9
 21
120.2
  0
LINE
  8
0
  6
PHANTOM
 62
     2
 10
32.0
 20
112.5
 11
32.0
 21
102.5
  0
LINE
  8
0
  6
PHANTOM
 62
     2
 10
-175.5
 20
-25.99999
 11
-175.5
 21
-65.99998
  0
LINE
  8
0
  6
PHANTOM
 62
     2
 10
-175.5
 20
-65.99998
 11
-137.5
 21
-65.99998
  0
LINE
  8
0
  6
PHANTOM
 62
     2
 10
-175.5
 20
-25.99999
 11
-137.5
 21
-25.99999
  0
LINE
  8
0
  6
CENTER
 62
     2
 10
-156.5
 20
-68.02788
 11
-156.5
 21
-24.99999
  0
LINE
  8
0
  6
PHANTOM
 62
     2
 10
-165.0
 20
-25.99999
 11
-165.0
 21
-24.99999
  0
LINE
  8
0
  6
PHANTOM
 62
     2
 10
-148.0
 20
-25.99999
 11
-148.0
 21
-24.99999
  0
LINE
  8
0
  6
CENTER
 62
     2
 10
-169.0
 20
-40.99999
 11
-156.0
 21
-40.99999
  0
LINE
  8
0
  6
CENTER
 62
     2
 10
-161.0
 20
-57.99999
 11
-148.0
 21
-57.99999
  0
LINE
  8
0
  6
CENTER
 62
     2
 10
-162.5
 20
-34.49999
 11
-162.5
 21
-47.49999
  0
LINE
  8
0
  6
CENTER
 62
     2
 10
-154.5
 20
-51.49999
 11
-154.5
 21
-64.49998
  0
LINE
  8
0
  6
PHANTOM
 62
     2
 10
-137.5
 20
-25.99999
 11
-137.5
 21
-65.99998
  0
LINE
  8
0
  6
CENTER
 62
     2
 10
-156.5
 20
-8.38349
 11
-156.5
 21
24.6717
  0
LINE
  8
0
  6
PHANTOM
 62
     2
 10
-160.65
 20
26.83557
 11
-152.35
 21
24.61158
  0
LINE
  8
0
  6
PHANTOM
 62
     2
 10
-157.48
 20
41.50001
 11
-158.12
 21
41.50001
  0
LINE
  8
0
  6
PHANTOM
 62
     2
 10
-156.95
 20
31.50001
 11
-158.65
 21
31.50001
  0
LINE
  8
0
  6
PHANTOM
 62
     2
 10
-157.48
 20
41.50001
 11
-157.48
 21
31.50001
  0
LINE
  8
0
  6
PHANTOM
 62
     2
 10
-158.12
 20
41.50001
 11
-158.12
 21
31.50001
  0
LINE
  8
0
  6
PHANTOM
 62
     2
 10
-156.95
 20
31.50001
 11
-156.95
 21
27.39705
  0
LINE
  8
0
  6
PHANTOM
 62
     2
 10
-158.65
 20
31.50001
 11
-158.65
 21
27.85255
  0
LINE
  8
0
  6
CENTER
 62
     2
 10
-157.8
 20
44.50001
 11
-157.8
 21
20.4655
  0
LINE
  8
0
  6
PHANTOM
 62
     2
 10
-154.88
 20
41.50001
 11
-155.52
 21
41.50001
  0
LINE
  8
0
  6
PHANTOM
 62
     2
 10
-154.35
 20
31.50001
 11
-156.05
 21
31.50001
  0
LINE
  8
0
  6
PHANTOM
 62
     2
 10
-154.88
 20
41.50001
 11
-154.88
 21
31.50001
  0
LINE
  8
0
  6
PHANTOM
 62
     2
 10
-155.52
 20
41.50001
 11
-155.52
 21
31.50001
  0
LINE
  8
0
  6
PHANTOM
 62
     2
 10
-154.35
 20
31.50001
 11
-154.35
 21
26.70039
  0
LINE
  8
0
  6
PHANTOM
 62
     2
 10
-156.05
 20
31.50001
 11
-156.05
 21
27.1559
  0
LINE
  8
0
  6
CENTER
 62
     2
 10
-155.2
 20
44.50001
 11
-155.2
 21
20.40312
  0
LINE
  8
0
  6
CENTER
 62
     2
 10
-168.25
 20
7.50001
 11
-144.3655
 21
7.50001
  0
LINE
  8
0
  6
PHANTOM
 62
     2
 10
-154.35
 20
25.14747
 11
-154.35
 21
21.50001
  0
LINE
  8
0
  6
PHANTOM
 62
     2
 10
-156.05
 20
25.60298
 11
-156.05
 21
21.50001
  0
LINE
  8
0
  6
PHANTOM
 62
     2
 10
-156.95
 20
25.84413
 11
-156.95
 21
21.50001
  0
LINE
  8
0
  6
PHANTOM
 62
     2
 10
-158.65
 20
26.29963
 11
-158.65
 21
21.50001
  0
LINE
  8
0
  6
PHANTOM
 62
     2
 10
-160.65
 20
28.38844
 11
-152.35
 21
26.16446
  0
LINE
  8
0
  6
PHANTOM
 62
     2
 10
-159.0
 20
21.50001
 11
-154.0
 21
21.50001
  0
LINE
  8
0
  6
PHANTOM
 62
     2
 10
-147.5
 20
-5.49999
 11
-147.5
 21
20.50001
  0
LINE
  8
0
  6
PHANTOM
 62
     2
 10
-165.5
 20
-5.49999
 11
-165.5
 21
20.50001
  0
LINE
  8
0
  6
PHANTOM
 62
     2
 10
-165.0
 20
21.00001
 11
-148.0
 21
21.00001
  0
LINE
  8
0
  6
PHANTOM
 62
     2
 10
-165.0
 20
-5.99999
 11
-148.0
 21
-5.99999
  0
LINE
  8
0
  6
CENTER
 62
     2
 10
65.74999
 20
7.50001
 11
-37.75002
 21
7.50001
  0
LINE
  8
0
  6
PHANTOM
 62
     2
 10
33.19999
 20
21.00001
 11
-33.9
 21
21.00001
  0
LINE
  8
0
  6
PHANTOM
 62
     2
 10
33.19998
 20
-5.99999
 11
-33.90002
 21
-5.99999
  0
LINE
  8
0
  6
PHANTOM
 62
     2
 10
-34.40002
 20
-5.49998
 11
-34.40002
 21
20.50002
  0
LINE
  8
0
  6
PHANTOM
 62
     2
 10
-26.00002
 20
-5.99998
 11
-26.00002
 21
21.00002
  0
LINE
  8
0
  6
PHANTOM
 62
     2
 10
15.99998
 20
-5.99999
 11
15.99998
 21
21.00001
  0
LINE
  8
0
  6
PHANTOM
 62
     2
 10
34.19995
 20
-4.99999
 11
33.19995
 21
-5.99999
  0
LINE
  8
0
  6
PHANTOM
 62
     2
 10
34.19999
 20
20.00001
 11
33.19999
 21
21.00001
  0
LINE
  8
0
  6
PHANTOM
 62
     2
 10
59.39999
 20
19.5
 11
59.39999
 21
-4.5
  0
LINE
  8
0
  6
PHANTOM
 62
     2
 10
34.19998
 20
-4.99998
 11
34.19998
 21
20.0
  0
LINE
  8
0
  6
PHANTOM
 62
     2
 10
60.39999
 20
-4.49999
 11
34.19998
 21
-4.49999
  0
LINE
  8
0
  6
PHANTOM
 62
     2
 10
62.39999
 20
18.5
 11
62.39999
 21
-3.49999
  0
LINE
  8
0
  6
PHANTOM
 62
     2
 10
60.39999
 20
19.5
 11
60.39999
 21
-4.5
  0
LINE
  8
0
  6
PHANTOM
 62
     2
 10
60.39997
 20
19.49996
 11
62.39997
 21
18.49996
  0
LINE
  8
0
  6
PHANTOM
 62
     2
 10
60.39999
 20
-4.49999
 11
62.39999
 21
-3.49999
  0
LINE
  8
0
  6
CENTER
 62
     2
 10
52.19998
 20
44.5
 11
52.19998
 21
16.5
  0
LINE
  8
0
  6
PHANTOM
 62
     2
 10
51.34998
 20
31.5
 11
51.34998
 21
27.50421
  0
LINE
  8
0
  6
PHANTOM
 62
     2
 10
53.04998
 20
31.5
 11
53.04998
 21
27.0487
  0
LINE
  8
0
  6
PHANTOM
 62
     2
 10
52.51998
 20
41.5
 11
52.51998
 21
31.5
  0
LINE
  8
0
  6
PHANTOM
 62
     2
 10
51.87998
 20
41.5
 11
51.87998
 21
31.5
  0
LINE
  8
0
  6
PHANTOM
 62
     2
 10
51.35
 20
31.50001
 11
53.05
 21
31.50001
  0
LINE
  8
0
  6
PHANTOM
 62
     2
 10
51.88
 20
41.50001
 11
52.52
 21
41.50001
  0
LINE
  8
0
  6
PHANTOM
 62
     2
 10
49.35001
 20
28.0402
 11
55.05001
 21
26.51288
  0
LINE
  8
0
  6
PHANTOM
 62
     2
 10
49.34999
 20
26.48722
 11
55.04998
 21
24.95991
  0
LINE
  8
0
  6
PHANTOM
 62
     2
 10
51.34998
 20
25.95129
 11
51.34998
 21
21.5
  0
LINE
  8
0
  6
PHANTOM
 62
     2
 10
53.04998
 20
25.49579
 11
53.04998
 21
21.5
  0
LINE
  8
0
  6
PHANTOM
 62
     2
 10
33.19998
 20
-6.0
 11
33.19998
 21
21.0
  0
LINE
  8
0
  6
PHANTOM
 62
     2
 10
60.39999
 20
19.50001
 11
34.19999
 21
19.50001
  0
LINE
  8
0
  6
PHANTOM
 62
     2
 10
53.89998
 20
21.0
 11
53.89998
 21
19.5
  0
LINE
  8
0
  6
PHANTOM
 62
     2
 10
51.0
 20
21.50001
 11
53.39999
 21
21.50001
  0
LINE
  8
0
  6
PHANTOM
 62
     2
 10
50.49998
 20
21.0
 11
50.49998
 21
19.5
  0
LINE
  8
0
  6
PHANTOM
 62
     2
 10
-42.00002
 20
-65.99998
 11
-42.00002
 21
-25.99998
  0
LINE
  8
0
  6
PHANTOM
 62
     2
 10
31.99997
 20
-65.99998
 11
-36.50002
 21
-65.99998
  0
LINE
  8
0
  6
PHANTOM
 62
     2
 10
31.99997
 20
-66.0
 11
31.99997
 21
-26.0
  0
LINE
  8
0
  6
PHANTOM
 62
     2
 10
-37.00002
 20
-65.49998
 11
-37.50003
 21
-65.99998
  0
LINE
  8
0
  6
PHANTOM
 62
     2
 10
-36.99993
 20
-65.49986
 11
-36.49992
 21
-65.99987
  0
LINE
  8
0
  6
PHANTOM
 62
     2
 10
-37.50002
 20
-65.99998
 11
-42.00002
 21
-65.99998
  0
LINE
  8
0
  6
CENTER
 62
     2
 10
23.19761
 20
-49.49998
 11
-33.11654
 21
-49.49998
  0
LINE
  8
0
  6
CENTER
 62
     2
 10
-5.00003
 20
-69.22616
 11
-5.00003
 21
-24.99999
  0
LINE
  8
0
  6
PHANTOM
 62
     2
 10
-39.50002
 20
-25.99998
 11
-39.50002
 21
-24.99998
  0
LINE
  8
0
  6
PHANTOM
 62
     2
 10
-32.50002
 20
-25.99998
 11
-32.50002
 21
-24.99998
  0
LINE
  8
0
  6
PHANTOM
 62
     2
 10
15.99997
 20
-25.99999
 11
15.99997
 21
-24.99999
  0
LINE
  8
0
  6
PHANTOM
 62
     2
 10
-26.00002
 20
-25.99999
 11
-26.00002
 21
-24.99999
  0
LINE
  8
0
  6
PHANTOM
 62
     2
 10
29.49997
 20
-26.0
 11
29.49997
 21
-25.0
  0
LINE
  8
0
  6
PHANTOM
 62
     2
 10
31.99998
 20
-25.99999
 11
-42.00002
 21
-25.99999
  0
LINE
  8
0
  6
PHANTOM
 62
     2
 10
22.49997
 20
-25.99999
 11
22.49997
 21
-24.99999
  0
LINE
  8
0
  6
CENTER
 62
     2
 10
14.99997
 20
-41.49999
 11
14.99997
 21
-57.49999
  0
LINE
  8
0
  6
CENTER
 62
     2
 10
-25.00002
 20
-41.49998
 11
-25.00002
 21
-57.49998
  0
LINE
  8
0
  6
CENTER
 62
     2
 10
-36.00002
 20
-27.99998
 11
-36.00002
 21
-35.99998
  0
LINE
  8
0
  6
CENTER
 62
     2
 10
25.99997
 20
-28.0
 11
25.99997
 21
-36.0
  0
LINE
  8
0
  6
CENTER
 62
     2
 10
-32.00002
 20
-31.99999
 11
-40.00002
 21
-31.99999
  0
LINE
  8
0
  6
CENTER
 62
     2
 10
29.99998
 20
-31.99999
 11
21.99998
 21
-31.99999
  0
LINE
  8
0
  6
PHANTOM
 62
     2
 10
-35.00002
 20
-24.99998
 11
-39.50002
 21
-24.99998
  0
LINE
  8
0
  6
PHANTOM
 62
     2
 10
175.4999
 20
-25.99997
 11
175.4999
 21
-65.99997
  0
LINE
  8
0
  6
PHANTOM
 62
     2
 10
137.4999
 20
-25.99996
 11
137.4999
 21
-65.99996
  0
LINE
  8
0
  6
PHANTOM
 62
     2
 10
175.4999
 20
-65.99997
 11
137.4999
 21
-65.99997
  0
LINE
  8
0
  6
PHANTOM
 62
     2
 10
175.4999
 20
-25.99997
 11
137.4999
 21
-25.99997
  0
LINE
  8
0
  6
CENTER
 62
     2
 10
156.4999
 20
-68.11359
 11
156.4999
 21
-24.99997
  0
LINE
  8
0
  6
CONTINUOUS
 62
     7
 10
164.9999
 20
-25.99997
 11
164.9999
 21
-24.99997
  0
LINE
  8
0
  6
CONTINUOUS
 62
     7
 10
147.9999
 20
-25.99997
 11
147.9999
 21
-24.99997
  0
LINE
  8
0
  6
CENTER
 62
     2
 10
156.4999
 20
-7.7915
 11
156.4999
 21
24.65727
  0
LINE
  8
0
  6
CENTER
 62
     2
 10
168.2499
 20
7.50003
 11
144.6273
 21
7.50003
  0
LINE
  8
0
  6
PHANTOM
 62
     2
 10
164.9999
 20
-5.99997
 11
147.9999
 21
-5.99997
  0
LINE
  8
0
  6
PHANTOM
 62
     2
 10
153.4999
 20
19.50002
 11
153.4999
 21
21.00002
  0
LINE
  8
0
  6
PHANTOM
 62
     2
 10
159.4999
 20
21.00003
 11
164.9999
 21
21.00003
  0
LINE
  8
0
  6
PHANTOM
 62
     2
 10
165.4999
 20
-5.49997
 11
165.4999
 21
20.50003
  0
LINE
  8
0
  6
PHANTOM
 62
     2
 10
147.4999
 20
-5.5
 11
147.4999
 21
20.5
  0
LINE
  8
0
  6
PHANTOM
 62
     2
 10
147.9999
 20
21.00003
 11
153.4999
 21
21.00003
  0
LINE
  8
0
  6
CENTER
 62
     2
 10
155.1999
 20
44.50002
 11
155.1999
 21
20.40313
  0
LINE
  8
0
  6
PHANTOM
 62
     2
 10
156.9499
 20
31.50002
 11
156.9499
 21
27.1559
  0
LINE
  8
0
  6
PHANTOM
 62
     2
 10
158.6499
 20
31.50002
 11
158.6499
 21
26.70039
  0
LINE
  8
0
  6
PHANTOM
 62
     2
 10
155.5199
 20
41.50002
 11
155.5199
 21
31.50002
  0
LINE
  8
0
  6
PHANTOM
 62
     2
 10
154.8799
 20
41.50002
 11
154.8799
 21
31.50002
  0
LINE
  8
0
  6
PHANTOM
 62
     2
 10
154.3499
 20
31.50003
 11
156.0499
 21
31.50003
  0
LINE
  8
0
  6
PHANTOM
 62
     2
 10
154.8799
 20
41.50003
 11
155.5199
 21
41.50003
  0
LINE
  8
0
  6
CENTER
 62
     2
 10
157.7999
 20
44.50003
 11
157.7999
 21
20.46552
  0
LINE
  8
0
  6
PHANTOM
 62
     2
 10
154.3499
 20
31.50003
 11
154.3499
 21
27.85259
  0
LINE
  8
0
  6
PHANTOM
 62
     2
 10
156.0499
 20
31.50003
 11
156.0499
 21
27.39707
  0
LINE
  8
0
  6
PHANTOM
 62
     2
 10
158.1199
 20
41.50003
 11
158.1199
 21
31.50003
  0
LINE
  8
0
  6
PHANTOM
 62
     2
 10
157.4799
 20
41.50003
 11
157.4799
 21
31.50003
  0
LINE
  8
0
  6
PHANTOM
 62
     2
 10
156.9499
 20
31.50003
 11
158.6499
 21
31.50003
  0
LINE
  8
0
  6
PHANTOM
 62
     2
 10
157.4799
 20
41.50003
 11
158.1199
 21
41.50003
  0
LINE
  8
0
  6
PHANTOM
 62
     2
 10
152.35
 20
26.8355
 11
160.65
 21
24.6115
  0
LINE
  8
0
  6
PHANTOM
 62
     2
 10
152.35
 20
28.38845
 11
160.6499
 21
26.16447
  0
LINE
  8
0
  6
PHANTOM
 62
     2
 10
154.3499
 20
26.29967
 11
154.3499
 21
21.50003
  0
LINE
  8
0
  6
PHANTOM
 62
     2
 10
156.0499
 20
25.84415
 11
156.0499
 21
21.50003
  0
LINE
  8
0
  6
PHANTOM
 62
     2
 10
156.9499
 20
25.603
 11
156.9499
 21
21.50003
  0
LINE
  8
0
  6
PHANTOM
 62
     2
 10
158.6499
 20
25.14748
 11
158.6499
 21
21.50003
  0
LINE
  8
0
  6
PHANTOM
 62
     2
 10
153.9999
 20
21.50003
 11
158.9999
 21
21.50003
  0
LINE
  8
0
  6
PHANTOM
 62
     2
 10
159.4999
 20
19.50003
 11
159.4999
 21
21.00003
  0
LINE
  8
0
  6
PHANTOM
 62
     2
 10
163.4999
 20
-4.49997
 11
149.4999
 21
-4.49997
  0
LINE
  8
0
  6
PHANTOM
 62
     2
 10
163.9999
 20
-3.99997
 11
163.9999
 21
19.50003
  0
LINE
  8
0
  6
PHANTOM
 62
     2
 10
148.9999
 20
-3.99998
 11
148.9999
 21
19.5
  0
LINE
  8
0
  6
PHANTOM
 62
     2
 10
163.9999
 20
19.50003
 11
148.9999
 21
19.50003
  0
LINE
  8
0
  6
CONTINUOUS
 62
     7
 10
-35.0
 20
112.5
 11
-33.90001
 21
112.5
  0
LINE
  8
0
  6
CONTINUOUS
 62
     7
 10
-35.0
 20
130.5
 11
-35.0
 21
112.5
  0
LINE
  8
0
  6
CONTINUOUS
 62
     7
 10
-35.0
 20
130.5
 11
-33.9
 21
130.5
  0
LINE
  8
0
  6
CONTINUOUS
 62
     7
 10
37.0
 20
130.5
 11
37.0
 21
129.0
  0
LINE
  8
0
  6
CONTINUOUS
 62
     7
 10
72.0
 20
125.75
 11
72.0
 21
117.25
  0
LINE
  8
0
  6
CONTINUOUS
 62
     7
 10
69.5
 20
125.75
 11
72.0
 21
125.75
  0
LINE
  8
0
  6
CONTINUOUS
 62
     7
 10
69.5
 20
117.25
 11
72.0
 21
117.25
  0
LINE
  8
0
  6
CONTINUOUS
 62
     7
 10
64.5
 20
127.5
 11
69.5
 21
127.5
  0
LINE
  8
0
  6
CONTINUOUS
 62
     7
 10
64.5
 20
115.5
 11
69.5
 21
115.5
  0
LINE
  8
0
  6
CONTINUOUS
 62
     7
 10
69.5
 20
115.5
 11
69.5
 21
127.5
  0
LINE
  8
0
  6
CONTINUOUS
 62
     7
 10
62.0
 20
129.0
 11
62.0
 21
128.1999
  0
LINE
  8
0
  6
CONTINUOUS
 62
     7
 10
57.0
 20
130.75
 11
57.0
 21
129.0
  0
LINE
  8
0
  6
CONTINUOUS
 62
     7
 10
60.39988
 20
129.0
 11
64.5
 21
129.0
  0
LINE
  8
0
  6
CONTINUOUS
 62
     7
 10
60.39998
 20
114.0
 11
64.5
 21
114.0
  0
LINE
  8
0
  6
CONTINUOUS
 62
     7
 10
64.5
 20
129.0
 11
64.5
 21
114.0
  0
LINE
  8
0
  6
CONTINUOUS
 62
     7
 10
57.78206
 20
112.3184
 11
57.00009
 21
112.25
  0
LINE
  8
0
  6
CONTINUOUS
 62
     7
 10
57.78204
 20
130.6816
 11
57.00006
 21
130.75
  0
LINE
  8
0
  6
CONTINUOUS
 62
     7
 10
-36.3
 20
122.15
 11
-35.0
 21
122.15
  0
LINE
  8
0
  6
CONTINUOUS
 62
     7
 10
-36.3
 20
112.85
 11
-35.0
 21
112.85
  0
LINE
  8
0
  6
CONTINUOUS
 62
     7
 10
-36.3
 20
112.85
 11
-36.3
 21
122.15
  0
LINE
  8
0
  6
CENTER
 62
     2
 10
-43.01857
 20
117.5
 11
-30.79177
 21
117.5
  0
LINE
  8
0
  6
CONTINUOUS
 62
     7
 10
64.5
 20
116.1
 11
69.5
 21
116.1
  0
LINE
  8
0
  6
CONTINUOUS
 62
     7
 10
64.5
 20
126.9
 11
69.5
 21
126.9
  0
LINE
  8
0
  6
CONTINUOUS
 62
     7
 10
-39.8
 20
121.5
 11
-36.3
 21
121.5
  0
LINE
  8
0
  6
CONTINUOUS
 62
     7
 10
-39.8
 20
113.5
 11
-36.3
 21
113.5
  0
LINE
  8
0
  6
CONTINUOUS
 62
     7
 10
-39.8
 20
121.5
 11
-39.8
 21
113.5
  0
LINE
  8
0
  6
CONTINUOUS
 62
     7
 10
-36.3
 20
117.5
 11
-39.39585
 21
117.5
  0
LINE
  8
0
  6
CENTER
 62
     2
 10
73.66487
 20
121.5
 11
-40.90265
 21
121.5
  0
LINE
  8
0
  6
CONTINUOUS
 62
     7
 10
57.0
 20
114.0
 11
57.0
 21
112.25
  0
LINE
  8
0
  6
CONTINUOUS
 62
     7
 10
62.0
 20
114.8
 11
62.0
 21
114.0
  0
LINE
  8
0
  6
CONTINUOUS
 62
     7
 10
33.2
 20
112.5
 11
57.0
 21
112.5
  0
LINE
  8
0
  6
CONTINUOUS
 62
     7
 10
33.19993
 20
130.5
 11
57.0
 21
130.5
  0
LINE
  8
0
  6
CONTINUOUS
 62
     7
 10
37.0
 20
114.0
 11
37.0
 21
112.5
  0
LINE
  8
0
  6
CONTINUOUS
 62
     7
 10
-35.00002
 20
-6.99999
 11
56.99998
 21
-6.99999
  0
LINE
  8
0
  6
CONTINUOUS
 62
     7
 10
-35.00002
 20
-6.99999
 11
-35.00002
 21
-24.99999
  0
LINE
  8
0
  6
CONTINUOUS
 62
     7
 10
-35.00002
 20
-24.99999
 11
56.99998
 21
-24.99999
  0
LINE
  8
0
  6
CONTINUOUS
 62
     7
 10
36.99998
 20
-6.99999
 11
36.99998
 21
-24.99999
  0
LINE
  8
0
  6
CENTER
 62
     2
 10
-39.16669
 20
-15.99999
 11
75.83332
 21
-15.99999
  0
LINE
  8
0
  6
CONTINUOUS
 62
     7
 10
71.99998
 20
-16.74999
 11
71.99998
 21
-20.24999
  0
LINE
  8
0
  6
CONTINUOUS
 62
     7
 10
69.99998
 20
-15.24999
 11
69.99998
 21
-16.74999
  0
LINE
  8
0
  6
CONTINUOUS
 62
     7
 10
69.49998
 20
-11.74999
 11
71.99998
 21
-11.74999
  0
LINE
  8
0
  6
CONTINUOUS
 62
     7
 10
69.49998
 20
-20.24999
 11
71.99998
 21
-20.24999
  0
LINE
  8
0
  6
CONTINUOUS
 62
     7
 10
69.99998
 20
-16.74999
 11
71.99998
 21
-16.74999
  0
LINE
  8
0
  6
CONTINUOUS
 62
     7
 10
69.99998
 20
-15.24999
 11
71.99998
 21
-15.24999
  0
LINE
  8
0
  6
CONTINUOUS
 62
     7
 10
71.99998
 20
-15.24999
 11
71.99998
 21
-11.74999
  0
LINE
  8
0
  6
CONTINUOUS
 62
     7
 10
64.49998
 20
-9.99999
 11
69.49998
 21
-9.99999
  0
LINE
  8
0
  6
CONTINUOUS
 62
     7
 10
64.49998
 20
-21.99999
 11
69.49998
 21
-21.99999
  0
LINE
  8
0
  6
CONTINUOUS
 62
     7
 10
69.49998
 20
-21.99999
 11
69.49998
 21
-9.99999
  0
LINE
  8
0
  6
CONTINUOUS
 62
     7
 10
61.99998
 20
-8.49999
 11
61.99998
 21
-23.49999
  0
LINE
  8
0
  6
CONTINUOUS
 62
     7
 10
56.99998
 20
-6.74998
 11
56.99998
 21
-25.24999
  0
LINE
  8
0
  6
CONTINUOUS
 62
     7
 10
58.67912
 20
-8.49999
 11
64.49998
 21
-8.49999
  0
LINE
  8
0
  6
CONTINUOUS
 62
     7
 10
58.67912
 20
-23.49999
 11
64.49998
 21
-23.49999
  0
LINE
  8
0
  6
CONTINUOUS
 62
     7
 10
64.49998
 20
-8.49999
 11
64.49998
 21
-23.49999
  0
LINE
  8
0
  6
CONTINUOUS
 62
     7
 10
57.78195
 20
-20.81841
 11
56.99996
 21
-20.74999
  0
LINE
  8
0
  6
CONTINUOUS
 62
     7
 10
57.78202
 20
-25.18158
 11
57.00004
 21
-25.24999
  0
LINE
  8
0
  6
CENTER
 62
     2
 10
52.03224
 20
-22.99999
 11
59.58776
 21
-22.99999
  0
LINE
  8
0
  6
CONTINUOUS
 62
     7
 10
57.78196
 20
-11.18157
 11
56.99996
 21
-11.24999
  0
LINE
  8
0
  6
CENTER
 62
     2
 10
52.03224
 20
-8.99999
 11
59.58776
 21
-8.99999
  0
LINE
  8
0
  6
CONTINUOUS
 62
     7
 10
57.78203
 20
-6.8184
 11
57.00004
 21
-6.74999
  0
LINE
  8
0
  6
CONTINUOUS
 62
     7
 10
64.49998
 20
-21.39999
 11
69.49998
 21
-21.39999
  0
LINE
  8
0
  6
CONTINUOUS
 62
     7
 10
64.49998
 20
-10.59999
 11
69.49998
 21
-10.59999
  0
LINE
  8
0
  6
CONTINUOUS
 62
     7
 10
-36.30002
 20
-7.34999
 11
-35.00002
 21
-7.34999
  0
LINE
  8
0
  6
CONTINUOUS
 62
     7
 10
-36.30002
 20
-16.64999
 11
-35.00002
 21
-16.64999
  0
LINE
  8
0
  6
CONTINUOUS
 62
     7
 10
-36.30002
 20
-16.64999
 11
-36.30002
 21
-7.34999
  0
LINE
  8
0
  6
CONTINUOUS
 62
     7
 10
-39.80002
 20
-15.44999
 11
-39.80002
 21
-8.54999
  0
LINE
  8
0
  6
CONTINUOUS
 62
     7
 10
-39.39588
 20
-7.39999
 11
-36.30002
 21
-7.39999
  0
LINE
  8
0
  6
CONTINUOUS
 62
     7
 10
-39.39588
 20
-16.59999
 11
-36.30002
 21
-16.59999
  0
LINE
  8
0
  6
CONTINUOUS
 62
     7
 10
-39.39588
 20
-9.69999
 11
-36.30002
 21
-9.69999
  0
LINE
  8
0
  6
CONTINUOUS
 62
     7
 10
-39.39588
 20
-14.29999
 11
-36.30002
 21
-14.29999
  0
LINE
  8
0
  6
CONTINUOUS
 62
     7
 10
-36.30001
 20
-13.09999
 11
-35.00002
 21
-11.79999
  0
LINE
  8
0
  6
CONTINUOUS
 62
     7
 10
-36.30002
 20
-12.11003
 11
-35.00003
 21
-10.81004
  0
LINE
  8
0
  6
CENTER
 62
     2
 10
-43.01859
 20
-11.99999
 11
-30.7918
 21
-11.99999
  0
LINE
  8
0
  6
CONTINUOUS
 62
     7
 10
-26.00002
 20
-5.99999
 11
-26.00002
 21
-6.99999
  0
LINE
  8
0
  6
CONTINUOUS
 62
     7
 10
15.99998
 20
-5.99999
 11
15.99998
 21
-6.99999
  0
LINE
  8
0
  6
CONTINUOUS
 62
     7
 10
147.4999
 20
-6.99998
 11
147.4999
 21
-7.9692
  0
LINE
  8
0
  6
CONTINUOUS
 62
     7
 10
165.4999
 20
-6.99998
 11
165.4999
 21
-7.9692
  0
LINE
  8
0
  6
CONTINUOUS
 62
     7
 10
147.4999
 20
-24.99998
 11
148.4691
 21
-24.99998
  0
LINE
  8
0
  6
CONTINUOUS
 62
     7
 10
147.4999
 20
-6.99998
 11
148.4691
 21
-6.99998
  0
LINE
  8
0
  6
CONTINUOUS
 62
     7
 10
152.3166
 20
-16.74998
 11
160.6832
 21
-16.74998
  0
LINE
  8
0
  6
CONTINUOUS
 62
     7
 10
152.3166
 20
-15.24998
 11
160.6832
 21
-15.24998
  0
LINE
  8
0
  6
CENTER
 62
     2
 10
146.4316
 20
-8.99998
 11
152.5509
 21
-8.99998
  0
LINE
  8
0
  6
CENTER
 62
     2
 10
149.4999
 20
-6.09554
 11
149.4999
 21
-11.89274
  0
LINE
  8
0
  6
CONTINUOUS
 62
     7
 10
149.1999
 20
-10.29998
 11
149.1999
 21
-10.09998
  0
LINE
  8
0
  6
CONTINUOUS
 62
     7
 10
149.7999
 20
-10.29998
 11
149.7999
 21
-10.09998
  0
LINE
  8
0
  6
CONTINUOUS
 62
     7
 10
148.1999
 20
-8.69997
 11
148.3999
 21
-8.69997
  0
LINE
  8
0
  6
CONTINUOUS
 62
     7
 10
148.1999
 20
-9.29998
 11
148.3999
 21
-9.29998
  0
LINE
  8
0
  6
CONTINUOUS
 62
     7
 10
149.7999
 20
-7.89998
 11
149.7999
 21
-7.69998
  0
LINE
  8
0
  6
CONTINUOUS
 62
     7
 10
149.1999
 20
-7.89998
 11
149.1999
 21
-7.69998
  0
LINE
  8
0
  6
CONTINUOUS
 62
     7
 10
150.5999
 20
-8.69997
 11
150.7999
 21
-8.69997
  0
LINE
  8
0
  6
CONTINUOUS
 62
     7
 10
150.5999
 20
-9.29998
 11
150.7999
 21
-9.29998
  0
LINE
  8
0
  6
CONTINUOUS
 62
     7
 10
149.1999
 20
-10.29998
 11
149.7999
 21
-10.29998
  0
LINE
  8
0
  6
CONTINUOUS
 62
     7
 10
149.1999
 20
-7.69998
 11
149.7999
 21
-7.69998
  0
LINE
  8
0
  6
CONTINUOUS
 62
     7
 10
148.1999
 20
-8.69997
 11
148.1999
 21
-9.29998
  0
LINE
  8
0
  6
CONTINUOUS
 62
     7
 10
150.7999
 20
-8.69997
 11
150.7999
 21
-9.29998
  0
LINE
  8
0
  6
CONTINUOUS
 62
     7
 10
147.4999
 20
-10.03075
 11
147.4999
 21
-21.9692
  0
LINE
  8
0
  6
CONTINUOUS
 62
     7
 10
150.5307
 20
-6.99998
 11
162.4691
 21
-6.99998
  0
LINE
  8
0
  6
CONTINUOUS
 62
     7
 10
148.1999
 20
-22.69997
 11
148.3999
 21
-22.69997
  0
LINE
  8
0
  6
CENTER
 62
     2
 10
146.4316
 20
-22.99998
 11
152.5509
 21
-22.99998
  0
LINE
  8
0
  6
CONTINUOUS
 62
     7
 10
148.1999
 20
-23.29998
 11
148.1999
 21
-22.69997
  0
LINE
  8
0
  6
CONTINUOUS
 62
     7
 10
148.1999
 20
-23.29998
 11
148.3999
 21
-23.29998
  0
LINE
  8
0
  6
CONTINUOUS
 62
     7
 10
149.1999
 20
-24.09997
 11
149.1999
 21
-24.29997
  0
LINE
  8
0
  6
CONTINUOUS
 62
     7
 10
149.1999
 20
-24.29997
 11
149.7999
 21
-24.29997
  0
LINE
  8
0
  6
CONTINUOUS
 62
     7
 10
149.7999
 20
-24.09997
 11
149.7999
 21
-24.29997
  0
LINE
  8
0
  6
CONTINUOUS
 62
     7
 10
150.5999
 20
-23.29998
 11
150.7999
 21
-23.29998
  0
LINE
  8
0
  6
CONTINUOUS
 62
     7
 10
150.5999
 20
-22.69997
 11
150.7999
 21
-22.69997
  0
LINE
  8
0
  6
CONTINUOUS
 62
     7
 10
150.7999
 20
-23.29998
 11
150.7999
 21
-22.69997
  0
LINE
  8
0
  6
CONTINUOUS
 62
     7
 10
149.7999
 20
-21.69997
 11
149.7999
 21
-21.89997
  0
LINE
  8
0
  6
CENTER
 62
     2
 10
149.4999
 20
-25.90441
 11
149.4999
 21
-20.10721
  0
LINE
  8
0
  6
CONTINUOUS
 62
     7
 10
149.1999
 20
-21.69997
 11
149.1999
 21
-21.89997
  0
LINE
  8
0
  6
CONTINUOUS
 62
     7
 10
149.1999
 20
-21.69997
 11
149.7999
 21
-21.69997
  0
LINE
  8
0
  6
CONTINUOUS
 62
     7
 10
164.7999
 20
-9.29998
 11
164.5999
 21
-9.29998
  0
LINE
  8
0
  6
CENTER
 62
     2
 10
166.5682
 20
-8.99998
 11
160.449
 21
-8.99998
  0
LINE
  8
0
  6
CONTINUOUS
 62
     7
 10
164.7999
 20
-8.69997
 11
164.7999
 21
-9.29998
  0
LINE
  8
0
  6
CONTINUOUS
 62
     7
 10
164.7999
 20
-8.69997
 11
164.5999
 21
-8.69997
  0
LINE
  8
0
  6
CONTINUOUS
 62
     7
 10
163.7999
 20
-7.89998
 11
163.7999
 21
-7.69998
  0
LINE
  8
0
  6
CONTINUOUS
 62
     7
 10
163.7999
 20
-7.69998
 11
163.1999
 21
-7.69998
  0
LINE
  8
0
  6
CONTINUOUS
 62
     7
 10
163.1999
 20
-7.89998
 11
163.1999
 21
-7.69998
  0
LINE
  8
0
  6
CONTINUOUS
 62
     7
 10
162.3999
 20
-8.69997
 11
162.1999
 21
-8.69997
  0
LINE
  8
0
  6
CONTINUOUS
 62
     7
 10
162.3999
 20
-9.29998
 11
162.1999
 21
-9.29998
  0
LINE
  8
0
  6
CONTINUOUS
 62
     7
 10
162.1999
 20
-8.69997
 11
162.1999
 21
-9.29998
  0
LINE
  8
0
  6
CONTINUOUS
 62
     7
 10
163.1999
 20
-10.29998
 11
163.1999
 21
-10.09998
  0
LINE
  8
0
  6
CENTER
 62
     2
 10
163.4999
 20
-6.09554
 11
163.4999
 21
-11.89274
  0
LINE
  8
0
  6
CONTINUOUS
 62
     7
 10
163.7999
 20
-10.29998
 11
163.7999
 21
-10.09998
  0
LINE
  8
0
  6
CONTINUOUS
 62
     7
 10
163.7999
 20
-10.29998
 11
163.1999
 21
-10.29998
  0
LINE
  8
0
  6
CONTINUOUS
 62
     7
 10
164.7999
 20
-22.69997
 11
164.5999
 21
-22.69997
  0
LINE
  8
0
  6
CENTER
 62
     2
 10
166.5682
 20
-22.99998
 11
160.449
 21
-22.99998
  0
LINE
  8
0
  6
CONTINUOUS
 62
     7
 10
164.7999
 20
-23.29998
 11
164.7999
 21
-22.69997
  0
LINE
  8
0
  6
CONTINUOUS
 62
     7
 10
164.7999
 20
-23.29998
 11
164.5999
 21
-23.29998
  0
LINE
  8
0
  6
CONTINUOUS
 62
     7
 10
163.7999
 20
-24.09997
 11
163.7999
 21
-24.29997
  0
LINE
  8
0
  6
CONTINUOUS
 62
     7
 10
163.7999
 20
-24.29997
 11
163.1999
 21
-24.29997
  0
LINE
  8
0
  6
CONTINUOUS
 62
     7
 10
163.1999
 20
-24.09997
 11
163.1999
 21
-24.29997
  0
LINE
  8
0
  6
CONTINUOUS
 62
     7
 10
162.3999
 20
-23.29998
 11
162.1999
 21
-23.29998
  0
LINE
  8
0
  6
CONTINUOUS
 62
     7
 10
162.3999
 20
-22.69997
 11
162.1999
 21
-22.69997
  0
LINE
  8
0
  6
CONTINUOUS
 62
     7
 10
162.1999
 20
-23.29998
 11
162.1999
 21
-22.69997
  0
LINE
  8
0
  6
CONTINUOUS
 62
     7
 10
163.1999
 20
-21.69997
 11
163.1999
 21
-21.89997
  0
LINE
  8
0
  6
CENTER
 62
     2
 10
163.4999
 20
-25.90441
 11
163.4999
 21
-20.10721
  0
LINE
  8
0
  6
CONTINUOUS
 62
     7
 10
163.7999
 20
-21.69997
 11
163.7999
 21
-21.89997
  0
LINE
  8
0
  6
CONTINUOUS
 62
     7
 10
163.7999
 20
-21.69997
 11
163.1999
 21
-21.69997
  0
LINE
  8
0
  6
CONTINUOUS
 62
     7
 10
147.4999
 20
-24.03075
 11
147.4999
 21
-24.99998
  0
LINE
  8
0
  6
CONTINUOUS
 62
     7
 10
150.5307
 20
-24.99998
 11
162.4691
 21
-24.99998
  0
LINE
  8
0
  6
CONTINUOUS
 62
     7
 10
164.5307
 20
-24.99998
 11
165.4999
 21
-24.99998
  0
LINE
  8
0
  6
CONTINUOUS
 62
     7
 10
165.4999
 20
-24.03075
 11
165.4999
 21
-24.99998
  0
LINE
  8
0
  6
CONTINUOUS
 62
     7
 10
165.4999
 20
-10.03075
 11
165.4999
 21
-21.9692
  0
LINE
  8
0
  6
CONTINUOUS
 62
     7
 10
164.5307
 20
-6.99998
 11
165.4999
 21
-6.99998
  0
LINE
  8
0
  6
CENTER
 62
     2
 10
143.9999
 20
-15.99998
 11
168.9999
 21
-15.99998
  0
LINE
  8
0
  6
CENTER
 62
     2
 10
156.4999
 20
-3.49998
 11
156.4999
 21
-28.49998
  0
LINE
  8
0
  6
CONTINUOUS
 62
     7
 10
147.9999
 20
-5.99998
 11
147.9999
 21
-6.99998
  0
LINE
  8
0
  6
CONTINUOUS
 62
     7
 10
164.9999
 20
-5.99998
 11
164.9999
 21
-6.99998
  0
LINE
  8
0
  6
CENTER
 62
     2
 10
-169.0
 20
-15.99998
 11
-144.0
 21
-15.99998
  0
LINE
  8
0
  6
CENTER
 62
     2
 10
-156.5
 20
-3.49998
 11
-156.5
 21
-28.49998
  0
LINE
  8
0
  6
CONTINUOUS
 62
     7
 10
-147.5
 20
-6.99998
 11
-147.5
 21
-24.99998
  0
LINE
  8
0
  6
CONTINUOUS
 62
     7
 10
-165.5
 20
-6.99998
 11
-165.5
 21
-24.99998
  0
LINE
  8
0
  6
CONTINUOUS
 62
     7
 10
-165.5
 20
-24.99998
 11
-147.5
 21
-24.99998
  0
LINE
  8
0
  6
CONTINUOUS
 62
     7
 10
-165.5
 20
-6.99998
 11
-147.5
 21
-6.99998
  0
LINE
  8
0
  6
CONTINUOUS
 62
     7
 10
-156.5
 20
-9.69058
 11
-156.5
 21
-14.30939
  0
LINE
  8
0
  6
CONTINUOUS
 62
     7
 10
-148.5
 20
-9.69058
 11
-148.5
 21
-14.30939
  0
LINE
  8
0
  6
CONTINUOUS
 62
     7
 10
-156.5
 20
-9.69059
 11
-152.5
 21
-7.38119
  0
LINE
  8
0
  6
CONTINUOUS
 62
     7
 10
-152.5
 20
-16.61879
 11
-148.5
 21
-14.30939
  0
LINE
  8
0
  6
CONTINUOUS
 62
     7
 10
-152.5
 20
-7.38119
 11
-148.5
 21
-9.69059
  0
LINE
  8
0
  6
CONTINUOUS
 62
     7
 10
-156.5
 20
-14.3094
 11
-152.5
 21
-16.6188
  0
LINE
  8
0
  6
CENTER
 62
     2
 10
-160.5
 20
-11.99998
 11
-144.5
 21
-11.99998
  0
LINE
  8
0
  6
CENTER
 62
     2
 10
-152.5
 20
-3.99998
 11
-152.5
 21
-19.99998
  0
LINE
  8
0
  6
CONTINUOUS
 62
     7
 10
-165.0
 20
-5.99998
 11
-165.0
 21
-6.99998
  0
LINE
  8
0
  6
CONTINUOUS
 62
     7
 10
-148.0
 20
-5.99998
 11
-148.0
 21
-6.99998
  0
ARC
  8
0
  6
CONTINUOUS
 62
     7
 10
193.0652
 20
-166.2024
 40
1.56404
 50
0.0
 51
89.99999
  0
ARC
  8
0
  6
CONTINUOUS
 62
     7
 10
205.9686
 20
-174.6092
 40
1.56404
 50
270.0
 51
0.0
  0
ARC
  8
0
  6
CONTINUOUS
 62
     7
 10
205.1865
 20
-166.9844
 40
2.34607
 50
0.0
 51
89.99999
  0
ARC
  8
0
  6
CONTINUOUS
 62
     7
 10
219.4585
 20
-166.2024
 40
1.56404
 50
0.0
 51
89.99999
  0
ARC
  8
0
  6
CONTINUOUS
 62
     7
 10
219.4585
 20
-167.4519
 40
1.56405
 50
295.0
 51
0.0
  0
ARC
  8
0
  6
CONTINUOUS
 62
     7
 10
231.5798
 20
-164.6383
 40
2.34607
 50
291.6882
 51
0.0
  0
ARC
  8
0
  6
CONTINUOUS
 62
     7
 10
230.7978
 20
-164.1077
 40
0.78203
 50
291.688
 51
0.0
  0
CIRCLE
  8
0
  6
PHANTOM
 62
     2
 10
5.00001
 20
107.5
 40
2.1
  0
CIRCLE
  8
0
  6
PHANTOM
 62
     2
 10
-14.99999
 20
107.5
 40
2.1
  0
CIRCLE
  8
0
  6
PHANTOM
 62
     2
 10
5.0
 20
135.5
 40
2.1
  0
CIRCLE
  8
0
  6
PHANTOM
 62
     2
 10
-15.0
 20
135.5
 40
2.1
  0
ARC
  8
0
  6
PHANTOM
 62
     2
 10
-36.0
 20
121.5
 40
3.5
 50
73.03181
 51
180.0
  0
ARC
  8
0
  6
PHANTOM
 62
     2
 10
52.2
 20
122.8
 40
1.7
 50
0.0
 51
180.0
  0
CIRCLE
  8
0
  6
PHANTOM
 62
     2
 10
52.2
 20
122.8
 40
0.85
  0
ARC
  8
0
  6
PHANTOM
 62
     2
 10
52.2
 20
120.2
 40
1.7
 50
180.0
 51
0.0
  0
CIRCLE
  8
0
  6
PHANTOM
 62
     2
 10
52.2
 20
120.2
 40
0.85
  0
ARC
  8
0
  6
PHANTOM
 62
     2
 10
-33.9
 20
130.0
 40
0.5
 50
89.99999
 51
180.0
  0
ARC
  8
0
  6
PHANTOM
 62
     2
 10
-33.90001
 20
113.0
 40
0.5
 50
180.0
 51
270.0
  0
CIRCLE
  8
0
  6
PHANTOM
 62
     2
 10
-154.5
 20
-57.99999
 40
4.864
  0
CIRCLE
  8
0
  6
PHANTOM
 62
     2
 10
-154.5
 20
-57.99999
 40
4.278
  0
CIRCLE
  8
0
  6
PHANTOM
 62
     2
 10
-162.5
 20
-40.99999
 40
4.864
  0
CIRCLE
  8
0
  6
PHANTOM
 62
     2
 10
-162.5
 20
-40.99999
 40
4.278
  0
ARC
  8
0
  6
PHANTOM
 62
     2
 10
-148.0
 20
-5.49999
 40
0.5
 50
270.0
 51
0.0
  0
ARC
  8
0
  6
PHANTOM
 62
     2
 10
-159.0
 20
21.00001
 40
0.5
 50
89.99999
 51
180.0
  0
ARC
  8
0
  6
PHANTOM
 62
     2
 10
-154.0
 20
21.00001
 40
0.5
 50
0.0
 51
89.99999
  0
ARC
  8
0
  6
PHANTOM
 62
     2
 10
-165.0
 20
-5.49999
 40
0.5
 50
179.9999
 51
270.0
  0
ARC
  8
0
  6
PHANTOM
 62
     2
 10
-165.0
 20
20.50001
 40
0.5
 50
89.99999
 51
180.0
  0
ARC
  8
0
  6
PHANTOM
 62
     2
 10
-148.0
 20
20.50001
 40
0.5
 50
0.0
 51
89.99999
  0
ARC
  8
0
  6
PHANTOM
 62
     2
 10
53.39999
 20
21.0
 40
0.5
 50
0.0
 51
89.99999
  0
ARC
  8
0
  6
PHANTOM
 62
     2
 10
51.0
 20
21.0
 40
0.5
 50
89.99999
 51
180.0
  0
ARC
  8
0
  6
PHANTOM
 62
     2
 10
-33.90002
 20
-5.49998
 40
0.5
 50
180.0
 51
270.0
  0
ARC
  8
0
  6
PHANTOM
 62
     2
 10
-33.9
 20
20.50002
 40
0.5
 50
89.99999
 51
180.0
  0
CIRCLE
  8
0
  6
PHANTOM
 62
     2
 10
14.99998
 20
-49.49999
 40
5.7225
  0
CIRCLE
  8
0
  6
PHANTOM
 62
     2
 10
-5.00002
 20
-49.49999
 40
5.7225
  0
CIRCLE
  8
0
  6
PHANTOM
 62
     2
 10
-25.00002
 20
-49.49998
 40
5.7225
  0
CIRCLE
  8
0
  6
PHANTOM
 62
     2
 10
14.99998
 20
-49.49999
 40
6.5785
  0
CIRCLE
  8
0
  6
PHANTOM
 62
     2
 10
-5.00002
 20
-49.49999
 40
6.5785
  0
CIRCLE
  8
0
  6
PHANTOM
 62
     2
 10
-25.00002
 20
-49.49998
 40
6.5785
  0
CIRCLE
  8
0
  6
PHANTOM
 62
     2
 10
25.99998
 20
-32.0
 40
2.067
  0
CIRCLE
  8
0
  6
PHANTOM
 62
     2
 10
-36.00002
 20
-31.99998
 40
2.067
  0
CIRCLE
  8
0
  6
CONTINUOUS
 62
     7
 10
25.99998
 20
-32.0
 40
2.5
  0
CIRCLE
  8
0
  6
CONTINUOUS
 62
     7
 10
-36.00002
 20
-31.99998
 40
2.5
  0
ARC
  8
0
  6
PHANTOM
 62
     2
 10
147.9999
 20
-5.49998
 40
0.5
 50
179.9999
 51
270.0
  0
ARC
  8
0
  6
PHANTOM
 62
     2
 10
147.9999
 20
20.50002
 40
0.5
 50
89.99999
 51
180.0
  0
ARC
  8
0
  6
PHANTOM
 62
     2
 10
164.9999
 20
20.50003
 40
0.5
 50
0.0
 51
89.99999
  0
ARC
  8
0
  6
PHANTOM
 62
     2
 10
164.9999
 20
-5.49997
 40
0.5
 50
270.0
 51
0.0
  0
ARC
  8
0
  6
PHANTOM
 62
     2
 10
153.9999
 20
21.00003
 40
0.5
 50
89.99999
 51
180.0
  0
ARC
  8
0
  6
PHANTOM
 62
     2
 10
158.9999
 20
21.00003
 40
0.5
 50
0.0
 51
89.99999
  0
ARC
  8
0
  6
PHANTOM
 62
     2
 10
163.4999
 20
-3.99997
 40
0.5
 50
270.0
 51
359.9999
  0
ARC
  8
0
  6
PHANTOM
 62
     2
 10
149.4999
 20
-3.99998
 40
0.5
 50
179.9999
 51
270.0
  0
ARC
  8
0
  6
CONTINUOUS
 62
     7
 10
52.70002
 20
114.5
 40
6.0
 50
344.5571
 51
355.2198
  0
ARC
  8
0
  6
CONTINUOUS
 62
     7
 10
57.71228
 20
113.1154
 40
0.8
 50
275.0
 51
344.5573
  0
ARC
  8
0
  6
CONTINUOUS
 62
     7
 10
52.70002
 20
128.5
 40
6.0
 50
4.78019
 51
15.44279
  0
ARC
  8
0
  6
CONTINUOUS
 62
     7
 10
57.71228
 20
129.8846
 40
0.8
 50
15.44221
 51
84.99994
  0
ARC
  8
0
  6
CONTINUOUS
 62
     7
 10
-37.96176
 20
120.95
 40
1.83824
 50
89.99999
 51
92.20576
  0
ARC
  8
0
  6
CONTINUOUS
 62
     7
 10
-34.6492
 20
115.5
 40
5.1508
 50
157.1519
 51
202.8481
  0
ARC
  8
0
  6
CONTINUOUS
 62
     7
 10
-34.6492
 20
119.5
 40
5.15079
 50
157.1519
 51
202.848
  0
ARC
  8
0
  6
CONTINUOUS
 62
     7
 10
57.71226
 20
-10.38462
 40
0.8
 50
275.0
 51
344.5573
  0
ARC
  8
0
  6
CONTINUOUS
 62
     7
 10
57.71226
 20
-7.61535
 40
0.8
 50
15.44267
 51
84.99997
  0
ARC
  8
0
  6
CONTINUOUS
 62
     7
 10
52.69999
 20
-8.99999
 40
6.0
 50
344.5573
 51
15.44279
  0
ARC
  8
0
  6
CONTINUOUS
 62
     7
 10
52.69999
 20
-22.99999
 40
6.0
 50
344.5571
 51
15.44262
  0
ARC
  8
0
  6
CONTINUOUS
 62
     7
 10
57.71226
 20
-21.61536
 40
0.8
 50
15.44261
 51
84.99996
  0
ARC
  8
0
  6
CONTINUOUS
 62
     7
 10
57.71226
 20
-24.38462
 40
0.8
 50
275.0
 51
344.5573
  0
ARC
  8
0
  6
CONTINUOUS
 62
     7
 10
-33.05327
 20
-11.99999
 40
6.74675
 50
160.068
 51
199.932
  0
ARC
  8
0
  6
CONTINUOUS
 62
     7
 10
-37.96178
 20
-8.54999
 40
1.83824
 50
89.99999
 51
92.20577
  0
ARC
  8
0
  6
CONTINUOUS
 62
     7
 10
-37.96178
 20
-15.44999
 40
1.83824
 50
141.2739
 51
218.726
  0
ARC
  8
0
  6
CONTINUOUS
 62
     7
 10
-37.96178
 20
-8.54999
 40
1.83824
 50
141.2739
 51
218.7261
  0
CIRCLE
  8
0
  6
CONTINUOUS
 62
     7
 10
156.4999
 20
-15.99998
 40
7.5
  0
CIRCLE
  8
0
  6
CONTINUOUS
 62
     7
 10
156.4999
 20
-15.99998
 40
6.0
  0
CIRCLE
  8
0
  6
CONTINUOUS
 62
     7
 10
156.4999
 20
-15.99998
 40
4.25
  0
CIRCLE
  8
0
  6
CONTINUOUS
 62
     7
 10
156.4999
 20
-15.99998
 40
5.4
  0
CIRCLE
  8
0
  6
CONTINUOUS
 62
     7
 10
149.4999
 20
-8.99998
 40
2.25
  0
ARC
  8
0
  6
CONTINUOUS
 62
     7
 10
150.5999
 20
-10.09998
 40
0.8
 50
89.99999
 51
179.9999
  0
ARC
  8
0
  6
CONTINUOUS
 62
     7
 10
148.3999
 20
-10.09998
 40
0.8
 50
0.0
 51
89.99999
  0
ARC
  8
0
  6
CONTINUOUS
 62
     7
 10
148.3999
 20
-7.89998
 40
0.8
 50
270.0
 51
0.0
  0
ARC
  8
0
  6
CONTINUOUS
 62
     7
 10
150.5999
 20
-7.89998
 40
0.8
 50
180.0
 51
270.0
  0
CIRCLE
  8
0
  6
CONTINUOUS
 62
     7
 10
149.4999
 20
-22.99998
 40
2.25
  0
ARC
  8
0
  6
CONTINUOUS
 62
     7
 10
148.3999
 20
-21.89997
 40
0.8
 50
270.0
 51
0.0
  0
ARC
  8
0
  6
CONTINUOUS
 62
     7
 10
148.3999
 20
-24.09997
 40
0.8
 50
0.0
 51
89.99999
  0
ARC
  8
0
  6
CONTINUOUS
 62
     7
 10
150.5999
 20
-24.09997
 40
0.8
 50
89.99999
 51
180.0
  0
ARC
  8
0
  6
CONTINUOUS
 62
     7
 10
150.5999
 20
-21.89997
 40
0.8
 50
180.0
 51
270.0
  0
CIRCLE
  8
0
  6
CONTINUOUS
 62
     7
 10
163.4999
 20
-8.99998
 40
2.25
  0
ARC
  8
0
  6
CONTINUOUS
 62
     7
 10
164.5999
 20
-10.09998
 40
0.8
 50
89.99999
 51
179.9999
  0
ARC
  8
0
  6
CONTINUOUS
 62
     7
 10
164.5999
 20
-7.89998
 40
0.8
 50
180.0
 51
270.0
  0
ARC
  8
0
  6
CONTINUOUS
 62
     7
 10
162.3999
 20
-7.89998
 40
0.8
 50
270.0
 51
0.0
  0
ARC
  8
0
  6
CONTINUOUS
 62
     7
 10
162.3999
 20
-10.09998
 40
0.8
 50
0.0
 51
89.99999
  0
CIRCLE
  8
0
  6
CONTINUOUS
 62
     7
 10
163.4999
 20
-22.99998
 40
2.25
  0
ARC
  8
0
  6
CONTINUOUS
 62
     7
 10
164.5999
 20
-21.89997
 40
0.8
 50
180.0
 51
270.0
  0
ARC
  8
0
  6
CONTINUOUS
 62
     7
 10
164.5999
 20
-24.09997
 40
0.8
 50
89.99999
 51
180.0
  0
ARC
  8
0
  6
CONTINUOUS
 62
     7
 10
162.3999
 20
-24.09997
 40
0.8
 50
0.0
 51
89.99999
  0
ARC
  8
0
  6
CONTINUOUS
 62
     7
 10
162.3999
 20
-21.89997
 40
0.8
 50
270.0
 51
0.0
  0
CIRCLE
  8
0
  6
CONTINUOUS
 62
     7
 10
-152.5
 20
-11.99998
 40
4.0
  0
CIRCLE
  8
0
  6
CONTINUOUS
 62
     7
 10
-152.5
 20
-11.99998
 40
4.6
  0
TEXT
  8
0
  6
CONTINUOUS
 62
     7
 10
161.9774
 20
167.0677
 40
6.0
  1
DATE : AUG ,1989
 41
0.8
  7
STANDARD
  0
TEXT
  8
0
  6
CONTINUOUS
 62
     7
 10
-258.1601
 20
166.5977
 40
7.0
  1
180 SUB BASE REG
 41
0.72727
  7
STANDARD
  0
TEXT
  8
0
  6
CONTINUOUS
 62
     7
 10
-229.2471
 20
127.675
 40
7.0
  1
MODEL : 180M*A-52
 41
0.8
  7
STANDARD
  0
TEXT
  8
0
  6
CONTINUOUS
 62
     7
 10
-165.9085
 20
-59.08159
 40
2.0
  1
A
 41
0.8
  7
STANDARD
  0
TEXT
  8
0
  6
CONTINUOUS
 62
     7
 10
-152.1143
 20
-41.93999
 40
2.0
  1
B
 41
0.8
  7
STANDARD
  0
TEXT
  8
0
  6
CONTINUOUS
 62
     7
 10
14.42277
 20
-32.90362
 40
2.0
  1
PR1
 41
0.8
  7
STANDARD
  0
TEXT
  8
0
  6
CONTINUOUS
 62
     7
 10
-30.29758
 20
-32.90361
 40
2.0
  1
PR2
 41
0.8
  7
STANDARD
  0
TEXT
  8
0
  6
CONTINUOUS
 62
     7
 10
-3.01495
 20
-41.19521
 40
2.0
  1
P
 41
0.8
  7
STANDARD
  0
TEXT
  8
0
  6
CONTINUOUS
 62
     7
 10
13.38385
 20
-61.04073
 40
2.0
  1
R1
 41
0.8
  7
STANDARD
  0
TEXT
  8
0
  6
CONTINUOUS
 62
     7
 10
-26.71496
 20
-61.04072
 40
2.0
  1
R2
 41
0.8
  7
STANDARD
  0
TEXT
  8
0
  6
CONTINUOUS
 62
     7
 10
-195.24571576
 20
117.675
 40
7.0
  1
              -54
 41
0.8
  7
STANDARD
  0
ENDSEC
  0
EOF
