  0
SECTION
  2
HEADER
  9
$ACADVER
  1
AC1002
  9
$INSBASE
 10
0.0
 20
0.0
  9
$EXTMIN
 10
-131.1236
 20
-90.00001
  9
$EXTMAX
 10
131.1236
 20
90.00001
  9
$LIMMIN
 10
0.0
 20
0.0
  9
$LIMMAX
 10
12.0
 20
9.0
  9
$VIEWCTR
 10
10.11492432
 20
0.0
  9
$VIEWSIZE
 40
180.00002
  9
$SNAPMODE
 70
     0
  9
$SNAPUNIT
 10
1.0
 20
1.0
  9
$SNAPBASE
 10
0.0
 20
0.0
  9
$SNAPANG
 50
0.0
  9
$SNAPSTYLE
 70
     0
  9
$SNAPISOPAIR
 70
     0
  9
$GRIDMODE
 70
     0
  9
$GRIDUNIT
 10
0.0
 20
0.0
  9
$ORTHOMODE
 70
     0
  9
$REGENMODE
 70
     1
  9
$FILLMODE
 70
     1
  9
$QTEXTMODE
 70
     0
  9
$DRAGMODE
 70
     2
  9
$LTSCALE
 40
1.0
  9
$OSMODE
 70
     0
  9
$ATTMODE
 70
     1
  9
$TEXTSIZE
 40
0.2
  9
$TRACEWID
 40
0.05
  9
$TEXTSTYLE
  7
AAA
  9
$CLAYER
  8
0
  9
$CELTYPE
  6
BYLAYER
  9
$CECOLOR
 62
   256
  9
$DIMSCALE
 40
1.0
  9
$DIMASZ
 40
0.18
  9
$DIMEXO
 40
0.0625
  9
$DIMDLI
 40
0.38
  9
$DIMRND
 40
0.0
  9
$DIMDLE
 40
0.0
  9
$DIMEXE
 40
0.18
  9
$DIMTP
 40
0.0
  9
$DIMTM
 40
0.0
  9
$DIMTXT
 40
0.18
  9
$DIMCEN
 40
0.09
  9
$DIMTSZ
 40
0.0
  9
$DIMTOL
 70
     0
  9
$DIMLIM
 70
     0
  9
$DIMTIH
 70
     1
  9
$DIMTOH
 70
     1
  9
$DIMSE1
 70
     0
  9
$DIMSE2
 70
     0
  9
$DIMTAD
 70
     0
  9
$DIMZIN
 70
     0
  9
$DIMBLK
  1

  9
$LUNITS
 70
     2
  9
$LUPREC
 70
     4
  9
$AXISMODE
 70
     0
  9
$AXISUNIT
 10
0.0
 20
0.0
  9
$SKETCHINC
 40
0.1
  9
$FILLETRAD
 40
0.0
  9
$AUNITS
 70
     0
  9
$AUPREC
 70
     0
  9
$MENU
  1
ACAD
  9
$ELEVATION
 40
0.0
  9
$THICKNESS
 40
0.0
  9
$VIEWDIR
 10
0.0
 20
0.0
 30
1.0
  9
$LIMCHECK
 70
     0
  9
$BLIPMODE
 70
     1
  9
$CHAMFERA
 40
0.0
  9
$CHAMFERB
 40
0.0
  9
$FASTZOOM
 70
     1
  9
$SKPOLY
 70
     0
  9
$TDCREATE
 40
2447875.8019213460
  9
$TDUPDATE
 40
2447875.8019213460
  9
$TDINDWG
 40
0.0037152778
  9
$TDUSRTIMER
 40
0.0037152778
  9
$USRTIMER
 70
     1
  9
$ANGBASE
 50
0.0
  9
$ANGDIR
 70
     0
  9
$PDMODE
 70
     0
  9
$PDSIZE
 40
0.0
  9
$PLINEWID
 40
0.0
  9
$COORDS
 70
     0
  9
$USERI1
 70
     0
  9
$USERI2
 70
     0
  9
$USERI3
 70
     0
  9
$USERI4
 70
     0
  9
$USERI5
 70
     0
  9
$USERR1
 40
0.0
  9
$USERR2
 40
0.0
  9
$USERR3
 40
0.0
  9
$USERR4
 40
0.0
  9
$USERR5
 40
0.0
  0
ENDSEC
  0
SECTION
  2
TABLES
  0
TABLE
  2
LTYPE
 70
     3
  0
LTYPE
  2
CONTINUOUS
 70
    64
  3
SOLID
 72
    65
 73
     0
 40
0.0
  0
LTYPE
  2
CENTER
 70
    64
  3
CENTER
 72
    65
 73
     4
 40
2.0
 49
1.25
 49
-0.25
 49
0.25
 49
-0.25
  0
LTYPE
  2
PHANTOM
 70
    64
  3
PHANTOM
 72
    65
 73
     6
 40
2.5
 49
1.25
 49
-0.25
 49
0.25
 49
-0.25
 49
0.25
 49
-0.25
  0
ENDTAB
  0
TABLE
  2
LAYER
 70
     1
  0
LAYER
  2
0
 70
    64
 62
     7
  6
CONTINUOUS
  0
ENDTAB
  0
TABLE
  2
STYLE
 70
     2
  0
STYLE
  2
AAA
 70
     0
 40
0.0
 41
1.0
 50
0.0
 71
     0
 42
0.2
  3
TXT
  4

  0
STYLE
  2
STANDARD
 70
    64
 40
0.0
 41
1.0
 50
0.0
 71
     0
 42
0.2
  3
TXT
  4
BIGFONT
  0
ENDTAB
  0
TABLE
  2
VIEW
 70
     0
  0
ENDTAB
  0
ENDSEC
  0
SECTION
  2
BLOCKS
  0
ENDSEC
  0
SECTION
  2
ENTITIES
  0
POINT
  8
0
  6
CONTINUOUS
 62
     7
 10
-38.0
 20
10.7
  0
POINT
  8
0
  6
CONTINUOUS
 62
     7
 10
-31.5
 20
10.7
  0
POINT
  8
0
  6
CONTINUOUS
 62
     7
 10
41.21839
 20
10.7
  0
POINT
  8
0
  6
CONTINUOUS
 62
     7
 10
44.21839
 20
10.7
  0
LINE
  8
0
  6
CONTINUOUS
 62
     7
 10
-131.1236
 20
-90.00001
 11
-131.1236
 21
90.00001
  0
LINE
  8
0
  6
CONTINUOUS
 62
     7
 10
131.1236
 20
90.00001
 11
131.1236
 21
-90.00001
  0
LINE
  8
0
  6
CONTINUOUS
 62
     7
 10
-131.1236
 20
-90.00001
 11
131.1236
 21
-90.00001
  0
LINE
  8
0
  6
CONTINUOUS
 62
     7
 10
-131.1236
 20
90.00001
 11
131.1236
 21
90.00001
  0
LINE
  8
0
  6
CONTINUOUS
 62
     7
 10
-131.1236
 20
79.88764
 11
-77.19102
 21
79.88764
  0
LINE
  8
0
  6
CONTINUOUS
 62
     7
 10
-77.19102
 20
79.88764
 11
-77.19102
 21
90.00001
  0
LINE
  8
0
  6
CONTINUOUS
 62
     7
 10
77.19101
 20
-79.88764
 11
131.1236
 21
-79.88764
  0
LINE
  8
0
  6
CONTINUOUS
 62
     7
 10
91.35169
 20
-82.31916
 11
96.53259
 21
-82.31916
  0
LINE
  8
0
  6
CONTINUOUS
 62
     7
 10
91.35169
 20
-86.91354
 11
95.75056
 21
-86.91354
  0
LINE
  8
0
  6
CONTINUOUS
 62
     7
 10
91.35169
 20
-88.08657
 11
97.31461
 21
-88.08657
  0
LINE
  8
0
  6
CONTINUOUS
 62
     7
 10
91.35169
 20
-83.49218
 11
95.75056
 21
-83.49218
  0
LINE
  8
0
  6
CONTINUOUS
 62
     7
 10
91.35169
 20
-82.31916
 11
91.35169
 21
-83.49218
  0
LINE
  8
0
  6
CONTINUOUS
 62
     7
 10
97.31461
 20
-83.10118
 11
97.31461
 21
-88.08657
  0
LINE
  8
0
  6
CONTINUOUS
 62
     7
 10
95.75056
 20
-83.49218
 11
95.75056
 21
-86.91354
  0
LINE
  8
0
  6
CONTINUOUS
 62
     7
 10
98.19438
 20
-82.31916
 11
98.19438
 21
-83.49218
  0
LINE
  8
0
  6
CONTINUOUS
 62
     7
 10
103.7663
 20
-83.49218
 11
103.7663
 21
-87.30457
  0
LINE
  8
0
  6
CONTINUOUS
 62
     7
 10
102.2023
 20
-83.49218
 11
102.2023
 21
-86.91354
  0
LINE
  8
0
  6
CONTINUOUS
 62
     7
 10
91.35169
 20
-86.91354
 11
91.35169
 21
-88.08657
  0
LINE
  8
0
  6
CONTINUOUS
 62
     7
 10
98.19438
 20
-82.31916
 11
99.73978
 21
-82.31916
  0
LINE
  8
0
  6
CONTINUOUS
 62
     7
 10
98.19438
 20
-88.08657
 11
99.4088
 21
-88.08657
  0
LINE
  8
0
  6
CONTINUOUS
 62
     7
 10
98.19463
 20
-88.08676
 11
99.4257
 21
-83.49239
  0
LINE
  8
0
  6
CONTINUOUS
 62
     7
 10
98.19438
 20
-83.49218
 11
99.42545
 21
-83.49218
  0
LINE
  8
0
  6
CONTINUOUS
 62
     7
 10
99.40903
 20
-88.08674
 11
100.6401
 21
-83.49235
  0
LINE
  8
0
  6
CONTINUOUS
 62
     7
 10
101.0292
 20
-86.91354
 11
102.2023
 21
-86.91354
  0
LINE
  8
0
  6
CONTINUOUS
 62
     7
 10
101.0291
 20
-86.91348
 11
101.3434
 21
-88.08647
  0
LINE
  8
0
  6
CONTINUOUS
 62
     7
 10
101.3435
 20
-88.08657
 11
102.9843
 21
-88.08657
  0
LINE
  8
0
  6
CONTINUOUS
 62
     7
 10
100.6399
 20
-83.49218
 11
102.2023
 21
-83.49218
  0
LINE
  8
0
  6
CONTINUOUS
 62
     7
 10
100.9542
 20
-82.31916
 11
102.5933
 21
-82.31916
  0
LINE
  8
0
  6
CONTINUOUS
 62
     7
 10
99.73981
 20
-82.31919
 11
99.97292
 21
-81.44921
  0
LINE
  8
0
  6
CONTINUOUS
 62
     7
 10
100.9542
 20
-82.31916
 11
101.1873
 21
-81.44919
  0
LINE
  8
0
  6
CONTINUOUS
 62
     7
 10
104.7438
 20
-82.31916
 11
106.6011
 21
-82.31916
  0
LINE
  8
0
  6
CONTINUOUS
 62
     7
 10
104.7438
 20
-83.49218
 11
109.3053
 21
-83.49218
  0
LINE
  8
0
  6
CONTINUOUS
 62
     7
 10
106.6011
 20
-88.08657
 11
108.1652
 21
-88.08657
  0
LINE
  8
0
  6
CONTINUOUS
 62
     7
 10
104.7438
 20
-82.31916
 11
104.7438
 21
-83.49218
  0
LINE
  8
0
  6
CONTINUOUS
 62
     7
 10
110.5112
 20
-85.61926
 11
110.5112
 21
-86.91354
  0
LINE
  8
0
  6
CONTINUOUS
 62
     7
 10
104.7437
 20
-86.91345
 11
106.601
 21
-86.04738
  0
LINE
  8
0
  6
CONTINUOUS
 62
     7
 10
104.7438
 20
-85.61927
 11
109.3053
 21
-83.4922
  0
LINE
  8
0
  6
CONTINUOUS
 62
     7
 10
104.7438
 20
-85.61926
 11
104.7438
 21
-86.91354
  0
LINE
  8
0
  6
CONTINUOUS
 62
     7
 10
108.1652
 20
-85.81956
 11
110.5112
 21
-86.91356
  0
LINE
  8
0
  6
CONTINUOUS
 62
     7
 10
109.0154
 20
-84.92177
 11
110.5113
 21
-85.61932
  0
LINE
  8
0
  6
CONTINUOUS
 62
     7
 10
110.5112
 20
-83.10118
 11
110.5112
 21
-83.72594
  0
LINE
  8
0
  6
CONTINUOUS
 62
     7
 10
106.6011
 20
-81.44916
 11
106.6011
 21
-82.31916
  0
LINE
  8
0
  6
CONTINUOUS
 62
     7
 10
108.1652
 20
-81.44916
 11
108.1652
 21
-82.31916
  0
LINE
  8
0
  6
CONTINUOUS
 62
     7
 10
108.1652
 20
-82.31916
 11
109.7292
 21
-82.31916
  0
LINE
  8
0
  6
CONTINUOUS
 62
     7
 10
106.6011
 20
-86.04747
 11
106.6011
 21
-88.08657
  0
LINE
  8
0
  6
CONTINUOUS
 62
     7
 10
108.1652
 20
-85.81956
 11
108.1652
 21
-88.08657
  0
LINE
  8
0
  6
CONTINUOUS
 62
     7
 10
109.0153
 20
-84.92168
 11
110.0597
 21
-84.43469
  0
LINE
  8
0
  6
CONTINUOUS
 62
     7
 10
115.7899
 20
-81.80107
 11
116.9629
 21
-81.80107
  0
LINE
  8
0
  6
CONTINUOUS
 62
     7
 10
111.0
 20
-84.22416
 11
111.0
 21
-85.48656
  0
LINE
  8
0
  6
CONTINUOUS
 62
     7
 10
116.9629
 20
-81.80107
 11
116.9629
 21
-82.31916
  0
LINE
  8
0
  6
CONTINUOUS
 62
     7
 10
115.7899
 20
-81.80107
 11
115.7899
 21
-82.05386
  0
LINE
  8
0
  6
CONTINUOUS
 62
     7
 10
114.2258
 20
-84.20361
 11
114.2258
 21
-88.08657
  0
LINE
  8
0
  6
CONTINUOUS
 62
     7
 10
111.0001
 20
-84.22427
 11
115.5435
 21
-82.41731
  0
LINE
  8
0
  6
CONTINUOUS
 62
     7
 10
111.0
 20
-85.48662
 11
114.2259
 21
-84.20366
  0
LINE
  8
0
  6
CONTINUOUS
 62
     7
 10
114.2258
 20
-88.08657
 11
115.7899
 21
-88.08657
  0
LINE
  8
0
  6
CONTINUOUS
 62
     7
 10
115.7899
 20
-83.58156
 11
115.7899
 21
-88.08657
  0
LINE
  8
0
  6
CONTINUOUS
 62
     7
 10
115.79
 20
-83.58161
 11
116.2235
 21
-83.40919
  0
LINE
  8
0
  6
CONTINUOUS
 62
     7
 10
99.87858
 20
-81.44916
 11
101.1873
 21
-81.44916
  0
LINE
  8
0
  6
CONTINUOUS
 62
     7
 10
103.1309
 20
-81.44916
 11
103.6294
 21
-81.44916
  0
LINE
  8
0
  6
CONTINUOUS
 62
     7
 10
106.6011
 20
-81.44916
 11
108.1652
 21
-81.44916
  0
LINE
  8
0
  6
CONTINUOUS
 62
     7
 10
103.1309
 20
-82.23119
 11
103.6294
 21
-82.23119
  0
LINE
  8
0
  6
CONTINUOUS
 62
     7
 10
103.1309
 20
-81.44916
 11
103.1309
 21
-82.23119
  0
LINE
  8
0
  6
CONTINUOUS
 62
     7
 10
103.6294
 20
-81.44916
 11
103.6294
 21
-82.23119
  0
LINE
  8
0
  6
CONTINUOUS
 62
     7
 10
103.9227
 20
-81.44916
 11
103.9227
 21
-82.23119
  0
LINE
  8
0
  6
CONTINUOUS
 62
     7
 10
104.4799
 20
-81.44916
 11
104.4799
 21
-82.23119
  0
LINE
  8
0
  6
CONTINUOUS
 62
     7
 10
103.9227
 20
-81.44916
 11
104.4799
 21
-81.44916
  0
LINE
  8
0
  6
CONTINUOUS
 62
     7
 10
103.9227
 20
-82.23119
 11
104.4799
 21
-82.23119
  0
LINE
  8
0
  6
CONTINUOUS
 62
     7
 10
77.19101
 20
79.88764
 11
131.1236
 21
79.88764
  0
LINE
  8
0
  6
CONTINUOUS
 62
     7
 10
77.19101
 20
90.00001
 11
77.19101
 21
79.88764
  0
LINE
  8
0
  6
CONTINUOUS
 62
     7
 10
77.19101
 20
-79.88764
 11
77.19101
 21
-90.00001
  0
LINE
  8
0
  6
CENTER
 62
     2
 10
-51.5
 20
45.55001
 11
-51.5
 21
-47.15
  0
LINE
  8
0
  6
PHANTOM
 62
     2
 10
-38.0
 20
13.2
 11
-38.0
 21
-43.9
  0
LINE
  8
0
  6
PHANTOM
 62
     2
 10
-65.0
 20
13.2
 11
-65.0
 21
-43.9
  0
LINE
  8
0
  6
PHANTOM
 62
     2
 10
-63.99997
 20
14.19997
 11
-64.99997
 21
13.19997
  0
LINE
  8
0
  6
PHANTOM
 62
     2
 10
-39.0
 20
14.2
 11
-38.0
 21
13.2
  0
LINE
  8
0
  6
PHANTOM
 62
     2
 10
-63.5
 20
39.4
 11
-39.5
 21
39.4
  0
LINE
  8
0
  6
PHANTOM
 62
     2
 10
-63.99998
 20
14.2
 11
-39.0
 21
14.2
  0
LINE
  8
0
  6
PHANTOM
 62
     2
 10
-63.5
 20
40.4
 11
-63.5
 21
14.2
  0
LINE
  8
0
  6
PHANTOM
 62
     2
 10
-62.5
 20
42.4
 11
-40.50002
 21
42.4
  0
LINE
  8
0
  6
PHANTOM
 62
     2
 10
-63.5
 20
40.4
 11
-39.5
 21
40.4
  0
LINE
  8
0
  6
PHANTOM
 62
     2
 10
-63.5
 20
40.40001
 11
-62.5
 21
42.40001
  0
LINE
  8
0
  6
PHANTOM
 62
     2
 10
-39.50002
 20
40.39999
 11
-40.50002
 21
42.39999
  0
LINE
  8
0
  6
CENTER
 62
     2
 10
-14.5
 20
32.2
 11
-42.49999
 21
32.2
  0
LINE
  8
0
  6
PHANTOM
 62
     2
 10
-27.5
 20
33.05
 11
-31.49578
 21
33.05
  0
LINE
  8
0
  6
PHANTOM
 62
     2
 10
-27.5
 20
31.35
 11
-31.9513
 21
31.35
  0
LINE
  8
0
  6
PHANTOM
 62
     2
 10
-17.5
 20
32.52
 11
-27.5
 21
32.52
  0
LINE
  8
0
  6
PHANTOM
 62
     2
 10
-17.5
 20
31.88
 11
-27.5
 21
31.88
  0
LINE
  8
0
  6
PHANTOM
 62
     2
 10
-27.5
 20
31.35
 11
-27.5
 21
33.05
  0
LINE
  8
0
  6
PHANTOM
 62
     2
 10
-17.5
 20
31.88
 11
-17.5
 21
32.52
  0
LINE
  8
0
  6
PHANTOM
 62
     2
 10
-30.95988
 20
35.05
 11
-32.4872
 21
29.35
  0
LINE
  8
0
  6
PHANTOM
 62
     2
 10
-32.51281
 20
35.05
 11
-34.04012
 21
29.35001
  0
LINE
  8
0
  6
PHANTOM
 62
     2
 10
-33.0487
 20
33.05
 11
-37.5
 21
33.05
  0
LINE
  8
0
  6
PHANTOM
 62
     2
 10
-33.50422
 20
31.35
 11
-37.5
 21
31.35
  0
LINE
  8
0
  6
PHANTOM
 62
     2
 10
-65.0
 20
13.2
 11
-38.0
 21
13.2
  0
LINE
  8
0
  6
PHANTOM
 62
     2
 10
-39.5
 20
40.4
 11
-39.5
 21
14.2
  0
LINE
  8
0
  6
PHANTOM
 62
     2
 10
-64.5
 20
-44.4
 11
-38.5
 21
-44.4
  0
LINE
  8
0
  6
PHANTOM
 62
     2
 10
-38.0
 20
33.9
 11
-39.5
 21
33.9
  0
LINE
  8
0
  6
PHANTOM
 62
     2
 10
-37.5
 20
31.0
 11
-37.5
 21
33.4
  0
LINE
  8
0
  6
PHANTOM
 62
     2
 10
-38.0
 20
30.5
 11
-39.5
 21
30.5
  0
LINE
  8
0
  6
CENTER
 62
     2
 10
41.21839
 20
46.00001
 11
41.21839
 21
-47.52016
  0
LINE
  8
0
  6
PHANTOM
 62
     2
 10
50.21839
 20
13.2
 11
50.21839
 21
-43.90001
  0
LINE
  8
0
  6
PHANTOM
 62
     2
 10
32.21839
 20
13.2
 11
32.21839
 21
-43.90001
  0
LINE
  8
0
  6
PHANTOM
 62
     2
 10
39.9184
 20
33.9
 11
42.51841
 21
33.9
  0
LINE
  8
0
  6
PHANTOM
 62
     2
 10
39.9184
 20
30.5
 11
42.51841
 21
30.5
  0
LINE
  8
0
  6
PHANTOM
 62
     2
 10
49.21836
 20
14.19998
 11
50.21836
 21
13.19998
  0
LINE
  8
0
  6
PHANTOM
 62
     2
 10
33.21838
 20
14.20003
 11
32.21838
 21
13.20003
  0
LINE
  8
0
  6
PHANTOM
 62
     2
 10
32.71838
 20
-44.40001
 11
49.71838
 21
-44.40001
  0
LINE
  8
0
  6
PHANTOM
 62
     2
 10
33.71839
 20
40.40002
 11
33.71839
 21
14.2
  0
LINE
  8
0
  6
PHANTOM
 62
     2
 10
48.71839
 20
40.39996
 11
48.71839
 21
14.2
  0
LINE
  8
0
  6
PHANTOM
 62
     2
 10
33.2184
 20
14.2
 11
49.2184
 21
14.2
  0
LINE
  8
0
  6
PHANTOM
 62
     2
 10
48.71838
 20
40.39999
 11
47.71838
 21
42.39999
  0
LINE
  8
0
  6
PHANTOM
 62
     2
 10
33.71838
 20
40.40001
 11
34.71838
 21
42.4
  0
LINE
  8
0
  6
PHANTOM
 62
     2
 10
34.71838
 20
42.4
 11
47.71841
 21
42.4
  0
LINE
  8
0
  6
CENTER
 62
     2
 10
39.91839
 20
35.2
 11
39.91839
 21
29.2
  0
LINE
  8
0
  6
CENTER
 62
     2
 10
42.51839
 20
35.2
 11
42.51839
 21
29.2
  0
LINE
  8
0
  6
CENTER
 62
     2
 10
37.21841
 20
32.2
 11
45.21841
 21
32.2
  0
LINE
  8
0
  6
PHANTOM
 62
     2
 10
33.71839
 20
40.40002
 11
48.71839
 21
40.40002
  0
LINE
  8
0
  6
PHANTOM
 62
     2
 10
33.71839
 20
39.40002
 11
48.71839
 21
39.40002
  0
LINE
  8
0
  6
PHANTOM
 62
     2
 10
32.21839
 20
13.2
 11
50.21839
 21
13.2
  0
LINE
  8
0
  6
CENTER
 62
     2
 10
-29.42404
 20
10.7
 11
-43.49632
 21
10.7
  0
LINE
  8
0
  6
CONTINUOUS
 62
     7
 10
-31.5
 20
13.09999
 11
-31.5
 21
11.2
  0
LINE
  8
0
  6
CONTINUOUS
 62
     7
 10
-36.5
 20
13.09999
 11
-36.5
 21
8.3
  0
LINE
  8
0
  6
CONTINUOUS
 62
     7
 10
-32.10001
 20
13.7
 11
-35.89998
 21
13.7
  0
LINE
  8
0
  6
CONTINUOUS
 62
     7
 10
-32.10001
 20
7.7
 11
-35.89999
 21
7.7
  0
LINE
  8
0
  6
CONTINUOUS
 62
     7
 10
-31.49997
 20
13.10003
 11
-32.09998
 21
13.70004
  0
LINE
  8
0
  6
CONTINUOUS
 62
     7
 10
-31.49991
 20
8.29993
 11
-32.09991
 21
7.69992
  0
LINE
  8
0
  6
CONTINUOUS
 62
     7
 10
-35.89994
 20
7.70003
 11
-36.49995
 21
8.30004
  0
LINE
  8
0
  6
CONTINUOUS
 62
     7
 10
-36.49992
 20
13.09991
 11
-35.89991
 21
13.69991
  0
LINE
  8
0
  6
CONTINUOUS
 62
     7
 10
-32.10001
 20
13.7
 11
-32.10001
 21
11.2
  0
LINE
  8
0
  6
CONTINUOUS
 62
     7
 10
-35.89999
 20
13.7
 11
-35.89999
 21
7.7
  0
LINE
  8
0
  6
CONTINUOUS
 62
     7
 10
-36.5
 20
12.3
 11
-38.0
 21
12.3
  0
LINE
  8
0
  6
CONTINUOUS
 62
     7
 10
-36.5
 20
9.09999
 11
-38.0
 21
9.09999
  0
LINE
  8
0
  6
CONTINUOUS
 62
     7
 10
-31.5
 20
10.2
 11
-32.5
 21
10.2
  0
LINE
  8
0
  6
CONTINUOUS
 62
     7
 10
-31.5
 20
11.2
 11
-32.5
 21
11.2
  0
LINE
  8
0
  6
CONTINUOUS
 62
     7
 10
-32.5
 20
11.2
 11
-32.5
 21
10.2
  0
LINE
  8
0
  6
CONTINUOUS
 62
     7
 10
-31.5
 20
10.2
 11
-31.5
 21
8.3
  0
LINE
  8
0
  6
CONTINUOUS
 62
     7
 10
-32.10001
 20
10.2
 11
-32.10001
 21
7.7
  0
LINE
  8
0
  6
CONTINUOUS
 62
     7
 10
-32.09999
 20
8.94998
 11
-35.89998
 21
11.14391
  0
LINE
  8
0
  6
CONTINUOUS
 62
     7
 10
-32.10002
 20
7.79531
 11
-35.90001
 21
9.98923
  0
LINE
  8
0
  6
CONTINUOUS
 62
     7
 10
-32.49998
 20
10.33561
 11
-35.9
 21
12.29861
  0
LINE
  8
0
  6
CONTINUOUS
 62
     7
 10
-32.09998
 20
11.2594
 11
-35.89997
 21
13.45333
  0
LINE
  8
0
  6
CONTINUOUS
 62
     7
 10
-33.93496
 20
7.69999
 11
-35.90001
 21
8.83451
  0
LINE
  8
0
  6
CONTINUOUS
 62
     7
 10
-32.09999
 20
12.41412
 11
-34.32722
 21
13.70001
  0
LINE
  8
0
  6
CONTINUOUS
 62
     7
 10
-33.93494
 20
13.7
 11
-35.90001
 21
12.56547
  0
LINE
  8
0
  6
CONTINUOUS
 62
     7
 10
-32.10004
 20
13.6047
 11
-35.90002
 21
11.41078
  0
LINE
  8
0
  6
CONTINUOUS
 62
     7
 10
-32.10003
 20
12.45001
 11
-35.9
 21
10.2561
  0
LINE
  8
0
  6
CONTINUOUS
 62
     7
 10
-32.49998
 20
11.06435
 11
-35.9
 21
9.10135
  0
LINE
  8
0
  6
CONTINUOUS
 62
     7
 10
-32.10003
 20
10.14063
 11
-35.90001
 21
7.94671
  0
LINE
  8
0
  6
CONTINUOUS
 62
     7
 10
-32.09999
 20
8.98585
 11
-34.32723
 21
7.69996
  0
LINE
  8
0
  6
CONTINUOUS
 62
     7
 10
38.279
 20
11.3
 11
44.15778
 21
11.3
  0
LINE
  8
0
  6
CONTINUOUS
 62
     7
 10
38.279
 20
10.1
 11
44.15778
 21
10.1
  0
LINE
  8
0
  6
CENTER
 62
     2
 10
36.71839
 20
10.7
 11
45.71839
 21
10.7
  0
LINE
  8
0
  6
CENTER
 62
     2
 10
41.21839
 20
15.2
 11
41.21839
 21
6.2
  0
ARC
  8
0
  6
CONTINUOUS
 62
     7
 10
96.53259
 20
-83.10118
 40
0.78202
 50
0.0
 51
89.99999
  0
ARC
  8
0
  6
CONTINUOUS
 62
     7
 10
102.9843
 20
-87.30457
 40
0.78202
 50
270.0
 51
0.0
  0
ARC
  8
0
  6
CONTINUOUS
 62
     7
 10
102.5933
 20
-83.49218
 40
1.17303
 50
0.0
 51
89.99999
  0
ARC
  8
0
  6
CONTINUOUS
 62
     7
 10
109.7292
 20
-83.10118
 40
0.78202
 50
0.0
 51
89.99999
  0
ARC
  8
0
  6
CONTINUOUS
 62
     7
 10
109.7292
 20
-83.72594
 40
0.78202
 50
295.0
 51
0.0
  0
ARC
  8
0
  6
CONTINUOUS
 62
     7
 10
115.7899
 20
-82.31916
 40
1.17304
 50
291.6882
 51
0.0
  0
ARC
  8
0
  6
CONTINUOUS
 62
     7
 10
115.3989
 20
-82.05386
 40
0.39101
 50
291.6885
 51
0.0
  0
ARC
  8
0
  6
PHANTOM
 62
     2
 10
-64.5
 20
-43.9
 40
0.5
 50
180.0
 51
270.0
  0
ARC
  8
0
  6
PHANTOM
 62
     2
 10
-38.5
 20
-43.9
 40
0.5
 50
270.0
 51
0.0
  0
ARC
  8
0
  6
PHANTOM
 62
     2
 10
-38.0
 20
33.4
 40
0.5
 50
0.0
 51
89.99999
  0
ARC
  8
0
  6
PHANTOM
 62
     2
 10
-38.0
 20
31.0
 40
0.5
 50
270.0
 51
0.0
  0
CIRCLE
  8
0
  6
PHANTOM
 62
     2
 10
42.51841
 20
32.2
 40
0.85
  0
ARC
  8
0
  6
PHANTOM
 62
     2
 10
42.51841
 20
32.2
 40
1.7
 50
270.0
 51
89.99999
  0
CIRCLE
  8
0
  6
PHANTOM
 62
     2
 10
39.9184
 20
32.2
 40
0.85
  0
ARC
  8
0
  6
PHANTOM
 62
     2
 10
39.9184
 20
32.2
 40
1.7
 50
89.99999
 51
270.0
  0
ARC
  8
0
  6
PHANTOM
 62
     2
 10
32.71838
 20
-43.90001
 40
0.5
 50
180.0
 51
270.0
  0
ARC
  8
0
  6
PHANTOM
 62
     2
 10
49.71838
 20
-43.90001
 40
0.5
 50
270.0
 51
0.0
  0
ARC
  8
0
  6
CONTINUOUS
 62
     7
 10
41.21839
 20
10.7
 40
2.4
 50
14.47747
 51
165.5225
  0
CIRCLE
  8
0
  6
CONTINUOUS
 62
     7
 10
41.21839
 20
10.7
 40
3.0
  0
ARC
  8
0
  6
CONTINUOUS
 62
     7
 10
41.21839
 20
10.7
 40
2.4
 50
194.4774
 51
345.5225
  0
TEXT
  8
0
  6
CONTINUOUS
 62
     7
 10
-118.575
 20
65.68834
 40
3.5
  1
MODEL : 181E1-83
 41
0.8
  7
STANDARD
  0
TEXT
  8
0
  6
CONTINUOUS
 62
     7
 10
80.98867
 20
83.53382
 40
3.0
  1
DATE : AUG,1989
 41
0.8
  7
STANDARD
  0
TEXT
  8
0
  6
CONTINUOUS
 62
     7
 10
-122.8223
 20
83.29883
 40
3.5
  1
180 ROCK SW
 41
0.8
  7
STANDARD
  0
ENDSEC
  0
EOF
