  0
SECTION
  2
HEADER
  9
$ACADVER
  1
AC1002
  9
$INSBASE
 10
0.0
 20
0.0
  9
$EXTMIN
 10
-370.8736
 20
-254.5585
  9
$EXTMAX
 10
370.8736
 20
254.5585
  9
$LIMMIN
 10
0.0
 20
0.0
  9
$LIMMAX
 10
12.0
 20
9.0
  9
$VIEWCTR
 10
28.6093211
 20
0.0
  9
$VIEWSIZE
 40
509.117
  9
$SNAPMODE
 70
     0
  9
$SNAPUNIT
 10
1.0
 20
1.0
  9
$SNAPBASE
 10
0.0
 20
0.0
  9
$SNAPANG
 50
0.0
  9
$SNAPSTYLE
 70
     0
  9
$SNAPISOPAIR
 70
     0
  9
$GRIDMODE
 70
     0
  9
$GRIDUNIT
 10
0.0
 20
0.0
  9
$ORTHOMODE
 70
     0
  9
$REGENMODE
 70
     1
  9
$FILLMODE
 70
     1
  9
$QTEXTMODE
 70
     0
  9
$DRAGMODE
 70
     2
  9
$LTSCALE
 40
1.0
  9
$OSMODE
 70
     0
  9
$ATTMODE
 70
     1
  9
$TEXTSIZE
 40
0.2
  9
$TRACEWID
 40
0.05
  9
$TEXTSTYLE
  7
AAA
  9
$CLAYER
  8
0
  9
$CELTYPE
  6
BYLAYER
  9
$CECOLOR
 62
   256
  9
$DIMSCALE
 40
1.0
  9
$DIMASZ
 40
0.18
  9
$DIMEXO
 40
0.0625
  9
$DIMDLI
 40
0.38
  9
$DIMRND
 40
0.0
  9
$DIMDLE
 40
0.0
  9
$DIMEXE
 40
0.18
  9
$DIMTP
 40
0.0
  9
$DIMTM
 40
0.0
  9
$DIMTXT
 40
0.18
  9
$DIMCEN
 40
0.09
  9
$DIMTSZ
 40
0.0
  9
$DIMTOL
 70
     0
  9
$DIMLIM
 70
     0
  9
$DIMTIH
 70
     1
  9
$DIMTOH
 70
     1
  9
$DIMSE1
 70
     0
  9
$DIMSE2
 70
     0
  9
$DIMTAD
 70
     0
  9
$DIMZIN
 70
     0
  9
$DIMBLK
  1

  9
$LUNITS
 70
     2
  9
$LUPREC
 70
     4
  9
$AXISMODE
 70
     0
  9
$AXISUNIT
 10
0.0
 20
0.0
  9
$SKETCHINC
 40
0.1
  9
$FILLETRAD
 40
0.0
  9
$AUNITS
 70
     0
  9
$AUPREC
 70
     0
  9
$MENU
  1
ACAD
  9
$ELEVATION
 40
0.0
  9
$THICKNESS
 40
0.0
  9
$VIEWDIR
 10
0.0
 20
0.0
 30
1.0
  9
$LIMCHECK
 70
     0
  9
$BLIPMODE
 70
     1
  9
$CHAMFERA
 40
0.0
  9
$CHAMFERB
 40
0.0
  9
$FASTZOOM
 70
     1
  9
$SKPOLY
 70
     0
  9
$TDCREATE
 40
2447875.6278125497
  9
$TDUPDATE
 40
2447875.6278125497
  9
$TDINDWG
 40
0.0019560185
  9
$TDUSRTIMER
 40
0.0019560185
  9
$USRTIMER
 70
     1
  9
$ANGBASE
 50
0.0
  9
$ANGDIR
 70
     0
  9
$PDMODE
 70
     0
  9
$PDSIZE
 40
0.0
  9
$PLINEWID
 40
0.0
  9
$COORDS
 70
     0
  9
$USERI1
 70
     0
  9
$USERI2
 70
     0
  9
$USERI3
 70
     0
  9
$USERI4
 70
     0
  9
$USERI5
 70
     0
  9
$USERR1
 40
0.0
  9
$USERR2
 40
0.0
  9
$USERR3
 40
0.0
  9
$USERR4
 40
0.0
  9
$USERR5
 40
0.0
  0
ENDSEC
  0
SECTION
  2
TABLES
  0
TABLE
  2
LTYPE
 70
     3
  0
LTYPE
  2
CONTINUOUS
 70
    64
  3
SOLID
 72
    65
 73
     0
 40
0.0
  0
LTYPE
  2
CENTER
 70
    64
  3
CENTER
 72
    65
 73
     4
 40
2.0
 49
1.25
 49
-0.25
 49
0.25
 49
-0.25
  0
LTYPE
  2
PHANTOM
 70
    64
  3
PHANTOM
 72
    65
 73
     6
 40
2.5
 49
1.25
 49
-0.25
 49
0.25
 49
-0.25
 49
0.25
 49
-0.25
  0
ENDTAB
  0
TABLE
  2
LAYER
 70
     1
  0
LAYER
  2
0
 70
    64
 62
     7
  6
CONTINUOUS
  0
ENDTAB
  0
TABLE
  2
STYLE
 70
     2
  0
STYLE
  2
AAA
 70
     0
 40
0.0
 41
1.0
 50
0.0
 71
     0
 42
0.2
  3
TXT
  4

  0
STYLE
  2
STANDARD
 70
    64
 40
0.0
 41
1.0
 50
0.0
 71
     0
 42
0.2
  3
TXT
  4
BIGFONT
  0
ENDTAB
  0
TABLE
  2
VIEW
 70
     0
  0
ENDTAB
  0
ENDSEC
  0
SECTION
  2
BLOCKS
  0
ENDSEC
  0
SECTION
  2
ENTITIES
  0
POINT
  8
0
  6
CONTINUOUS
 62
     7
 10
-41.0
 20
197.2792
  0
POINT
  8
0
  6
CONTINUOUS
 62
     7
 10
-150.0
 20
197.2792
  0
POINT
  8
0
  6
CONTINUOUS
 62
     7
 10
-129.5
 20
156.2792
  0
POINT
  8
0
  6
CONTINUOUS
 62
     7
 10
-72.5
 20
156.2792
  0
POINT
  8
0
  6
CONTINUOUS
 62
     7
 10
-91.5
 20
156.2792
  0
POINT
  8
0
  6
CONTINUOUS
 62
     7
 10
-110.5
 20
156.2792
  0
POINT
  8
0
  6
CONTINUOUS
 62
     7
 10
-53.5
 20
156.2792
  0
POINT
  8
0
  6
CONTINUOUS
 62
     7
 10
-150.0
 20
-20.0
  0
POINT
  8
0
  6
CONTINUOUS
 62
     7
 10
-41.0
 20
-20.0
  0
POINT
  8
0
  6
CONTINUOUS
 62
     7
 10
-72.5
 20
5.0
  0
POINT
  8
0
  6
CONTINUOUS
 62
     7
 10
-129.5
 20
5.0
  0
POINT
  8
0
  6
CONTINUOUS
 62
     7
 10
-110.5
 20
5.0
  0
POINT
  8
0
  6
CONTINUOUS
 62
     7
 10
-91.5
 20
5.0
  0
POINT
  8
0
  6
CONTINUOUS
 62
     7
 10
-53.5
 20
5.0
  0
POINT
  8
0
  6
CONTINUOUS
 62
     7
 10
-150.0
 20
-197.2792
  0
POINT
  8
0
  6
CONTINUOUS
 62
     7
 10
-41.0
 20
-197.2792
  0
POINT
  8
0
  6
CONTINUOUS
 62
     7
 10
-129.5
 20
-156.2792
  0
POINT
  8
0
  6
CONTINUOUS
 62
     7
 10
-72.5
 20
-156.2792
  0
POINT
  8
0
  6
CONTINUOUS
 62
     7
 10
-91.5
 20
-156.2792
  0
POINT
  8
0
  6
CONTINUOUS
 62
     7
 10
-110.5
 20
-156.2792
  0
POINT
  8
0
  6
CONTINUOUS
 62
     7
 10
-142.0
 20
-172.2792
  0
POINT
  8
0
  6
CONTINUOUS
 62
     7
 10
-123.0
 20
-172.2792
  0
POINT
  8
0
  6
CONTINUOUS
 62
     7
 10
-104.0
 20
-172.2792
  0
POINT
  8
0
  6
CONTINUOUS
 62
     7
 10
-85.0
 20
-172.2792
  0
POINT
  8
0
  6
CONTINUOUS
 62
     7
 10
-66.0
 20
-172.2792
  0
POINT
  8
0
  6
CONTINUOUS
 62
     7
 10
-58.0
 20
-189.2792
  0
POINT
  8
0
  6
CONTINUOUS
 62
     7
 10
-77.0
 20
-189.2792
  0
POINT
  8
0
  6
CONTINUOUS
 62
     7
 10
-96.0
 20
-189.2792
  0
POINT
  8
0
  6
CONTINUOUS
 62
     7
 10
-115.0
 20
-189.2792
  0
POINT
  8
0
  6
CONTINUOUS
 62
     7
 10
-134.0
 20
-189.2792
  0
POINT
  8
0
  6
CONTINUOUS
 62
     7
 10
-53.5
 20
-156.2792
  0
POINT
  8
0
  6
CONTINUOUS
 62
     7
 10
165.4368
 20
-20.00005
  0
POINT
  8
0
  6
CONTINUOUS
 62
     7
 10
131.4368
 20
20.99995
  0
POINT
  8
0
  6
CONTINUOUS
 62
     7
 10
148.9368
 20
9.99995
  0
POINT
  8
0
  6
CONTINUOUS
 62
     7
 10
148.9368
 20
-10.00005
  0
POINT
  8
0
  6
CONTINUOUS
 62
     7
 10
148.9368
 20
-30.00005
  0
POINT
  8
0
  6
CONTINUOUS
 62
     7
 10
131.4368
 20
-41.00005
  0
POINT
  8
0
  6
CONTINUOUS
 62
     7
 10
124.4368
 20
4.99995
  0
LINE
  8
0
  6
CONTINUOUS
 62
     7
 10
218.3292
 20
-225.9564
 11
370.8736
 21
-225.9564
  0
LINE
  8
0
  6
CONTINUOUS
 62
     7
 10
-218.3292
 20
225.9564
 11
-218.3292
 21
254.5585
  0
LINE
  8
0
  6
CONTINUOUS
 62
     7
 10
-370.8736
 20
225.9564
 11
-218.3292
 21
225.9564
  0
LINE
  8
0
  6
CONTINUOUS
 62
     7
 10
-370.8736
 20
254.5585
 11
370.8736
 21
254.5585
  0
LINE
  8
0
  6
CONTINUOUS
 62
     7
 10
-370.8736
 20
-254.5585
 11
370.8736
 21
-254.5585
  0
LINE
  8
0
  6
CONTINUOUS
 62
     7
 10
370.8736
 20
254.5585
 11
370.8736
 21
-254.5585
  0
LINE
  8
0
  6
CONTINUOUS
 62
     7
 10
-370.8736
 20
-254.5585
 11
-370.8736
 21
254.5585
  0
LINE
  8
0
  6
CONTINUOUS
 62
     7
 10
218.3292
 20
-225.9564
 11
218.3292
 21
-254.5585
  0
LINE
  8
0
  6
CONTINUOUS
 62
     7
 10
218.3292
 20
254.5585
 11
218.3292
 21
225.9564
  0
LINE
  8
0
  6
CONTINUOUS
 62
     7
 10
218.3292
 20
225.9564
 11
370.8736
 21
225.9564
  0
LINE
  8
0
  6
CONTINUOUS
 62
     7
 10
258.3816
 20
-232.8337
 11
258.3816
 21
-236.1516
  0
LINE
  8
0
  6
CONTINUOUS
 62
     7
 10
258.3816
 20
-236.1516
 11
270.8235
 21
-236.1516
  0
LINE
  8
0
  6
CONTINUOUS
 62
     7
 10
258.3816
 20
-249.1465
 11
275.2473
 21
-249.1465
  0
LINE
  8
0
  6
CONTINUOUS
 62
     7
 10
258.3816
 20
-245.8286
 11
270.8235
 21
-245.8286
  0
LINE
  8
0
  6
CONTINUOUS
 62
     7
 10
258.3816
 20
-232.8337
 11
273.0354
 21
-232.8337
  0
LINE
  8
0
  6
CONTINUOUS
 62
     7
 10
270.8235
 20
-236.1516
 11
270.8235
 21
-245.8286
  0
LINE
  8
0
  6
CONTINUOUS
 62
     7
 10
275.2473
 20
-235.0457
 11
275.2473
 21
-249.1465
  0
LINE
  8
0
  6
CONTINUOUS
 62
     7
 10
258.3816
 20
-245.8286
 11
258.3816
 21
-249.1465
  0
LINE
  8
0
  6
CONTINUOUS
 62
     7
 10
293.4954
 20
-236.1516
 11
293.4954
 21
-246.9346
  0
LINE
  8
0
  6
CONTINUOUS
 62
     7
 10
277.7357
 20
-232.8337
 11
277.7357
 21
-236.1516
  0
LINE
  8
0
  6
CONTINUOUS
 62
     7
 10
293.9378
 20
-232.585
 11
295.5138
 21
-232.585
  0
LINE
  8
0
  6
CONTINUOUS
 62
     7
 10
293.9378
 20
-230.373
 11
295.5138
 21
-230.373
  0
LINE
  8
0
  6
CONTINUOUS
 62
     7
 10
295.5138
 20
-230.373
 11
295.5138
 21
-232.585
  0
LINE
  8
0
  6
CONTINUOUS
 62
     7
 10
293.9378
 20
-230.373
 11
293.9378
 21
-232.585
  0
LINE
  8
0
  6
CONTINUOUS
 62
     7
 10
293.1083
 20
-230.373
 11
293.1083
 21
-232.585
  0
LINE
  8
0
  6
CONTINUOUS
 62
     7
 10
282.7661
 20
-230.373
 11
286.2009
 21
-230.373
  0
LINE
  8
0
  6
CONTINUOUS
 62
     7
 10
285.5413
 20
-232.8335
 11
286.2006
 21
-230.3727
  0
LINE
  8
0
  6
CONTINUOUS
 62
     7
 10
282.1067
 20
-232.8337
 11
282.766
 21
-230.373
  0
LINE
  8
0
  6
CONTINUOUS
 62
     7
 10
285.5416
 20
-232.8337
 11
290.1776
 21
-232.8337
  0
LINE
  8
0
  6
CONTINUOUS
 62
     7
 10
284.6526
 20
-236.1516
 11
289.0716
 21
-236.1516
  0
LINE
  8
0
  6
CONTINUOUS
 62
     7
 10
286.6429
 20
-249.1465
 11
291.2836
 21
-249.1465
  0
LINE
  8
0
  6
CONTINUOUS
 62
     7
 10
285.7537
 20
-245.8286
 11
286.6427
 21
-249.1463
  0
LINE
  8
0
  6
CONTINUOUS
 62
     7
 10
285.7538
 20
-245.8286
 11
289.0716
 21
-245.8286
  0
LINE
  8
0
  6
CONTINUOUS
 62
     7
 10
281.1707
 20
-249.1466
 11
284.6527
 21
-236.1517
  0
LINE
  8
0
  6
CONTINUOUS
 62
     7
 10
277.7357
 20
-236.1516
 11
281.2177
 21
-236.1516
  0
LINE
  8
0
  6
CONTINUOUS
 62
     7
 10
277.7354
 20
-249.1462
 11
281.2175
 21
-236.1513
  0
LINE
  8
0
  6
CONTINUOUS
 62
     7
 10
277.7357
 20
-249.1465
 11
281.1706
 21
-249.1465
  0
LINE
  8
0
  6
CONTINUOUS
 62
     7
 10
277.7357
 20
-232.8337
 11
282.1067
 21
-232.8337
  0
LINE
  8
0
  6
CONTINUOUS
 62
     7
 10
289.0716
 20
-236.1516
 11
289.0716
 21
-245.8286
  0
LINE
  8
0
  6
CONTINUOUS
 62
     7
 10
291.5323
 20
-230.373
 11
293.1083
 21
-230.373
  0
LINE
  8
0
  6
CONTINUOUS
 62
     7
 10
291.5323
 20
-232.585
 11
293.1083
 21
-232.585
  0
LINE
  8
0
  6
CONTINUOUS
 62
     7
 10
291.5323
 20
-230.373
 11
291.5323
 21
-232.585
  0
LINE
  8
0
  6
CONTINUOUS
 62
     7
 10
301.5135
 20
-230.373
 11
305.9373
 21
-230.373
  0
LINE
  8
0
  6
CONTINUOUS
 62
     7
 10
308.3423
 20
-240.1951
 11
311.2962
 21
-238.8176
  0
LINE
  8
0
  6
CONTINUOUS
 62
     7
 10
305.9373
 20
-242.7344
 11
305.9373
 21
-249.1465
  0
LINE
  8
0
  6
CONTINUOUS
 62
     7
 10
301.5135
 20
-243.379
 11
301.5135
 21
-249.1465
  0
LINE
  8
0
  6
CONTINUOUS
 62
     7
 10
305.9373
 20
-232.8337
 11
310.3611
 21
-232.8337
  0
LINE
  8
0
  6
CONTINUOUS
 62
     7
 10
305.9373
 20
-230.373
 11
305.9373
 21
-232.8337
  0
LINE
  8
0
  6
CONTINUOUS
 62
     7
 10
301.5135
 20
-230.373
 11
301.5135
 21
-232.8337
  0
LINE
  8
0
  6
CONTINUOUS
 62
     7
 10
312.573
 20
-235.0457
 11
312.573
 21
-236.8128
  0
LINE
  8
0
  6
CONTINUOUS
 62
     7
 10
308.3424
 20
-240.195
 11
312.5734
 21
-242.168
  0
LINE
  8
0
  6
CONTINUOUS
 62
     7
 10
305.9373
 20
-242.7343
 11
312.5731
 21
-245.8286
  0
LINE
  8
0
  6
CONTINUOUS
 62
     7
 10
296.2603
 20
-242.1678
 11
296.2603
 21
-245.8286
  0
LINE
  8
0
  6
CONTINUOUS
 62
     7
 10
296.2607
 20
-242.1682
 11
309.1626
 21
-236.1519
  0
LINE
  8
0
  6
CONTINUOUS
 62
     7
 10
296.2603
 20
-245.8286
 11
301.5136
 21
-243.3789
  0
LINE
  8
0
  6
CONTINUOUS
 62
     7
 10
312.573
 20
-242.1678
 11
312.573
 21
-245.8286
  0
LINE
  8
0
  6
CONTINUOUS
 62
     7
 10
296.2603
 20
-232.8337
 11
296.2603
 21
-236.1516
  0
LINE
  8
0
  6
CONTINUOUS
 62
     7
 10
301.5135
 20
-249.1465
 11
305.9373
 21
-249.1465
  0
LINE
  8
0
  6
CONTINUOUS
 62
     7
 10
296.2603
 20
-236.1516
 11
309.1621
 21
-236.1516
  0
LINE
  8
0
  6
CONTINUOUS
 62
     7
 10
296.2603
 20
-232.8337
 11
301.5135
 21
-232.8337
  0
LINE
  8
0
  6
CONTINUOUS
 62
     7
 10
327.504
 20
-236.4047
 11
328.73
 21
-235.9171
  0
LINE
  8
0
  6
CONTINUOUS
 62
     7
 10
327.5034
 20
-236.4044
 11
327.5034
 21
-249.1465
  0
LINE
  8
0
  6
CONTINUOUS
 62
     7
 10
323.0795
 20
-249.1465
 11
327.5034
 21
-249.1465
  0
LINE
  8
0
  6
CONTINUOUS
 62
     7
 10
313.9553
 20
-241.7925
 11
323.0794
 21
-238.1637
  0
LINE
  8
0
  6
CONTINUOUS
 62
     7
 10
313.9555
 20
-238.222
 11
326.8062
 21
-233.1111
  0
LINE
  8
0
  6
CONTINUOUS
 62
     7
 10
323.0795
 20
-238.1638
 11
323.0795
 21
-249.1465
  0
LINE
  8
0
  6
CONTINUOUS
 62
     7
 10
327.5034
 20
-231.3684
 11
327.5034
 21
-232.0834
  0
LINE
  8
0
  6
CONTINUOUS
 62
     7
 10
330.8211
 20
-231.3684
 11
330.8211
 21
-232.8338
  0
LINE
  8
0
  6
CONTINUOUS
 62
     7
 10
313.9554
 20
-238.2219
 11
313.9554
 21
-241.7925
  0
LINE
  8
0
  6
CONTINUOUS
 62
     7
 10
327.5034
 20
-231.3684
 11
330.8211
 21
-231.3684
  0
LINE
  8
0
  6
CENTER
 62
     2
 10
-136.0
 20
-158.6627
 11
-136.0
 21
-125.6075
  0
LINE
  8
0
  6
CENTER
 62
     2
 10
-117.0
 20
-158.6627
 11
-117.0
 21
-125.6075
  0
LINE
  8
0
  6
CENTER
 62
     2
 10
-98.0
 20
-158.6627
 11
-98.0
 21
-125.6075
  0
LINE
  8
0
  6
CENTER
 62
     2
 10
-79.0
 20
-158.6627
 11
-79.0
 21
-125.6075
  0
LINE
  8
0
  6
PHANTOM
 62
     2
 10
-140.15
 20
-123.4437
 11
-131.85
 21
-125.6677
  0
LINE
  8
0
  6
PHANTOM
 62
     2
 10
-136.98
 20
-108.7792
 11
-137.62
 21
-108.7792
  0
LINE
  8
0
  6
PHANTOM
 62
     2
 10
-136.45
 20
-118.7792
 11
-138.15
 21
-118.7792
  0
LINE
  8
0
  6
PHANTOM
 62
     2
 10
-136.98
 20
-108.7792
 11
-136.98
 21
-118.7792
  0
LINE
  8
0
  6
PHANTOM
 62
     2
 10
-137.62
 20
-108.7792
 11
-137.62
 21
-118.7792
  0
LINE
  8
0
  6
PHANTOM
 62
     2
 10
-136.45
 20
-118.7792
 11
-136.45
 21
-122.8822
  0
LINE
  8
0
  6
PHANTOM
 62
     2
 10
-138.15
 20
-118.7792
 11
-138.15
 21
-122.4267
  0
LINE
  8
0
  6
CENTER
 62
     2
 10
-137.3
 20
-105.7792
 11
-137.3
 21
-129.8138
  0
LINE
  8
0
  6
PHANTOM
 62
     2
 10
-134.38
 20
-108.7792
 11
-135.02
 21
-108.7792
  0
LINE
  8
0
  6
PHANTOM
 62
     2
 10
-133.85
 20
-118.7792
 11
-135.55
 21
-118.7792
  0
LINE
  8
0
  6
PHANTOM
 62
     2
 10
-134.38
 20
-108.7792
 11
-134.38
 21
-118.7792
  0
LINE
  8
0
  6
PHANTOM
 62
     2
 10
-135.02
 20
-108.7792
 11
-135.02
 21
-118.7792
  0
LINE
  8
0
  6
PHANTOM
 62
     2
 10
-133.85
 20
-118.7792
 11
-133.85
 21
-123.5789
  0
LINE
  8
0
  6
PHANTOM
 62
     2
 10
-135.55
 20
-118.7792
 11
-135.55
 21
-123.1234
  0
LINE
  8
0
  6
CENTER
 62
     2
 10
-134.7
 20
-105.7792
 11
-134.7
 21
-129.8761
  0
LINE
  8
0
  6
CENTER
 62
     2
 10
-147.75
 20
-142.7792
 11
-67.15337
 21
-142.7792
  0
LINE
  8
0
  6
PHANTOM
 62
     2
 10
-133.85
 20
-125.1318
 11
-133.85
 21
-128.7792
  0
LINE
  8
0
  6
PHANTOM
 62
     2
 10
-135.55
 20
-124.6763
 11
-135.55
 21
-128.7792
  0
LINE
  8
0
  6
PHANTOM
 62
     2
 10
-136.45
 20
-124.4351
 11
-136.45
 21
-128.7792
  0
LINE
  8
0
  6
PHANTOM
 62
     2
 10
-138.15
 20
-123.9796
 11
-138.15
 21
-128.7792
  0
LINE
  8
0
  6
PHANTOM
 62
     2
 10
-140.15
 20
-121.8908
 11
-131.85
 21
-124.1148
  0
LINE
  8
0
  6
PHANTOM
 62
     2
 10
-138.5
 20
-128.7792
 11
-133.5
 21
-128.7792
  0
LINE
  8
0
  6
PHANTOM
 62
     2
 10
-127.0
 20
-155.7792
 11
-127.0
 21
-129.7792
  0
LINE
  8
0
  6
PHANTOM
 62
     2
 10
-145.0
 20
-155.7792
 11
-145.0
 21
-129.7792
  0
LINE
  8
0
  6
PHANTOM
 62
     2
 10
-144.5
 20
-129.2792
 11
-127.5
 21
-129.2792
  0
LINE
  8
0
  6
PHANTOM
 62
     2
 10
-144.5
 20
-156.2792
 11
-127.5
 21
-156.2792
  0
LINE
  8
0
  6
PHANTOM
 62
     2
 10
-121.15
 20
-123.4437
 11
-112.85
 21
-125.6677
  0
LINE
  8
0
  6
PHANTOM
 62
     2
 10
-117.98
 20
-108.7792
 11
-118.62
 21
-108.7792
  0
LINE
  8
0
  6
PHANTOM
 62
     2
 10
-117.45
 20
-118.7792
 11
-119.15
 21
-118.7792
  0
LINE
  8
0
  6
PHANTOM
 62
     2
 10
-117.98
 20
-108.7792
 11
-117.98
 21
-118.7792
  0
LINE
  8
0
  6
PHANTOM
 62
     2
 10
-118.62
 20
-108.7792
 11
-118.62
 21
-118.7792
  0
LINE
  8
0
  6
PHANTOM
 62
     2
 10
-117.45
 20
-118.7792
 11
-117.45
 21
-122.8822
  0
LINE
  8
0
  6
PHANTOM
 62
     2
 10
-119.15
 20
-118.7792
 11
-119.15
 21
-122.4267
  0
LINE
  8
0
  6
CENTER
 62
     2
 10
-118.3
 20
-105.7792
 11
-118.3
 21
-129.8138
  0
LINE
  8
0
  6
PHANTOM
 62
     2
 10
-115.38
 20
-108.7792
 11
-116.02
 21
-108.7792
  0
LINE
  8
0
  6
PHANTOM
 62
     2
 10
-114.85
 20
-118.7792
 11
-116.55
 21
-118.7792
  0
LINE
  8
0
  6
PHANTOM
 62
     2
 10
-115.38
 20
-108.7792
 11
-115.38
 21
-118.7792
  0
LINE
  8
0
  6
PHANTOM
 62
     2
 10
-116.02
 20
-108.7792
 11
-116.02
 21
-118.7792
  0
LINE
  8
0
  6
PHANTOM
 62
     2
 10
-114.85
 20
-118.7792
 11
-114.85
 21
-123.5789
  0
LINE
  8
0
  6
PHANTOM
 62
     2
 10
-116.55
 20
-118.7792
 11
-116.55
 21
-123.1234
  0
LINE
  8
0
  6
CENTER
 62
     2
 10
-115.7
 20
-105.7792
 11
-115.7
 21
-129.8761
  0
LINE
  8
0
  6
PHANTOM
 62
     2
 10
-114.85
 20
-125.1318
 11
-114.85
 21
-128.7792
  0
LINE
  8
0
  6
PHANTOM
 62
     2
 10
-116.55
 20
-124.6763
 11
-116.55
 21
-128.7792
  0
LINE
  8
0
  6
PHANTOM
 62
     2
 10
-117.45
 20
-124.4351
 11
-117.45
 21
-128.7792
  0
LINE
  8
0
  6
PHANTOM
 62
     2
 10
-119.15
 20
-123.9796
 11
-119.15
 21
-128.7792
  0
LINE
  8
0
  6
PHANTOM
 62
     2
 10
-121.15
 20
-121.8908
 11
-112.85
 21
-124.1148
  0
LINE
  8
0
  6
PHANTOM
 62
     2
 10
-119.5
 20
-128.7792
 11
-114.5
 21
-128.7792
  0
LINE
  8
0
  6
PHANTOM
 62
     2
 10
-108.0
 20
-155.7792
 11
-108.0
 21
-129.7792
  0
LINE
  8
0
  6
PHANTOM
 62
     2
 10
-126.0
 20
-155.7792
 11
-126.0
 21
-129.7792
  0
LINE
  8
0
  6
PHANTOM
 62
     2
 10
-125.5
 20
-129.2792
 11
-108.5
 21
-129.2792
  0
LINE
  8
0
  6
PHANTOM
 62
     2
 10
-125.5
 20
-156.2792
 11
-108.5
 21
-156.2792
  0
LINE
  8
0
  6
PHANTOM
 62
     2
 10
-76.0
 20
-130.7792
 11
-76.0
 21
-129.2792
  0
LINE
  8
0
  6
PHANTOM
 62
     2
 10
-81.99995
 20
-129.2792
 11
-87.49995
 21
-129.2792
  0
LINE
  8
0
  6
PHANTOM
 62
     2
 10
-88.0
 20
-155.7792
 11
-88.0
 21
-129.7792
  0
LINE
  8
0
  6
PHANTOM
 62
     2
 10
-70.0
 20
-155.7793
 11
-70.0
 21
-129.7793
  0
LINE
  8
0
  6
PHANTOM
 62
     2
 10
-70.49995
 20
-129.2792
 11
-75.99995
 21
-129.2792
  0
LINE
  8
0
  6
PHANTOM
 62
     2
 10
-70.5
 20
-156.2792
 11
-87.5
 21
-156.2792
  0
LINE
  8
0
  6
CENTER
 62
     2
 10
-77.70001
 20
-105.7792
 11
-77.70001
 21
-129.8762
  0
LINE
  8
0
  6
PHANTOM
 62
     2
 10
-78.55
 20
-118.7792
 11
-78.55
 21
-123.1234
  0
LINE
  8
0
  6
PHANTOM
 62
     2
 10
-76.85001
 20
-118.7792
 11
-76.85001
 21
-123.5789
  0
LINE
  8
0
  6
PHANTOM
 62
     2
 10
-78.02
 20
-108.7792
 11
-78.02
 21
-118.7792
  0
LINE
  8
0
  6
PHANTOM
 62
     2
 10
-77.38
 20
-108.7792
 11
-77.38
 21
-118.7792
  0
LINE
  8
0
  6
PHANTOM
 62
     2
 10
-76.84995
 20
-118.7792
 11
-78.54996
 21
-118.7792
  0
LINE
  8
0
  6
PHANTOM
 62
     2
 10
-77.37994
 20
-108.7792
 11
-78.01993
 21
-108.7792
  0
LINE
  8
0
  6
CENTER
 62
     2
 10
-80.3
 20
-105.7792
 11
-80.3
 21
-129.8138
  0
LINE
  8
0
  6
PHANTOM
 62
     2
 10
-81.14999
 20
-118.7792
 11
-81.14999
 21
-122.4267
  0
LINE
  8
0
  6
PHANTOM
 62
     2
 10
-79.45
 20
-118.7792
 11
-79.45
 21
-122.8822
  0
LINE
  8
0
  6
PHANTOM
 62
     2
 10
-80.62
 20
-108.7792
 11
-80.62
 21
-118.7792
  0
LINE
  8
0
  6
PHANTOM
 62
     2
 10
-79.98
 20
-108.7792
 11
-79.98
 21
-118.7792
  0
LINE
  8
0
  6
PHANTOM
 62
     2
 10
-79.44995
 20
-118.7792
 11
-81.14996
 21
-118.7792
  0
LINE
  8
0
  6
PHANTOM
 62
     2
 10
-79.97995
 20
-108.7792
 11
-80.61993
 21
-108.7792
  0
LINE
  8
0
  6
PHANTOM
 62
     2
 10
-83.14995
 20
-123.4437
 11
-74.84995
 21
-125.6677
  0
LINE
  8
0
  6
PHANTOM
 62
     2
 10
-83.14989
 20
-121.8908
 11
-74.84991
 21
-124.1148
  0
LINE
  8
0
  6
PHANTOM
 62
     2
 10
-81.14999
 20
-123.9796
 11
-81.14999
 21
-128.7792
  0
LINE
  8
0
  6
PHANTOM
 62
     2
 10
-79.45
 20
-124.4351
 11
-79.45
 21
-128.7792
  0
LINE
  8
0
  6
PHANTOM
 62
     2
 10
-78.55
 20
-124.6763
 11
-78.55
 21
-128.7792
  0
LINE
  8
0
  6
PHANTOM
 62
     2
 10
-76.85001
 20
-125.1318
 11
-76.85001
 21
-128.7792
  0
LINE
  8
0
  6
PHANTOM
 62
     2
 10
-76.49995
 20
-128.7792
 11
-81.49995
 21
-128.7792
  0
LINE
  8
0
  6
PHANTOM
 62
     2
 10
-82.0
 20
-130.7792
 11
-82.0
 21
-129.2792
  0
LINE
  8
0
  6
PHANTOM
 62
     2
 10
-86.0
 20
-154.7792
 11
-72.0
 21
-154.7792
  0
LINE
  8
0
  6
PHANTOM
 62
     2
 10
-86.5
 20
-154.2792
 11
-86.5
 21
-130.7792
  0
LINE
  8
0
  6
PHANTOM
 62
     2
 10
-71.5
 20
-154.2792
 11
-71.5
 21
-130.7793
  0
LINE
  8
0
  6
PHANTOM
 62
     2
 10
-86.49997
 20
-130.7792
 11
-71.49997
 21
-130.7792
  0
LINE
  8
0
  6
PHANTOM
 62
     2
 10
-95.0
 20
-130.7792
 11
-95.0
 21
-129.2792
  0
LINE
  8
0
  6
PHANTOM
 62
     2
 10
-101.0
 20
-129.2792
 11
-106.5
 21
-129.2792
  0
LINE
  8
0
  6
PHANTOM
 62
     2
 10
-107.0
 20
-155.7792
 11
-107.0
 21
-129.7792
  0
LINE
  8
0
  6
PHANTOM
 62
     2
 10
-89.0
 20
-155.7793
 11
-89.0
 21
-129.7793
  0
LINE
  8
0
  6
PHANTOM
 62
     2
 10
-89.49995
 20
-129.2792
 11
-94.99995
 21
-129.2792
  0
LINE
  8
0
  6
PHANTOM
 62
     2
 10
-89.5
 20
-156.2792
 11
-106.5
 21
-156.2792
  0
LINE
  8
0
  6
CENTER
 62
     2
 10
-96.70001
 20
-105.7792
 11
-96.70001
 21
-129.8762
  0
LINE
  8
0
  6
PHANTOM
 62
     2
 10
-97.55
 20
-118.7792
 11
-97.55
 21
-123.1234
  0
LINE
  8
0
  6
PHANTOM
 62
     2
 10
-95.85001
 20
-118.7792
 11
-95.85001
 21
-123.5789
  0
LINE
  8
0
  6
PHANTOM
 62
     2
 10
-97.02
 20
-108.7792
 11
-97.02
 21
-118.7792
  0
LINE
  8
0
  6
PHANTOM
 62
     2
 10
-96.38
 20
-108.7792
 11
-96.38
 21
-118.7792
  0
LINE
  8
0
  6
PHANTOM
 62
     2
 10
-95.84995
 20
-118.7792
 11
-97.54996
 21
-118.7792
  0
LINE
  8
0
  6
PHANTOM
 62
     2
 10
-96.37994
 20
-108.7792
 11
-97.01993
 21
-108.7792
  0
LINE
  8
0
  6
CENTER
 62
     2
 10
-99.3
 20
-105.7792
 11
-99.3
 21
-129.8138
  0
LINE
  8
0
  6
PHANTOM
 62
     2
 10
-100.15
 20
-118.7792
 11
-100.15
 21
-122.4267
  0
LINE
  8
0
  6
PHANTOM
 62
     2
 10
-98.45
 20
-118.7792
 11
-98.45
 21
-122.8822
  0
LINE
  8
0
  6
PHANTOM
 62
     2
 10
-99.62
 20
-108.7792
 11
-99.62
 21
-118.7792
  0
LINE
  8
0
  6
PHANTOM
 62
     2
 10
-98.98
 20
-108.7792
 11
-98.98
 21
-118.7792
  0
LINE
  8
0
  6
PHANTOM
 62
     2
 10
-98.44995
 20
-118.7792
 11
-100.15
 21
-118.7792
  0
LINE
  8
0
  6
PHANTOM
 62
     2
 10
-98.97995
 20
-108.7792
 11
-99.61993
 21
-108.7792
  0
LINE
  8
0
  6
PHANTOM
 62
     2
 10
-102.1499
 20
-123.4437
 11
-93.84997
 21
-125.6677
  0
LINE
  8
0
  6
PHANTOM
 62
     2
 10
-102.1499
 20
-121.8907
 11
-93.84995
 21
-124.1147
  0
LINE
  8
0
  6
PHANTOM
 62
     2
 10
-100.15
 20
-123.9796
 11
-100.15
 21
-128.7792
  0
LINE
  8
0
  6
PHANTOM
 62
     2
 10
-98.45
 20
-124.4351
 11
-98.45
 21
-128.7792
  0
LINE
  8
0
  6
PHANTOM
 62
     2
 10
-97.55
 20
-124.6763
 11
-97.55
 21
-128.7792
  0
LINE
  8
0
  6
PHANTOM
 62
     2
 10
-95.85001
 20
-125.1318
 11
-95.85001
 21
-128.7792
  0
LINE
  8
0
  6
PHANTOM
 62
     2
 10
-95.49995
 20
-128.7792
 11
-100.5
 21
-128.7792
  0
LINE
  8
0
  6
PHANTOM
 62
     2
 10
-101.0
 20
-130.7792
 11
-101.0
 21
-129.2792
  0
LINE
  8
0
  6
PHANTOM
 62
     2
 10
-105.0
 20
-154.7792
 11
-91.0
 21
-154.7792
  0
LINE
  8
0
  6
PHANTOM
 62
     2
 10
-105.5
 20
-154.2792
 11
-105.5
 21
-130.7792
  0
LINE
  8
0
  6
PHANTOM
 62
     2
 10
-90.5
 20
-154.2792
 11
-90.5
 21
-130.7793
  0
LINE
  8
0
  6
PHANTOM
 62
     2
 10
-105.5
 20
-130.7792
 11
-90.49997
 21
-130.7792
  0
LINE
  8
0
  6
CENTER
 62
     2
 10
-136.0
 20
61.55949
 11
-136.0
 21
-45.90265
  0
LINE
  8
0
  6
PHANTOM
 62
     2
 10
-145.0
 20
28.2
 11
-145.0
 21
-38.90001
  0
LINE
  8
0
  6
PHANTOM
 62
     2
 10
-145.0
 20
11.0
 11
-127.0
 21
11.0
  0
LINE
  8
0
  6
PHANTOM
 62
     2
 10
-145.0
 20
-31.0
 11
-127.0
 21
-31.0
  0
LINE
  8
0
  6
PHANTOM
 62
     2
 10
-144.5
 20
-39.40001
 11
-127.5
 21
-39.40001
  0
LINE
  8
0
  6
PHANTOM
 62
     2
 10
-144.0
 20
29.19996
 11
-145.0
 21
28.19997
  0
LINE
  8
0
  6
PHANTOM
 62
     2
 10
-128.0
 20
29.2
 11
-127.0
 21
28.2
  0
LINE
  8
0
  6
PHANTOM
 62
     2
 10
-145.0
 20
28.2
 11
-127.0
 21
28.2
  0
LINE
  8
0
  6
PHANTOM
 62
     2
 10
-144.0
 20
29.2
 11
-128.0
 21
29.2
  0
LINE
  8
0
  6
PHANTOM
 62
     2
 10
-127.0
 20
28.19997
 11
-127.0
 21
-38.90001
  0
LINE
  8
0
  6
CENTER
 62
     2
 10
-117.0
 20
61.55949
 11
-117.0
 21
-45.90265
  0
LINE
  8
0
  6
PHANTOM
 62
     2
 10
-126.0
 20
28.2
 11
-126.0
 21
-38.90001
  0
LINE
  8
0
  6
PHANTOM
 62
     2
 10
-126.0
 20
11.0
 11
-108.0
 21
11.0
  0
LINE
  8
0
  6
PHANTOM
 62
     2
 10
-126.0
 20
-31.0
 11
-108.0
 21
-31.0
  0
LINE
  8
0
  6
PHANTOM
 62
     2
 10
-125.0
 20
29.19999
 11
-126.0
 21
28.2
  0
LINE
  8
0
  6
PHANTOM
 62
     2
 10
-109.0
 20
29.2
 11
-108.0
 21
28.2
  0
LINE
  8
0
  6
PHANTOM
 62
     2
 10
-126.0
 20
28.2
 11
-108.0
 21
28.2
  0
LINE
  8
0
  6
PHANTOM
 62
     2
 10
-125.0
 20
29.2
 11
-109.0
 21
29.2
  0
LINE
  8
0
  6
PHANTOM
 62
     2
 10
-108.0
 20
28.19999
 11
-108.0
 21
-38.90001
  0
LINE
  8
0
  6
PHANTOM
 62
     2
 10
-125.5
 20
-39.40001
 11
-108.5
 21
-39.40001
  0
LINE
  8
0
  6
CENTER
 62
     2
 10
-98.0
 20
61.55949
 11
-98.0
 21
-83.31268
  0
LINE
  8
0
  6
PHANTOM
 62
     2
 10
-107.0
 20
28.2
 11
-107.0
 21
-48.2
  0
LINE
  8
0
  6
PHANTOM
 62
     2
 10
-107.0
 20
11.0
 11
-89.0
 21
11.0
  0
LINE
  8
0
  6
PHANTOM
 62
     2
 10
-106.0
 20
29.19999
 11
-107.0
 21
28.2
  0
LINE
  8
0
  6
PHANTOM
 62
     2
 10
-90.00001
 20
29.2
 11
-89.00001
 21
28.2
  0
LINE
  8
0
  6
PHANTOM
 62
     2
 10
-107.0
 20
28.2
 11
-89.0
 21
28.2
  0
LINE
  8
0
  6
PHANTOM
 62
     2
 10
-106.0
 20
29.2
 11
-90.0
 21
29.2
  0
LINE
  8
0
  6
PHANTOM
 62
     2
 10
-89.0
 20
28.2
 11
-89.0
 21
-48.19998
  0
LINE
  8
0
  6
CENTER
 62
     2
 10
-79.0
 20
65.22714
 11
-79.0
 21
-96.51622
  0
LINE
  8
0
  6
PHANTOM
 62
     2
 10
-88.0
 20
31.0
 11
-88.0
 21
-61.2
  0
LINE
  8
0
  6
PHANTOM
 62
     2
 10
-88.0
 20
11.0
 11
-70.0
 21
11.0
  0
LINE
  8
0
  6
PHANTOM
 62
     2
 10
-70.0
 20
31.0
 11
-70.0
 21
-61.2
  0
LINE
  8
0
  6
PHANTOM
 62
     2
 10
-143.5
 20
55.40001
 11
-143.5
 21
29.2
  0
LINE
  8
0
  6
PHANTOM
 62
     2
 10
-143.5
 20
54.39999
 11
-128.5
 21
54.39999
  0
LINE
  8
0
  6
PHANTOM
 62
     2
 10
-128.5
 20
55.39998
 11
-128.5
 21
29.2
  0
LINE
  8
0
  6
PHANTOM
 62
     2
 10
-143.5
 20
55.39999
 11
-128.5
 21
55.39999
  0
LINE
  8
0
  6
PHANTOM
 62
     2
 10
-128.5
 20
55.39999
 11
-129.5
 21
57.39999
  0
LINE
  8
0
  6
PHANTOM
 62
     2
 10
-143.5
 20
55.39996
 11
-142.5
 21
57.39997
  0
LINE
  8
0
  6
PHANTOM
 62
     2
 10
-142.5
 20
57.39999
 11
-129.5
 21
57.39999
  0
LINE
  8
0
  6
CENTER
 62
     2
 10
-137.3
 20
50.2
 11
-137.3
 21
44.2
  0
LINE
  8
0
  6
CENTER
 62
     2
 10
-134.7
 20
50.2
 11
-134.7
 21
44.2
  0
LINE
  8
0
  6
CENTER
 62
     2
 10
-140.0
 20
47.2
 11
-132.0
 21
47.2
  0
LINE
  8
0
  6
PHANTOM
 62
     2
 10
-137.3
 20
45.5
 11
-134.7
 21
45.5
  0
LINE
  8
0
  6
PHANTOM
 62
     2
 10
-137.3
 20
48.89999
 11
-134.7
 21
48.89999
  0
LINE
  8
0
  6
PHANTOM
 62
     2
 10
-124.5
 20
55.40001
 11
-124.5
 21
29.2
  0
LINE
  8
0
  6
PHANTOM
 62
     2
 10
-124.5
 20
54.39999
 11
-109.5
 21
54.39999
  0
LINE
  8
0
  6
PHANTOM
 62
     2
 10
-109.5
 20
55.39998
 11
-109.5
 21
29.2
  0
LINE
  8
0
  6
PHANTOM
 62
     2
 10
-124.5
 20
55.39999
 11
-109.5
 21
55.39999
  0
LINE
  8
0
  6
PHANTOM
 62
     2
 10
-109.5
 20
55.39999
 11
-110.5
 21
57.39999
  0
LINE
  8
0
  6
PHANTOM
 62
     2
 10
-124.5
 20
55.39996
 11
-123.5
 21
57.39998
  0
LINE
  8
0
  6
PHANTOM
 62
     2
 10
-123.5
 20
57.39999
 11
-110.5
 21
57.39999
  0
LINE
  8
0
  6
CENTER
 62
     2
 10
-118.3
 20
50.2
 11
-118.3
 21
44.2
  0
LINE
  8
0
  6
CENTER
 62
     2
 10
-115.7
 20
50.2
 11
-115.7
 21
44.2
  0
LINE
  8
0
  6
CENTER
 62
     2
 10
-121.0
 20
47.2
 11
-113.0
 21
47.2
  0
LINE
  8
0
  6
PHANTOM
 62
     2
 10
-118.3
 20
45.5
 11
-115.7
 21
45.5
  0
LINE
  8
0
  6
PHANTOM
 62
     2
 10
-118.3
 20
48.89999
 11
-115.7
 21
48.89999
  0
LINE
  8
0
  6
PHANTOM
 62
     2
 10
-105.5
 20
55.40001
 11
-105.5
 21
29.2
  0
LINE
  8
0
  6
PHANTOM
 62
     2
 10
-105.5
 20
54.39999
 11
-90.5
 21
54.39999
  0
LINE
  8
0
  6
PHANTOM
 62
     2
 10
-90.5
 20
55.39998
 11
-90.5
 21
29.2
  0
LINE
  8
0
  6
PHANTOM
 62
     2
 10
-105.5
 20
55.39999
 11
-90.5
 21
55.39999
  0
LINE
  8
0
  6
PHANTOM
 62
     2
 10
-90.50002
 20
55.39998
 11
-91.50002
 21
57.39999
  0
LINE
  8
0
  6
PHANTOM
 62
     2
 10
-105.5
 20
55.39997
 11
-104.5
 21
57.39999
  0
LINE
  8
0
  6
PHANTOM
 62
     2
 10
-104.5
 20
57.39999
 11
-91.5
 21
57.39999
  0
LINE
  8
0
  6
CENTER
 62
     2
 10
-99.3
 20
50.2
 11
-99.3
 21
44.2
  0
LINE
  8
0
  6
CENTER
 62
     2
 10
-96.7
 20
50.2
 11
-96.7
 21
44.2
  0
LINE
  8
0
  6
CENTER
 62
     2
 10
-102.0
 20
47.2
 11
-94.0
 21
47.2
  0
LINE
  8
0
  6
PHANTOM
 62
     2
 10
-99.3
 20
45.5
 11
-96.7
 21
45.5
  0
LINE
  8
0
  6
PHANTOM
 62
     2
 10
-99.3
 20
48.89999
 11
-96.7
 21
48.89999
  0
LINE
  8
0
  6
PHANTOM
 62
     2
 10
-107.0
 20
-31.0
 11
-89.0
 21
-31.0
  0
LINE
  8
0
  6
PHANTOM
 62
     2
 10
-107.0
 20
-48.19998
 11
-106.0
 21
-49.19998
  0
LINE
  8
0
  6
PHANTOM
 62
     2
 10
-89.99998
 20
-49.19998
 11
-88.99998
 21
-48.19997
  0
LINE
  8
0
  6
PHANTOM
 62
     2
 10
-107.0
 20
-48.2
 11
-89.0
 21
-48.2
  0
LINE
  8
0
  6
PHANTOM
 62
     2
 10
-90.50003
 20
-75.39998
 11
-90.50003
 21
-49.2
  0
LINE
  8
0
  6
PHANTOM
 62
     2
 10
-90.49998
 20
-74.39999
 11
-105.5
 21
-74.39999
  0
LINE
  8
0
  6
PHANTOM
 62
     2
 10
-105.5
 20
-75.40002
 11
-105.5
 21
-49.2
  0
LINE
  8
0
  6
PHANTOM
 62
     2
 10
-90.0
 20
-49.2
 11
-106.0
 21
-49.2
  0
LINE
  8
0
  6
PHANTOM
 62
     2
 10
-90.49998
 20
-75.39999
 11
-105.5
 21
-75.39999
  0
LINE
  8
0
  6
PHANTOM
 62
     2
 10
-105.4999
 20
-75.4
 11
-104.4999
 21
-77.4
  0
LINE
  8
0
  6
PHANTOM
 62
     2
 10
-90.49998
 20
-75.39999
 11
-91.49998
 21
-77.39999
  0
LINE
  8
0
  6
PHANTOM
 62
     2
 10
-91.49997
 20
-77.39999
 11
-104.5
 21
-77.39999
  0
LINE
  8
0
  6
CENTER
 62
     2
 10
-96.70003
 20
-70.2
 11
-96.70003
 21
-64.2
  0
LINE
  8
0
  6
CENTER
 62
     2
 10
-99.30003
 20
-70.2
 11
-99.30003
 21
-64.2
  0
LINE
  8
0
  6
CENTER
 62
     2
 10
-93.99998
 20
-67.2
 11
-102.0
 21
-67.2
  0
LINE
  8
0
  6
PHANTOM
 62
     2
 10
-99.29999
 20
-68.9
 11
-96.69998
 21
-68.9
  0
LINE
  8
0
  6
PHANTOM
 62
     2
 10
-99.29999
 20
-65.50001
 11
-96.69998
 21
-65.50001
  0
LINE
  8
0
  6
PHANTOM
 62
     2
 10
-88.0
 20
-31.0
 11
-70.0
 21
-31.0
  0
LINE
  8
0
  6
PHANTOM
 62
     2
 10
-86.99998
 20
31.99998
 11
-87.99998
 21
30.99998
  0
LINE
  8
0
  6
PHANTOM
 62
     2
 10
-71.00005
 20
31.99997
 11
-70.00005
 21
30.99997
  0
LINE
  8
0
  6
PHANTOM
 62
     2
 10
-86.5
 20
58.2
 11
-86.5
 21
32.0
  0
LINE
  8
0
  6
PHANTOM
 62
     2
 10
-86.5
 20
57.2
 11
-71.5
 21
57.2
  0
LINE
  8
0
  6
PHANTOM
 62
     2
 10
-71.5
 20
58.2
 11
-71.5
 21
32.0
  0
LINE
  8
0
  6
PHANTOM
 62
     2
 10
-87.0
 20
32.0
 11
-71.0
 21
32.0
  0
LINE
  8
0
  6
PHANTOM
 62
     2
 10
-86.5
 20
58.2
 11
-71.5
 21
58.2
  0
LINE
  8
0
  6
PHANTOM
 62
     2
 10
-71.50002
 20
58.19998
 11
-72.50002
 21
60.19998
  0
LINE
  8
0
  6
PHANTOM
 62
     2
 10
-86.49999
 20
58.2
 11
-85.49999
 21
60.2
  0
LINE
  8
0
  6
PHANTOM
 62
     2
 10
-85.49998
 20
60.2
 11
-72.5
 21
60.2
  0
LINE
  8
0
  6
CENTER
 62
     2
 10
-80.3
 20
53.0
 11
-80.3
 21
47.0
  0
LINE
  8
0
  6
CENTER
 62
     2
 10
-77.7
 20
53.0
 11
-77.7
 21
47.0
  0
LINE
  8
0
  6
CENTER
 62
     2
 10
-83.0
 20
50.0
 11
-75.0
 21
50.0
  0
LINE
  8
0
  6
PHANTOM
 62
     2
 10
-88.0
 20
31.0
 11
-70.0
 21
31.0
  0
LINE
  8
0
  6
PHANTOM
 62
     2
 10
-87.99998
 20
-61.19998
 11
-86.99999
 21
-62.19997
  0
LINE
  8
0
  6
PHANTOM
 62
     2
 10
-70.99999
 20
-62.19997
 11
-69.99999
 21
-61.19996
  0
LINE
  8
0
  6
PHANTOM
 62
     2
 10
-88.0
 20
-61.2
 11
-70.0
 21
-61.2
  0
LINE
  8
0
  6
PHANTOM
 62
     2
 10
-71.50003
 20
-88.39996
 11
-71.50003
 21
-62.2
  0
LINE
  8
0
  6
PHANTOM
 62
     2
 10
-71.49998
 20
-87.39999
 11
-86.49998
 21
-87.39999
  0
LINE
  8
0
  6
PHANTOM
 62
     2
 10
-86.50003
 20
-88.40002
 11
-86.50003
 21
-62.2
  0
LINE
  8
0
  6
PHANTOM
 62
     2
 10
-71.0
 20
-62.2
 11
-86.99998
 21
-62.2
  0
LINE
  8
0
  6
PHANTOM
 62
     2
 10
-71.49998
 20
-88.39998
 11
-86.49998
 21
-88.39998
  0
LINE
  8
0
  6
PHANTOM
 62
     2
 10
-86.49994
 20
-88.39999
 11
-85.49994
 21
-90.39998
  0
LINE
  8
0
  6
PHANTOM
 62
     2
 10
-71.49998
 20
-88.39999
 11
-72.49998
 21
-90.39998
  0
LINE
  8
0
  6
PHANTOM
 62
     2
 10
-72.49997
 20
-90.39999
 11
-85.49997
 21
-90.39999
  0
LINE
  8
0
  6
CENTER
 62
     2
 10
-77.70004
 20
-83.19999
 11
-77.70004
 21
-77.19999
  0
LINE
  8
0
  6
CENTER
 62
     2
 10
-80.30005
 20
-83.19999
 11
-80.30005
 21
-77.19999
  0
LINE
  8
0
  6
CENTER
 62
     2
 10
-74.99998
 20
-80.19999
 11
-82.99998
 21
-80.19999
  0
LINE
  8
0
  6
PHANTOM
 62
     2
 10
-80.29999
 20
-81.89999
 11
-77.69998
 21
-81.89999
  0
LINE
  8
0
  6
PHANTOM
 62
     2
 10
-80.29999
 20
-78.5
 11
-77.69998
 21
-78.5
  0
LINE
  8
0
  6
PHANTOM
 62
     2
 10
-80.3
 20
48.3
 11
-77.7
 21
48.3
  0
LINE
  8
0
  6
PHANTOM
 62
     2
 10
-80.3
 20
51.7
 11
-77.7
 21
51.7
  0
LINE
  8
0
  6
CENTER
 62
     2
 10
-136.0
 20
158.0708
 11
-136.0
 21
125.622
  0
LINE
  8
0
  6
CENTER
 62
     2
 10
-117.0
 20
158.0708
 11
-117.0
 21
125.622
  0
LINE
  8
0
  6
CENTER
 62
     2
 10
-98.0
 20
158.0708
 11
-98.0
 21
125.622
  0
LINE
  8
0
  6
CENTER
 62
     2
 10
-79.0
 20
158.0708
 11
-79.0
 21
125.622
  0
LINE
  8
0
  6
CENTER
 62
     2
 10
-147.75
 20
142.7792
 11
-67.15337
 21
142.7792
  0
LINE
  8
0
  6
PHANTOM
 62
     2
 10
-144.5
 20
156.2792
 11
-127.5
 21
156.2792
  0
LINE
  8
0
  6
PHANTOM
 62
     2
 10
-125.5
 20
156.2792
 11
-108.5
 21
156.2792
  0
LINE
  8
0
  6
PHANTOM
 62
     2
 10
-133.0
 20
130.7793
 11
-133.0
 21
129.2793
  0
LINE
  8
0
  6
PHANTOM
 62
     2
 10
-139.0
 20
129.2792
 11
-144.5
 21
129.2792
  0
LINE
  8
0
  6
PHANTOM
 62
     2
 10
-145.0
 20
155.7792
 11
-145.0
 21
129.7792
  0
LINE
  8
0
  6
PHANTOM
 62
     2
 10
-127.0
 20
155.7793
 11
-127.0
 21
129.7793
  0
LINE
  8
0
  6
PHANTOM
 62
     2
 10
-127.5
 20
129.2792
 11
-133.0
 21
129.2792
  0
LINE
  8
0
  6
PHANTOM
 62
     2
 10
-70.5
 20
156.2792
 11
-87.5
 21
156.2792
  0
LINE
  8
0
  6
CENTER
 62
     2
 10
-134.7
 20
105.7793
 11
-134.7
 21
129.8761
  0
LINE
  8
0
  6
PHANTOM
 62
     2
 10
-136.45
 20
118.7793
 11
-136.45
 21
123.1234
  0
LINE
  8
0
  6
PHANTOM
 62
     2
 10
-138.15
 20
118.7793
 11
-138.15
 21
123.5789
  0
LINE
  8
0
  6
PHANTOM
 62
     2
 10
-135.02
 20
108.7793
 11
-135.02
 21
118.7793
  0
LINE
  8
0
  6
PHANTOM
 62
     2
 10
-134.38
 20
108.7793
 11
-134.38
 21
118.7793
  0
LINE
  8
0
  6
PHANTOM
 62
     2
 10
-133.8499
 20
118.7792
 11
-135.55
 21
118.7792
  0
LINE
  8
0
  6
PHANTOM
 62
     2
 10
-134.3799
 20
108.7792
 11
-135.0199
 21
108.7792
  0
LINE
  8
0
  6
CENTER
 62
     2
 10
-137.3
 20
105.7792
 11
-137.3
 21
129.8138
  0
LINE
  8
0
  6
PHANTOM
 62
     2
 10
-133.85
 20
118.7792
 11
-133.85
 21
122.4267
  0
LINE
  8
0
  6
PHANTOM
 62
     2
 10
-135.55
 20
118.7792
 11
-135.55
 21
122.8822
  0
LINE
  8
0
  6
PHANTOM
 62
     2
 10
-137.62
 20
108.7792
 11
-137.62
 21
118.7792
  0
LINE
  8
0
  6
PHANTOM
 62
     2
 10
-136.98
 20
108.7792
 11
-136.98
 21
118.7792
  0
LINE
  8
0
  6
PHANTOM
 62
     2
 10
-136.45
 20
118.7792
 11
-138.15
 21
118.7792
  0
LINE
  8
0
  6
PHANTOM
 62
     2
 10
-136.9799
 20
108.7792
 11
-137.6199
 21
108.7792
  0
LINE
  8
0
  6
PHANTOM
 62
     2
 10
-131.8501
 20
123.4438
 11
-140.1501
 21
125.6678
  0
LINE
  8
0
  6
PHANTOM
 62
     2
 10
-131.8501
 20
121.8908
 11
-140.15
 21
124.1148
  0
LINE
  8
0
  6
PHANTOM
 62
     2
 10
-133.85
 20
123.9796
 11
-133.85
 21
128.7792
  0
LINE
  8
0
  6
PHANTOM
 62
     2
 10
-135.55
 20
124.4351
 11
-135.55
 21
128.7792
  0
LINE
  8
0
  6
PHANTOM
 62
     2
 10
-136.45
 20
124.6763
 11
-136.45
 21
128.7792
  0
LINE
  8
0
  6
PHANTOM
 62
     2
 10
-138.15
 20
125.1318
 11
-138.15
 21
128.7792
  0
LINE
  8
0
  6
PHANTOM
 62
     2
 10
-133.5
 20
128.7792
 11
-138.5
 21
128.7792
  0
LINE
  8
0
  6
PHANTOM
 62
     2
 10
-139.0
 20
130.7792
 11
-139.0
 21
129.2792
  0
LINE
  8
0
  6
PHANTOM
 62
     2
 10
-143.0
 20
154.7792
 11
-129.0
 21
154.7792
  0
LINE
  8
0
  6
PHANTOM
 62
     2
 10
-143.5
 20
154.2792
 11
-143.5
 21
130.7792
  0
LINE
  8
0
  6
PHANTOM
 62
     2
 10
-128.5
 20
154.2793
 11
-128.5
 21
130.7793
  0
LINE
  8
0
  6
PHANTOM
 62
     2
 10
-143.5
 20
130.7792
 11
-128.5
 21
130.7792
  0
LINE
  8
0
  6
PHANTOM
 62
     2
 10
-89.5
 20
156.2792
 11
-106.5
 21
156.2792
  0
LINE
  8
0
  6
PHANTOM
 62
     2
 10
-76.0
 20
130.7793
 11
-76.0
 21
129.2793
  0
LINE
  8
0
  6
PHANTOM
 62
     2
 10
-81.99995
 20
129.2792
 11
-87.49995
 21
129.2792
  0
LINE
  8
0
  6
PHANTOM
 62
     2
 10
-88.0
 20
155.7792
 11
-88.0
 21
129.7792
  0
LINE
  8
0
  6
PHANTOM
 62
     2
 10
-70.0
 20
155.7793
 11
-70.0
 21
129.7793
  0
LINE
  8
0
  6
PHANTOM
 62
     2
 10
-70.49995
 20
129.2792
 11
-75.99995
 21
129.2792
  0
LINE
  8
0
  6
CENTER
 62
     2
 10
-77.70001
 20
105.7793
 11
-77.70001
 21
129.8761
  0
LINE
  8
0
  6
PHANTOM
 62
     2
 10
-79.45
 20
118.7793
 11
-79.45
 21
123.1234
  0
LINE
  8
0
  6
PHANTOM
 62
     2
 10
-81.14999
 20
118.7793
 11
-81.14999
 21
123.5789
  0
LINE
  8
0
  6
PHANTOM
 62
     2
 10
-78.02
 20
108.7793
 11
-78.02
 21
118.7793
  0
LINE
  8
0
  6
PHANTOM
 62
     2
 10
-77.38
 20
108.7793
 11
-77.38
 21
118.7793
  0
LINE
  8
0
  6
PHANTOM
 62
     2
 10
-76.84995
 20
118.7792
 11
-78.54996
 21
118.7792
  0
LINE
  8
0
  6
PHANTOM
 62
     2
 10
-77.37994
 20
108.7792
 11
-78.01993
 21
108.7792
  0
LINE
  8
0
  6
CENTER
 62
     2
 10
-80.3
 20
105.7792
 11
-80.3
 21
129.8138
  0
LINE
  8
0
  6
PHANTOM
 62
     2
 10
-76.85001
 20
118.7792
 11
-76.85001
 21
122.4267
  0
LINE
  8
0
  6
PHANTOM
 62
     2
 10
-78.55
 20
118.7792
 11
-78.55
 21
122.8822
  0
LINE
  8
0
  6
PHANTOM
 62
     2
 10
-80.62
 20
108.7792
 11
-80.62
 21
118.7792
  0
LINE
  8
0
  6
PHANTOM
 62
     2
 10
-79.98
 20
108.7792
 11
-79.98
 21
118.7792
  0
LINE
  8
0
  6
PHANTOM
 62
     2
 10
-79.44995
 20
118.7792
 11
-81.14996
 21
118.7792
  0
LINE
  8
0
  6
PHANTOM
 62
     2
 10
-79.97995
 20
108.7792
 11
-80.61993
 21
108.7792
  0
LINE
  8
0
  6
PHANTOM
 62
     2
 10
-74.85006
 20
123.4437
 11
-83.15007
 21
125.6677
  0
LINE
  8
0
  6
PHANTOM
 62
     2
 10
-74.85007
 20
121.8908
 11
-83.15003
 21
124.1148
  0
LINE
  8
0
  6
PHANTOM
 62
     2
 10
-76.85001
 20
123.9796
 11
-76.85001
 21
128.7792
  0
LINE
  8
0
  6
PHANTOM
 62
     2
 10
-78.55
 20
124.4351
 11
-78.55
 21
128.7792
  0
LINE
  8
0
  6
PHANTOM
 62
     2
 10
-79.45
 20
124.6763
 11
-79.45
 21
128.7792
  0
LINE
  8
0
  6
PHANTOM
 62
     2
 10
-81.14999
 20
125.1318
 11
-81.14999
 21
128.7792
  0
LINE
  8
0
  6
PHANTOM
 62
     2
 10
-76.49995
 20
128.7792
 11
-81.49995
 21
128.7792
  0
LINE
  8
0
  6
PHANTOM
 62
     2
 10
-82.0
 20
130.7792
 11
-82.0
 21
129.2792
  0
LINE
  8
0
  6
PHANTOM
 62
     2
 10
-86.0
 20
154.7792
 11
-72.0
 21
154.7792
  0
LINE
  8
0
  6
PHANTOM
 62
     2
 10
-86.5
 20
154.2792
 11
-86.5
 21
130.7792
  0
LINE
  8
0
  6
PHANTOM
 62
     2
 10
-71.5
 20
154.2793
 11
-71.5
 21
130.7793
  0
LINE
  8
0
  6
PHANTOM
 62
     2
 10
-86.49997
 20
130.7792
 11
-71.49997
 21
130.7792
  0
LINE
  8
0
  6
PHANTOM
 62
     2
 10
-95.0
 20
130.7793
 11
-95.0
 21
129.2793
  0
LINE
  8
0
  6
PHANTOM
 62
     2
 10
-101.0
 20
129.2792
 11
-106.5
 21
129.2792
  0
LINE
  8
0
  6
PHANTOM
 62
     2
 10
-107.0
 20
155.7792
 11
-107.0
 21
129.7792
  0
LINE
  8
0
  6
PHANTOM
 62
     2
 10
-89.0
 20
155.7793
 11
-89.0
 21
129.7793
  0
LINE
  8
0
  6
PHANTOM
 62
     2
 10
-89.49995
 20
129.2792
 11
-94.99995
 21
129.2792
  0
LINE
  8
0
  6
CENTER
 62
     2
 10
-96.70001
 20
105.7793
 11
-96.70001
 21
129.8761
  0
LINE
  8
0
  6
PHANTOM
 62
     2
 10
-98.45
 20
118.7793
 11
-98.45
 21
123.1234
  0
LINE
  8
0
  6
PHANTOM
 62
     2
 10
-100.15
 20
118.7793
 11
-100.15
 21
123.5789
  0
LINE
  8
0
  6
PHANTOM
 62
     2
 10
-97.02
 20
108.7793
 11
-97.02
 21
118.7793
  0
LINE
  8
0
  6
PHANTOM
 62
     2
 10
-96.38
 20
108.7793
 11
-96.38
 21
118.7793
  0
LINE
  8
0
  6
PHANTOM
 62
     2
 10
-95.84995
 20
118.7792
 11
-97.54996
 21
118.7792
  0
LINE
  8
0
  6
PHANTOM
 62
     2
 10
-96.37994
 20
108.7792
 11
-97.01993
 21
108.7792
  0
LINE
  8
0
  6
CENTER
 62
     2
 10
-99.3
 20
105.7792
 11
-99.3
 21
129.8138
  0
LINE
  8
0
  6
PHANTOM
 62
     2
 10
-95.85001
 20
118.7792
 11
-95.85001
 21
122.4267
  0
LINE
  8
0
  6
PHANTOM
 62
     2
 10
-97.55
 20
118.7792
 11
-97.55
 21
122.8822
  0
LINE
  8
0
  6
PHANTOM
 62
     2
 10
-99.62
 20
108.7792
 11
-99.62
 21
118.7792
  0
LINE
  8
0
  6
PHANTOM
 62
     2
 10
-98.98
 20
108.7792
 11
-98.98
 21
118.7792
  0
LINE
  8
0
  6
PHANTOM
 62
     2
 10
-98.44995
 20
118.7792
 11
-100.15
 21
118.7792
  0
LINE
  8
0
  6
PHANTOM
 62
     2
 10
-98.97995
 20
108.7792
 11
-99.61993
 21
108.7792
  0
LINE
  8
0
  6
PHANTOM
 62
     2
 10
-93.85005
 20
123.4437
 11
-102.1501
 21
125.6677
  0
LINE
  8
0
  6
PHANTOM
 62
     2
 10
-93.85007
 20
121.8908
 11
-102.15
 21
124.1148
  0
LINE
  8
0
  6
PHANTOM
 62
     2
 10
-95.85001
 20
123.9796
 11
-95.85001
 21
128.7792
  0
LINE
  8
0
  6
PHANTOM
 62
     2
 10
-97.55
 20
124.4351
 11
-97.55
 21
128.7792
  0
LINE
  8
0
  6
PHANTOM
 62
     2
 10
-98.45
 20
124.6763
 11
-98.45
 21
128.7792
  0
LINE
  8
0
  6
PHANTOM
 62
     2
 10
-100.15
 20
125.1318
 11
-100.15
 21
128.7792
  0
LINE
  8
0
  6
PHANTOM
 62
     2
 10
-95.49995
 20
128.7792
 11
-100.5
 21
128.7792
  0
LINE
  8
0
  6
PHANTOM
 62
     2
 10
-101.0
 20
130.7792
 11
-101.0
 21
129.2792
  0
LINE
  8
0
  6
PHANTOM
 62
     2
 10
-105.0
 20
154.7792
 11
-91.0
 21
154.7792
  0
LINE
  8
0
  6
PHANTOM
 62
     2
 10
-105.5
 20
154.2792
 11
-105.5
 21
130.7792
  0
LINE
  8
0
  6
PHANTOM
 62
     2
 10
-90.5
 20
154.2793
 11
-90.5
 21
130.7793
  0
LINE
  8
0
  6
PHANTOM
 62
     2
 10
-105.5
 20
130.7792
 11
-90.49997
 21
130.7792
  0
LINE
  8
0
  6
PHANTOM
 62
     2
 10
-114.0
 20
130.7793
 11
-114.0
 21
129.2793
  0
LINE
  8
0
  6
PHANTOM
 62
     2
 10
-120.0
 20
129.2792
 11
-125.5
 21
129.2792
  0
LINE
  8
0
  6
PHANTOM
 62
     2
 10
-126.0
 20
155.7792
 11
-126.0
 21
129.7792
  0
LINE
  8
0
  6
PHANTOM
 62
     2
 10
-108.0
 20
155.7793
 11
-108.0
 21
129.7793
  0
LINE
  8
0
  6
PHANTOM
 62
     2
 10
-108.5
 20
129.2792
 11
-114.0
 21
129.2792
  0
LINE
  8
0
  6
CENTER
 62
     2
 10
-115.7
 20
105.7793
 11
-115.7
 21
129.8761
  0
LINE
  8
0
  6
PHANTOM
 62
     2
 10
-117.45
 20
118.7793
 11
-117.45
 21
123.1234
  0
LINE
  8
0
  6
PHANTOM
 62
     2
 10
-119.15
 20
118.7793
 11
-119.15
 21
123.5789
  0
LINE
  8
0
  6
PHANTOM
 62
     2
 10
-116.02
 20
108.7793
 11
-116.02
 21
118.7793
  0
LINE
  8
0
  6
PHANTOM
 62
     2
 10
-115.38
 20
108.7793
 11
-115.38
 21
118.7793
  0
LINE
  8
0
  6
PHANTOM
 62
     2
 10
-114.8499
 20
118.7792
 11
-116.55
 21
118.7792
  0
LINE
  8
0
  6
PHANTOM
 62
     2
 10
-115.3799
 20
108.7792
 11
-116.0199
 21
108.7792
  0
LINE
  8
0
  6
CENTER
 62
     2
 10
-118.3
 20
105.7792
 11
-118.3
 21
129.8138
  0
LINE
  8
0
  6
PHANTOM
 62
     2
 10
-114.85
 20
118.7792
 11
-114.85
 21
122.4267
  0
LINE
  8
0
  6
PHANTOM
 62
     2
 10
-116.55
 20
118.7792
 11
-116.55
 21
122.8822
  0
LINE
  8
0
  6
PHANTOM
 62
     2
 10
-118.62
 20
108.7792
 11
-118.62
 21
118.7792
  0
LINE
  8
0
  6
PHANTOM
 62
     2
 10
-117.98
 20
108.7792
 11
-117.98
 21
118.7792
  0
LINE
  8
0
  6
PHANTOM
 62
     2
 10
-117.45
 20
118.7792
 11
-119.15
 21
118.7792
  0
LINE
  8
0
  6
PHANTOM
 62
     2
 10
-117.9799
 20
108.7792
 11
-118.6199
 21
108.7792
  0
LINE
  8
0
  6
PHANTOM
 62
     2
 10
-112.8501
 20
123.4437
 11
-121.1501
 21
125.6677
  0
LINE
  8
0
  6
PHANTOM
 62
     2
 10
-112.8501
 20
121.8908
 11
-121.15
 21
124.1148
  0
LINE
  8
0
  6
PHANTOM
 62
     2
 10
-114.85
 20
123.9796
 11
-114.85
 21
128.7792
  0
LINE
  8
0
  6
PHANTOM
 62
     2
 10
-116.55
 20
124.4351
 11
-116.55
 21
128.7792
  0
LINE
  8
0
  6
PHANTOM
 62
     2
 10
-117.45
 20
124.6763
 11
-117.45
 21
128.7792
  0
LINE
  8
0
  6
PHANTOM
 62
     2
 10
-119.15
 20
125.1318
 11
-119.15
 21
128.7792
  0
LINE
  8
0
  6
PHANTOM
 62
     2
 10
-114.5
 20
128.7792
 11
-119.5
 21
128.7792
  0
LINE
  8
0
  6
PHANTOM
 62
     2
 10
-120.0
 20
130.7792
 11
-120.0
 21
129.2792
  0
LINE
  8
0
  6
PHANTOM
 62
     2
 10
-124.0
 20
154.7792
 11
-110.0
 21
154.7792
  0
LINE
  8
0
  6
PHANTOM
 62
     2
 10
-124.5
 20
154.2792
 11
-124.5
 21
130.7792
  0
LINE
  8
0
  6
PHANTOM
 62
     2
 10
-109.5
 20
154.2793
 11
-109.5
 21
130.7793
  0
LINE
  8
0
  6
PHANTOM
 62
     2
 10
-124.5
 20
130.7792
 11
-109.5
 21
130.7792
  0
LINE
  8
0
  6
CENTER
 62
     2
 10
127.0755
 20
-10.0
 11
95.25537
 21
-10.0
  0
LINE
  8
0
  6
CENTER
 62
     2
 10
110.9368
 20
65.22714
 11
110.9368
 21
-96.51624
  0
LINE
  8
0
  6
PHANTOM
 62
     2
 10
97.43677
 20
31.0
 11
97.43677
 21
-61.19998
  0
LINE
  8
0
  6
PHANTOM
 62
     2
 10
124.4368
 20
-31.0
 11
97.43677
 21
-31.0
  0
LINE
  8
0
  6
PHANTOM
 62
     2
 10
124.4368
 20
11.0
 11
97.43677
 21
11.0
  0
LINE
  8
0
  6
PHANTOM
 62
     2
 10
123.4366
 20
31.99988
 11
124.4366
 21
30.99988
  0
LINE
  8
0
  6
PHANTOM
 62
     2
 10
98.43675
 20
32.00002
 11
97.43675
 21
31.00002
  0
LINE
  8
0
  6
PHANTOM
 62
     2
 10
124.4368
 20
31.0
 11
97.43677
 21
31.0
  0
LINE
  8
0
  6
PHANTOM
 62
     2
 10
123.4367
 20
32.0
 11
98.43677
 21
32.0
  0
LINE
  8
0
  6
PHANTOM
 62
     2
 10
122.9368
 20
58.20011
 11
122.9368
 21
55.4
  0
LINE
  8
0
  6
CENTER
 62
     2
 10
73.93677
 20
47.2
 11
101.9368
 21
47.2
  0
LINE
  8
0
  6
PHANTOM
 62
     2
 10
86.93677
 20
46.35
 11
90.93256
 21
46.35
  0
LINE
  8
0
  6
PHANTOM
 62
     2
 10
86.93677
 20
48.05
 11
91.38806
 21
48.05
  0
LINE
  8
0
  6
PHANTOM
 62
     2
 10
76.93677
 20
47.52
 11
86.93677
 21
47.52
  0
LINE
  8
0
  6
PHANTOM
 62
     2
 10
76.93677
 20
46.88
 11
86.93677
 21
46.88
  0
LINE
  8
0
  6
PHANTOM
 62
     2
 10
86.93677
 20
46.35
 11
86.93677
 21
48.05
  0
LINE
  8
0
  6
PHANTOM
 62
     2
 10
76.93677
 20
46.88
 11
76.93677
 21
47.52
  0
LINE
  8
0
  6
PHANTOM
 62
     2
 10
90.39681
 20
44.34994
 11
91.9241
 21
50.04995
  0
LINE
  8
0
  6
PHANTOM
 62
     2
 10
91.9495
 20
44.34999
 11
93.47679
 21
50.04998
  0
LINE
  8
0
  6
PHANTOM
 62
     2
 10
92.48547
 20
46.35
 11
96.93677
 21
46.35
  0
LINE
  8
0
  6
PHANTOM
 62
     2
 10
92.94098
 20
48.05
 11
96.93677
 21
48.05
  0
LINE
  8
0
  6
PHANTOM
 62
     2
 10
98.93677
 20
58.19996
 11
98.93677
 21
55.39999
  0
LINE
  8
0
  6
PHANTOM
 62
     2
 10
97.43677
 20
48.89999
 11
98.93677
 21
48.89999
  0
LINE
  8
0
  6
PHANTOM
 62
     2
 10
96.93677
 20
46.0
 11
96.93677
 21
48.39999
  0
LINE
  8
0
  6
PHANTOM
 62
     2
 10
97.43677
 20
45.5
 11
98.93677
 21
45.5
  0
LINE
  8
0
  6
PHANTOM
 62
     2
 10
124.4367
 20
-61.19995
 11
123.4367
 21
-62.19995
  0
LINE
  8
0
  6
PHANTOM
 62
     2
 10
98.43669
 20
-62.20002
 11
97.43671
 21
-61.20005
  0
LINE
  8
0
  6
PHANTOM
 62
     2
 10
124.4367
 20
-61.19998
 11
97.43677
 21
-61.19998
  0
LINE
  8
0
  6
PHANTOM
 62
     2
 10
123.4367
 20
-62.2
 11
98.43677
 21
-62.2
  0
LINE
  8
0
  6
PHANTOM
 62
     2
 10
122.9368
 20
-88.39972
 11
122.9368
 21
-62.2
  0
LINE
  8
0
  6
PHANTOM
 62
     2
 10
98.9368
 20
-88.40005
 11
98.9368
 21
-62.2
  0
LINE
  8
0
  6
CENTER
 62
     2
 10
73.93677
 20
-67.20001
 11
101.9368
 21
-67.20001
  0
LINE
  8
0
  6
PHANTOM
 62
     2
 10
86.93677
 20
-68.05002
 11
90.93256
 21
-68.05002
  0
LINE
  8
0
  6
PHANTOM
 62
     2
 10
86.93677
 20
-66.35001
 11
91.38806
 21
-66.35001
  0
LINE
  8
0
  6
PHANTOM
 62
     2
 10
76.93677
 20
-66.88
 11
86.93677
 21
-66.88
  0
LINE
  8
0
  6
PHANTOM
 62
     2
 10
76.93677
 20
-67.52002
 11
86.93677
 21
-67.52002
  0
LINE
  8
0
  6
PHANTOM
 62
     2
 10
86.93683
 20
-68.04999
 11
86.93683
 21
-66.34999
  0
LINE
  8
0
  6
PHANTOM
 62
     2
 10
76.93683
 20
-67.51997
 11
76.93683
 21
-66.87997
  0
LINE
  8
0
  6
PHANTOM
 62
     2
 10
90.39651
 20
-70.05
 11
91.92383
 21
-64.34999
  0
LINE
  8
0
  6
PHANTOM
 62
     2
 10
91.9498
 20
-70.05006
 11
93.47708
 21
-64.35006
  0
LINE
  8
0
  6
PHANTOM
 62
     2
 10
92.94098
 20
-66.35001
 11
96.93677
 21
-66.35001
  0
LINE
  8
0
  6
PHANTOM
 62
     2
 10
92.48547
 20
-68.05002
 11
96.93677
 21
-68.05002
  0
LINE
  8
0
  6
PHANTOM
 62
     2
 10
97.43677
 20
-65.5
 11
98.93677
 21
-65.5
  0
LINE
  8
0
  6
PHANTOM
 62
     2
 10
96.93677
 20
-68.39999
 11
96.93677
 21
-66.0
  0
LINE
  8
0
  6
PHANTOM
 62
     2
 10
97.43677
 20
-68.89999
 11
98.93677
 21
-68.89999
  0
LINE
  8
0
  6
PHANTOM
 62
     2
 10
121.9368
 20
60.2
 11
99.9368
 21
60.2
  0
LINE
  8
0
  6
PHANTOM
 62
     2
 10
122.9368
 20
58.2
 11
98.93677
 21
58.2
  0
LINE
  8
0
  6
PHANTOM
 62
     2
 10
122.9366
 20
58.20003
 11
121.9367
 21
60.19994
  0
LINE
  8
0
  6
CENTER
 62
     2
 10
73.93677
 20
50.0
 11
101.9368
 21
50.0
  0
LINE
  8
0
  6
PHANTOM
 62
     2
 10
86.93677
 20
49.15
 11
90.93256
 21
49.15
  0
LINE
  8
0
  6
PHANTOM
 62
     2
 10
86.93677
 20
50.85
 11
90.63782
 21
50.85
  0
LINE
  8
0
  6
PHANTOM
 62
     2
 10
90.39639
 20
47.15006
 11
91.68255
 21
51.95004
  0
LINE
  8
0
  6
PHANTOM
 62
     2
 10
91.94971
 20
47.14994
 11
93.23588
 21
51.94996
  0
LINE
  8
0
  6
PHANTOM
 62
     2
 10
92.48547
 20
49.15
 11
96.93677
 21
49.15
  0
LINE
  8
0
  6
PHANTOM
 62
     2
 10
92.94098
 20
50.85
 11
96.93677
 21
50.85
  0
LINE
  8
0
  6
PHANTOM
 62
     2
 10
86.93677
 20
50.85001
 11
86.93677
 21
49.15001
  0
LINE
  8
0
  6
PHANTOM
 62
     2
 10
76.93677
 20
49.68
 11
86.93677
 21
49.68
  0
LINE
  8
0
  6
PHANTOM
 62
     2
 10
76.93677
 20
50.32
 11
86.93677
 21
50.32
  0
LINE
  8
0
  6
PHANTOM
 62
     2
 10
76.93677
 20
50.32001
 11
76.93677
 21
49.68001
  0
LINE
  8
0
  6
PHANTOM
 62
     2
 10
122.9368
 20
-87.39999
 11
98.93677
 21
-87.39999
  0
LINE
  8
0
  6
PHANTOM
 62
     2
 10
99.93674
 20
-90.39999
 11
121.9366
 21
-90.39999
  0
LINE
  8
0
  6
PHANTOM
 62
     2
 10
122.9368
 20
-88.39999
 11
98.93677
 21
-88.39999
  0
LINE
  8
0
  6
PHANTOM
 62
     2
 10
98.93687
 20
-88.40001
 11
99.93684
 21
-90.39994
  0
LINE
  8
0
  6
PHANTOM
 62
     2
 10
122.9367
 20
-88.39966
 11
121.9366
 21
-90.39995
  0
LINE
  8
0
  6
CENTER
 62
     2
 10
73.93677
 20
-80.20001
 11
101.9368
 21
-80.20001
  0
LINE
  8
0
  6
PHANTOM
 62
     2
 10
86.93677
 20
-81.05
 11
90.93256
 21
-81.05
  0
LINE
  8
0
  6
PHANTOM
 62
     2
 10
86.93677
 20
-79.35001
 11
91.38806
 21
-79.35001
  0
LINE
  8
0
  6
PHANTOM
 62
     2
 10
76.93677
 20
-79.88
 11
86.93677
 21
-79.88
  0
LINE
  8
0
  6
PHANTOM
 62
     2
 10
76.93677
 20
-80.52
 11
86.93677
 21
-80.52
  0
LINE
  8
0
  6
PHANTOM
 62
     2
 10
86.93683
 20
-81.04999
 11
86.93683
 21
-79.34998
  0
LINE
  8
0
  6
PHANTOM
 62
     2
 10
76.93683
 20
-80.51996
 11
76.93683
 21
-79.87997
  0
LINE
  8
0
  6
PHANTOM
 62
     2
 10
90.39686
 20
-83.05006
 11
91.92413
 21
-77.35007
  0
LINE
  8
0
  6
PHANTOM
 62
     2
 10
91.94958
 20
-83.05
 11
93.47686
 21
-77.35001
  0
LINE
  8
0
  6
PHANTOM
 62
     2
 10
92.94098
 20
-79.35001
 11
96.93677
 21
-79.35001
  0
LINE
  8
0
  6
PHANTOM
 62
     2
 10
92.48547
 20
-81.05
 11
96.93677
 21
-81.05
  0
LINE
  8
0
  6
PHANTOM
 62
     2
 10
97.43677
 20
51.7
 11
98.93677
 21
51.7
  0
LINE
  8
0
  6
PHANTOM
 62
     2
 10
96.93677
 20
48.8
 11
96.93677
 21
51.2
  0
LINE
  8
0
  6
PHANTOM
 62
     2
 10
97.43677
 20
-78.5
 11
98.93677
 21
-78.5
  0
LINE
  8
0
  6
PHANTOM
 62
     2
 10
96.93677
 20
-81.39999
 11
96.93677
 21
-79.0
  0
LINE
  8
0
  6
PHANTOM
 62
     2
 10
97.43677
 20
-81.89999
 11
98.93677
 21
-81.89999
  0
LINE
  8
0
  6
PHANTOM
 62
     2
 10
98.93682
 20
58.19998
 11
99.93685
 21
60.20002
  0
LINE
  8
0
  6
PHANTOM
 62
     2
 10
122.9368
 20
55.4
 11
122.9368
 21
32.0
  0
LINE
  8
0
  6
PHANTOM
 62
     2
 10
98.93677
 20
55.39999
 11
98.93677
 21
32.0
  0
LINE
  8
0
  6
PHANTOM
 62
     2
 10
122.9368
 20
57.2
 11
98.93677
 21
57.2
  0
LINE
  8
0
  6
PHANTOM
 62
     2
 10
124.4368
 20
31.0
 11
124.4368
 21
23.99995
  0
LINE
  8
0
  6
CONTINUOUS
 62
     2
 10
-41.0
 20
27.0
 11
-41.0
 21
91.22714
  0
LINE
  8
0
  6
CONTINUOUS
 62
     2
 10
-155.0
 20
27.0
 11
-155.0
 21
91.22714
  0
LINE
  8
0
  6
CONTINUOUS
 62
     2
 10
-150.0
 20
3.5
 11
-150.0
 21
76.22714
  0
LINE
  8
0
  6
CONTINUOUS
 62
     2
 10
-46.0
 20
3.5
 11
-46.0
 21
76.22714
  0
LINE
  8
0
  6
CONTINUOUS
 62
     7
 10
-277.71737829
 20
-240.4079
 11
-298.83447829
 21
-240.4079
  0
LINE
  8
0
  6
CONTINUOUS
 62
     2
 10
-155.0
 20
88.22714
 11
-41.0
 21
88.22714
  0
LINE
  8
0
  6
CONTINUOUS
 62
     2
 10
-46.0
 20
73.22715
 11
-51.0
 21
71.88741
  0
LINE
  8
0
  6
CONTINUOUS
 62
     2
 10
-45.99998
 20
73.22712
 11
-51.0
 21
74.56686
  0
LINE
  8
0
  6
CONTINUOUS
 62
     7
 10
-277.71747829
 20
-240.408
 11
-282.71747829
 21
-241.7477
  0
LINE
  8
0
  6
CONTINUOUS
 62
     7
 10
-277.71737829
 20
-240.4079
 11
-282.71737829
 21
-239.0681
  0
LINE
  8
0
  6
CONTINUOUS
 62
     2
 10
-155.0
 20
88.22713
 11
-150.0
 21
89.56688
  0
LINE
  8
0
  6
CONTINUOUS
 62
     2
 10
-155.0
 20
88.22714
 11
-150.0
 21
86.8874
  0
LINE
  8
0
  6
CONTINUOUS
 62
     2
 10
-41.00001
 20
88.22715
 11
-46.0
 21
86.88741
  0
LINE
  8
0
  6
CONTINUOUS
 62
     2
 10
-40.99998
 20
88.22713
 11
-45.99999
 21
89.56687
  0
LINE
  8
0
  6
CONTINUOUS
 62
     2
 10
-150.0
 20
73.22715
 11
-145.0
 21
71.8874
  0
LINE
  8
0
  6
CONTINUOUS
 62
     2
 10
-150.0
 20
73.22714
 11
-145.0
 21
74.56689
  0
LINE
  8
0
  6
CONTINUOUS
 62
     2
 10
-150.0
 20
73.22714
 11
-46.0
 21
73.22714
  0
LINE
  8
0
  6
CONTINUOUS
 62
     7
 10
-155.0
 20
157.2792
 11
-155.0
 21
197.2792
  0
LINE
  8
0
  6
CONTINUOUS
 62
     7
 10
-41.0
 20
157.2792
 11
-41.0
 21
197.2792
  0
LINE
  8
0
  6
CONTINUOUS
 62
     7
 10
-155.0
 20
197.2792
 11
-97.48236
 21
197.2792
  0
LINE
  8
0
  6
CENTER
 62
     2
 10
-60.0
 20
199.3929
 11
-60.0
 21
156.2792
  0
LINE
  8
0
  6
CONTINUOUS
 62
     7
 10
-155.0
 20
157.2792
 11
-86.76439
 21
157.2792
  0
LINE
  8
0
  6
CENTER
 62
     2
 10
-136.0
 20
199.3929
 11
-136.0
 21
156.2792
  0
LINE
  8
0
  6
CENTER
 62
     2
 10
-117.0
 20
199.3929
 11
-117.0
 21
156.2792
  0
LINE
  8
0
  6
CENTER
 62
     2
 10
-98.0
 20
199.3929
 11
-98.0
 21
156.2792
  0
LINE
  8
0
  6
CENTER
 62
     2
 10
-79.0
 20
199.3929
 11
-79.0
 21
156.2792
  0
LINE
  8
0
  6
CONTINUOUS
 62
     7
 10
-144.5
 20
157.2792
 11
-144.5
 21
156.2792
  0
LINE
  8
0
  6
CONTINUOUS
 62
     7
 10
-127.5
 20
157.2792
 11
-127.5
 21
156.2792
  0
LINE
  8
0
  6
CONTINUOUS
 62
     7
 10
-125.5
 20
157.2792
 11
-125.5
 21
156.2792
  0
LINE
  8
0
  6
CONTINUOUS
 62
     7
 10
-108.5
 20
157.2792
 11
-108.5
 21
156.2792
  0
LINE
  8
0
  6
CONTINUOUS
 62
     7
 10
-106.5
 20
157.2792
 11
-106.5
 21
156.2792
  0
LINE
  8
0
  6
CONTINUOUS
 62
     7
 10
-89.5
 20
157.2792
 11
-89.5
 21
156.2792
  0
LINE
  8
0
  6
CONTINUOUS
 62
     7
 10
-87.5
 20
157.2792
 11
-87.5
 21
156.2792
  0
LINE
  8
0
  6
CONTINUOUS
 62
     7
 10
-70.5
 20
157.2792
 11
-70.5
 21
156.2792
  0
LINE
  8
0
  6
CONTINUOUS
 62
     7
 10
-68.5
 20
157.2792
 11
-68.5
 21
156.2792
  0
LINE
  8
0
  6
CONTINUOUS
 62
     7
 10
-51.5
 20
157.2792
 11
-51.5
 21
156.2792
  0
LINE
  8
0
  6
PHANTOM
 62
     2
 10
-98.01826
 20
199.2792
 11
-85.96055
 21
154.2793
  0
LINE
  8
0
  6
PHANTOM
 62
     2
 10
-95.94771
 20
199.2793
 11
-83.88999
 21
154.2792
  0
LINE
  8
0
  6
CONTINUOUS
 62
     7
 10
-95.41181
 20
197.2792
 11
-41.0
 21
197.2792
  0
LINE
  8
0
  6
CONTINUOUS
 62
     7
 10
-84.69384
 20
157.2792
 11
-41.0
 21
157.2792
  0
LINE
  8
0
  6
CONTINUOUS
 62
     7
 10
-50.7
 20
151.8074
 11
-50.7
 21
153.2792
  0
LINE
  8
0
  6
CONTINUOUS
 62
     7
 10
-56.3
 20
151.8074
 11
-56.3
 21
153.2792
  0
LINE
  8
0
  6
CONTINUOUS
 62
     7
 10
-69.3
 20
153.2792
 11
-50.7
 21
153.2792
  0
LINE
  8
0
  6
CONTINUOUS
 62
     7
 10
-51.0
 20
156.2792
 11
-51.0
 21
153.2792
  0
LINE
  8
0
  6
CONTINUOUS
 62
     7
 10
-69.0
 20
156.2792
 11
-69.0
 21
153.2792
  0
LINE
  8
0
  6
CONTINUOUS
 62
     7
 10
-56.3
 20
152.5792
 11
-50.7
 21
152.5792
  0
LINE
  8
0
  6
CONTINUOUS
 62
     7
 10
-63.7
 20
151.8074
 11
-63.7
 21
153.2792
  0
LINE
  8
0
  6
CONTINUOUS
 62
     7
 10
-69.3
 20
151.8074
 11
-69.3
 21
153.2792
  0
LINE
  8
0
  6
CONTINUOUS
 62
     7
 10
-69.3
 20
152.5792
 11
-63.7
 21
152.5792
  0
LINE
  8
0
  6
CENTER
 62
     2
 10
-66.5
 20
149.7978
 11
-66.5
 21
154.1843
  0
LINE
  8
0
  6
CENTER
 62
     2
 10
-53.5
 20
149.7978
 11
-53.5
 21
154.1843
  0
LINE
  8
0
  6
CONTINUOUS
 62
     7
 10
-69.0
 20
156.2792
 11
-51.0
 21
156.2792
  0
LINE
  8
0
  6
CENTER
 62
     2
 10
-60.0
 20
157.6574
 11
-60.0
 21
151.978
  0
LINE
  8
0
  6
CONTINUOUS
 62
     7
 10
-155.0
 20
-47.0
 11
-107.0
 21
-47.0
  0
LINE
  8
0
  6
CONTINUOUS
 62
     7
 10
-155.0
 20
27.0
 11
-145.0
 21
27.0
  0
LINE
  8
0
  6
CONTINUOUS
 62
     7
 10
-155.0
 20
27.0
 11
-155.0
 21
-47.0
  0
LINE
  8
0
  6
CONTINUOUS
 62
     7
 10
-41.0
 20
27.0
 11
-41.0
 21
-47.0
  0
LINE
  8
0
  6
CONTINUOUS
 62
     7
 10
-70.0
 20
27.0
 11
-41.0
 21
27.0
  0
LINE
  8
0
  6
CONTINUOUS
 62
     7
 10
-127.0
 20
27.0
 11
-126.0
 21
27.0
  0
LINE
  8
0
  6
CONTINUOUS
 62
     7
 10
-108.0
 20
27.0
 11
-107.0
 21
27.0
  0
LINE
  8
0
  6
CONTINUOUS
 62
     7
 10
-89.0
 20
27.0
 11
-88.0
 21
27.0
  0
LINE
  8
0
  6
CONTINUOUS
 62
     7
 10
-89.0
 20
-47.0
 11
-88.0
 21
-47.0
  0
LINE
  8
0
  6
CONTINUOUS
 62
     7
 10
-70.0
 20
-47.0
 11
-41.0
 21
-47.0
  0
LINE
  8
0
  6
CENTER
 62
     2
 10
-153.5
 20
0.0
 11
-146.5
 21
0.0
  0
LINE
  8
0
  6
CENTER
 62
     2
 10
-153.5
 20
-20.0
 11
-146.5
 21
-20.0
  0
LINE
  8
0
  6
CENTER
 62
     2
 10
-49.5
 20
-20.0
 11
-42.5
 21
-20.0
  0
LINE
  8
0
  6
CENTER
 62
     2
 10
-49.5
 20
0.0
 11
-42.5
 21
0.0
  0
LINE
  8
0
  6
CENTER
 62
     2
 10
-150.0
 20
-16.5
 11
-150.0
 21
-23.5
  0
LINE
  8
0
  6
CENTER
 62
     2
 10
-150.0
 20
3.5
 11
-150.0
 21
-3.5
  0
LINE
  8
0
  6
CENTER
 62
     2
 10
-46.0
 20
-16.5
 11
-46.0
 21
-23.5
  0
LINE
  8
0
  6
CENTER
 62
     2
 10
-46.0
 20
3.5
 11
-46.0
 21
-3.5
  0
LINE
  8
0
  6
CONTINUOUS
 62
     7
 10
-67.77276
 20
-24.15151
 11
-67.34849
 21
-23.72725
  0
LINE
  8
0
  6
CONTINUOUS
 62
     7
 10
-65.65144
 20
-26.27283
 11
-65.22717
 21
-25.84857
  0
LINE
  8
0
  6
CONTINUOUS
 62
     7
 10
-67.77276
 20
-25.84856
 11
-67.34849
 21
-25.4243
  0
LINE
  8
0
  6
CONTINUOUS
 62
     7
 10
-67.3485
 20
-26.27282
 11
-66.92423
 21
-25.84855
  0
LINE
  8
0
  6
CONTINUOUS
 62
     7
 10
-67.7728
 20
-25.84852
 11
-67.34853
 21
-26.27279
  0
LINE
  8
0
  6
CONTINUOUS
 62
     7
 10
-65.65145
 20
-23.72717
 11
-65.22719
 21
-24.15144
  0
LINE
  8
0
  6
CONTINUOUS
 62
     7
 10
-67.7728
 20
-24.15147
 11
-67.34853
 21
-24.57574
  0
LINE
  8
0
  6
CONTINUOUS
 62
     7
 10
-67.3485
 20
-23.72717
 11
-66.92423
 21
-24.15143
  0
LINE
  8
0
  6
CONTINUOUS
 62
     7
 10
-66.07571
 20
-24.15151
 11
-65.65144
 21
-23.72725
  0
LINE
  8
0
  6
CONTINUOUS
 62
     7
 10
-65.65145
 20
-24.57577
 11
-65.22718
 21
-24.1515
  0
LINE
  8
0
  6
CONTINUOUS
 62
     7
 10
-66.07574
 20
-25.84852
 11
-65.65148
 21
-26.27279
  0
LINE
  8
0
  6
CONTINUOUS
 62
     7
 10
-65.65144
 20
-25.42422
 11
-65.22718
 21
-25.84849
  0
LINE
  8
0
  6
CONTINUOUS
 62
     7
 10
-54.77277
 20
5.8485
 11
-54.3485
 21
6.27276
  0
LINE
  8
0
  6
CONTINUOUS
 62
     7
 10
-52.65144
 20
3.72717
 11
-52.22717
 21
4.15144
  0
LINE
  8
0
  6
CONTINUOUS
 62
     7
 10
-54.77277
 20
4.15144
 11
-54.3485
 21
4.57571
  0
LINE
  8
0
  6
CONTINUOUS
 62
     7
 10
-54.34851
 20
3.72719
 11
-53.92424
 21
4.15146
  0
LINE
  8
0
  6
CONTINUOUS
 62
     7
 10
-54.77279
 20
4.15147
 11
-54.34853
 21
3.72721
  0
LINE
  8
0
  6
CONTINUOUS
 62
     7
 10
-52.65144
 20
6.27283
 11
-52.22718
 21
5.84856
  0
LINE
  8
0
  6
CONTINUOUS
 62
     7
 10
-54.77279
 20
5.84852
 11
-54.34853
 21
5.42426
  0
LINE
  8
0
  6
CONTINUOUS
 62
     7
 10
-54.34849
 20
6.27282
 11
-53.92423
 21
5.84856
  0
LINE
  8
0
  6
CONTINUOUS
 62
     7
 10
-53.07571
 20
5.8485
 11
-52.65145
 21
6.27276
  0
LINE
  8
0
  6
CONTINUOUS
 62
     7
 10
-52.65146
 20
5.42424
 11
-52.22719
 21
5.84851
  0
LINE
  8
0
  6
CONTINUOUS
 62
     7
 10
-53.07574
 20
4.15147
 11
-52.65147
 21
3.7272
  0
LINE
  8
0
  6
CONTINUOUS
 62
     7
 10
-52.65144
 20
4.57577
 11
-52.22717
 21
4.1515
  0
LINE
  8
0
  6
CONTINUOUS
 62
     7
 10
-69.0
 20
24.0
 11
-51.0
 21
24.0
  0
LINE
  8
0
  6
CONTINUOUS
 62
     7
 10
-69.0
 20
-44.0
 11
-51.0
 21
-44.0
  0
LINE
  8
0
  6
CONTINUOUS
 62
     7
 10
-69.0
 20
24.0
 11
-69.0
 21
-23.73905
  0
LINE
  8
0
  6
CONTINUOUS
 62
     7
 10
-51.0
 20
24.0
 11
-51.0
 21
6.26095
  0
LINE
  8
0
  6
CONTINUOUS
 62
     7
 10
-69.0
 20
-26.26095
 11
-69.0
 21
-44.0
  0
LINE
  8
0
  6
CONTINUOUS
 62
     7
 10
-51.0
 20
3.73905
 11
-51.0
 21
-44.0
  0
LINE
  8
0
  6
CENTER
 62
     2
 10
-53.5
 20
9.5
 11
-53.5
 21
0.5
  0
LINE
  8
0
  6
CENTER
 62
     2
 10
-66.5
 20
-20.5
 11
-66.5
 21
-29.5
  0
LINE
  8
0
  6
CENTER
 62
     2
 10
-71.0
 20
-25.0
 11
-62.0
 21
-25.0
  0
LINE
  8
0
  6
CENTER
 62
     2
 10
-58.0
 20
5.0
 11
-49.0
 21
5.0
  0
LINE
  8
0
  6
CENTER
 62
     2
 10
-60.0
 20
27.33333
 11
-60.0
 21
-48.33333
  0
LINE
  8
0
  6
CONTINUOUS
 62
     7
 10
-155.0
 20
-157.2792
 11
-155.0
 21
-197.2792
  0
LINE
  8
0
  6
CONTINUOUS
 62
     7
 10
-41.0
 20
-157.2792
 11
-41.0
 21
-197.2792
  0
LINE
  8
0
  6
CONTINUOUS
 62
     7
 10
-155.0
 20
-197.2792
 11
-86.76439
 21
-197.2792
  0
LINE
  8
0
  6
CENTER
 62
     2
 10
-60.0
 20
-199.3071
 11
-60.0
 21
-156.2792
  0
LINE
  8
0
  6
CONTINUOUS
 62
     7
 10
-155.0
 20
-157.2792
 11
-97.48236
 21
-157.2792
  0
LINE
  8
0
  6
CENTER
 62
     2
 10
-136.0
 20
-199.3071
 11
-136.0
 21
-156.2792
  0
LINE
  8
0
  6
CENTER
 62
     2
 10
-117.0
 20
-199.3071
 11
-117.0
 21
-156.2792
  0
LINE
  8
0
  6
CENTER
 62
     2
 10
-98.0
 20
-199.3071
 11
-98.0
 21
-156.2792
  0
LINE
  8
0
  6
CENTER
 62
     2
 10
-79.0
 20
-199.3071
 11
-79.0
 21
-156.2792
  0
LINE
  8
0
  6
CONTINUOUS
 62
     7
 10
-144.5
 20
-157.2792
 11
-144.5
 21
-156.2792
  0
LINE
  8
0
  6
CONTINUOUS
 62
     7
 10
-127.5
 20
-157.2792
 11
-127.5
 21
-156.2792
  0
LINE
  8
0
  6
CONTINUOUS
 62
     7
 10
-125.5
 20
-157.2792
 11
-125.5
 21
-156.2792
  0
LINE
  8
0
  6
CONTINUOUS
 62
     7
 10
-108.5
 20
-157.2792
 11
-108.5
 21
-156.2792
  0
LINE
  8
0
  6
CONTINUOUS
 62
     7
 10
-106.5
 20
-157.2792
 11
-106.5
 21
-156.2792
  0
LINE
  8
0
  6
CONTINUOUS
 62
     7
 10
-89.5
 20
-157.2792
 11
-89.5
 21
-156.2792
  0
LINE
  8
0
  6
CONTINUOUS
 62
     7
 10
-87.5
 20
-157.2792
 11
-87.5
 21
-156.2792
  0
LINE
  8
0
  6
CONTINUOUS
 62
     7
 10
-70.5
 20
-157.2792
 11
-70.5
 21
-156.2792
  0
LINE
  8
0
  6
CONTINUOUS
 62
     7
 10
-68.5
 20
-157.2792
 11
-68.5
 21
-156.2792
  0
LINE
  8
0
  6
CONTINUOUS
 62
     7
 10
-51.5
 20
-157.2792
 11
-51.5
 21
-156.2792
  0
LINE
  8
0
  6
CENTER
 62
     2
 10
-64.5
 20
-189.2792
 11
-51.5
 21
-189.2792
  0
LINE
  8
0
  6
CENTER
 62
     2
 10
-72.5
 20
-172.2792
 11
-59.5
 21
-172.2792
  0
LINE
  8
0
  6
CENTER
 62
     2
 10
-91.5
 20
-172.2792
 11
-78.5
 21
-172.2792
  0
LINE
  8
0
  6
CENTER
 62
     2
 10
-110.5
 20
-172.2792
 11
-97.5
 21
-172.2792
  0
LINE
  8
0
  6
CENTER
 62
     2
 10
-129.5
 20
-172.2792
 11
-116.5
 21
-172.2792
  0
LINE
  8
0
  6
CENTER
 62
     2
 10
-148.5
 20
-172.2792
 11
-135.5
 21
-172.2792
  0
LINE
  8
0
  6
CENTER
 62
     2
 10
-140.5
 20
-189.2792
 11
-127.5
 21
-189.2792
  0
LINE
  8
0
  6
CENTER
 62
     2
 10
-121.5
 20
-189.2792
 11
-108.5
 21
-189.2792
  0
LINE
  8
0
  6
CENTER
 62
     2
 10
-102.5
 20
-189.2792
 11
-89.5
 21
-189.2792
  0
LINE
  8
0
  6
CENTER
 62
     2
 10
-83.5
 20
-189.2792
 11
-70.5
 21
-189.2792
  0
LINE
  8
0
  6
CENTER
 62
     2
 10
-142.0
 20
-165.7792
 11
-142.0
 21
-178.7792
  0
LINE
  8
0
  6
CENTER
 62
     2
 10
-123.0
 20
-165.7792
 11
-123.0
 21
-178.7792
  0
LINE
  8
0
  6
CENTER
 62
     2
 10
-104.0
 20
-165.7792
 11
-104.0
 21
-178.7792
  0
LINE
  8
0
  6
CENTER
 62
     2
 10
-85.0
 20
-165.7792
 11
-85.0
 21
-178.7792
  0
LINE
  8
0
  6
CENTER
 62
     2
 10
-66.0
 20
-165.7792
 11
-66.0
 21
-178.7792
  0
LINE
  8
0
  6
CENTER
 62
     2
 10
-58.0
 20
-182.7792
 11
-58.0
 21
-195.7792
  0
LINE
  8
0
  6
CENTER
 62
     2
 10
-77.0
 20
-182.7792
 11
-77.0
 21
-195.7792
  0
LINE
  8
0
  6
CENTER
 62
     2
 10
-96.0
 20
-182.7792
 11
-96.0
 21
-195.7792
  0
LINE
  8
0
  6
CENTER
 62
     2
 10
-115.0
 20
-182.7792
 11
-115.0
 21
-195.7792
  0
LINE
  8
0
  6
CENTER
 62
     2
 10
-134.0
 20
-182.7792
 11
-134.0
 21
-195.7792
  0
LINE
  8
0
  6
PHANTOM
 62
     2
 10
-98.01826
 20
-155.2792
 11
-86.13918
 21
-199.6126
  0
LINE
  8
0
  6
PHANTOM
 62
     2
 10
-95.94771
 20
-155.2793
 11
-84.06863
 21
-199.6126
  0
LINE
  8
0
  6
CONTINUOUS
 62
     7
 10
-95.4118
 20
-157.2792
 11
-41.0
 21
-157.2792
  0
LINE
  8
0
  6
CONTINUOUS
 62
     7
 10
-84.69384
 20
-197.2792
 11
-41.0
 21
-197.2792
  0
LINE
  8
0
  6
CONTINUOUS
 62
     7
 10
-69.3
 20
-153.2792
 11
-50.7
 21
-153.2792
  0
LINE
  8
0
  6
CONTINUOUS
 62
     7
 10
-51.0
 20
-156.2792
 11
-51.0
 21
-153.2792
  0
LINE
  8
0
  6
CONTINUOUS
 62
     7
 10
-69.0
 20
-156.2792
 11
-69.0
 21
-153.2792
  0
LINE
  8
0
  6
CONTINUOUS
 62
     7
 10
-63.7
 20
-151.8074
 11
-63.7
 21
-153.2792
  0
LINE
  8
0
  6
CONTINUOUS
 62
     7
 10
-69.3
 20
-151.8074
 11
-69.3
 21
-153.2792
  0
LINE
  8
0
  6
CONTINUOUS
 62
     7
 10
-69.3
 20
-152.5792
 11
-63.7
 21
-152.5792
  0
LINE
  8
0
  6
CENTER
 62
     2
 10
-66.5
 20
-149.7978
 11
-66.5
 21
-154.1843
  0
LINE
  8
0
  6
CONTINUOUS
 62
     7
 10
-56.3
 20
-151.8074
 11
-56.3
 21
-153.2792
  0
LINE
  8
0
  6
CENTER
 62
     2
 10
-53.5
 20
-149.7978
 11
-53.5
 21
-154.1843
  0
LINE
  8
0
  6
CONTINUOUS
 62
     7
 10
-50.7
 20
-151.8074
 11
-50.7
 21
-153.2792
  0
LINE
  8
0
  6
CONTINUOUS
 62
     7
 10
-56.3
 20
-152.5792
 11
-50.7
 21
-152.5792
  0
LINE
  8
0
  6
CONTINUOUS
 62
     7
 10
-69.0
 20
-156.2792
 11
-51.0
 21
-156.2792
  0
LINE
  8
0
  6
CENTER
 62
     2
 10
-60.0
 20
-157.3007
 11
-60.0
 21
-152.0319
  0
LINE
  8
0
  6
CONTINUOUS
 62
     7
 10
165.4368
 20
-47.00005
 11
125.4368
 21
-47.00005
  0
LINE
  8
0
  6
CONTINUOUS
 62
     7
 10
165.4368
 20
26.99995
 11
165.4368
 21
-41.50005
  0
LINE
  8
0
  6
CONTINUOUS
 62
     7
 10
165.4368
 20
26.99995
 11
125.4368
 21
26.99995
  0
LINE
  8
0
  6
CONTINUOUS
 62
     7
 10
164.9368
 20
-42.00004
 11
165.4368
 21
-42.50005
  0
LINE
  8
0
  6
CONTINUOUS
 62
     7
 10
164.9366
 20
-41.99996
 11
165.4367
 21
-41.49995
  0
LINE
  8
0
  6
CONTINUOUS
 62
     7
 10
165.4368
 20
-42.50005
 11
165.4368
 21
-47.00005
  0
LINE
  8
0
  6
CENTER
 62
     2
 10
148.9368
 20
18.19759
 11
148.9368
 21
-38.11656
  0
LINE
  8
0
  6
CENTER
 62
     2
 10
168.6629
 20
-10.00005
 11
124.4368
 21
-10.00005
  0
LINE
  8
0
  6
CONTINUOUS
 62
     7
 10
125.4368
 20
-44.50005
 11
124.4368
 21
-44.50005
  0
LINE
  8
0
  6
CONTINUOUS
 62
     7
 10
125.4368
 20
-37.50005
 11
124.4368
 21
-37.50005
  0
LINE
  8
0
  6
CONTINUOUS
 62
     7
 10
125.4368
 20
10.99995
 11
124.4368
 21
10.99995
  0
LINE
  8
0
  6
CONTINUOUS
 62
     7
 10
125.4368
 20
-31.00005
 11
124.4368
 21
-31.00005
  0
LINE
  8
0
  6
CONTINUOUS
 62
     7
 10
125.4368
 20
24.49995
 11
124.4368
 21
24.49995
  0
LINE
  8
0
  6
CONTINUOUS
 62
     7
 10
125.4368
 20
26.99995
 11
125.4368
 21
-47.00005
  0
LINE
  8
0
  6
CONTINUOUS
 62
     7
 10
125.4368
 20
17.49995
 11
124.4368
 21
17.49995
  0
LINE
  8
0
  6
CENTER
 62
     2
 10
140.9368
 20
9.99995
 11
156.9368
 21
9.99995
  0
LINE
  8
0
  6
CENTER
 62
     2
 10
140.9368
 20
-30.00005
 11
156.9368
 21
-30.00005
  0
LINE
  8
0
  6
CENTER
 62
     2
 10
127.4368
 20
-41.00005
 11
135.4368
 21
-41.00005
  0
LINE
  8
0
  6
CENTER
 62
     2
 10
127.4368
 20
20.99995
 11
135.4368
 21
20.99995
  0
LINE
  8
0
  6
CENTER
 62
     2
 10
131.4368
 20
-37.00005
 11
131.4368
 21
-45.00005
  0
LINE
  8
0
  6
CENTER
 62
     2
 10
131.4368
 20
24.99995
 11
131.4368
 21
16.99995
  0
LINE
  8
0
  6
CONTINUOUS
 62
     7
 10
119.965
 20
7.79994
 11
121.4368
 21
7.79994
  0
LINE
  8
0
  6
CONTINUOUS
 62
     7
 10
119.965
 20
2.19997
 11
121.4368
 21
2.19997
  0
LINE
  8
0
  6
CONTINUOUS
 62
     7
 10
120.7368
 20
2.19997
 11
120.7368
 21
7.79994
  0
LINE
  8
0
  6
CENTER
 62
     2
 10
117.9553
 20
4.99995
 11
122.3418
 21
4.99995
  0
LINE
  8
0
  6
CONTINUOUS
 62
     7
 10
124.4368
 20
23.99995
 11
124.4368
 21
-44.00005
  0
LINE
  8
0
  6
CONTINUOUS
 62
     7
 10
121.4368
 20
23.99995
 11
121.4368
 21
-44.00005
  0
LINE
  8
0
  6
CONTINUOUS
 62
     7
 10
119.965
 20
-27.80003
 11
121.4368
 21
-27.80003
  0
LINE
  8
0
  6
CENTER
 62
     2
 10
117.9553
 20
-25.00005
 11
122.3418
 21
-25.00005
  0
LINE
  8
0
  6
CONTINUOUS
 62
     7
 10
119.965
 20
-22.20006
 11
121.4368
 21
-22.20006
  0
LINE
  8
0
  6
CONTINUOUS
 62
     7
 10
120.7368
 20
-27.80003
 11
120.7368
 21
-22.20006
  0
LINE
  8
0
  6
CONTINUOUS
 62
     7
 10
121.4368
 20
23.99995
 11
124.4368
 21
23.99995
  0
LINE
  8
0
  6
CONTINUOUS
 62
     7
 10
121.4368
 20
-44.00005
 11
124.4368
 21
-44.00005
  0
LINE
  8
0
  6
CENTER
 62
     2
 10
118.6034
 20
-10.00005
 11
128.2701
 21
-10.00005
  0
LINE
  8
0
  6
PHANTOM
 62
     2
 10
124.4368
 20
-44.00005
 11
124.4368
 21
-61.19998
  0
ARC
  8
0
  6
CONTINUOUS
 62
     7
 10
273.0354
 20
-235.0457
 40
2.21188
 50
0.0
 51
89.99999
  0
ARC
  8
0
  6
CONTINUOUS
 62
     7
 10
291.2836
 20
-246.9346
 40
2.2119
 50
270.0
 51
0.0
  0
ARC
  8
0
  6
CONTINUOUS
 62
     7
 10
290.1776
 20
-236.1516
 40
3.31784
 50
0.0
 51
89.99999
  0
ARC
  8
0
  6
CONTINUOUS
 62
     7
 10
310.3611
 20
-236.8128
 40
2.21189
 50
295.0
 51
0.0
  0
ARC
  8
0
  6
CONTINUOUS
 62
     7
 10
310.3611
 20
-235.0457
 40
2.21188
 50
0.0
 51
89.99999
  0
ARC
  8
0
  6
CONTINUOUS
 62
     7
 10
327.5034
 20
-232.8338
 40
3.31784
 50
291.6884
 51
0.0
  0
ARC
  8
0
  6
CONTINUOUS
 62
     7
 10
326.3973
 20
-232.0834
 40
1.10595
 50
291.689
 51
0.0
  0
ARC
  8
0
  6
PHANTOM
 62
     2
 10
-127.5
 20
-155.7792
 40
0.5
 50
270.0
 51
0.0
  0
ARC
  8
0
  6
PHANTOM
 62
     2
 10
-138.5
 20
-129.2792
 40
0.5
 50
89.99999
 51
180.0
  0
ARC
  8
0
  6
PHANTOM
 62
     2
 10
-133.5
 20
-129.2792
 40
0.5
 50
0.0
 51
89.99999
  0
ARC
  8
0
  6
PHANTOM
 62
     2
 10
-144.5
 20
-155.7792
 40
0.5
 50
180.0
 51
270.0
  0
ARC
  8
0
  6
PHANTOM
 62
     2
 10
-144.5
 20
-129.7792
 40
0.5
 50
89.99999
 51
180.0
  0
ARC
  8
0
  6
PHANTOM
 62
     2
 10
-127.5
 20
-129.7792
 40
0.5
 50
0.0
 51
89.99999
  0
ARC
  8
0
  6
PHANTOM
 62
     2
 10
-108.5
 20
-155.7792
 40
0.5
 50
270.0
 51
0.0
  0
ARC
  8
0
  6
PHANTOM
 62
     2
 10
-119.5
 20
-129.2792
 40
0.5
 50
89.99999
 51
180.0
  0
ARC
  8
0
  6
PHANTOM
 62
     2
 10
-114.5
 20
-129.2792
 40
0.5
 50
0.0
 51
89.99999
  0
ARC
  8
0
  6
PHANTOM
 62
     2
 10
-125.5
 20
-155.7792
 40
0.5
 50
180.0
 51
270.0
  0
ARC
  8
0
  6
PHANTOM
 62
     2
 10
-125.5
 20
-129.7792
 40
0.5
 50
89.99999
 51
180.0
  0
ARC
  8
0
  6
PHANTOM
 62
     2
 10
-108.5
 20
-129.7792
 40
0.5
 50
0.0
 51
89.99999
  0
ARC
  8
0
  6
PHANTOM
 62
     2
 10
-70.49998
 20
-155.7792
 40
0.5
 50
270.0
 51
0.0
  0
ARC
  8
0
  6
PHANTOM
 62
     2
 10
-70.49995
 20
-129.7792
 40
0.5
 50
0.0
 51
89.99999
  0
ARC
  8
0
  6
PHANTOM
 62
     2
 10
-87.49995
 20
-129.7792
 40
0.5
 50
89.99999
 51
180.0
  0
ARC
  8
0
  6
PHANTOM
 62
     2
 10
-87.5
 20
-155.7792
 40
0.5
 50
180.0
 51
270.0
  0
ARC
  8
0
  6
PHANTOM
 62
     2
 10
-76.49995
 20
-129.2792
 40
0.5
 50
0.0
 51
89.99999
  0
ARC
  8
0
  6
PHANTOM
 62
     2
 10
-81.49995
 20
-129.2792
 40
0.5
 50
89.99999
 51
180.0
  0
ARC
  8
0
  6
PHANTOM
 62
     2
 10
-85.99998
 20
-154.2792
 40
0.5
 50
180.0
 51
270.0
  0
ARC
  8
0
  6
PHANTOM
 62
     2
 10
-71.99998
 20
-154.2792
 40
0.5
 50
270.0
 51
0.0
  0
ARC
  8
0
  6
PHANTOM
 62
     2
 10
-105.0
 20
-154.2792
 40
0.5
 50
180.0
 51
270.0
  0
ARC
  8
0
  6
PHANTOM
 62
     2
 10
-90.99998
 20
-154.2792
 40
0.5
 50
270.0
 51
0.0
  0
ARC
  8
0
  6
PHANTOM
 62
     2
 10
-89.49998
 20
-155.7792
 40
0.5
 50
270.0
 51
0.0
  0
ARC
  8
0
  6
PHANTOM
 62
     2
 10
-89.49995
 20
-129.7792
 40
0.5
 50
0.0
 51
89.99999
  0
ARC
  8
0
  6
PHANTOM
 62
     2
 10
-106.5
 20
-129.7792
 40
0.5
 50
89.99999
 51
180.0
  0
ARC
  8
0
  6
PHANTOM
 62
     2
 10
-106.5
 20
-155.7792
 40
0.5
 50
180.0
 51
270.0
  0
ARC
  8
0
  6
PHANTOM
 62
     2
 10
-95.49995
 20
-129.2792
 40
0.5
 50
0.0
 51
89.99999
  0
ARC
  8
0
  6
PHANTOM
 62
     2
 10
-100.5
 20
-129.2792
 40
0.5
 50
89.99999
 51
180.0
  0
ARC
  8
0
  6
PHANTOM
 62
     2
 10
-137.3
 20
47.2
 40
1.7
 50
89.99999
 51
270.0
  0
CIRCLE
  8
0
  6
PHANTOM
 62
     2
 10
-137.3
 20
47.2
 40
0.85
  0
ARC
  8
0
  6
PHANTOM
 62
     2
 10
-134.7
 20
47.2
 40
1.7
 50
270.0
 51
89.99999
  0
CIRCLE
  8
0
  6
PHANTOM
 62
     2
 10
-134.7
 20
47.2
 40
0.85
  0
ARC
  8
0
  6
PHANTOM
 62
     2
 10
-118.3
 20
47.2
 40
1.7
 50
89.99999
 51
270.0
  0
CIRCLE
  8
0
  6
PHANTOM
 62
     2
 10
-118.3
 20
47.2
 40
0.85
  0
ARC
  8
0
  6
PHANTOM
 62
     2
 10
-115.7
 20
47.2
 40
1.7
 50
270.0
 51
89.99999
  0
CIRCLE
  8
0
  6
PHANTOM
 62
     2
 10
-115.7
 20
47.2
 40
0.85
  0
ARC
  8
0
  6
PHANTOM
 62
     2
 10
-99.3
 20
47.2
 40
1.7
 50
89.99999
 51
270.0
  0
CIRCLE
  8
0
  6
PHANTOM
 62
     2
 10
-99.3
 20
47.2
 40
0.85
  0
ARC
  8
0
  6
PHANTOM
 62
     2
 10
-96.7
 20
47.2
 40
1.7
 50
270.0
 51
89.99999
  0
CIRCLE
  8
0
  6
PHANTOM
 62
     2
 10
-96.7
 20
47.2
 40
0.85
  0
ARC
  8
0
  6
PHANTOM
 62
     2
 10
-99.29999
 20
-67.2
 40
1.7
 50
89.99999
 51
270.0
  0
CIRCLE
  8
0
  6
PHANTOM
 62
     2
 10
-99.29999
 20
-67.2
 40
0.85
  0
ARC
  8
0
  6
PHANTOM
 62
     2
 10
-96.69998
 20
-67.2
 40
1.7
 50
270.0
 51
89.99999
  0
CIRCLE
  8
0
  6
PHANTOM
 62
     2
 10
-96.69998
 20
-67.2
 40
0.85
  0
ARC
  8
0
  6
PHANTOM
 62
     2
 10
-80.29999
 20
-80.2
 40
1.7
 50
89.99999
 51
270.0
  0
CIRCLE
  8
0
  6
PHANTOM
 62
     2
 10
-80.29999
 20
-80.2
 40
0.85
  0
ARC
  8
0
  6
PHANTOM
 62
     2
 10
-77.69998
 20
-80.2
 40
1.7
 50
270.0
 51
89.99999
  0
CIRCLE
  8
0
  6
PHANTOM
 62
     2
 10
-77.69998
 20
-80.2
 40
0.85
  0
ARC
  8
0
  6
PHANTOM
 62
     2
 10
-80.3
 20
50.0
 40
1.7
 50
89.99999
 51
270.0
  0
CIRCLE
  8
0
  6
PHANTOM
 62
     2
 10
-80.3
 20
50.0
 40
0.85
  0
ARC
  8
0
  6
PHANTOM
 62
     2
 10
-77.7
 20
50.0
 40
1.7
 50
270.0
 51
89.99999
  0
CIRCLE
  8
0
  6
PHANTOM
 62
     2
 10
-77.7
 20
50.0
 40
0.85
  0
ARC
  8
0
  6
PHANTOM
 62
     2
 10
-144.5
 20
-38.90001
 40
0.5
 50
180.0
 51
270.0
  0
ARC
  8
0
  6
PHANTOM
 62
     2
 10
-127.5
 20
-38.90001
 40
0.5
 50
270.0
 51
0.0
  0
ARC
  8
0
  6
PHANTOM
 62
     2
 10
-125.5
 20
-38.90001
 40
0.5
 50
180.0
 51
270.0
  0
ARC
  8
0
  6
PHANTOM
 62
     2
 10
-108.5
 20
-38.90001
 40
0.5
 50
270.0
 51
0.0
  0
ARC
  8
0
  6
PHANTOM
 62
     2
 10
-127.5
 20
155.7793
 40
0.5
 50
0.0
 51
89.99999
  0
ARC
  8
0
  6
PHANTOM
 62
     2
 10
-127.5
 20
129.7793
 40
0.5
 50
270.0
 51
0.0
  0
ARC
  8
0
  6
PHANTOM
 62
     2
 10
-144.5
 20
129.7792
 40
0.5
 50
180.0
 51
270.0
  0
ARC
  8
0
  6
PHANTOM
 62
     2
 10
-144.5
 20
155.7792
 40
0.5
 50
89.99999
 51
180.0
  0
ARC
  8
0
  6
PHANTOM
 62
     2
 10
-133.5
 20
129.2792
 40
0.5
 50
270.0
 51
0.0
  0
ARC
  8
0
  6
PHANTOM
 62
     2
 10
-138.5
 20
129.2792
 40
0.5
 50
180.0
 51
270.0
  0
ARC
  8
0
  6
PHANTOM
 62
     2
 10
-143.0
 20
154.2792
 40
0.5
 50
89.99999
 51
180.0
  0
ARC
  8
0
  6
PHANTOM
 62
     2
 10
-129.0
 20
154.2793
 40
0.5
 50
0.0
 51
89.99999
  0
ARC
  8
0
  6
PHANTOM
 62
     2
 10
-85.99998
 20
154.2792
 40
0.5
 50
89.99999
 51
180.0
  0
ARC
  8
0
  6
PHANTOM
 62
     2
 10
-81.49995
 20
129.2792
 40
0.5
 50
180.0
 51
270.0
  0
ARC
  8
0
  6
PHANTOM
 62
     2
 10
-76.49995
 20
129.2792
 40
0.5
 50
270.0
 51
0.0
  0
ARC
  8
0
  6
PHANTOM
 62
     2
 10
-71.99998
 20
154.2793
 40
0.5
 50
0.0
 51
89.99999
  0
ARC
  8
0
  6
PHANTOM
 62
     2
 10
-87.5
 20
155.7792
 40
0.5
 50
89.99999
 51
180.0
  0
ARC
  8
0
  6
PHANTOM
 62
     2
 10
-70.49998
 20
155.7793
 40
0.5
 50
0.0
 51
89.99999
  0
ARC
  8
0
  6
PHANTOM
 62
     2
 10
-70.49995
 20
129.7793
 40
0.5
 50
270.0
 51
0.0
  0
ARC
  8
0
  6
PHANTOM
 62
     2
 10
-87.49995
 20
129.7792
 40
0.5
 50
180.0
 51
270.0
  0
ARC
  8
0
  6
PHANTOM
 62
     2
 10
-105.0
 20
154.2792
 40
0.5
 50
89.99999
 51
180.0
  0
ARC
  8
0
  6
PHANTOM
 62
     2
 10
-100.5
 20
129.2792
 40
0.5
 50
180.0
 51
270.0
  0
ARC
  8
0
  6
PHANTOM
 62
     2
 10
-95.49995
 20
129.2792
 40
0.5
 50
270.0
 51
0.0
  0
ARC
  8
0
  6
PHANTOM
 62
     2
 10
-90.99998
 20
154.2793
 40
0.5
 50
0.0
 51
89.99999
  0
ARC
  8
0
  6
PHANTOM
 62
     2
 10
-106.5
 20
155.7792
 40
0.5
 50
89.99999
 51
180.0
  0
ARC
  8
0
  6
PHANTOM
 62
     2
 10
-89.49998
 20
155.7793
 40
0.5
 50
0.0
 51
89.99999
  0
ARC
  8
0
  6
PHANTOM
 62
     2
 10
-89.49995
 20
129.7793
 40
0.5
 50
270.0
 51
0.0
  0
ARC
  8
0
  6
PHANTOM
 62
     2
 10
-106.5
 20
129.7792
 40
0.5
 50
180.0
 51
270.0
  0
ARC
  8
0
  6
PHANTOM
 62
     2
 10
-124.0
 20
154.2792
 40
0.5
 50
89.99999
 51
180.0
  0
ARC
  8
0
  6
PHANTOM
 62
     2
 10
-119.5
 20
129.2792
 40
0.5
 50
180.0
 51
270.0
  0
ARC
  8
0
  6
PHANTOM
 62
     2
 10
-114.5
 20
129.2792
 40
0.5
 50
270.0
 51
0.0
  0
ARC
  8
0
  6
PHANTOM
 62
     2
 10
-110.0
 20
154.2793
 40
0.5
 50
0.0
 51
89.99999
  0
ARC
  8
0
  6
PHANTOM
 62
     2
 10
-125.5
 20
155.7792
 40
0.5
 50
89.99999
 51
180.0
  0
ARC
  8
0
  6
PHANTOM
 62
     2
 10
-108.5
 20
155.7793
 40
0.5
 50
0.0
 51
89.99999
  0
ARC
  8
0
  6
PHANTOM
 62
     2
 10
-108.5
 20
129.7793
 40
0.5
 50
270.0
 51
0.0
  0
ARC
  8
0
  6
PHANTOM
 62
     2
 10
-125.5
 20
129.7792
 40
0.5
 50
180.0
 51
270.0
  0
ARC
  8
0
  6
PHANTOM
 62
     2
 10
97.43677
 20
48.39999
 40
0.5
 50
89.99999
 51
180.0
  0
ARC
  8
0
  6
PHANTOM
 62
     2
 10
97.43677
 20
46.0
 40
0.5
 50
180.0
 51
270.0
  0
ARC
  8
0
  6
PHANTOM
 62
     2
 10
97.43677
 20
-66.0
 40
0.5
 50
89.99999
 51
180.0
  0
ARC
  8
0
  6
PHANTOM
 62
     2
 10
97.43677
 20
-68.39999
 40
0.5
 50
180.0
 51
270.0
  0
ARC
  8
0
  6
PHANTOM
 62
     2
 10
97.43677
 20
51.2
 40
0.5
 50
89.99999
 51
180.0
  0
ARC
  8
0
  6
PHANTOM
 62
     2
 10
97.43677
 20
-79.0
 40
0.5
 50
89.99999
 51
180.0
  0
ARC
  8
0
  6
PHANTOM
 62
     2
 10
97.43677
 20
-81.39999
 40
0.5
 50
180.0
 51
270.0
  0
ARC
  8
0
  6
CONTINUOUS
 62
     7
 10
-51.36665
 20
151.8074
 40
0.66666
 50
299.4925
 51
0.0
  0
ARC
  8
0
  6
CONTINUOUS
 62
     7
 10
-55.63332
 20
151.8074
 40
0.66667
 50
180.0
 51
240.5074
  0
ARC
  8
0
  6
CONTINUOUS
 62
     7
 10
-53.49998
 20
155.5792
 40
5.00001
 50
240.5076
 51
299.4922
  0
ARC
  8
0
  6
CONTINUOUS
 62
     7
 10
-66.49998
 20
155.5792
 40
5.00001
 50
240.5076
 51
299.4922
  0
ARC
  8
0
  6
CONTINUOUS
 62
     7
 10
-68.63332
 20
151.8074
 40
0.66666
 50
180.0
 51
240.5072
  0
ARC
  8
0
  6
CONTINUOUS
 62
     7
 10
-64.36665
 20
151.8074
 40
0.66666
 50
299.4922
 51
0.0
  0
CIRCLE
  8
0
  6
CONTINUOUS
 62
     7
 10
-46.0
 20
0.0
 40
2.1
  0
CIRCLE
  8
0
  6
CONTINUOUS
 62
     7
 10
-46.0
 20
-20.0
 40
2.1
  0
CIRCLE
  8
0
  6
CONTINUOUS
 62
     7
 10
-150.0
 20
0.0
 40
2.1
  0
CIRCLE
  8
0
  6
CONTINUOUS
 62
     7
 10
-150.0
 20
-20.0
 40
2.1
  0
ARC
  8
0
  6
CONTINUOUS
 62
     7
 10
-60.0
 20
-41.0
 40
3.5
 50
238.9972
 51
301.0028
  0
ARC
  8
0
  6
CONTINUOUS
 62
     7
 10
-117.0
 20
-41.0
 40
3.5
 50
152.7973
 51
27.2027
  0
ARC
  8
0
  6
CONTINUOUS
 62
     7
 10
-136.0
 20
-41.0
 40
3.5
 50
152.7973
 51
27.2027
  0
ARC
  8
0
  6
CONTINUOUS
 62
     7
 10
-60.0
 20
21.0
 40
3.5
 50
58.99713
 51
121.0027
  0
ARC
  8
0
  6
CONTINUOUS
 62
     7
 10
-53.5
 20
6.27279
 40
0.6
 50
225.0001
 51
314.9999
  0
CIRCLE
  8
0
  6
CONTINUOUS
 62
     7
 10
-66.5
 20
-25.0
 40
2.8
  0
ARC
  8
0
  6
CONTINUOUS
 62
     7
 10
-66.5
 20
-23.72721
 40
0.6
 50
225.0
 51
314.9998
  0
ARC
  8
0
  6
CONTINUOUS
 62
     7
 10
-65.2272
 20
-25.0
 40
0.6
 50
134.9999
 51
225.0
  0
ARC
  8
0
  6
CONTINUOUS
 62
     7
 10
-67.7728
 20
-25.0
 40
0.6
 50
314.9998
 51
45.00013
  0
ARC
  8
0
  6
CONTINUOUS
 62
     7
 10
-66.5
 20
-26.27279
 40
0.6
 50
45.00013
 51
134.9999
  0
CIRCLE
  8
0
  6
CONTINUOUS
 62
     7
 10
-53.5
 20
5.0
 40
2.8
  0
ARC
  8
0
  6
CONTINUOUS
 62
     7
 10
-53.5
 20
3.72721
 40
0.6
 50
45.00006
 51
134.9999
  0
ARC
  8
0
  6
CONTINUOUS
 62
     7
 10
-54.7728
 20
5.0
 40
0.6
 50
314.9999
 51
45.00006
  0
ARC
  8
0
  6
CONTINUOUS
 62
     7
 10
-52.2272
 20
5.0
 40
0.6
 50
134.9999
 51
225.0001
  0
CIRCLE
  8
0
  6
CONTINUOUS
 62
     7
 10
-66.0
 20
-172.2792
 40
4.278
  0
CIRCLE
  8
0
  6
CONTINUOUS
 62
     7
 10
-58.0
 20
-189.2792
 40
4.278
  0
CIRCLE
  8
0
  6
CONTINUOUS
 62
     7
 10
-66.0
 20
-172.2792
 40
4.864
  0
CIRCLE
  8
0
  6
CONTINUOUS
 62
     7
 10
-58.0
 20
-189.2792
 40
4.864
  0
CIRCLE
  8
0
  6
CONTINUOUS
 62
     7
 10
-134.0
 20
-189.2792
 40
4.864
  0
CIRCLE
  8
0
  6
CONTINUOUS
 62
     7
 10
-134.0
 20
-189.2792
 40
4.278
  0
CIRCLE
  8
0
  6
CONTINUOUS
 62
     7
 10
-142.0
 20
-172.2792
 40
4.864
  0
CIRCLE
  8
0
  6
CONTINUOUS
 62
     7
 10
-142.0
 20
-172.2792
 40
4.278
  0
CIRCLE
  8
0
  6
CONTINUOUS
 62
     7
 10
-123.0
 20
-172.2792
 40
4.278
  0
CIRCLE
  8
0
  6
CONTINUOUS
 62
     7
 10
-123.0
 20
-172.2792
 40
4.864
  0
CIRCLE
  8
0
  6
CONTINUOUS
 62
     7
 10
-115.0
 20
-189.2792
 40
4.864
  0
CIRCLE
  8
0
  6
CONTINUOUS
 62
     7
 10
-115.0
 20
-189.2792
 40
4.278
  0
CIRCLE
  8
0
  6
CONTINUOUS
 62
     7
 10
-104.0
 20
-172.2792
 40
4.864
  0
CIRCLE
  8
0
  6
CONTINUOUS
 62
     7
 10
-104.0
 20
-172.2792
 40
4.278
  0
CIRCLE
  8
0
  6
CONTINUOUS
 62
     7
 10
-96.0
 20
-189.2792
 40
4.278
  0
CIRCLE
  8
0
  6
CONTINUOUS
 62
     7
 10
-96.0
 20
-189.2792
 40
4.864
  0
CIRCLE
  8
0
  6
CONTINUOUS
 62
     7
 10
-85.0
 20
-172.2792
 40
4.864
  0
CIRCLE
  8
0
  6
CONTINUOUS
 62
     7
 10
-85.0
 20
-172.2792
 40
4.278
  0
CIRCLE
  8
0
  6
CONTINUOUS
 62
     7
 10
-77.0
 20
-189.2792
 40
4.864
  0
CIRCLE
  8
0
  6
CONTINUOUS
 62
     7
 10
-77.0
 20
-189.2792
 40
4.278
  0
ARC
  8
0
  6
CONTINUOUS
 62
     7
 10
-51.36665
 20
-151.8074
 40
0.66667
 50
0.0
 51
60.50744
  0
ARC
  8
0
  6
CONTINUOUS
 62
     7
 10
-66.49998
 20
-155.5792
 40
5.00001
 50
60.50764
 51
119.4923
  0
ARC
  8
0
  6
CONTINUOUS
 62
     7
 10
-68.63332
 20
-151.8074
 40
0.66666
 50
119.4923
 51
180.0
  0
ARC
  8
0
  6
CONTINUOUS
 62
     7
 10
-64.36665
 20
-151.8074
 40
0.66667
 50
0.0
 51
60.50773
  0
ARC
  8
0
  6
CONTINUOUS
 62
     7
 10
-55.63332
 20
-151.8074
 40
0.66666
 50
119.4925
 51
180.0
  0
ARC
  8
0
  6
CONTINUOUS
 62
     7
 10
-53.49998
 20
-155.5792
 40
5.0
 50
60.50768
 51
119.4923
  0
CIRCLE
  8
0
  6
CONTINUOUS
 62
     7
 10
148.9368
 20
9.99995
 40
5.7225
  0
CIRCLE
  8
0
  6
CONTINUOUS
 62
     7
 10
148.9368
 20
-10.00005
 40
5.7225
  0
CIRCLE
  8
0
  6
CONTINUOUS
 62
     7
 10
148.9368
 20
-30.00005
 40
5.7225
  0
CIRCLE
  8
0
  6
CONTINUOUS
 62
     7
 10
148.9368
 20
9.99995
 40
6.5785
  0
CIRCLE
  8
0
  6
CONTINUOUS
 62
     7
 10
148.9368
 20
-10.00005
 40
6.5785
  0
CIRCLE
  8
0
  6
CONTINUOUS
 62
     7
 10
148.9368
 20
-30.00005
 40
6.5785
  0
CIRCLE
  8
0
  6
CONTINUOUS
 62
     7
 10
131.4368
 20
20.99995
 40
2.067
  0
CIRCLE
  8
0
  6
CONTINUOUS
 62
     7
 10
131.4368
 20
-41.00005
 40
2.067
  0
CIRCLE
  8
0
  6
CONTINUOUS
 62
     7
 10
131.4368
 20
20.99995
 40
2.5
  0
CIRCLE
  8
0
  6
CONTINUOUS
 62
     7
 10
131.4368
 20
-41.00005
 40
2.5
  0
ARC
  8
0
  6
CONTINUOUS
 62
     7
 10
119.965
 20
7.13332
 40
0.66667
 50
89.99999
 51
150.5078
  0
ARC
  8
0
  6
CONTINUOUS
 62
     7
 10
119.9649
 20
2.86665
 40
0.66667
 50
209.4922
 51
270.0
  0
ARC
  8
0
  6
CONTINUOUS
 62
     7
 10
123.7368
 20
4.99995
 40
5.0
 50
150.5076
 51
209.4924
  0
ARC
  8
0
  6
CONTINUOUS
 62
     7
 10
119.9649
 20
-27.13335
 40
0.66667
 50
209.4922
 51
270.0
  0
ARC
  8
0
  6
CONTINUOUS
 62
     7
 10
123.7368
 20
-25.00005
 40
5.0
 50
150.5076
 51
209.4924
  0
ARC
  8
0
  6
CONTINUOUS
 62
     7
 10
119.965
 20
-22.86668
 40
0.66667
 50
89.99999
 51
150.5078
  0
TEXT
  8
0
  6
CONTINUOUS
 62
     7
 10
-350.9787
 20
200.5946
 40
8.5
  1
MODEL : 180M*A
 41
0.8
  7
STANDARD
  0
TEXT
  8
0
  6
CONTINUOUS
 62
     7
 10
229.0661
 20
236.2625
 40
8.5
  1
DATE : AUG ,1989
 41
0.8
  7
STANDARD
  0
TEXT
  8
0
  6
CONTINUOUS
 62
     7
 10
-322.9299
 20
235.5575
 40
10.0
  1
180M*A
 41
0.8
  7
STANDARD
  0
TEXT
  8
0
  6
CONTINUOUS
 62
     7
 10
-100.3305
 20
90.93714
 40
7.0
  1
L
 41
0.8
  7
STANDARD
  0
TEXT
  8
0
  6
CONTINUOUS
 62
     7
 10
-100.3305
 20
75.93714
 40
7.0
  1
P
 41
0.8
  7
STANDARD
  0
TEXT
  8
0
  6
CONTINUOUS
 62
     7
 10
-348.3218
 20
-243.6979
 40
7.0
  1
NOTE : L , P
 41
0.8
  7
STANDARD
  0
TEXT
  8
0
  6
CONTINUOUS
 62
     7
 10
-145.4085
 20
-190.3608
 40
2.0
  1
A
 41
0.8
  7
STANDARD
  0
TEXT
  8
0
  6
CONTINUOUS
 62
     7
 10
-54.37313
 20
-172.9405
 40
2.0
  1
B
 41
0.8
  7
STANDARD
  0
TEXT
  8
0
  6
CONTINUOUS
 62
     7
 10
132.3404
 20
9.42274
 40
2.0
  1
PR1
 50
90.0
 41
0.8
  7
STANDARD
  0
TEXT
  8
0
  6
CONTINUOUS
 62
     7
 10
132.3404
 20
-35.29762
 40
2.0
  1
PR2
 50
90.0
 41
0.8
  7
STANDARD
  0
TEXT
  8
0
  6
CONTINUOUS
 62
     7
 10
140.632
 20
-8.01498
 40
2.0
  1
P
 50
90.0
 41
0.8
  7
STANDARD
  0
TEXT
  8
0
  6
CONTINUOUS
 62
     7
 10
160.4775
 20
8.38383
 40
2.0
  1
R1
 50
90.0
 41
0.8
  7
STANDARD
  0
TEXT
  8
0
  6
CONTINUOUS
 62
     7
 10
160.4775
 20
-31.71499
 40
2.0
  1
R2
 50
90.0
 41
0.8
  7
STANDARD
  0
TEXT
  8
0
  6
CONTINUOUS
 62
     7
 10
-272.86737829
 20
-243.6979
 40
7.0
  1
CATALOG
 41
0.8
  7
STANDARD
  0
ENDSEC
  0
EOF
