  0
SECTION
  2
HEADER
  9
$ACADVER
  1
AC1002
  9
$INSBASE
 10
0.0
 20
0.0
  9
$EXTMIN
 10
-370.8736
 20
-254.5585
  9
$EXTMAX
 10
370.8736
 20
254.5585
  9
$LIMMIN
 10
0.0
 20
0.0
  9
$LIMMAX
 10
12.0
 20
9.0
  9
$VIEWCTR
 10
28.6093211
 20
0.0
  9
$VIEWSIZE
 40
509.117
  9
$SNAPMODE
 70
     0
  9
$SNAPUNIT
 10
1.0
 20
1.0
  9
$SNAPBASE
 10
0.0
 20
0.0
  9
$SNAPANG
 50
0.0
  9
$SNAPSTYLE
 70
     0
  9
$SNAPISOPAIR
 70
     0
  9
$GRIDMODE
 70
     0
  9
$GRIDUNIT
 10
0.0
 20
0.0
  9
$ORTHOMODE
 70
     0
  9
$REGENMODE
 70
     1
  9
$FILLMODE
 70
     1
  9
$QTEXTMODE
 70
     0
  9
$DRAGMODE
 70
     2
  9
$LTSCALE
 40
1.0
  9
$OSMODE
 70
     0
  9
$ATTMODE
 70
     1
  9
$TEXTSIZE
 40
0.2
  9
$TRACEWID
 40
0.05
  9
$TEXTSTYLE
  7
AAA
  9
$CLAYER
  8
0
  9
$CELTYPE
  6
BYLAYER
  9
$CECOLOR
 62
   256
  9
$DIMSCALE
 40
1.0
  9
$DIMASZ
 40
0.18
  9
$DIMEXO
 40
0.0625
  9
$DIMDLI
 40
0.38
  9
$DIMRND
 40
0.0
  9
$DIMDLE
 40
0.0
  9
$DIMEXE
 40
0.18
  9
$DIMTP
 40
0.0
  9
$DIMTM
 40
0.0
  9
$DIMTXT
 40
0.18
  9
$DIMCEN
 40
0.09
  9
$DIMTSZ
 40
0.0
  9
$DIMTOL
 70
     0
  9
$DIMLIM
 70
     0
  9
$DIMTIH
 70
     1
  9
$DIMTOH
 70
     1
  9
$DIMSE1
 70
     0
  9
$DIMSE2
 70
     0
  9
$DIMTAD
 70
     0
  9
$DIMZIN
 70
     0
  9
$DIMBLK
  1

  9
$LUNITS
 70
     2
  9
$LUPREC
 70
     4
  9
$AXISMODE
 70
     0
  9
$AXISUNIT
 10
0.0
 20
0.0
  9
$SKETCHINC
 40
0.1
  9
$FILLETRAD
 40
0.0
  9
$AUNITS
 70
     0
  9
$AUPREC
 70
     0
  9
$MENU
  1
ACAD
  9
$ELEVATION
 40
0.0
  9
$THICKNESS
 40
0.0
  9
$VIEWDIR
 10
0.0
 20
0.0
 30
1.0
  9
$LIMCHECK
 70
     0
  9
$BLIPMODE
 70
     1
  9
$CHAMFERA
 40
0.0
  9
$CHAMFERB
 40
0.0
  9
$FASTZOOM
 70
     1
  9
$SKPOLY
 70
     0
  9
$TDCREATE
 40
2447875.3705324569
  9
$TDUPDATE
 40
2447875.3705324569
  9
$TDINDWG
 40
0.0088773148
  9
$TDUSRTIMER
 40
0.0088773148
  9
$USRTIMER
 70
     1
  9
$ANGBASE
 50
0.0
  9
$ANGDIR
 70
     0
  9
$PDMODE
 70
     0
  9
$PDSIZE
 40
0.0
  9
$PLINEWID
 40
0.0
  9
$COORDS
 70
     0
  9
$USERI1
 70
     0
  9
$USERI2
 70
     0
  9
$USERI3
 70
     0
  9
$USERI4
 70
     0
  9
$USERI5
 70
     0
  9
$USERR1
 40
0.0
  9
$USERR2
 40
0.0
  9
$USERR3
 40
0.0
  9
$USERR4
 40
0.0
  9
$USERR5
 40
0.0
  0
ENDSEC
  0
SECTION
  2
TABLES
  0
TABLE
  2
LTYPE
 70
     3
  0
LTYPE
  2
CONTINUOUS
 70
    64
  3
SOLID
 72
    65
 73
     0
 40
0.0
  0
LTYPE
  2
CENTER
 70
    64
  3
CENTER
 72
    65
 73
     4
 40
2.0
 49
1.25
 49
-0.25
 49
0.25
 49
-0.25
  0
LTYPE
  2
PHANTOM
 70
    64
  3
PHANTOM
 72
    65
 73
     6
 40
2.5
 49
1.25
 49
-0.25
 49
0.25
 49
-0.25
 49
0.25
 49
-0.25
  0
ENDTAB
  0
TABLE
  2
LAYER
 70
     1
  0
LAYER
  2
0
 70
    64
 62
     7
  6
CONTINUOUS
  0
ENDTAB
  0
TABLE
  2
STYLE
 70
     2
  0
STYLE
  2
AAA
 70
     0
 40
0.0
 41
1.0
 50
0.0
 71
     0
 42
0.2
  3
TXT
  4

  0
STYLE
  2
STANDARD
 70
    64
 40
0.0
 41
1.0
 50
0.0
 71
     0
 42
0.2
  3
TXT
  4
BIGFONT
  0
ENDTAB
  0
TABLE
  2
VIEW
 70
     0
  0
ENDTAB
  0
ENDSEC
  0
SECTION
  2
BLOCKS
  0
ENDSEC
  0
SECTION
  2
ENTITIES
  0
POINT
  8
0
  6
CONTINUOUS
 62
     7
 10
-129.5
 20
166.2792
  0
POINT
  8
0
  6
CONTINUOUS
 62
     7
 10
-110.5
 20
166.2792
  0
POINT
  8
0
  6
CONTINUOUS
 62
     7
 10
-91.49998
 20
166.2792
  0
POINT
  8
0
  6
CONTINUOUS
 62
     7
 10
-72.49998
 20
166.2792
  0
POINT
  8
0
  6
CONTINUOUS
 62
     7
 10
-53.49998
 20
166.2792
  0
POINT
  8
0
  6
CONTINUOUS
 62
     7
 10
-150.0
 20
192.2792
  0
POINT
  8
0
  6
CONTINUOUS
 62
     7
 10
-40.99998
 20
192.2792
  0
POINT
  8
0
  6
CONTINUOUS
 62
     7
 10
-129.5
 20
-7.00003
  0
POINT
  8
0
  6
CONTINUOUS
 62
     7
 10
-110.5
 20
-7.00003
  0
POINT
  8
0
  6
CONTINUOUS
 62
     7
 10
-91.49998
 20
-7.00003
  0
POINT
  8
0
  6
CONTINUOUS
 62
     7
 10
-72.49998
 20
-7.00003
  0
POINT
  8
0
  6
CONTINUOUS
 62
     7
 10
-53.49998
 20
-7.00002
  0
POINT
  8
0
  6
CONTINUOUS
 62
     7
 10
-150.0
 20
-20.00002
  0
POINT
  8
0
  6
CONTINUOUS
 62
     7
 10
-40.99998
 20
-20.00002
  0
POINT
  8
0
  6
CONTINUOUS
 62
     7
 10
145.4369
 20
-20.0001
  0
POINT
  8
0
  6
CONTINUOUS
 62
     7
 10
119.4369
 20
-7.0001
  0
POINT
  8
0
  6
CONTINUOUS
 62
     7
 10
-129.5
 20
-166.2793
  0
POINT
  8
0
  6
CONTINUOUS
 62
     7
 10
-110.5
 20
-166.2793
  0
POINT
  8
0
  6
CONTINUOUS
 62
     7
 10
-91.49997
 20
-166.2793
  0
POINT
  8
0
  6
CONTINUOUS
 62
     7
 10
-72.49997
 20
-166.2793
  0
POINT
  8
0
  6
CONTINUOUS
 62
     7
 10
-53.49997
 20
-166.2793
  0
POINT
  8
0
  6
CONTINUOUS
 62
     7
 10
-150.0
 20
-192.2793
  0
POINT
  8
0
  6
CONTINUOUS
 62
     7
 10
-40.99997
 20
-192.2793
  0
POINT
  8
0
  6
CONTINUOUS
 62
     7
 10
134.4369
 20
-10.0001
  0
POINT
  8
0
  6
CONTINUOUS
 62
     7
 10
134.4369
 20
-30.0001
  0
LINE
  8
0
  6
CONTINUOUS
 62
     7
 10
218.3292
 20
-225.9564
 11
370.8736
 21
-225.9564
  0
LINE
  8
0
  6
CONTINUOUS
 62
     7
 10
-218.3292
 20
225.9564
 11
-218.3292
 21
254.5585
  0
LINE
  8
0
  6
CONTINUOUS
 62
     7
 10
-370.8736
 20
225.9564
 11
-218.3292
 21
225.9564
  0
LINE
  8
0
  6
CONTINUOUS
 62
     7
 10
-370.8736
 20
254.5585
 11
370.8736
 21
254.5585
  0
LINE
  8
0
  6
CONTINUOUS
 62
     7
 10
-370.8736
 20
-254.5585
 11
370.8736
 21
-254.5585
  0
LINE
  8
0
  6
CONTINUOUS
 62
     7
 10
370.8736
 20
254.5585
 11
370.8736
 21
-254.5585
  0
LINE
  8
0
  6
CONTINUOUS
 62
     7
 10
-370.8736
 20
-254.5585
 11
-370.8736
 21
254.5585
  0
LINE
  8
0
  6
CONTINUOUS
 62
     7
 10
218.3292
 20
-225.9564
 11
218.3292
 21
-254.5585
  0
LINE
  8
0
  6
CONTINUOUS
 62
     7
 10
218.3292
 20
254.5585
 11
218.3292
 21
225.9564
  0
LINE
  8
0
  6
CONTINUOUS
 62
     7
 10
218.3292
 20
225.9564
 11
370.8736
 21
225.9564
  0
LINE
  8
0
  6
CONTINUOUS
 62
     7
 10
258.3816
 20
-232.8337
 11
258.3816
 21
-236.1516
  0
LINE
  8
0
  6
CONTINUOUS
 62
     7
 10
258.3816
 20
-236.1516
 11
270.8235
 21
-236.1516
  0
LINE
  8
0
  6
CONTINUOUS
 62
     7
 10
258.3816
 20
-249.1465
 11
275.2473
 21
-249.1465
  0
LINE
  8
0
  6
CONTINUOUS
 62
     7
 10
258.3816
 20
-245.8286
 11
270.8235
 21
-245.8286
  0
LINE
  8
0
  6
CONTINUOUS
 62
     7
 10
258.3816
 20
-232.8337
 11
273.0354
 21
-232.8337
  0
LINE
  8
0
  6
CONTINUOUS
 62
     7
 10
270.8235
 20
-236.1516
 11
270.8235
 21
-245.8286
  0
LINE
  8
0
  6
CONTINUOUS
 62
     7
 10
275.2473
 20
-235.0457
 11
275.2473
 21
-249.1465
  0
LINE
  8
0
  6
CONTINUOUS
 62
     7
 10
258.3816
 20
-245.8286
 11
258.3816
 21
-249.1465
  0
LINE
  8
0
  6
CONTINUOUS
 62
     7
 10
293.4954
 20
-236.1516
 11
293.4954
 21
-246.9346
  0
LINE
  8
0
  6
CONTINUOUS
 62
     7
 10
277.7357
 20
-232.8337
 11
277.7357
 21
-236.1516
  0
LINE
  8
0
  6
CONTINUOUS
 62
     7
 10
293.9378
 20
-232.585
 11
295.5138
 21
-232.585
  0
LINE
  8
0
  6
CONTINUOUS
 62
     7
 10
293.9378
 20
-230.373
 11
295.5138
 21
-230.373
  0
LINE
  8
0
  6
CONTINUOUS
 62
     7
 10
295.5138
 20
-230.373
 11
295.5138
 21
-232.585
  0
LINE
  8
0
  6
CONTINUOUS
 62
     7
 10
293.9378
 20
-230.373
 11
293.9378
 21
-232.585
  0
LINE
  8
0
  6
CONTINUOUS
 62
     7
 10
293.1083
 20
-230.373
 11
293.1083
 21
-232.585
  0
LINE
  8
0
  6
CONTINUOUS
 62
     7
 10
282.7661
 20
-230.373
 11
286.2009
 21
-230.373
  0
LINE
  8
0
  6
CONTINUOUS
 62
     7
 10
285.5413
 20
-232.8335
 11
286.2006
 21
-230.3727
  0
LINE
  8
0
  6
CONTINUOUS
 62
     7
 10
282.1067
 20
-232.8337
 11
282.766
 21
-230.373
  0
LINE
  8
0
  6
CONTINUOUS
 62
     7
 10
285.5416
 20
-232.8337
 11
290.1776
 21
-232.8337
  0
LINE
  8
0
  6
CONTINUOUS
 62
     7
 10
284.6526
 20
-236.1516
 11
289.0716
 21
-236.1516
  0
LINE
  8
0
  6
CONTINUOUS
 62
     7
 10
286.6429
 20
-249.1465
 11
291.2836
 21
-249.1465
  0
LINE
  8
0
  6
CONTINUOUS
 62
     7
 10
285.7537
 20
-245.8286
 11
286.6427
 21
-249.1463
  0
LINE
  8
0
  6
CONTINUOUS
 62
     7
 10
285.7538
 20
-245.8286
 11
289.0716
 21
-245.8286
  0
LINE
  8
0
  6
CONTINUOUS
 62
     7
 10
281.1707
 20
-249.1466
 11
284.6527
 21
-236.1517
  0
LINE
  8
0
  6
CONTINUOUS
 62
     7
 10
277.7357
 20
-236.1516
 11
281.2177
 21
-236.1516
  0
LINE
  8
0
  6
CONTINUOUS
 62
     7
 10
277.7354
 20
-249.1462
 11
281.2175
 21
-236.1513
  0
LINE
  8
0
  6
CONTINUOUS
 62
     7
 10
277.7357
 20
-249.1465
 11
281.1706
 21
-249.1465
  0
LINE
  8
0
  6
CONTINUOUS
 62
     7
 10
277.7357
 20
-232.8337
 11
282.1067
 21
-232.8337
  0
LINE
  8
0
  6
CONTINUOUS
 62
     7
 10
289.0716
 20
-236.1516
 11
289.0716
 21
-245.8286
  0
LINE
  8
0
  6
CONTINUOUS
 62
     7
 10
291.5323
 20
-230.373
 11
293.1083
 21
-230.373
  0
LINE
  8
0
  6
CONTINUOUS
 62
     7
 10
291.5323
 20
-232.585
 11
293.1083
 21
-232.585
  0
LINE
  8
0
  6
CONTINUOUS
 62
     7
 10
291.5323
 20
-230.373
 11
291.5323
 21
-232.585
  0
LINE
  8
0
  6
CONTINUOUS
 62
     7
 10
301.5135
 20
-230.373
 11
305.9373
 21
-230.373
  0
LINE
  8
0
  6
CONTINUOUS
 62
     7
 10
308.3423
 20
-240.1951
 11
311.2962
 21
-238.8176
  0
LINE
  8
0
  6
CONTINUOUS
 62
     7
 10
305.9373
 20
-242.7344
 11
305.9373
 21
-249.1465
  0
LINE
  8
0
  6
CONTINUOUS
 62
     7
 10
301.5135
 20
-243.379
 11
301.5135
 21
-249.1465
  0
LINE
  8
0
  6
CONTINUOUS
 62
     7
 10
305.9373
 20
-232.8337
 11
310.3611
 21
-232.8337
  0
LINE
  8
0
  6
CONTINUOUS
 62
     7
 10
305.9373
 20
-230.373
 11
305.9373
 21
-232.8337
  0
LINE
  8
0
  6
CONTINUOUS
 62
     7
 10
301.5135
 20
-230.373
 11
301.5135
 21
-232.8337
  0
LINE
  8
0
  6
CONTINUOUS
 62
     7
 10
312.573
 20
-235.0457
 11
312.573
 21
-236.8128
  0
LINE
  8
0
  6
CONTINUOUS
 62
     7
 10
308.3424
 20
-240.195
 11
312.5734
 21
-242.168
  0
LINE
  8
0
  6
CONTINUOUS
 62
     7
 10
305.9373
 20
-242.7343
 11
312.5731
 21
-245.8286
  0
LINE
  8
0
  6
CONTINUOUS
 62
     7
 10
296.2603
 20
-242.1678
 11
296.2603
 21
-245.8286
  0
LINE
  8
0
  6
CONTINUOUS
 62
     7
 10
296.2607
 20
-242.1682
 11
309.1626
 21
-236.1519
  0
LINE
  8
0
  6
CONTINUOUS
 62
     7
 10
296.2603
 20
-245.8286
 11
301.5136
 21
-243.3789
  0
LINE
  8
0
  6
CONTINUOUS
 62
     7
 10
312.573
 20
-242.1678
 11
312.573
 21
-245.8286
  0
LINE
  8
0
  6
CONTINUOUS
 62
     7
 10
296.2603
 20
-232.8337
 11
296.2603
 21
-236.1516
  0
LINE
  8
0
  6
CONTINUOUS
 62
     7
 10
301.5135
 20
-249.1465
 11
305.9373
 21
-249.1465
  0
LINE
  8
0
  6
CONTINUOUS
 62
     7
 10
296.2603
 20
-236.1516
 11
309.1621
 21
-236.1516
  0
LINE
  8
0
  6
CONTINUOUS
 62
     7
 10
296.2603
 20
-232.8337
 11
301.5135
 21
-232.8337
  0
LINE
  8
0
  6
CONTINUOUS
 62
     7
 10
327.504
 20
-236.4047
 11
328.73
 21
-235.9171
  0
LINE
  8
0
  6
CONTINUOUS
 62
     7
 10
327.5034
 20
-236.4044
 11
327.5034
 21
-249.1465
  0
LINE
  8
0
  6
CONTINUOUS
 62
     7
 10
323.0795
 20
-249.1465
 11
327.5034
 21
-249.1465
  0
LINE
  8
0
  6
CONTINUOUS
 62
     7
 10
313.9553
 20
-241.7925
 11
323.0794
 21
-238.1637
  0
LINE
  8
0
  6
CONTINUOUS
 62
     7
 10
313.9555
 20
-238.222
 11
326.8062
 21
-233.1111
  0
LINE
  8
0
  6
CONTINUOUS
 62
     7
 10
323.0795
 20
-238.1638
 11
323.0795
 21
-249.1465
  0
LINE
  8
0
  6
CONTINUOUS
 62
     7
 10
327.5034
 20
-231.3684
 11
327.5034
 21
-232.0834
  0
LINE
  8
0
  6
CONTINUOUS
 62
     7
 10
330.8211
 20
-231.3684
 11
330.8211
 21
-232.8338
  0
LINE
  8
0
  6
CONTINUOUS
 62
     7
 10
313.9554
 20
-238.2219
 11
313.9554
 21
-241.7925
  0
LINE
  8
0
  6
CONTINUOUS
 62
     7
 10
327.5034
 20
-231.3684
 11
330.8211
 21
-231.3684
  0
LINE
  8
0
  6
CONTINUOUS
 62
     2
 10
-41.0
 20
-1.05751
 11
-41.0
 21
91.22714
  0
LINE
  8
0
  6
CONTINUOUS
 62
     2
 10
-155.0
 20
-1.05751
 11
-155.0
 21
91.22714
  0
LINE
  8
0
  6
CONTINUOUS
 62
     2
 10
-150.0
 20
-16.35368
 11
-150.0
 21
76.22714
  0
LINE
  8
0
  6
CONTINUOUS
 62
     2
 10
-46.0
 20
-16.35368
 11
-46.0
 21
76.22714
  0
LINE
  8
0
  6
CONTINUOUS
 62
     7
 10
-276.81517064
 20
-240.4079
 11
-297.93227064
 21
-240.4079
  0
LINE
  8
0
  6
CONTINUOUS
 62
     2
 10
-155.0
 20
88.22714
 11
-41.0
 21
88.22714
  0
LINE
  8
0
  6
CONTINUOUS
 62
     2
 10
-46.0
 20
73.22715
 11
-51.0
 21
71.88741
  0
LINE
  8
0
  6
CONTINUOUS
 62
     2
 10
-45.99998
 20
73.22712
 11
-51.0
 21
74.56686
  0
LINE
  8
0
  6
CONTINUOUS
 62
     7
 10
-276.81527064
 20
-240.408
 11
-281.81527064
 21
-241.7477
  0
LINE
  8
0
  6
CONTINUOUS
 62
     7
 10
-276.81517064
 20
-240.4079
 11
-281.81517064
 21
-239.0681
  0
LINE
  8
0
  6
CONTINUOUS
 62
     2
 10
-155.0
 20
88.22713
 11
-150.0
 21
89.56688
  0
LINE
  8
0
  6
CONTINUOUS
 62
     2
 10
-155.0
 20
88.22714
 11
-150.0
 21
86.8874
  0
LINE
  8
0
  6
CONTINUOUS
 62
     2
 10
-41.00001
 20
88.22715
 11
-46.0
 21
86.88741
  0
LINE
  8
0
  6
CONTINUOUS
 62
     2
 10
-40.99998
 20
88.22713
 11
-45.99999
 21
89.56687
  0
LINE
  8
0
  6
CONTINUOUS
 62
     2
 10
-150.0
 20
73.22715
 11
-145.0
 21
71.8874
  0
LINE
  8
0
  6
CONTINUOUS
 62
     2
 10
-150.0
 20
73.22714
 11
-145.0
 21
74.56689
  0
LINE
  8
0
  6
CONTINUOUS
 62
     2
 10
-150.0
 20
73.22714
 11
-46.0
 21
73.22714
  0
LINE
  8
0
  6
CENTER
 62
     2
 10
-136.0
 20
47.39998
 11
-136.0
 21
-43.40003
  0
LINE
  8
0
  6
PHANTOM
 62
     2
 10
-127.0
 20
16.19997
 11
-127.0
 21
-40.90003
  0
LINE
  8
0
  6
PHANTOM
 62
     2
 10
-145.0
 20
16.19997
 11
-145.0
 21
-40.90003
  0
LINE
  8
0
  6
PHANTOM
 62
     2
 10
-137.3
 20
36.89998
 11
-134.7
 21
36.89998
  0
LINE
  8
0
  6
PHANTOM
 62
     2
 10
-137.3
 20
33.49998
 11
-134.7
 21
33.49998
  0
LINE
  8
0
  6
PHANTOM
 62
     2
 10
-145.0
 20
16.19997
 11
-127.0
 21
16.19997
  0
LINE
  8
0
  6
PHANTOM
 62
     2
 10
-128.0
 20
17.19996
 11
-127.0
 21
16.19996
  0
LINE
  8
0
  6
PHANTOM
 62
     2
 10
-144.0
 20
17.19999
 11
-145.0
 21
16.19999
  0
LINE
  8
0
  6
PHANTOM
 62
     2
 10
-145.0
 20
-1.00002
 11
-127.0
 21
-1.00002
  0
LINE
  8
0
  6
PHANTOM
 62
     2
 10
-145.0
 20
-33.00002
 11
-127.0
 21
-33.00002
  0
LINE
  8
0
  6
PHANTOM
 62
     2
 10
-144.5
 20
-41.40003
 11
-127.5
 21
-41.40003
  0
LINE
  8
0
  6
PHANTOM
 62
     2
 10
-143.5
 20
43.39996
 11
-143.5
 21
17.19997
  0
LINE
  8
0
  6
PHANTOM
 62
     2
 10
-143.5
 20
42.39998
 11
-128.5
 21
42.39998
  0
LINE
  8
0
  6
PHANTOM
 62
     2
 10
-128.5
 20
43.39996
 11
-128.5
 21
17.19997
  0
LINE
  8
0
  6
PHANTOM
 62
     2
 10
-144.0
 20
17.19997
 11
-128.0
 21
17.19997
  0
LINE
  8
0
  6
PHANTOM
 62
     2
 10
-143.5
 20
43.39996
 11
-128.5
 21
43.39996
  0
LINE
  8
0
  6
PHANTOM
 62
     2
 10
-128.5
 20
43.39997
 11
-129.5
 21
45.39997
  0
LINE
  8
0
  6
PHANTOM
 62
     2
 10
-143.5
 20
43.39997
 11
-142.5
 21
45.39997
  0
LINE
  8
0
  6
PHANTOM
 62
     2
 10
-142.5
 20
45.39998
 11
-129.5
 21
45.39998
  0
LINE
  8
0
  6
CENTER
 62
     2
 10
-137.3
 20
38.19998
 11
-137.3
 21
32.19997
  0
LINE
  8
0
  6
CENTER
 62
     2
 10
-134.7
 20
38.19998
 11
-134.7
 21
32.19997
  0
LINE
  8
0
  6
CENTER
 62
     2
 10
-140.0
 20
35.19998
 11
-132.0
 21
35.19998
  0
LINE
  8
0
  6
CENTER
 62
     2
 10
-117.0
 20
47.39998
 11
-117.0
 21
-43.40003
  0
LINE
  8
0
  6
PHANTOM
 62
     2
 10
-108.0
 20
16.19997
 11
-108.0
 21
-40.90003
  0
LINE
  8
0
  6
PHANTOM
 62
     2
 10
-126.0
 20
16.19997
 11
-126.0
 21
-40.90003
  0
LINE
  8
0
  6
PHANTOM
 62
     2
 10
-118.3
 20
36.89998
 11
-115.7
 21
36.89998
  0
LINE
  8
0
  6
PHANTOM
 62
     2
 10
-118.3
 20
33.49998
 11
-115.7
 21
33.49998
  0
LINE
  8
0
  6
PHANTOM
 62
     2
 10
-126.0
 20
16.19997
 11
-108.0
 21
16.19997
  0
LINE
  8
0
  6
PHANTOM
 62
     2
 10
-109.0
 20
17.19997
 11
-108.0
 21
16.19996
  0
LINE
  8
0
  6
PHANTOM
 62
     2
 10
-125.0
 20
17.2
 11
-126.0
 21
16.2
  0
LINE
  8
0
  6
PHANTOM
 62
     2
 10
-126.0
 20
-1.00002
 11
-108.0
 21
-1.00002
  0
LINE
  8
0
  6
PHANTOM
 62
     2
 10
-126.0
 20
-33.00002
 11
-108.0
 21
-33.00002
  0
LINE
  8
0
  6
PHANTOM
 62
     2
 10
-125.5
 20
-41.40003
 11
-108.5
 21
-41.40003
  0
LINE
  8
0
  6
PHANTOM
 62
     2
 10
-124.5
 20
43.39996
 11
-124.5
 21
17.19997
  0
LINE
  8
0
  6
PHANTOM
 62
     2
 10
-124.5
 20
42.39998
 11
-109.5
 21
42.39998
  0
LINE
  8
0
  6
PHANTOM
 62
     2
 10
-109.5
 20
43.39996
 11
-109.5
 21
17.19997
  0
LINE
  8
0
  6
PHANTOM
 62
     2
 10
-125.0
 20
17.19997
 11
-109.0
 21
17.19997
  0
LINE
  8
0
  6
PHANTOM
 62
     2
 10
-124.5
 20
43.39996
 11
-109.5
 21
43.39996
  0
LINE
  8
0
  6
PHANTOM
 62
     2
 10
-109.5
 20
43.39997
 11
-110.5
 21
45.39997
  0
LINE
  8
0
  6
PHANTOM
 62
     2
 10
-124.5
 20
43.39998
 11
-123.5
 21
45.39998
  0
LINE
  8
0
  6
PHANTOM
 62
     2
 10
-123.5
 20
45.39998
 11
-110.5
 21
45.39998
  0
LINE
  8
0
  6
CENTER
 62
     2
 10
-118.3
 20
38.19998
 11
-118.3
 21
32.19997
  0
LINE
  8
0
  6
CENTER
 62
     2
 10
-115.7
 20
38.19998
 11
-115.7
 21
32.19997
  0
LINE
  8
0
  6
CENTER
 62
     2
 10
-121.0
 20
35.19998
 11
-113.0
 21
35.19998
  0
LINE
  8
0
  6
CENTER
 62
     2
 10
-136.0
 20
168.2792
 11
-136.0
 21
135.622
  0
LINE
  8
0
  6
CENTER
 62
     2
 10
-117.0
 20
168.2792
 11
-117.0
 21
135.622
  0
LINE
  8
0
  6
CENTER
 62
     2
 10
-147.75
 20
152.7792
 11
-105.2513
 21
152.7792
  0
LINE
  8
0
  6
PHANTOM
 62
     2
 10
-144.5
 20
166.2792
 11
-127.5
 21
166.2792
  0
LINE
  8
0
  6
PHANTOM
 62
     2
 10
-125.5
 20
166.2792
 11
-108.5
 21
166.2792
  0
LINE
  8
0
  6
PHANTOM
 62
     2
 10
-133.0
 20
140.7792
 11
-133.0
 21
139.2792
  0
LINE
  8
0
  6
PHANTOM
 62
     2
 10
-138.9999
 20
139.2792
 11
-144.4999
 21
139.2792
  0
LINE
  8
0
  6
PHANTOM
 62
     2
 10
-145.0
 20
165.7792
 11
-145.0
 21
139.7792
  0
LINE
  8
0
  6
PHANTOM
 62
     2
 10
-127.0
 20
165.7792
 11
-127.0
 21
139.7792
  0
LINE
  8
0
  6
PHANTOM
 62
     2
 10
-127.4999
 20
139.2792
 11
-132.9999
 21
139.2792
  0
LINE
  8
0
  6
CENTER
 62
     2
 10
-134.7
 20
115.7792
 11
-134.7
 21
139.8761
  0
LINE
  8
0
  6
PHANTOM
 62
     2
 10
-136.45
 20
128.7792
 11
-136.45
 21
133.1234
  0
LINE
  8
0
  6
PHANTOM
 62
     2
 10
-138.15
 20
128.7792
 11
-138.15
 21
133.5789
  0
LINE
  8
0
  6
PHANTOM
 62
     2
 10
-135.02
 20
118.7792
 11
-135.02
 21
128.7792
  0
LINE
  8
0
  6
PHANTOM
 62
     2
 10
-134.38
 20
118.7792
 11
-134.38
 21
128.7792
  0
LINE
  8
0
  6
PHANTOM
 62
     2
 10
-133.8499
 20
128.7792
 11
-135.5499
 21
128.7792
  0
LINE
  8
0
  6
PHANTOM
 62
     2
 10
-134.3799
 20
118.7792
 11
-135.0199
 21
118.7792
  0
LINE
  8
0
  6
CENTER
 62
     2
 10
-137.3
 20
115.7792
 11
-137.3
 21
139.8137
  0
LINE
  8
0
  6
PHANTOM
 62
     2
 10
-133.85
 20
128.7792
 11
-133.85
 21
132.4267
  0
LINE
  8
0
  6
PHANTOM
 62
     2
 10
-135.55
 20
128.7792
 11
-135.55
 21
132.8822
  0
LINE
  8
0
  6
PHANTOM
 62
     2
 10
-137.62
 20
118.7792
 11
-137.62
 21
128.7792
  0
LINE
  8
0
  6
PHANTOM
 62
     2
 10
-136.98
 20
118.7792
 11
-136.98
 21
128.7792
  0
LINE
  8
0
  6
PHANTOM
 62
     2
 10
-136.4499
 20
128.7792
 11
-138.1499
 21
128.7792
  0
LINE
  8
0
  6
PHANTOM
 62
     2
 10
-136.9799
 20
118.7792
 11
-137.6199
 21
118.7792
  0
LINE
  8
0
  6
PHANTOM
 62
     2
 10
-131.8501
 20
133.4437
 11
-140.1501
 21
135.6677
  0
LINE
  8
0
  6
PHANTOM
 62
     2
 10
-131.8501
 20
131.8908
 11
-140.15
 21
134.1148
  0
LINE
  8
0
  6
PHANTOM
 62
     2
 10
-133.85
 20
133.9796
 11
-133.85
 21
138.7792
  0
LINE
  8
0
  6
PHANTOM
 62
     2
 10
-135.55
 20
134.4351
 11
-135.55
 21
138.7792
  0
LINE
  8
0
  6
PHANTOM
 62
     2
 10
-136.45
 20
134.6762
 11
-136.45
 21
138.7792
  0
LINE
  8
0
  6
PHANTOM
 62
     2
 10
-138.15
 20
135.1318
 11
-138.15
 21
138.7792
  0
LINE
  8
0
  6
PHANTOM
 62
     2
 10
-133.4999
 20
138.7792
 11
-138.4999
 21
138.7792
  0
LINE
  8
0
  6
PHANTOM
 62
     2
 10
-139.0
 20
140.7792
 11
-139.0
 21
139.2792
  0
LINE
  8
0
  6
PHANTOM
 62
     2
 10
-143.0
 20
164.7792
 11
-129.0
 21
164.7792
  0
LINE
  8
0
  6
PHANTOM
 62
     2
 10
-143.5
 20
164.2792
 11
-143.5
 21
140.7792
  0
LINE
  8
0
  6
PHANTOM
 62
     2
 10
-128.5
 20
164.2792
 11
-128.5
 21
140.7792
  0
LINE
  8
0
  6
PHANTOM
 62
     2
 10
-143.5
 20
140.7792
 11
-128.5
 21
140.7792
  0
LINE
  8
0
  6
PHANTOM
 62
     2
 10
-114.0
 20
140.7792
 11
-114.0
 21
139.2792
  0
LINE
  8
0
  6
PHANTOM
 62
     2
 10
-119.9999
 20
139.2792
 11
-125.4999
 21
139.2792
  0
LINE
  8
0
  6
PHANTOM
 62
     2
 10
-126.0
 20
165.7792
 11
-126.0
 21
139.7792
  0
LINE
  8
0
  6
PHANTOM
 62
     2
 10
-108.0
 20
165.7792
 11
-108.0
 21
139.7792
  0
LINE
  8
0
  6
PHANTOM
 62
     2
 10
-108.4999
 20
139.2792
 11
-113.9999
 21
139.2792
  0
LINE
  8
0
  6
CENTER
 62
     2
 10
-115.7
 20
115.7792
 11
-115.7
 21
139.8761
  0
LINE
  8
0
  6
PHANTOM
 62
     2
 10
-117.45
 20
128.7792
 11
-117.45
 21
133.1234
  0
LINE
  8
0
  6
PHANTOM
 62
     2
 10
-119.15
 20
128.7792
 11
-119.15
 21
133.5789
  0
LINE
  8
0
  6
PHANTOM
 62
     2
 10
-116.02
 20
118.7792
 11
-116.02
 21
128.7792
  0
LINE
  8
0
  6
PHANTOM
 62
     2
 10
-115.38
 20
118.7792
 11
-115.38
 21
128.7792
  0
LINE
  8
0
  6
PHANTOM
 62
     2
 10
-114.8499
 20
128.7792
 11
-116.5499
 21
128.7792
  0
LINE
  8
0
  6
PHANTOM
 62
     2
 10
-115.3799
 20
118.7792
 11
-116.0199
 21
118.7792
  0
LINE
  8
0
  6
CENTER
 62
     2
 10
-118.3
 20
115.7792
 11
-118.3
 21
139.8137
  0
LINE
  8
0
  6
PHANTOM
 62
     2
 10
-114.85
 20
128.7792
 11
-114.85
 21
132.4267
  0
LINE
  8
0
  6
PHANTOM
 62
     2
 10
-116.55
 20
128.7792
 11
-116.55
 21
132.8822
  0
LINE
  8
0
  6
PHANTOM
 62
     2
 10
-118.62
 20
118.7792
 11
-118.62
 21
128.7792
  0
LINE
  8
0
  6
PHANTOM
 62
     2
 10
-117.98
 20
118.7792
 11
-117.98
 21
128.7792
  0
LINE
  8
0
  6
PHANTOM
 62
     2
 10
-117.4499
 20
128.7792
 11
-119.1499
 21
128.7792
  0
LINE
  8
0
  6
PHANTOM
 62
     2
 10
-117.9799
 20
118.7792
 11
-118.6199
 21
118.7792
  0
LINE
  8
0
  6
PHANTOM
 62
     2
 10
-112.8501
 20
133.4437
 11
-121.1501
 21
135.6677
  0
LINE
  8
0
  6
PHANTOM
 62
     2
 10
-112.8501
 20
131.8908
 11
-121.15
 21
134.1148
  0
LINE
  8
0
  6
PHANTOM
 62
     2
 10
-114.85
 20
133.9796
 11
-114.85
 21
138.7792
  0
LINE
  8
0
  6
PHANTOM
 62
     2
 10
-116.55
 20
134.4351
 11
-116.55
 21
138.7792
  0
LINE
  8
0
  6
PHANTOM
 62
     2
 10
-117.45
 20
134.6762
 11
-117.45
 21
138.7792
  0
LINE
  8
0
  6
PHANTOM
 62
     2
 10
-119.15
 20
135.1318
 11
-119.15
 21
138.7792
  0
LINE
  8
0
  6
PHANTOM
 62
     2
 10
-114.4999
 20
138.7792
 11
-119.4999
 21
138.7792
  0
LINE
  8
0
  6
PHANTOM
 62
     2
 10
-120.0
 20
140.7792
 11
-120.0
 21
139.2792
  0
LINE
  8
0
  6
PHANTOM
 62
     2
 10
-124.0
 20
164.7792
 11
-110.0
 21
164.7792
  0
LINE
  8
0
  6
PHANTOM
 62
     2
 10
-124.5
 20
164.2792
 11
-124.5
 21
140.7792
  0
LINE
  8
0
  6
PHANTOM
 62
     2
 10
-109.5
 20
164.2792
 11
-109.5
 21
140.7792
  0
LINE
  8
0
  6
PHANTOM
 62
     2
 10
-124.5
 20
140.7792
 11
-109.5
 21
140.7792
  0
LINE
  8
0
  6
CENTER
 62
     2
 10
105.9369
 20
48.5499
 11
105.9369
 21
-44.1501
  0
LINE
  8
0
  6
PHANTOM
 62
     2
 10
92.43686
 20
16.19989
 11
92.43686
 21
-40.9001
  0
LINE
  8
0
  6
PHANTOM
 62
     2
 10
119.4369
 20
16.19989
 11
119.4369
 21
-1.00011
  0
LINE
  8
0
  6
PHANTOM
 62
     2
 10
118.4368
 20
17.19981
 11
119.4368
 21
16.19981
  0
LINE
  8
0
  6
PHANTOM
 62
     2
 10
93.43685
 20
17.19988
 11
92.43685
 21
16.19988
  0
LINE
  8
0
  6
PHANTOM
 62
     2
 10
117.9369
 20
42.39989
 11
93.93686
 21
42.39989
  0
LINE
  8
0
  6
PHANTOM
 62
     2
 10
118.4368
 20
17.19989
 11
93.43686
 21
17.19989
  0
LINE
  8
0
  6
PHANTOM
 62
     2
 10
117.9369
 20
43.39989
 11
117.9369
 21
17.19989
  0
LINE
  8
0
  6
PHANTOM
 62
     2
 10
116.9369
 20
45.39989
 11
94.93687
 21
45.39989
  0
LINE
  8
0
  6
PHANTOM
 62
     2
 10
117.9369
 20
43.39989
 11
93.93686
 21
43.39989
  0
LINE
  8
0
  6
PHANTOM
 62
     2
 10
117.9369
 20
43.39994
 11
116.9369
 21
45.39995
  0
LINE
  8
0
  6
PHANTOM
 62
     2
 10
93.93693
 20
43.39986
 11
94.93694
 21
45.39988
  0
LINE
  8
0
  6
CENTER
 62
     2
 10
68.93686
 20
35.1999
 11
96.93684
 21
35.1999
  0
LINE
  8
0
  6
PHANTOM
 62
     2
 10
81.93686
 20
34.34991
 11
85.93265
 21
34.34991
  0
LINE
  8
0
  6
PHANTOM
 62
     2
 10
81.93686
 20
36.0499
 11
86.38815
 21
36.0499
  0
LINE
  8
0
  6
PHANTOM
 62
     2
 10
71.93686
 20
35.51989
 11
81.93686
 21
35.51989
  0
LINE
  8
0
  6
PHANTOM
 62
     2
 10
71.93686
 20
34.87989
 11
81.93686
 21
34.87989
  0
LINE
  8
0
  6
PHANTOM
 62
     2
 10
81.93686
 20
34.34989
 11
81.93686
 21
36.04989
  0
LINE
  8
0
  6
PHANTOM
 62
     2
 10
71.93686
 20
34.87989
 11
71.93686
 21
35.51989
  0
LINE
  8
0
  6
PHANTOM
 62
     2
 10
85.39672
 20
32.34988
 11
86.92406
 21
38.04989
  0
LINE
  8
0
  6
PHANTOM
 62
     2
 10
86.94966
 20
32.34986
 11
88.47697
 21
38.04985
  0
LINE
  8
0
  6
PHANTOM
 62
     2
 10
87.48555
 20
34.34991
 11
91.93686
 21
34.34991
  0
LINE
  8
0
  6
PHANTOM
 62
     2
 10
87.94107
 20
36.0499
 11
91.93686
 21
36.0499
  0
LINE
  8
0
  6
PHANTOM
 62
     2
 10
119.4369
 20
16.19989
 11
92.43686
 21
16.19989
  0
LINE
  8
0
  6
PHANTOM
 62
     2
 10
93.93686
 20
43.39989
 11
93.93686
 21
17.19989
  0
LINE
  8
0
  6
PHANTOM
 62
     2
 10
118.9369
 20
-41.4001
 11
92.93686
 21
-41.4001
  0
LINE
  8
0
  6
PHANTOM
 62
     2
 10
92.43686
 20
36.89989
 11
93.93686
 21
36.89989
  0
LINE
  8
0
  6
PHANTOM
 62
     2
 10
91.93686
 20
33.9999
 11
91.93686
 21
36.39989
  0
LINE
  8
0
  6
PHANTOM
 62
     2
 10
92.43686
 20
33.4999
 11
93.93686
 21
33.4999
  0
LINE
  8
0
  6
PHANTOM
 62
     2
 10
116.4369
 20
-1.0001
 11
92.43686
 21
-1.0001
  0
LINE
  8
0
  6
PHANTOM
 62
     2
 10
116.4369
 20
-33.00011
 11
92.43686
 21
-33.00011
  0
LINE
  8
0
  6
CENTER
 62
     2
 10
-136.0
 20
-168.2793
 11
-136.0
 21
-135.6076
  0
LINE
  8
0
  6
CENTER
 62
     2
 10
-117.0
 20
-168.2793
 11
-117.0
 21
-135.6076
  0
LINE
  8
0
  6
PHANTOM
 62
     2
 10
-140.1499
 20
-133.4437
 11
-131.8499
 21
-135.6677
  0
LINE
  8
0
  6
PHANTOM
 62
     2
 10
-136.98
 20
-118.7793
 11
-137.62
 21
-118.7793
  0
LINE
  8
0
  6
PHANTOM
 62
     2
 10
-136.45
 20
-128.7793
 11
-138.15
 21
-128.7793
  0
LINE
  8
0
  6
PHANTOM
 62
     2
 10
-136.98
 20
-118.7793
 11
-136.98
 21
-128.7793
  0
LINE
  8
0
  6
PHANTOM
 62
     2
 10
-137.62
 20
-118.7793
 11
-137.62
 21
-128.7793
  0
LINE
  8
0
  6
PHANTOM
 62
     2
 10
-136.45
 20
-128.7793
 11
-136.45
 21
-132.8822
  0
LINE
  8
0
  6
PHANTOM
 62
     2
 10
-138.15
 20
-128.7793
 11
-138.15
 21
-132.4267
  0
LINE
  8
0
  6
CENTER
 62
     2
 10
-137.3
 20
-115.7793
 11
-137.3
 21
-139.8138
  0
LINE
  8
0
  6
PHANTOM
 62
     2
 10
-134.38
 20
-118.7793
 11
-135.02
 21
-118.7793
  0
LINE
  8
0
  6
PHANTOM
 62
     2
 10
-133.85
 20
-128.7793
 11
-135.55
 21
-128.7793
  0
LINE
  8
0
  6
PHANTOM
 62
     2
 10
-134.38
 20
-118.7793
 11
-134.38
 21
-128.7793
  0
LINE
  8
0
  6
PHANTOM
 62
     2
 10
-135.02
 20
-118.7793
 11
-135.02
 21
-128.7793
  0
LINE
  8
0
  6
PHANTOM
 62
     2
 10
-133.85
 20
-128.7793
 11
-133.85
 21
-133.5789
  0
LINE
  8
0
  6
PHANTOM
 62
     2
 10
-135.55
 20
-128.7793
 11
-135.55
 21
-133.1234
  0
LINE
  8
0
  6
CENTER
 62
     2
 10
-134.7
 20
-115.7793
 11
-134.7
 21
-139.8762
  0
LINE
  8
0
  6
CENTER
 62
     2
 10
-147.75
 20
-152.7793
 11
-105.2736
 21
-152.7793
  0
LINE
  8
0
  6
PHANTOM
 62
     2
 10
-133.85
 20
-135.1318
 11
-133.85
 21
-138.7793
  0
LINE
  8
0
  6
PHANTOM
 62
     2
 10
-135.55
 20
-134.6763
 11
-135.55
 21
-138.7793
  0
LINE
  8
0
  6
PHANTOM
 62
     2
 10
-136.45
 20
-134.4352
 11
-136.45
 21
-138.7793
  0
LINE
  8
0
  6
PHANTOM
 62
     2
 10
-138.15
 20
-133.9796
 11
-138.15
 21
-138.7793
  0
LINE
  8
0
  6
PHANTOM
 62
     2
 10
-140.15
 20
-131.8908
 11
-131.85
 21
-134.1148
  0
LINE
  8
0
  6
PHANTOM
 62
     2
 10
-138.5
 20
-138.7793
 11
-133.5
 21
-138.7793
  0
LINE
  8
0
  6
PHANTOM
 62
     2
 10
-127.0
 20
-165.7793
 11
-127.0
 21
-139.7793
  0
LINE
  8
0
  6
PHANTOM
 62
     2
 10
-145.0
 20
-165.7793
 11
-145.0
 21
-139.7793
  0
LINE
  8
0
  6
PHANTOM
 62
     2
 10
-144.5
 20
-139.2793
 11
-127.5
 21
-139.2793
  0
LINE
  8
0
  6
PHANTOM
 62
     2
 10
-144.5
 20
-166.2793
 11
-127.5
 21
-166.2793
  0
LINE
  8
0
  6
PHANTOM
 62
     2
 10
-121.15
 20
-133.4438
 11
-112.85
 21
-135.6678
  0
LINE
  8
0
  6
PHANTOM
 62
     2
 10
-117.98
 20
-118.7793
 11
-118.62
 21
-118.7793
  0
LINE
  8
0
  6
PHANTOM
 62
     2
 10
-117.45
 20
-128.7793
 11
-119.15
 21
-128.7793
  0
LINE
  8
0
  6
PHANTOM
 62
     2
 10
-117.98
 20
-118.7793
 11
-117.98
 21
-128.7793
  0
LINE
  8
0
  6
PHANTOM
 62
     2
 10
-118.62
 20
-118.7793
 11
-118.62
 21
-128.7793
  0
LINE
  8
0
  6
PHANTOM
 62
     2
 10
-117.45
 20
-128.7793
 11
-117.45
 21
-132.8822
  0
LINE
  8
0
  6
PHANTOM
 62
     2
 10
-119.15
 20
-128.7793
 11
-119.15
 21
-132.4267
  0
LINE
  8
0
  6
CENTER
 62
     2
 10
-118.3
 20
-115.7793
 11
-118.3
 21
-139.8138
  0
LINE
  8
0
  6
PHANTOM
 62
     2
 10
-115.38
 20
-118.7793
 11
-116.02
 21
-118.7793
  0
LINE
  8
0
  6
PHANTOM
 62
     2
 10
-114.85
 20
-128.7793
 11
-116.55
 21
-128.7793
  0
LINE
  8
0
  6
PHANTOM
 62
     2
 10
-115.38
 20
-118.7793
 11
-115.38
 21
-128.7793
  0
LINE
  8
0
  6
PHANTOM
 62
     2
 10
-116.02
 20
-118.7793
 11
-116.02
 21
-128.7793
  0
LINE
  8
0
  6
PHANTOM
 62
     2
 10
-114.85
 20
-128.7793
 11
-114.85
 21
-133.5789
  0
LINE
  8
0
  6
PHANTOM
 62
     2
 10
-116.55
 20
-128.7793
 11
-116.55
 21
-133.1234
  0
LINE
  8
0
  6
CENTER
 62
     2
 10
-115.7
 20
-115.7793
 11
-115.7
 21
-139.8762
  0
LINE
  8
0
  6
PHANTOM
 62
     2
 10
-114.85
 20
-135.1318
 11
-114.85
 21
-138.7793
  0
LINE
  8
0
  6
PHANTOM
 62
     2
 10
-116.55
 20
-134.6763
 11
-116.55
 21
-138.7793
  0
LINE
  8
0
  6
PHANTOM
 62
     2
 10
-117.45
 20
-134.4352
 11
-117.45
 21
-138.7793
  0
LINE
  8
0
  6
PHANTOM
 62
     2
 10
-119.15
 20
-133.9796
 11
-119.15
 21
-138.7793
  0
LINE
  8
0
  6
PHANTOM
 62
     2
 10
-121.15
 20
-131.8908
 11
-112.85
 21
-134.1148
  0
LINE
  8
0
  6
PHANTOM
 62
     2
 10
-119.5
 20
-138.7793
 11
-114.5
 21
-138.7793
  0
LINE
  8
0
  6
PHANTOM
 62
     2
 10
-108.0
 20
-165.7793
 11
-108.0
 21
-139.7793
  0
LINE
  8
0
  6
PHANTOM
 62
     2
 10
-126.0
 20
-165.7793
 11
-126.0
 21
-139.7793
  0
LINE
  8
0
  6
PHANTOM
 62
     2
 10
-125.5
 20
-139.2793
 11
-108.5
 21
-139.2793
  0
LINE
  8
0
  6
PHANTOM
 62
     2
 10
-125.5
 20
-166.2793
 11
-108.5
 21
-166.2793
  0
LINE
  8
0
  6
CENTER
 62
     2
 10
-142.3026
 20
-15.00002
 11
-129.7929
 21
-15.00002
  0
LINE
  8
0
  6
CENTER
 62
     2
 10
-123.3026
 20
-15.00002
 11
-110.7929
 21
-15.00002
  0
LINE
  8
0
  6
PHANTOM
 62
     2
 10
-91.88587
 20
196.2792
 11
-83.04355
 21
163.2792
  0
LINE
  8
0
  6
PHANTOM
 62
     2
 10
-93.95643
 20
196.2792
 11
-85.1141
 21
163.2792
  0
LINE
  8
0
  6
CONTINUOUS
 62
     7
 10
-155.0
 20
167.2792
 11
-155.0
 21
192.2792
  0
LINE
  8
0
  6
CONTINUOUS
 62
     7
 10
-40.99998
 20
167.2792
 11
-40.99998
 21
192.2792
  0
LINE
  8
0
  6
CENTER
 62
     2
 10
-59.99998
 20
194.2792
 11
-59.99998
 21
165.2792
  0
LINE
  8
0
  6
CONTINUOUS
 62
     7
 10
-155.0
 20
167.2792
 11
-86.1859
 21
167.2792
  0
LINE
  8
0
  6
CENTER
 62
     2
 10
-136.0
 20
194.2792
 11
-136.0
 21
165.2792
  0
LINE
  8
0
  6
CENTER
 62
     2
 10
-117.0
 20
194.2792
 11
-117.0
 21
165.2792
  0
LINE
  8
0
  6
CENTER
 62
     2
 10
-97.99998
 20
194.2792
 11
-97.99998
 21
165.2792
  0
LINE
  8
0
  6
CENTER
 62
     2
 10
-78.99998
 20
194.2792
 11
-78.99998
 21
165.2792
  0
LINE
  8
0
  6
CONTINUOUS
 62
     7
 10
-144.5
 20
167.2792
 11
-144.5
 21
166.2792
  0
LINE
  8
0
  6
CONTINUOUS
 62
     7
 10
-127.5
 20
167.2792
 11
-127.5
 21
166.2792
  0
LINE
  8
0
  6
CONTINUOUS
 62
     7
 10
-125.5
 20
167.2792
 11
-125.5
 21
166.2792
  0
LINE
  8
0
  6
CONTINUOUS
 62
     7
 10
-108.5
 20
167.2792
 11
-108.5
 21
166.2792
  0
LINE
  8
0
  6
CONTINUOUS
 62
     7
 10
-68.49998
 20
167.2792
 11
-68.49998
 21
166.2792
  0
LINE
  8
0
  6
CONTINUOUS
 62
     7
 10
-51.49998
 20
167.2792
 11
-51.49998
 21
166.2792
  0
LINE
  8
0
  6
CONTINUOUS
 62
     7
 10
-155.0
 20
192.2792
 11
-92.88463
 21
192.2792
  0
LINE
  8
0
  6
CONTINUOUS
 62
     7
 10
-90.81407
 20
192.2792
 11
-40.99998
 21
192.2792
  0
LINE
  8
0
  6
CONTINUOUS
 62
     7
 10
-84.11534
 20
167.2792
 11
-40.99998
 21
167.2792
  0
LINE
  8
0
  6
CONTINUOUS
 62
     7
 10
-68.99998
 20
166.2792
 11
-50.99998
 21
166.2792
  0
LINE
  8
0
  6
CONTINUOUS
 62
     7
 10
-50.69998
 20
161.8074
 11
-50.69998
 21
163.2792
  0
LINE
  8
0
  6
CONTINUOUS
 62
     7
 10
-56.29999
 20
161.8074
 11
-56.29999
 21
163.2792
  0
LINE
  8
0
  6
CONTINUOUS
 62
     7
 10
-69.29999
 20
163.2792
 11
-50.69998
 21
163.2792
  0
LINE
  8
0
  6
CONTINUOUS
 62
     7
 10
-50.99998
 20
166.2792
 11
-50.99998
 21
163.2792
  0
LINE
  8
0
  6
CONTINUOUS
 62
     7
 10
-68.99998
 20
166.2792
 11
-68.99998
 21
163.2792
  0
LINE
  8
0
  6
CONTINUOUS
 62
     7
 10
-56.29999
 20
162.5792
 11
-50.69998
 21
162.5792
  0
LINE
  8
0
  6
CONTINUOUS
 62
     7
 10
-63.69998
 20
161.8074
 11
-63.69998
 21
163.2792
  0
LINE
  8
0
  6
CONTINUOUS
 62
     7
 10
-69.29999
 20
161.8074
 11
-69.29999
 21
163.2792
  0
LINE
  8
0
  6
CONTINUOUS
 62
     7
 10
-69.29999
 20
162.5792
 11
-63.69998
 21
162.5792
  0
LINE
  8
0
  6
CENTER
 62
     2
 10
-66.49998
 20
159.7978
 11
-66.49998
 21
164.1842
  0
LINE
  8
0
  6
CENTER
 62
     2
 10
-53.49998
 20
159.7978
 11
-53.49998
 21
164.1842
  0
LINE
  8
0
  6
CENTER
 62
     2
 10
-59.99998
 20
168.2792
 11
-59.99998
 21
159.2792
  0
LINE
  8
0
  6
PHANTOM
 62
     2
 10
-93.62754
 20
2.99998
 11
-81.30187
 21
-43.00003
  0
LINE
  8
0
  6
PHANTOM
 62
     2
 10
-95.6981
 20
2.99998
 11
-83.37243
 21
-43.00003
  0
LINE
  8
0
  6
CONTINUOUS
 62
     7
 10
-155.0
 20
-1.00002
 11
-145.0
 21
-1.00002
  0
LINE
  8
0
  6
CONTINUOUS
 62
     7
 10
-155.0
 20
-1.00002
 11
-155.0
 21
-39.00003
  0
LINE
  8
0
  6
CENTER
 62
     2
 10
-153.5
 20
-20.00002
 11
-146.5
 21
-20.00002
  0
LINE
  8
0
  6
CENTER
 62
     2
 10
-150.0
 20
-16.50002
 11
-150.0
 21
-23.50003
  0
LINE
  8
0
  6
CONTINUOUS
 62
     7
 10
-155.0
 20
-33.00003
 11
-145.0
 21
-33.00003
  0
LINE
  8
0
  6
CONTINUOUS
 62
     7
 10
-155.0
 20
-39.00003
 11
-145.0
 21
-39.00003
  0
LINE
  8
0
  6
CONTINUOUS
 62
     7
 10
-127.0
 20
-39.00003
 11
-126.0
 21
-39.00003
  0
LINE
  8
0
  6
CONTINUOUS
 62
     7
 10
-127.0
 20
-33.00003
 11
-126.0
 21
-33.00003
  0
LINE
  8
0
  6
CONTINUOUS
 62
     7
 10
-127.0
 20
-1.00002
 11
-126.0
 21
-1.00002
  0
LINE
  8
0
  6
CONTINUOUS
 62
     7
 10
-108.0
 20
-1.00002
 11
-94.6263
 21
-1.00002
  0
LINE
  8
0
  6
CONTINUOUS
 62
     7
 10
-108.0
 20
-33.00003
 11
-86.05193
 21
-33.00003
  0
LINE
  8
0
  6
CENTER
 62
     2
 10
-97.99998
 20
2.6224
 11
-97.99998
 21
-41.91644
  0
LINE
  8
0
  6
CONTINUOUS
 62
     7
 10
-108.0
 20
-39.00003
 11
-84.44423
 21
-39.00003
  0
LINE
  8
0
  6
CENTER
 62
     2
 10
-78.99998
 20
2.6224
 11
-78.99998
 21
-41.91644
  0
LINE
  8
0
  6
CONTINUOUS
 62
     7
 10
-40.99998
 20
-1.00002
 11
-40.99998
 21
-39.00003
  0
LINE
  8
0
  6
CENTER
 62
     2
 10
-49.49998
 20
-20.00002
 11
-42.49998
 21
-20.00002
  0
LINE
  8
0
  6
CENTER
 62
     2
 10
-45.99998
 20
-16.50002
 11
-45.99998
 21
-23.50003
  0
LINE
  8
0
  6
CONTINUOUS
 62
     7
 10
-92.55575
 20
-1.00002
 11
-40.99998
 21
-1.00002
  0
LINE
  8
0
  6
CONTINUOUS
 62
     7
 10
-82.37367
 20
-39.00003
 11
-40.99998
 21
-39.00003
  0
LINE
  8
0
  6
CONTINUOUS
 62
     7
 10
-83.98137
 20
-33.00003
 11
-40.99998
 21
-33.00003
  0
LINE
  8
0
  6
CENTER
 62
     2
 10
-59.99998
 20
2.6224
 11
-59.99998
 21
-36.21831
  0
LINE
  8
0
  6
CONTINUOUS
 62
     7
 10
-67.77275
 20
-26.15153
 11
-67.34848
 21
-25.72726
  0
LINE
  8
0
  6
CONTINUOUS
 62
     7
 10
-65.65142
 20
-28.27286
 11
-65.22715
 21
-27.84859
  0
LINE
  8
0
  6
CONTINUOUS
 62
     7
 10
-67.77275
 20
-27.84858
 11
-67.34848
 21
-27.42432
  0
LINE
  8
0
  6
CONTINUOUS
 62
     7
 10
-67.34848
 20
-28.27284
 11
-66.92422
 21
-27.84857
  0
LINE
  8
0
  6
CONTINUOUS
 62
     7
 10
-67.77277
 20
-27.84856
 11
-67.34851
 21
-28.27282
  0
LINE
  8
0
  6
CONTINUOUS
 62
     7
 10
-65.65142
 20
-25.7272
 11
-65.22717
 21
-26.15146
  0
LINE
  8
0
  6
CONTINUOUS
 62
     7
 10
-67.77277
 20
-26.15151
 11
-67.34851
 21
-26.57577
  0
LINE
  8
0
  6
CONTINUOUS
 62
     7
 10
-67.34847
 20
-25.7272
 11
-66.92421
 21
-26.15146
  0
LINE
  8
0
  6
CONTINUOUS
 62
     7
 10
-66.0757
 20
-26.15153
 11
-65.65143
 21
-25.72726
  0
LINE
  8
0
  6
CONTINUOUS
 62
     7
 10
-65.65143
 20
-26.57579
 11
-65.22717
 21
-26.15152
  0
LINE
  8
0
  6
CONTINUOUS
 62
     7
 10
-66.07572
 20
-27.84856
 11
-65.65145
 21
-28.27283
  0
LINE
  8
0
  6
CONTINUOUS
 62
     7
 10
-65.65142
 20
-27.42425
 11
-65.22715
 21
-27.84852
  0
LINE
  8
0
  6
CONTINUOUS
 62
     7
 10
-68.99998
 20
-1.00002
 11
-68.99998
 21
-25.73907
  0
LINE
  8
0
  6
CONTINUOUS
 62
     7
 10
-50.99998
 20
-1.00002
 11
-50.99998
 21
-5.73907
  0
LINE
  8
0
  6
CONTINUOUS
 62
     7
 10
-68.99998
 20
-28.26097
 11
-68.99998
 21
-33.00002
  0
LINE
  8
0
  6
CONTINUOUS
 62
     7
 10
-50.99998
 20
-8.26097
 11
-50.99998
 21
-33.00002
  0
LINE
  8
0
  6
CENTER
 62
     2
 10
-66.49998
 20
-22.50002
 11
-66.49998
 21
-31.50002
  0
LINE
  8
0
  6
CONTINUOUS
 62
     7
 10
-54.77275
 20
-6.15153
 11
-54.34848
 21
-5.72726
  0
LINE
  8
0
  6
CONTINUOUS
 62
     7
 10
-52.65142
 20
-8.27285
 11
-52.22716
 21
-7.84859
  0
LINE
  8
0
  6
CONTINUOUS
 62
     7
 10
-54.77275
 20
-7.84859
 11
-54.34848
 21
-7.42432
  0
LINE
  8
0
  6
CONTINUOUS
 62
     7
 10
-54.34848
 20
-8.27285
 11
-53.92422
 21
-7.84858
  0
LINE
  8
0
  6
CONTINUOUS
 62
     7
 10
-54.77277
 20
-7.84857
 11
-54.34851
 21
-8.27283
  0
LINE
  8
0
  6
CONTINUOUS
 62
     7
 10
-52.65142
 20
-5.72718
 11
-52.22716
 21
-6.15145
  0
LINE
  8
0
  6
CONTINUOUS
 62
     7
 10
-54.77277
 20
-6.15152
 11
-54.34851
 21
-6.57578
  0
LINE
  8
0
  6
CONTINUOUS
 62
     7
 10
-54.34846
 20
-5.72719
 11
-53.9242
 21
-6.15145
  0
LINE
  8
0
  6
CONTINUOUS
 62
     7
 10
-53.0757
 20
-6.15153
 11
-52.65142
 21
-5.72726
  0
LINE
  8
0
  6
CONTINUOUS
 62
     7
 10
-52.65143
 20
-6.57579
 11
-52.22717
 21
-6.15153
  0
LINE
  8
0
  6
CONTINUOUS
 62
     7
 10
-53.07572
 20
-7.84857
 11
-52.65145
 21
-8.27284
  0
LINE
  8
0
  6
CONTINUOUS
 62
     7
 10
-52.65141
 20
-7.42424
 11
-52.22715
 21
-7.84851
  0
LINE
  8
0
  6
CENTER
 62
     2
 10
-53.49998
 20
-2.50002
 11
-53.49998
 21
-11.50002
  0
LINE
  8
0
  6
CENTER
 62
     2
 10
-57.99998
 20
-7.00002
 11
-48.99998
 21
-7.00002
  0
LINE
  8
0
  6
CONTINUOUS
 62
     7
 10
-68.99998
 20
-33.00002
 11
-50.99998
 21
-33.00002
  0
LINE
  8
0
  6
CONTINUOUS
 62
     7
 10
-68.99998
 20
-1.00002
 11
-50.99998
 21
-1.00002
  0
LINE
  8
0
  6
CENTER
 62
     2
 10
-70.99998
 20
-27.00002
 11
-61.99998
 21
-27.00002
  0
LINE
  8
0
  6
PHANTOM
 62
     2
 10
-91.88586
 20
-163.2793
 11
-83.04353
 21
-196.2793
  0
LINE
  8
0
  6
PHANTOM
 62
     2
 10
-93.95641
 20
-163.2793
 11
-85.11408
 21
-196.2793
  0
LINE
  8
0
  6
CONTINUOUS
 62
     7
 10
-155.0
 20
-167.2793
 11
-155.0
 21
-192.2793
  0
LINE
  8
0
  6
CONTINUOUS
 62
     7
 10
-40.99997
 20
-167.2793
 11
-40.99997
 21
-192.2793
  0
LINE
  8
0
  6
CENTER
 62
     2
 10
-59.99997
 20
-194.2793
 11
-59.99997
 21
-165.2793
  0
LINE
  8
0
  6
CONTINUOUS
 62
     7
 10
-155.0
 20
-167.2793
 11
-92.88461
 21
-167.2793
  0
LINE
  8
0
  6
CENTER
 62
     2
 10
-136.0
 20
-194.2793
 11
-136.0
 21
-165.2793
  0
LINE
  8
0
  6
CENTER
 62
     2
 10
-117.0
 20
-194.2793
 11
-117.0
 21
-165.2793
  0
LINE
  8
0
  6
CENTER
 62
     2
 10
-97.99997
 20
-194.2793
 11
-97.99997
 21
-165.2793
  0
LINE
  8
0
  6
CENTER
 62
     2
 10
-78.99997
 20
-194.2793
 11
-78.99997
 21
-165.2793
  0
LINE
  8
0
  6
CONTINUOUS
 62
     7
 10
-144.5
 20
-167.2793
 11
-144.5
 21
-166.2793
  0
LINE
  8
0
  6
CONTINUOUS
 62
     7
 10
-127.5
 20
-167.2793
 11
-127.5
 21
-166.2793
  0
LINE
  8
0
  6
CONTINUOUS
 62
     7
 10
-125.5
 20
-167.2793
 11
-125.5
 21
-166.2793
  0
LINE
  8
0
  6
CONTINUOUS
 62
     7
 10
-108.5
 20
-167.2793
 11
-108.5
 21
-166.2793
  0
LINE
  8
0
  6
CONTINUOUS
 62
     7
 10
-68.49997
 20
-167.2793
 11
-68.49997
 21
-166.2793
  0
LINE
  8
0
  6
CONTINUOUS
 62
     7
 10
-51.49997
 20
-167.2793
 11
-51.49997
 21
-166.2793
  0
LINE
  8
0
  6
CONTINUOUS
 62
     7
 10
-155.0
 20
-192.2793
 11
-86.18588
 21
-192.2793
  0
LINE
  8
0
  6
CONTINUOUS
 62
     7
 10
-155.0
 20
-173.2793
 11
-91.27692
 21
-173.2793
  0
LINE
  8
0
  6
CONTINUOUS
 62
     7
 10
-84.11533
 20
-192.2793
 11
-40.99997
 21
-192.2793
  0
LINE
  8
0
  6
CONTINUOUS
 62
     7
 10
-89.20636
 20
-173.2793
 11
-40.99997
 21
-173.2793
  0
LINE
  8
0
  6
CONTINUOUS
 62
     7
 10
-90.81406
 20
-167.2793
 11
-40.99997
 21
-167.2793
  0
LINE
  8
0
  6
CENTER
 62
     2
 10
-59.99997
 20
-168.2793
 11
-59.99997
 21
-159.2793
  0
LINE
  8
0
  6
CONTINUOUS
 62
     7
 10
-68.99997
 20
-166.2793
 11
-50.99997
 21
-166.2793
  0
LINE
  8
0
  6
CONTINUOUS
 62
     7
 10
-69.29997
 20
-163.2793
 11
-50.69997
 21
-163.2793
  0
LINE
  8
0
  6
CONTINUOUS
 62
     7
 10
-50.99997
 20
-166.2793
 11
-50.99997
 21
-163.2793
  0
LINE
  8
0
  6
CONTINUOUS
 62
     7
 10
-68.99997
 20
-166.2793
 11
-68.99997
 21
-163.2793
  0
LINE
  8
0
  6
CONTINUOUS
 62
     7
 10
-63.69997
 20
-161.8074
 11
-63.69997
 21
-163.2793
  0
LINE
  8
0
  6
CONTINUOUS
 62
     7
 10
-69.29997
 20
-161.8074
 11
-69.29997
 21
-163.2793
  0
LINE
  8
0
  6
CONTINUOUS
 62
     7
 10
-69.29997
 20
-162.5793
 11
-63.69997
 21
-162.5793
  0
LINE
  8
0
  6
CENTER
 62
     2
 10
-66.49997
 20
-159.7978
 11
-66.49997
 21
-164.1843
  0
LINE
  8
0
  6
CONTINUOUS
 62
     7
 10
-50.69997
 20
-161.8074
 11
-50.69997
 21
-163.2793
  0
LINE
  8
0
  6
CONTINUOUS
 62
     7
 10
-56.29997
 20
-161.8074
 11
-56.29997
 21
-163.2793
  0
LINE
  8
0
  6
CONTINUOUS
 62
     7
 10
-56.29997
 20
-162.5793
 11
-50.69997
 21
-162.5793
  0
LINE
  8
0
  6
CENTER
 62
     2
 10
-53.49997
 20
-159.7978
 11
-53.49997
 21
-164.1843
  0
LINE
  8
0
  6
CONTINUOUS
 62
     7
 10
144.9369
 20
-34.00011
 11
145.4369
 21
-34.50011
  0
LINE
  8
0
  6
CONTINUOUS
 62
     7
 10
144.9368
 20
-34.00006
 11
145.4368
 21
-33.50006
  0
LINE
  8
0
  6
CONTINUOUS
 62
     7
 10
145.4369
 20
-34.50011
 11
145.4369
 21
-39.00011
  0
LINE
  8
0
  6
CENTER
 62
     2
 10
142.4369
 20
-10.0001
 11
126.4369
 21
-10.0001
  0
LINE
  8
0
  6
CENTER
 62
     2
 10
134.4369
 20
-1.80737
 11
134.4369
 21
-38.20999
  0
LINE
  8
0
  6
CONTINUOUS
 62
     7
 10
120.4369
 20
-1.0001
 11
120.4369
 21
-33.0001
  0
LINE
  8
0
  6
CONTINUOUS
 62
     7
 10
145.4369
 20
-1.0001
 11
119.4369
 21
-1.0001
  0
LINE
  8
0
  6
CONTINUOUS
 62
     7
 10
145.4369
 20
-39.00011
 11
126.4369
 21
-39.00011
  0
LINE
  8
0
  6
CONTINUOUS
 62
     7
 10
145.4369
 20
-1.0001
 11
145.4369
 21
-13.0001
  0
LINE
  8
0
  6
CONTINUOUS
 62
     7
 10
140.4369
 20
-18.00011
 11
140.4369
 21
-23.00011
  0
LINE
  8
0
  6
CONTINUOUS
 62
     7
 10
145.4369
 20
-28.00008
 11
140.4369
 21
-23.00009
  0
LINE
  8
0
  6
CONTINUOUS
 62
     7
 10
145.4368
 20
-13.00008
 11
140.4368
 21
-18.00007
  0
LINE
  8
0
  6
CONTINUOUS
 62
     7
 10
145.4369
 20
-28.00011
 11
145.4369
 21
-33.5001
  0
LINE
  8
0
  6
CENTER
 62
     2
 10
142.4369
 20
-30.0001
 11
126.4369
 21
-30.0001
  0
LINE
  8
0
  6
CONTINUOUS
 62
     7
 10
120.437
 20
-33.00003
 11
126.437
 21
-39.00003
  0
LINE
  8
0
  6
CONTINUOUS
 62
     7
 10
120.4369
 20
-33.00011
 11
119.4369
 21
-33.00011
  0
LINE
  8
0
  6
CONTINUOUS
 62
     7
 10
114.9651
 20
-24.20012
 11
116.4369
 21
-24.20012
  0
LINE
  8
0
  6
CONTINUOUS
 62
     7
 10
114.9651
 20
-29.8001
 11
116.4369
 21
-29.8001
  0
LINE
  8
0
  6
CONTINUOUS
 62
     7
 10
115.7369
 20
-29.8001
 11
115.7369
 21
-24.20012
  0
LINE
  8
0
  6
CENTER
 62
     2
 10
112.9554
 20
-27.00011
 11
117.3419
 21
-27.00011
  0
LINE
  8
0
  6
CONTINUOUS
 62
     7
 10
119.4369
 20
-1.00011
 11
119.4369
 21
-33.00011
  0
LINE
  8
0
  6
CONTINUOUS
 62
     7
 10
116.4369
 20
-1.00011
 11
116.4369
 21
-33.00011
  0
LINE
  8
0
  6
CONTINUOUS
 62
     7
 10
119.4369
 20
-33.00011
 11
116.4369
 21
-33.00011
  0
LINE
  8
0
  6
CONTINUOUS
 62
     7
 10
119.4369
 20
-1.00011
 11
116.4369
 21
-1.00011
  0
LINE
  8
0
  6
CONTINUOUS
 62
     7
 10
114.9651
 20
-4.20012
 11
116.4369
 21
-4.20012
  0
LINE
  8
0
  6
CONTINUOUS
 62
     7
 10
114.9651
 20
-9.80009
 11
116.4369
 21
-9.80009
  0
LINE
  8
0
  6
CONTINUOUS
 62
     7
 10
115.7369
 20
-9.80009
 11
115.7369
 21
-4.20011
  0
LINE
  8
0
  6
CENTER
 62
     2
 10
112.9554
 20
-7.0001
 11
117.3419
 21
-7.0001
  0
LINE
  8
0
  6
CENTER
 62
     2
 10
121.4369
 20
-17.00011
 11
114.4369
 21
-17.00011
  0
LINE
  8
0
  6
PHANTOM
 62
     2
 10
119.4369
 20
-33.00011
 11
119.4369
 21
-40.9001
  0
ARC
  8
0
  6
CONTINUOUS
 62
     7
 10
273.0354
 20
-235.0457
 40
2.21188
 50
0.0
 51
89.99999
  0
ARC
  8
0
  6
CONTINUOUS
 62
     7
 10
291.2836
 20
-246.9346
 40
2.2119
 50
270.0
 51
0.0
  0
ARC
  8
0
  6
CONTINUOUS
 62
     7
 10
290.1776
 20
-236.1516
 40
3.31784
 50
0.0
 51
89.99999
  0
ARC
  8
0
  6
CONTINUOUS
 62
     7
 10
310.3611
 20
-236.8128
 40
2.21189
 50
295.0
 51
0.0
  0
ARC
  8
0
  6
CONTINUOUS
 62
     7
 10
310.3611
 20
-235.0457
 40
2.21188
 50
0.0
 51
89.99999
  0
ARC
  8
0
  6
CONTINUOUS
 62
     7
 10
327.5034
 20
-232.8338
 40
3.31784
 50
291.6884
 51
0.0
  0
ARC
  8
0
  6
CONTINUOUS
 62
     7
 10
326.3973
 20
-232.0834
 40
1.10595
 50
291.689
 51
0.0
  0
CIRCLE
  8
0
  6
PHANTOM
 62
     2
 10
-134.7
 20
35.19998
 40
0.85
  0
ARC
  8
0
  6
PHANTOM
 62
     2
 10
-134.7
 20
35.19998
 40
1.7
 50
270.0
 51
89.99999
  0
CIRCLE
  8
0
  6
PHANTOM
 62
     2
 10
-137.3
 20
35.19998
 40
0.85
  0
ARC
  8
0
  6
PHANTOM
 62
     2
 10
-137.3
 20
35.19998
 40
1.7
 50
89.99999
 51
270.0
  0
ARC
  8
0
  6
PHANTOM
 62
     2
 10
-144.5
 20
-40.90003
 40
0.5
 50
180.0
 51
270.0
  0
ARC
  8
0
  6
PHANTOM
 62
     2
 10
-127.5
 20
-40.90003
 40
0.5
 50
270.0
 51
0.0
  0
CIRCLE
  8
0
  6
PHANTOM
 62
     2
 10
-115.7
 20
35.19998
 40
0.85
  0
ARC
  8
0
  6
PHANTOM
 62
     2
 10
-115.7
 20
35.19998
 40
1.7
 50
270.0
 51
89.99999
  0
CIRCLE
  8
0
  6
PHANTOM
 62
     2
 10
-118.3
 20
35.19998
 40
0.85
  0
ARC
  8
0
  6
PHANTOM
 62
     2
 10
-118.3
 20
35.19998
 40
1.7
 50
89.99999
 51
270.0
  0
ARC
  8
0
  6
PHANTOM
 62
     2
 10
-125.5
 20
-40.90003
 40
0.5
 50
180.0
 51
270.0
  0
ARC
  8
0
  6
PHANTOM
 62
     2
 10
-108.5
 20
-40.90003
 40
0.5
 50
270.0
 51
0.0
  0
ARC
  8
0
  6
PHANTOM
 62
     2
 10
-127.5
 20
165.7792
 40
0.5
 50
0.0
 51
89.99999
  0
ARC
  8
0
  6
PHANTOM
 62
     2
 10
-127.4999
 20
139.7792
 40
0.5
 50
270.0
 51
0.0
  0
ARC
  8
0
  6
PHANTOM
 62
     2
 10
-144.4999
 20
139.7792
 40
0.5
 50
180.0
 51
270.0
  0
ARC
  8
0
  6
PHANTOM
 62
     2
 10
-144.5
 20
165.7792
 40
0.5
 50
89.99999
 51
180.0
  0
ARC
  8
0
  6
PHANTOM
 62
     2
 10
-133.4999
 20
139.2792
 40
0.5
 50
270.0
 51
0.0
  0
ARC
  8
0
  6
PHANTOM
 62
     2
 10
-138.4999
 20
139.2792
 40
0.5
 50
180.0
 51
270.0
  0
ARC
  8
0
  6
PHANTOM
 62
     2
 10
-143.0
 20
164.2792
 40
0.5
 50
89.99999
 51
180.0
  0
ARC
  8
0
  6
PHANTOM
 62
     2
 10
-129.0
 20
164.2792
 40
0.5
 50
0.0
 51
89.99999
  0
ARC
  8
0
  6
PHANTOM
 62
     2
 10
-124.0
 20
164.2792
 40
0.5
 50
89.99999
 51
180.0
  0
ARC
  8
0
  6
PHANTOM
 62
     2
 10
-119.4999
 20
139.2792
 40
0.5
 50
180.0
 51
270.0
  0
ARC
  8
0
  6
PHANTOM
 62
     2
 10
-114.4999
 20
139.2792
 40
0.5
 50
270.0
 51
0.0
  0
ARC
  8
0
  6
PHANTOM
 62
     2
 10
-110.0
 20
164.2792
 40
0.5
 50
0.0
 51
89.99999
  0
ARC
  8
0
  6
PHANTOM
 62
     2
 10
-125.5
 20
165.7792
 40
0.5
 50
89.99999
 51
180.0
  0
ARC
  8
0
  6
PHANTOM
 62
     2
 10
-108.5
 20
165.7792
 40
0.5
 50
0.0
 51
89.99999
  0
ARC
  8
0
  6
PHANTOM
 62
     2
 10
-108.4999
 20
139.7792
 40
0.5
 50
270.0
 51
0.0
  0
ARC
  8
0
  6
PHANTOM
 62
     2
 10
-125.4999
 20
139.7792
 40
0.5
 50
180.0
 51
270.0
  0
ARC
  8
0
  6
PHANTOM
 62
     2
 10
118.9369
 20
-40.9001
 40
0.5
 50
270.0
 51
0.0
  0
ARC
  8
0
  6
PHANTOM
 62
     2
 10
92.43686
 20
36.39989
 40
0.5
 50
89.99999
 51
180.0
  0
ARC
  8
0
  6
PHANTOM
 62
     2
 10
92.43686
 20
33.9999
 40
0.5
 50
180.0
 51
270.0
  0
ARC
  8
0
  6
PHANTOM
 62
     2
 10
92.93686
 20
-40.9001
 40
0.5
 50
180.0
 51
270.0
  0
ARC
  8
0
  6
PHANTOM
 62
     2
 10
-127.5
 20
-165.7793
 40
0.5
 50
270.0
 51
0.0
  0
ARC
  8
0
  6
PHANTOM
 62
     2
 10
-138.5
 20
-139.2793
 40
0.5
 50
89.99999
 51
180.0
  0
ARC
  8
0
  6
PHANTOM
 62
     2
 10
-133.5
 20
-139.2793
 40
0.5
 50
0.0
 51
89.99999
  0
ARC
  8
0
  6
PHANTOM
 62
     2
 10
-144.5
 20
-165.7793
 40
0.5
 50
180.0
 51
270.0
  0
ARC
  8
0
  6
PHANTOM
 62
     2
 10
-144.5
 20
-139.7793
 40
0.5
 50
89.99999
 51
180.0
  0
ARC
  8
0
  6
PHANTOM
 62
     2
 10
-127.5
 20
-139.7793
 40
0.5
 50
0.0
 51
89.99999
  0
ARC
  8
0
  6
PHANTOM
 62
     2
 10
-108.5
 20
-165.7793
 40
0.5
 50
270.0
 51
0.0
  0
ARC
  8
0
  6
PHANTOM
 62
     2
 10
-119.5
 20
-139.2793
 40
0.5
 50
89.99999
 51
180.0
  0
ARC
  8
0
  6
PHANTOM
 62
     2
 10
-114.5
 20
-139.2793
 40
0.5
 50
0.0
 51
89.99999
  0
ARC
  8
0
  6
PHANTOM
 62
     2
 10
-125.5
 20
-165.7793
 40
0.5
 50
180.0
 51
270.0
  0
ARC
  8
0
  6
PHANTOM
 62
     2
 10
-125.5
 20
-139.7793
 40
0.5
 50
89.99999
 51
180.0
  0
ARC
  8
0
  6
PHANTOM
 62
     2
 10
-108.5
 20
-139.7793
 40
0.5
 50
0.0
 51
89.99999
  0
CIRCLE
  8
0
  6
PHANTOM
 62
     2
 10
-136.0
 20
-15.00002
 40
4.86435
  0
CIRCLE
  8
0
  6
PHANTOM
 62
     2
 10
-136.0
 20
-15.00002
 40
4.28325
  0
CIRCLE
  8
0
  6
PHANTOM
 62
     2
 10
-117.0
 20
-15.00002
 40
4.86435
  0
CIRCLE
  8
0
  6
PHANTOM
 62
     2
 10
-117.0
 20
-15.00002
 40
4.28325
  0
ARC
  8
0
  6
CONTINUOUS
 62
     7
 10
-51.36664
 20
161.8074
 40
0.66666
 50
299.4925
 51
0.0
  0
ARC
  8
0
  6
CONTINUOUS
 62
     7
 10
-55.6333
 20
161.8074
 40
0.66667
 50
180.0
 51
240.5074
  0
ARC
  8
0
  6
CONTINUOUS
 62
     7
 10
-53.49997
 20
165.5792
 40
5.00001
 50
240.5076
 51
299.4922
  0
ARC
  8
0
  6
CONTINUOUS
 62
     7
 10
-66.49997
 20
165.5792
 40
5.00001
 50
240.5076
 51
299.4922
  0
ARC
  8
0
  6
CONTINUOUS
 62
     7
 10
-68.6333
 20
161.8074
 40
0.66666
 50
180.0
 51
240.5072
  0
ARC
  8
0
  6
CONTINUOUS
 62
     7
 10
-64.36664
 20
161.8074
 40
0.66666
 50
299.4922
 51
0.0
  0
CIRCLE
  8
0
  6
CONTINUOUS
 62
     7
 10
-150.0
 20
-20.00002
 40
2.1
  0
CIRCLE
  8
0
  6
CONTINUOUS
 62
     7
 10
-45.99998
 20
-20.00002
 40
2.1
  0
ARC
  8
0
  6
CONTINUOUS
 62
     7
 10
-66.49998
 20
-28.27281
 40
0.6
 50
45.00013
 51
134.9999
  0
ARC
  8
0
  6
CONTINUOUS
 62
     7
 10
-67.77278
 20
-27.00002
 40
0.6
 50
314.9998
 51
45.00013
  0
ARC
  8
0
  6
CONTINUOUS
 62
     7
 10
-65.22719
 20
-27.00002
 40
0.6
 50
134.9999
 51
225.0
  0
ARC
  8
0
  6
CONTINUOUS
 62
     7
 10
-66.49998
 20
-25.72723
 40
0.6
 50
225.0
 51
314.9998
  0
CIRCLE
  8
0
  6
CONTINUOUS
 62
     7
 10
-66.49998
 20
-27.00002
 40
2.8
  0
ARC
  8
0
  6
CONTINUOUS
 62
     7
 10
-52.22719
 20
-7.00002
 40
0.6
 50
134.9999
 51
225.0001
  0
CIRCLE
  8
0
  6
CONTINUOUS
 62
     7
 10
-53.49998
 20
-7.00002
 40
2.8
  0
ARC
  8
0
  6
CONTINUOUS
 62
     7
 10
-53.49998
 20
-5.72723
 40
0.6
 50
225.0001
 51
314.9999
  0
ARC
  8
0
  6
CONTINUOUS
 62
     7
 10
-53.49998
 20
-8.27281
 40
0.6
 50
45.00006
 51
134.9999
  0
ARC
  8
0
  6
CONTINUOUS
 62
     7
 10
-54.77278
 20
-7.00002
 40
0.6
 50
314.9999
 51
45.00006
  0
ARC
  8
0
  6
CONTINUOUS
 62
     7
 10
-53.49995
 20
-165.5793
 40
5.0
 50
60.50768
 51
119.4923
  0
ARC
  8
0
  6
CONTINUOUS
 62
     7
 10
-55.63329
 20
-161.8074
 40
0.66666
 50
119.4925
 51
180.0
  0
ARC
  8
0
  6
CONTINUOUS
 62
     7
 10
-66.49995
 20
-165.5793
 40
5.00001
 50
60.50764
 51
119.4923
  0
ARC
  8
0
  6
CONTINUOUS
 62
     7
 10
-68.63329
 20
-161.8074
 40
0.66666
 50
119.4923
 51
180.0
  0
ARC
  8
0
  6
CONTINUOUS
 62
     7
 10
-64.36662
 20
-161.8074
 40
0.66667
 50
0.0
 51
60.50773
  0
ARC
  8
0
  6
CONTINUOUS
 62
     7
 10
-51.36662
 20
-161.8074
 40
0.66667
 50
0.0
 51
60.50744
  0
CIRCLE
  8
0
  6
CONTINUOUS
 62
     7
 10
134.4369
 20
-10.0001
 40
5.7225
  0
CIRCLE
  8
0
  6
CONTINUOUS
 62
     7
 10
134.4369
 20
-10.0001
 40
6.5785
  0
CIRCLE
  8
0
  6
CONTINUOUS
 62
     7
 10
134.4369
 20
-30.0001
 40
5.7225
  0
CIRCLE
  8
0
  6
CONTINUOUS
 62
     7
 10
134.4369
 20
-30.0001
 40
6.5785
  0
ARC
  8
0
  6
CONTINUOUS
 62
     7
 10
114.9651
 20
-24.86675
 40
0.66667
 50
89.99999
 51
150.5078
  0
ARC
  8
0
  6
CONTINUOUS
 62
     7
 10
114.965
 20
-29.13341
 40
0.66667
 50
209.4922
 51
270.0
  0
ARC
  8
0
  6
CONTINUOUS
 62
     7
 10
118.7369
 20
-27.00011
 40
5.0
 50
150.5076
 51
209.4924
  0
ARC
  8
0
  6
CONTINUOUS
 62
     7
 10
114.9651
 20
-4.86674
 40
0.66667
 50
89.99999
 51
150.5078
  0
ARC
  8
0
  6
CONTINUOUS
 62
     7
 10
114.965
 20
-9.1334
 40
0.66667
 50
209.4922
 51
270.0
  0
ARC
  8
0
  6
CONTINUOUS
 62
     7
 10
118.7369
 20
-7.0001
 40
5.0
 50
150.5076
 51
209.4924
  0
TEXT
  8
0
  6
CONTINUOUS
 62
     7
 10
-350.9787
 20
200.5946
 40
8.5
  1
MODEL : 181M*F
 41
0.8
  7
STANDARD
  0
TEXT
  8
0
  6
CONTINUOUS
 62
     7
 10
229.0661
 20
236.2625
 40
8.5
  1
DATE : AUG ,1989
 41
0.8
  7
STANDARD
  0
TEXT
  8
0
  6
CONTINUOUS
 62
     7
 10
-322.9299
 20
235.5575
 40
10.0
  1
181M*F
 41
0.8
  7
STANDARD
  0
TEXT
  8
0
  6
CONTINUOUS
 62
     7
 10
-100.3305
 20
90.93714
 40
7.0
  1
L
 41
0.8
  7
STANDARD
  0
TEXT
  8
0
  6
CONTINUOUS
 62
     7
 10
-100.3305
 20
75.93714
 40
7.0
  1
P
 41
0.8
  7
STANDARD
  0
TEXT
  8
0
  6
CONTINUOUS
 62
     7
 10
-348.3218
 20
-243.6979
 40
7.0
  1
NOTE : L , P
 41
0.8
  7
STANDARD
  0
TEXT
  8
0
  6
CONTINUOUS
 62
     7
 10
-113.7862
 20
-22.75762
 40
2.0
  1
A
 41
0.8
  7
STANDARD
  0
TEXT
  8
0
  6
CONTINUOUS
 62
     7
 10
-132.7862
 20
-22.75762
 40
2.0
  1
A
 41
0.8
  7
STANDARD
  0
TEXT
  8
0
  6
CONTINUOUS
 62
     7
 10
125.3769
 20
-10.66583
 40
2.0
  1
R
 50
90.0
 41
0.8
  7
STANDARD
  0
TEXT
  8
0
  6
CONTINUOUS
 62
     7
 10
125.3769
 20
-30.66583
 40
2.0
  1
P
 50
90.0
 41
0.8
  7
STANDARD
  0
TEXT
  8
0
  6
CONTINUOUS
 62
     7
 10
-271.96517064
 20
-243.6979
 40
7.0
  1
CATALOG
 41
0.8
  7
STANDARD
  0
ENDSEC
  0
EOF
