  0
SECTION
  2
HEADER
  9
$ACADVER
  1
AC1002
  9
$INSBASE
 10
0.0
 20
0.0
  9
$EXTMIN
 10
-185.4368
 20
-127.2792
  9
$EXTMAX
 10
185.4368
 20
127.2792
  9
$LIMMIN
 10
0.0
 20
0.0
  9
$LIMMAX
 10
12.0
 20
9.0
  9
$VIEWCTR
 10
14.30458208
 20
0.0
  9
$VIEWSIZE
 40
254.5584
  9
$SNAPMODE
 70
     0
  9
$SNAPUNIT
 10
1.0
 20
1.0
  9
$SNAPBASE
 10
0.0
 20
0.0
  9
$SNAPANG
 50
0.0
  9
$SNAPSTYLE
 70
     0
  9
$SNAPISOPAIR
 70
     0
  9
$GRIDMODE
 70
     0
  9
$GRIDUNIT
 10
0.0
 20
0.0
  9
$ORTHOMODE
 70
     0
  9
$REGENMODE
 70
     1
  9
$FILLMODE
 70
     1
  9
$QTEXTMODE
 70
     0
  9
$DRAGMODE
 70
     2
  9
$LTSCALE
 40
1.0
  9
$OSMODE
 70
     0
  9
$ATTMODE
 70
     1
  9
$TEXTSIZE
 40
0.2
  9
$TRACEWID
 40
0.05
  9
$TEXTSTYLE
  7
AAA
  9
$CLAYER
  8
0
  9
$CELTYPE
  6
BYLAYER
  9
$CECOLOR
 62
   256
  9
$DIMSCALE
 40
1.0
  9
$DIMASZ
 40
0.18
  9
$DIMEXO
 40
0.0625
  9
$DIMDLI
 40
0.38
  9
$DIMRND
 40
0.0
  9
$DIMDLE
 40
0.0
  9
$DIMEXE
 40
0.18
  9
$DIMTP
 40
0.0
  9
$DIMTM
 40
0.0
  9
$DIMTXT
 40
0.18
  9
$DIMCEN
 40
0.09
  9
$DIMTSZ
 40
0.0
  9
$DIMTOL
 70
     0
  9
$DIMLIM
 70
     0
  9
$DIMTIH
 70
     1
  9
$DIMTOH
 70
     1
  9
$DIMSE1
 70
     0
  9
$DIMSE2
 70
     0
  9
$DIMTAD
 70
     0
  9
$DIMZIN
 70
     0
  9
$DIMBLK
  1

  9
$LUNITS
 70
     2
  9
$LUPREC
 70
     4
  9
$AXISMODE
 70
     0
  9
$AXISUNIT
 10
0.0
 20
0.0
  9
$SKETCHINC
 40
0.1
  9
$FILLETRAD
 40
0.0
  9
$AUNITS
 70
     0
  9
$AUPREC
 70
     0
  9
$MENU
  1
ACAD
  9
$ELEVATION
 40
0.0
  9
$THICKNESS
 40
0.0
  9
$VIEWDIR
 10
0.0
 20
0.0
 30
1.0
  9
$LIMCHECK
 70
     0
  9
$BLIPMODE
 70
     1
  9
$CHAMFERA
 40
0.0
  9
$CHAMFERB
 40
0.0
  9
$FASTZOOM
 70
     1
  9
$SKPOLY
 70
     0
  9
$TDCREATE
 40
2447873.7992245864
  9
$TDUPDATE
 40
2447873.7992245864
  9
$TDINDWG
 40
0.0033564815
  9
$TDUSRTIMER
 40
0.0033564815
  9
$USRTIMER
 70
     1
  9
$ANGBASE
 50
0.0
  9
$ANGDIR
 70
     0
  9
$PDMODE
 70
     0
  9
$PDSIZE
 40
0.0
  9
$PLINEWID
 40
0.0
  9
$COORDS
 70
     0
  9
$USERI1
 70
     0
  9
$USERI2
 70
     0
  9
$USERI3
 70
     0
  9
$USERI4
 70
     0
  9
$USERI5
 70
     0
  9
$USERR1
 40
0.0
  9
$USERR2
 40
0.0
  9
$USERR3
 40
0.0
  9
$USERR4
 40
0.0
  9
$USERR5
 40
0.0
  0
ENDSEC
  0
SECTION
  2
TABLES
  0
TABLE
  2
LTYPE
 70
     3
  0
LTYPE
  2
CONTINUOUS
 70
    64
  3
SOLID
 72
    65
 73
     0
 40
0.0
  0
LTYPE
  2
CENTER
 70
    64
  3
CENTER
 72
    65
 73
     4
 40
2.0
 49
1.25
 49
-0.25
 49
0.25
 49
-0.25
  0
LTYPE
  2
PHANTOM
 70
    64
  3
PHANTOM
 72
    65
 73
     6
 40
2.5
 49
1.25
 49
-0.25
 49
0.25
 49
-0.25
 49
0.25
 49
-0.25
  0
ENDTAB
  0
TABLE
  2
LAYER
 70
     1
  0
LAYER
  2
0
 70
    64
 62
     7
  6
CONTINUOUS
  0
ENDTAB
  0
TABLE
  2
STYLE
 70
     2
  0
STYLE
  2
AAA
 70
     0
 40
0.0
 41
1.0
 50
0.0
 71
     0
 42
0.2
  3
TXT
  4

  0
STYLE
  2
STANDARD
 70
    64
 40
0.0
 41
1.0
 50
0.0
 71
     0
 42
0.2
  3
TXT
  4
BIGFONT
  0
ENDTAB
  0
TABLE
  2
VIEW
 70
     0
  0
ENDTAB
  0
ENDSEC
  0
SECTION
  2
BLOCKS
  0
ENDSEC
  0
SECTION
  2
ENTITIES
  0
POINT
  8
0
  6
CONTINUOUS
 62
     7
 10
12.0
 20
103.6396
  0
POINT
  8
0
  6
CONTINUOUS
 62
     7
 10
-15.0
 20
103.6396
  0
POINT
  8
0
  6
CONTINUOUS
 62
     7
 10
-15.0
 20
19.0
  0
POINT
  8
0
  6
CONTINUOUS
 62
     7
 10
12.0
 20
19.0
  0
POINT
  8
0
  6
CONTINUOUS
 62
     7
 10
12.0
 20
42.5
  0
POINT
  8
0
  6
CONTINUOUS
 62
     7
 10
12.0
 20
-44.7
  0
POINT
  8
0
  6
CONTINUOUS
 62
     7
 10
97.71839
 20
19.0
  0
POINT
  8
0
  6
CONTINUOUS
 62
     7
 10
91.21837
 20
-44.7
  0
POINT
  8
0
  6
CONTINUOUS
 62
     7
 10
90.71838
 20
-4.0
  0
POINT
  8
0
  6
CONTINUOUS
 62
     7
 10
91.71839
 20
12.0
  0
POINT
  8
0
  6
CONTINUOUS
 62
     7
 10
91.2184
 20
42.5
  0
POINT
  8
0
  6
CONTINUOUS
 62
     7
 10
-82.21839
 20
19.0
  0
POINT
  8
0
  6
CONTINUOUS
 62
     7
 10
-97.71839
 20
19.0
  0
POINT
  8
0
  6
CONTINUOUS
 62
     7
 10
-90.71839
 20
17.2
  0
POINT
  8
0
  6
CONTINUOUS
 62
     7
 10
-91.21839
 20
4.0
  0
POINT
  8
0
  6
CONTINUOUS
 62
     7
 10
-91.71839
 20
-9.2
  0
POINT
  8
0
  6
CONTINUOUS
 62
     7
 10
-15.0
 20
-108.6396
  0
POINT
  8
0
  6
CONTINUOUS
 62
     7
 10
12.0
 20
-108.6396
  0
LINE
  8
0
  6
CONTINUOUS
 62
     7
 10
-185.4368
 20
-127.2792
 11
-185.4368
 21
127.2792
  0
LINE
  8
0
  6
CONTINUOUS
 62
     7
 10
185.4368
 20
127.2792
 11
185.4368
 21
-127.2792
  0
LINE
  8
0
  6
CONTINUOUS
 62
     7
 10
-185.4368
 20
-127.2792
 11
185.4368
 21
-127.2792
  0
LINE
  8
0
  6
CONTINUOUS
 62
     7
 10
-185.4368
 20
127.2792
 11
185.4368
 21
127.2792
  0
LINE
  8
0
  6
CONTINUOUS
 62
     7
 10
-185.4368
 20
112.9782
 11
-109.1646
 21
112.9782
  0
LINE
  8
0
  6
CONTINUOUS
 62
     7
 10
-109.1646
 20
112.9782
 11
-109.1646
 21
127.2792
  0
LINE
  8
0
  6
CONTINUOUS
 62
     7
 10
109.1646
 20
-112.9782
 11
185.4368
 21
-112.9782
  0
LINE
  8
0
  6
CONTINUOUS
 62
     7
 10
129.1908
 20
-116.4169
 11
136.5177
 21
-116.4169
  0
LINE
  8
0
  6
CONTINUOUS
 62
     7
 10
129.1908
 20
-122.9143
 11
135.4118
 21
-122.9143
  0
LINE
  8
0
  6
CONTINUOUS
 62
     7
 10
129.1908
 20
-124.5732
 11
137.6237
 21
-124.5732
  0
LINE
  8
0
  6
CONTINUOUS
 62
     7
 10
129.1908
 20
-118.0758
 11
135.4118
 21
-118.0758
  0
LINE
  8
0
  6
CONTINUOUS
 62
     7
 10
129.1908
 20
-116.4169
 11
129.1908
 21
-118.0758
  0
LINE
  8
0
  6
CONTINUOUS
 62
     7
 10
137.6237
 20
-117.5228
 11
137.6237
 21
-124.5732
  0
LINE
  8
0
  6
CONTINUOUS
 62
     7
 10
135.4118
 20
-118.0758
 11
135.4118
 21
-122.9143
  0
LINE
  8
0
  6
CONTINUOUS
 62
     7
 10
138.8678
 20
-116.4169
 11
138.8678
 21
-118.0758
  0
LINE
  8
0
  6
CONTINUOUS
 62
     7
 10
146.7477
 20
-118.0758
 11
146.7477
 21
-123.4673
  0
LINE
  8
0
  6
CONTINUOUS
 62
     7
 10
144.5358
 20
-118.0758
 11
144.5358
 21
-122.9143
  0
LINE
  8
0
  6
CONTINUOUS
 62
     7
 10
129.1908
 20
-122.9143
 11
129.1908
 21
-124.5732
  0
LINE
  8
0
  6
CONTINUOUS
 62
     7
 10
138.8678
 20
-116.4169
 11
141.0533
 21
-116.4169
  0
LINE
  8
0
  6
CONTINUOUS
 62
     7
 10
138.8678
 20
-124.5732
 11
140.5853
 21
-124.5732
  0
LINE
  8
0
  6
CONTINUOUS
 62
     7
 10
138.8677
 20
-124.5732
 11
140.6088
 21
-118.0757
  0
LINE
  8
0
  6
CONTINUOUS
 62
     7
 10
138.8678
 20
-118.0758
 11
140.6088
 21
-118.0758
  0
LINE
  8
0
  6
CONTINUOUS
 62
     7
 10
140.5854
 20
-124.5734
 11
142.3264
 21
-118.0759
  0
LINE
  8
0
  6
CONTINUOUS
 62
     7
 10
142.8769
 20
-122.9143
 11
144.5358
 21
-122.9143
  0
LINE
  8
0
  6
CONTINUOUS
 62
     7
 10
142.8769
 20
-122.9143
 11
143.3214
 21
-124.5732
  0
LINE
  8
0
  6
CONTINUOUS
 62
     7
 10
143.3214
 20
-124.5732
 11
145.6418
 21
-124.5732
  0
LINE
  8
0
  6
CONTINUOUS
 62
     7
 10
142.3263
 20
-118.0758
 11
144.5358
 21
-118.0758
  0
LINE
  8
0
  6
CONTINUOUS
 62
     7
 10
142.7708
 20
-116.4169
 11
145.0888
 21
-116.4169
  0
LINE
  8
0
  6
CONTINUOUS
 62
     7
 10
141.0534
 20
-116.4169
 11
141.3831
 21
-115.1866
  0
LINE
  8
0
  6
CONTINUOUS
 62
     7
 10
142.7707
 20
-116.4168
 11
143.1003
 21
-115.1864
  0
LINE
  8
0
  6
CONTINUOUS
 62
     7
 10
148.1301
 20
-116.4169
 11
150.7568
 21
-116.4169
  0
LINE
  8
0
  6
CONTINUOUS
 62
     7
 10
148.1301
 20
-118.0758
 11
154.581
 21
-118.0758
  0
LINE
  8
0
  6
CONTINUOUS
 62
     7
 10
150.7568
 20
-124.5732
 11
152.9686
 21
-124.5732
  0
LINE
  8
0
  6
CONTINUOUS
 62
     7
 10
148.1301
 20
-116.4169
 11
148.1301
 21
-118.0758
  0
LINE
  8
0
  6
CONTINUOUS
 62
     7
 10
156.2865
 20
-121.0839
 11
156.2865
 21
-122.9143
  0
LINE
  8
0
  6
CONTINUOUS
 62
     7
 10
148.13
 20
-122.9142
 11
150.7567
 21
-121.6894
  0
LINE
  8
0
  6
CONTINUOUS
 62
     7
 10
148.1303
 20
-121.0841
 11
154.5812
 21
-118.0759
  0
LINE
  8
0
  6
CONTINUOUS
 62
     7
 10
148.1301
 20
-121.0839
 11
148.1301
 21
-122.9143
  0
LINE
  8
0
  6
CONTINUOUS
 62
     7
 10
152.9686
 20
-121.3672
 11
156.2865
 21
-122.9143
  0
LINE
  8
0
  6
CONTINUOUS
 62
     7
 10
154.1712
 20
-120.0975
 11
156.2867
 21
-121.084
  0
LINE
  8
0
  6
CONTINUOUS
 62
     7
 10
156.2865
 20
-117.5228
 11
156.2865
 21
-118.4064
  0
LINE
  8
0
  6
CONTINUOUS
 62
     7
 10
150.7568
 20
-115.1865
 11
150.7568
 21
-116.4169
  0
LINE
  8
0
  6
CONTINUOUS
 62
     7
 10
152.9686
 20
-115.1865
 11
152.9686
 21
-116.4169
  0
LINE
  8
0
  6
CONTINUOUS
 62
     7
 10
152.9686
 20
-116.4169
 11
155.1806
 21
-116.4169
  0
LINE
  8
0
  6
CONTINUOUS
 62
     7
 10
150.7568
 20
-121.6895
 11
150.7568
 21
-124.5732
  0
LINE
  8
0
  6
CONTINUOUS
 62
     7
 10
152.9686
 20
-121.3672
 11
152.9686
 21
-124.5732
  0
LINE
  8
0
  6
CONTINUOUS
 62
     7
 10
154.1712
 20
-120.0976
 11
155.6482
 21
-119.4089
  0
LINE
  8
0
  6
CONTINUOUS
 62
     7
 10
163.7517
 20
-115.6842
 11
165.4106
 21
-115.6842
  0
LINE
  8
0
  6
CONTINUOUS
 62
     7
 10
156.9777
 20
-119.1109
 11
156.9777
 21
-120.8962
  0
LINE
  8
0
  6
CONTINUOUS
 62
     7
 10
165.4106
 20
-115.6842
 11
165.4106
 21
-116.4169
  0
LINE
  8
0
  6
CONTINUOUS
 62
     7
 10
163.7517
 20
-115.6842
 11
163.7517
 21
-116.0417
  0
LINE
  8
0
  6
CONTINUOUS
 62
     7
 10
161.5397
 20
-119.0819
 11
161.5397
 21
-124.5732
  0
LINE
  8
0
  6
CONTINUOUS
 62
     7
 10
156.9778
 20
-119.111
 11
163.4031
 21
-116.5556
  0
LINE
  8
0
  6
CONTINUOUS
 62
     7
 10
156.9778
 20
-120.8963
 11
161.5398
 21
-119.0819
  0
LINE
  8
0
  6
CONTINUOUS
 62
     7
 10
161.5397
 20
-124.5732
 11
163.7517
 21
-124.5732
  0
LINE
  8
0
  6
CONTINUOUS
 62
     7
 10
163.7517
 20
-118.2022
 11
163.7517
 21
-124.5732
  0
LINE
  8
0
  6
CONTINUOUS
 62
     7
 10
163.7518
 20
-118.2023
 11
164.3649
 21
-117.9584
  0
LINE
  8
0
  6
CONTINUOUS
 62
     7
 10
141.2497
 20
-115.1865
 11
143.1004
 21
-115.1865
  0
LINE
  8
0
  6
CONTINUOUS
 62
     7
 10
145.8491
 20
-115.1865
 11
146.5541
 21
-115.1865
  0
LINE
  8
0
  6
CONTINUOUS
 62
     7
 10
150.7568
 20
-115.1865
 11
152.9686
 21
-115.1865
  0
LINE
  8
0
  6
CONTINUOUS
 62
     7
 10
145.8491
 20
-116.2925
 11
146.5541
 21
-116.2925
  0
LINE
  8
0
  6
CONTINUOUS
 62
     7
 10
145.8491
 20
-115.1865
 11
145.8491
 21
-116.2925
  0
LINE
  8
0
  6
CONTINUOUS
 62
     7
 10
146.5541
 20
-115.1865
 11
146.5541
 21
-116.2925
  0
LINE
  8
0
  6
CONTINUOUS
 62
     7
 10
146.9689
 20
-115.1865
 11
146.9689
 21
-116.2925
  0
LINE
  8
0
  6
CONTINUOUS
 62
     7
 10
147.7569
 20
-115.1865
 11
147.7569
 21
-116.2925
  0
LINE
  8
0
  6
CONTINUOUS
 62
     7
 10
146.9689
 20
-115.1865
 11
147.7569
 21
-115.1865
  0
LINE
  8
0
  6
CONTINUOUS
 62
     7
 10
146.9689
 20
-116.2925
 11
147.7569
 21
-116.2925
  0
LINE
  8
0
  6
CONTINUOUS
 62
     7
 10
109.1646
 20
112.9782
 11
185.4368
 21
112.9782
  0
LINE
  8
0
  6
CONTINUOUS
 62
     7
 10
109.1646
 20
127.2792
 11
109.1646
 21
112.9782
  0
LINE
  8
0
  6
CONTINUOUS
 62
     7
 10
109.1646
 20
-112.9782
 11
109.1646
 21
-127.2792
  0
LINE
  8
0
  6
CONTINUOUS
 62
     7
 10
10.5
 20
94.13962
 11
12.0
 21
94.13962
  0
LINE
  8
0
  6
CONTINUOUS
 62
     7
 10
11.0
 20
94.13962
 11
11.0
 21
89.13962
  0
LINE
  8
0
  6
CONTINUOUS
 62
     7
 10
12.0
 20
100.1396
 11
12.0
 21
105.6396
  0
LINE
  8
0
  6
CENTER
 62
     2
 10
-17.39624
 20
97.13962
 11
14.42633
 21
97.13962
  0
LINE
  8
0
  6
CONTINUOUS
 62
     7
 10
-14.5
 20
106.1396
 11
11.5
 21
106.1396
  0
LINE
  8
0
  6
CONTINUOUS
 62
     7
 10
-14.5
 20
88.13962
 11
11.5
 21
88.13962
  0
LINE
  8
0
  6
CONTINUOUS
 62
     7
 10
12.0
 20
88.63962
 11
12.0
 21
94.13962
  0
LINE
  8
0
  6
CONTINUOUS
 62
     7
 10
-15.0
 20
88.63962
 11
-15.0
 21
105.6396
  0
LINE
  8
0
  6
CENTER
 62
     2
 10
35.5
 20
95.83963
 11
11.4031
 21
95.83963
  0
LINE
  8
0
  6
CONTINUOUS
 62
     7
 10
22.5
 20
96.68962
 11
18.15588
 21
96.68962
  0
LINE
  8
0
  6
CONTINUOUS
 62
     7
 10
22.5
 20
94.98962
 11
17.70037
 21
94.98962
  0
LINE
  8
0
  6
CONTINUOUS
 62
     7
 10
32.5
 20
96.15962
 11
22.5
 21
96.15962
  0
LINE
  8
0
  6
CONTINUOUS
 62
     7
 10
32.5
 20
95.51962
 11
22.5
 21
95.51962
  0
LINE
  8
0
  6
CONTINUOUS
 62
     7
 10
22.5
 20
94.98962
 11
22.5
 21
96.68962
  0
LINE
  8
0
  6
CONTINUOUS
 62
     7
 10
32.5
 20
95.51962
 11
32.5
 21
96.15962
  0
LINE
  8
0
  6
CENTER
 62
     2
 10
35.5
 20
98.43962
 11
11.46549
 21
98.43962
  0
LINE
  8
0
  6
CONTINUOUS
 62
     7
 10
22.5
 20
99.28961
 11
18.85255
 21
99.28961
  0
LINE
  8
0
  6
CONTINUOUS
 62
     7
 10
22.5
 20
97.58961
 11
18.39703
 21
97.58961
  0
LINE
  8
0
  6
CONTINUOUS
 62
     7
 10
32.5
 20
98.75961
 11
22.5
 21
98.75961
  0
LINE
  8
0
  6
CONTINUOUS
 62
     7
 10
32.5
 20
98.11961
 11
22.5
 21
98.11961
  0
LINE
  8
0
  6
CONTINUOUS
 62
     7
 10
22.5
 20
97.58963
 11
22.5
 21
99.28963
  0
LINE
  8
0
  6
CONTINUOUS
 62
     7
 10
32.5
 20
98.11963
 11
32.5
 21
98.75963
  0
LINE
  8
0
  6
PHANTOM
 62
     2
 10
17.83554
 20
101.2896
 11
15.61156
 21
92.98962
  0
LINE
  8
0
  6
PHANTOM
 62
     2
 10
19.38845
 20
101.2896
 11
17.16447
 21
92.98963
  0
LINE
  8
0
  6
CONTINUOUS
 62
     7
 10
17.29963
 20
99.28961
 11
12.5
 21
99.28961
  0
LINE
  8
0
  6
CONTINUOUS
 62
     7
 10
16.84412
 20
97.58961
 11
12.5
 21
97.58961
  0
LINE
  8
0
  6
CONTINUOUS
 62
     7
 10
16.60297
 20
96.68962
 11
12.5
 21
96.68962
  0
LINE
  8
0
  6
CONTINUOUS
 62
     7
 10
16.14745
 20
94.98962
 11
12.5
 21
94.98962
  0
LINE
  8
0
  6
CENTER
 62
     2
 10
-1.5
 20
85.38962
 11
-1.5
 21
109.3671
  0
LINE
  8
0
  6
CONTINUOUS
 62
     7
 10
12.5
 20
94.63962
 11
12.5
 21
99.63962
  0
LINE
  8
0
  6
CONTINUOUS
 62
     7
 10
-13.99998
 20
105.1396
 11
11.0
 21
105.1396
  0
LINE
  8
0
  6
CONTINUOUS
 62
     7
 10
-13.99998
 20
89.13962
 11
11.0
 21
89.13962
  0
LINE
  8
0
  6
CONTINUOUS
 62
     7
 10
-13.99998
 20
105.1396
 11
-13.99998
 21
89.13962
  0
LINE
  8
0
  6
CONTINUOUS
 62
     7
 10
11.0
 20
105.1396
 11
11.0
 21
100.1396
  0
LINE
  8
0
  6
CONTINUOUS
 62
     7
 10
10.99999
 20
89.13959
 11
11.85354
 21
88.28603
  0
LINE
  8
0
  6
CONTINUOUS
 62
     7
 10
-14.0
 20
89.1396
 11
-14.85355
 21
88.28606
  0
LINE
  8
0
  6
CONTINUOUS
 62
     7
 10
11.00001
 20
105.1396
 11
11.85356
 21
105.9932
  0
LINE
  8
0
  6
CONTINUOUS
 62
     7
 10
-14.0
 20
105.1396
 11
-14.85354
 21
105.9932
  0
LINE
  8
0
  6
CONTINUOUS
 62
     7
 10
10.5
 20
100.1396
 11
12.0
 21
100.1396
  0
LINE
  8
0
  6
CONTINUOUS
 62
     7
 10
7.5
 20
95.63962
 11
10.5
 21
95.63962
  0
LINE
  8
0
  6
CONTINUOUS
 62
     7
 10
-10.5
 20
98.63962
 11
-13.5
 21
98.63962
  0
LINE
  8
0
  6
CONTINUOUS
 62
     7
 10
-7.5
 20
101.6396
 11
-7.5
 21
104.6396
  0
LINE
  8
0
  6
CONTINUOUS
 62
     7
 10
4.5
 20
92.63962
 11
4.5
 21
89.63962
  0
LINE
  8
0
  6
CONTINUOUS
 62
     7
 10
-12.5
 20
98.63962
 11
-12.5
 21
90.63962
  0
LINE
  8
0
  6
CONTINUOUS
 62
     7
 10
9.5
 20
103.6396
 11
9.5
 21
95.63962
  0
LINE
  8
0
  6
CONTINUOUS
 62
     7
 10
-7.5
 20
103.6396
 11
9.5
 21
103.6396
  0
LINE
  8
0
  6
CONTINUOUS
 62
     7
 10
-12.5
 20
90.63962
 11
4.5
 21
90.63962
  0
LINE
  8
0
  6
CONTINUOUS
 62
     7
 10
7.8
 20
90.40971
 11
7.8
 21
90.10733
  0
LINE
  8
0
  6
CONTINUOUS
 62
     7
 10
7.2
 20
90.40971
 11
7.2
 21
90.10733
  0
LINE
  8
0
  6
CONTINUOUS
 62
     7
 10
7.03923
 20
90.13159
 11
7.03923
 21
90.43731
  0
LINE
  8
0
  6
CONTINUOUS
 62
     7
 10
-10.8
 20
103.8695
 11
-10.8
 21
104.1719
  0
LINE
  8
0
  6
CONTINUOUS
 62
     7
 10
-10.2
 20
103.8695
 11
-10.2
 21
104.1719
  0
LINE
  8
0
  6
CONTINUOUS
 62
     7
 10
-10.03923
 20
104.1476
 11
-10.03923
 21
103.8419
  0
LINE
  8
0
  6
CONTINUOUS
 62
     7
 10
6.39692
 20
91.90425
 11
6.76462
 21
92.27194
  0
LINE
  8
0
  6
CONTINUOUS
 62
     7
 10
6.7646
 20
91.53654
 11
7.1323
 21
91.90424
  0
LINE
  8
0
  6
CONTINUOUS
 62
     7
 10
6.39693
 20
91.90425
 11
6.76463
 21
91.53655
  0
LINE
  8
0
  6
CONTINUOUS
 62
     7
 10
8.23541
 20
93.74273
 11
8.60311
 21
93.37503
  0
LINE
  8
0
  6
CONTINUOUS
 62
     7
 10
5.73584
 20
94.03613
 11
6.76463
 21
93.00734
  0
LINE
  8
0
  6
CONTINUOUS
 62
     7
 10
6.10353
 20
94.40382
 11
7.13232
 21
93.37503
  0
LINE
  8
0
  6
CONTINUOUS
 62
     7
 10
7.86771
 20
93.37503
 11
8.2354
 21
93.74273
  0
LINE
  8
0
  6
CONTINUOUS
 62
     7
 10
8.23539
 20
93.00732
 11
8.60309
 21
93.37502
  0
LINE
  8
0
  6
CONTINUOUS
 62
     7
 10
7.86771
 20
91.90425
 11
8.8965
 21
90.87547
  0
LINE
  8
0
  6
CONTINUOUS
 62
     7
 10
8.2354
 20
92.27194
 11
9.26419
 21
91.24315
  0
LINE
  8
0
  6
CONTINUOUS
 62
     7
 10
-11.60309
 20
100.9043
 11
-11.2354
 21
101.2719
  0
LINE
  8
0
  6
CONTINUOUS
 62
     7
 10
-11.23539
 20
100.5365
 11
-10.8677
 21
100.9042
  0
LINE
  8
0
  6
CONTINUOUS
 62
     7
 10
-11.60308
 20
100.9042
 11
-11.23538
 21
100.5365
  0
LINE
  8
0
  6
CONTINUOUS
 62
     7
 10
-9.76459
 20
102.7427
 11
-9.39691
 21
102.375
  0
LINE
  8
0
  6
CONTINUOUS
 62
     7
 10
-12.26416
 20
103.0361
 11
-11.23538
 21
102.0073
  0
LINE
  8
0
  6
CONTINUOUS
 62
     7
 10
-11.89647
 20
103.4038
 11
-10.86768
 21
102.375
  0
LINE
  8
0
  6
CONTINUOUS
 62
     7
 10
-10.13231
 20
102.375
 11
-9.76461
 21
102.7427
  0
LINE
  8
0
  6
CONTINUOUS
 62
     7
 10
-9.76462
 20
102.0073
 11
-9.39692
 21
102.375
  0
LINE
  8
0
  6
CONTINUOUS
 62
     7
 10
-10.13229
 20
100.9043
 11
-9.10351
 21
99.87547
  0
LINE
  8
0
  6
CONTINUOUS
 62
     7
 10
-9.76459
 20
101.2719
 11
-8.7358
 21
100.2432
  0
LINE
  8
0
  6
CENTER
 62
     2
 10
7.5
 20
96.63962
 11
7.5
 21
88.63962
  0
LINE
  8
0
  6
CENTER
 62
     2
 10
-10.5
 20
105.6396
 11
-10.5
 21
97.63962
  0
LINE
  8
0
  6
CENTER
 62
     2
 10
-14.5
 20
101.6396
 11
-6.5
 21
101.6396
  0
LINE
  8
0
  6
CENTER
 62
     2
 10
3.5
 20
92.63962
 11
11.5
 21
92.63962
  0
LINE
  8
0
  6
CONTINUOUS
 62
     7
 10
-13.5
 20
104.1396
 11
-13.5
 21
90.13962
  0
LINE
  8
0
  6
CONTINUOUS
 62
     7
 10
-13.0
 20
104.6396
 11
10.5
 21
104.6396
  0
LINE
  8
0
  6
CONTINUOUS
 62
     7
 10
-13.0
 20
89.63962
 11
10.5
 21
89.63962
  0
LINE
  8
0
  6
CONTINUOUS
 62
     7
 10
10.5
 20
104.6396
 11
10.5
 21
89.63962
  0
LINE
  8
0
  6
CENTER
 62
     2
 10
-1.5
 20
77.74336
 11
-1.5
 21
-81.5
  0
LINE
  8
0
  6
CONTINUOUS
 62
     7
 10
12.0
 20
45.0
 11
12.0
 21
-47.2
  0
LINE
  8
0
  6
CONTINUOUS
 62
     7
 10
-15.0
 20
45.0
 11
-15.0
 21
-47.2
  0
LINE
  8
0
  6
CONTINUOUS
 62
     7
 10
-15.0
 20
-17.0
 11
12.0
 21
-17.0
  0
LINE
  8
0
  6
CONTINUOUS
 62
     7
 10
-15.0
 20
25.0
 11
12.0
 21
25.0
  0
LINE
  8
0
  6
CONTINUOUS
 62
     7
 10
-13.99998
 20
45.99998
 11
-14.99998
 21
44.99998
  0
LINE
  8
0
  6
CONTINUOUS
 62
     7
 10
11.0
 20
46.0
 11
12.0
 21
45.0
  0
LINE
  8
0
  6
CONTINUOUS
 62
     7
 10
9.0
 20
-9.34169
 11
12.0
 21
-9.34169
  0
LINE
  8
0
  6
CONTINUOUS
 62
     7
 10
9.0
 20
-12.65831
 11
12.0
 21
-12.65831
  0
LINE
  8
0
  6
CONTINUOUS
 62
     7
 10
9.0
 20
-9.34169
 11
9.0
 21
-12.65831
  0
LINE
  8
0
  6
CONTINUOUS
 62
     7
 10
-13.5
 20
71.2
 11
10.5
 21
71.2
  0
LINE
  8
0
  6
CONTINUOUS
 62
     7
 10
-13.99998
 20
46.0
 11
11.0
 21
46.0
  0
LINE
  8
0
  6
CONTINUOUS
 62
     7
 10
-13.5
 20
72.2
 11
-13.5
 21
46.0
  0
LINE
  8
0
  6
CONTINUOUS
 62
     7
 10
-12.5
 20
74.2
 11
5.67423
 21
74.2
  0
LINE
  8
0
  6
CONTINUOUS
 62
     7
 10
-13.5
 20
72.2
 11
10.5
 21
72.2
  0
LINE
  8
0
  6
CONTINUOUS
 62
     7
 10
-13.5
 20
72.2
 11
-12.5
 21
74.2
  0
LINE
  8
0
  6
CONTINUOUS
 62
     7
 10
10.49997
 20
72.19998
 11
9.49997
 21
74.19998
  0
LINE
  8
0
  6
CONTINUOUS
 62
     7
 10
4.5
 20
74.2
 11
4.5
 21
72.2
  0
LINE
  8
0
  6
CENTER
 62
     2
 10
7.5
 20
77.20001
 11
7.5
 21
68.2
  0
LINE
  8
0
  6
CONTINUOUS
 62
     7
 10
10.05
 20
72.8
 11
4.95
 21
72.8
  0
LINE
  8
0
  6
CONTINUOUS
 62
     7
 10
7.19999
 20
72.2
 11
7.03922
 21
72.8
  0
LINE
  8
0
  6
CONTINUOUS
 62
     7
 10
7.80006
 20
72.80002
 11
7.96082
 21
72.20004
  0
LINE
  8
0
  6
CONTINUOUS
 62
     7
 10
10.05
 20
72.8
 11
10.05
 21
72.2
  0
LINE
  8
0
  6
CONTINUOUS
 62
     7
 10
4.95
 20
72.8
 11
4.95
 21
72.2
  0
LINE
  8
0
  6
CONTINUOUS
 62
     7
 10
9.75002
 20
73.49375
 11
9.75002
 21
72.8
  0
LINE
  8
0
  6
CONTINUOUS
 62
     7
 10
5.25002
 20
73.49374
 11
5.25002
 21
72.8
  0
LINE
  8
0
  6
CONTINUOUS
 62
     7
 10
9.32577
 20
74.2
 11
9.5
 21
74.2
  0
LINE
  8
0
  6
CENTER
 62
     2
 10
-10.5
 20
77.20001
 11
-10.5
 21
68.2
  0
LINE
  8
0
  6
CENTER
 62
     2
 10
35.5
 20
64.0
 11
7.50001
 21
64.0
  0
LINE
  8
0
  6
CONTINUOUS
 62
     7
 10
22.5
 20
64.85
 11
18.50421
 21
64.85
  0
LINE
  8
0
  6
CONTINUOUS
 62
     7
 10
22.5
 20
63.15
 11
18.0487
 21
63.15
  0
LINE
  8
0
  6
CONTINUOUS
 62
     7
 10
32.5
 20
64.32
 11
22.5
 21
64.32
  0
LINE
  8
0
  6
CONTINUOUS
 62
     7
 10
32.5
 20
63.68
 11
22.5
 21
63.68
  0
LINE
  8
0
  6
CONTINUOUS
 62
     7
 10
22.5
 20
63.15
 11
22.5
 21
64.85
  0
LINE
  8
0
  6
CONTINUOUS
 62
     7
 10
32.5
 20
63.68
 11
32.5
 21
64.32
  0
LINE
  8
0
  6
PHANTOM
 62
     2
 10
19.04012
 20
66.85001
 11
17.5128
 21
61.15
  0
LINE
  8
0
  6
PHANTOM
 62
     2
 10
17.4872
 20
66.85
 11
15.95989
 21
61.15001
  0
LINE
  8
0
  6
CONTINUOUS
 62
     7
 10
16.9513
 20
64.85
 11
12.5
 21
64.85
  0
LINE
  8
0
  6
CONTINUOUS
 62
     7
 10
16.49578
 20
63.15
 11
12.5
 21
63.15
  0
LINE
  8
0
  6
CONTINUOUS
 62
     7
 10
-15.0
 20
45.0
 11
12.0
 21
45.0
  0
LINE
  8
0
  6
CONTINUOUS
 62
     7
 10
10.5
 20
72.2
 11
10.5
 21
46.0
  0
LINE
  8
0
  6
CONTINUOUS
 62
     7
 10
-15.0
 20
-47.2
 11
-14.0
 21
-48.2
  0
LINE
  8
0
  6
CONTINUOUS
 62
     7
 10
11.99999
 20
-47.2
 11
11.0
 21
-48.2
  0
LINE
  8
0
  6
CONTINUOUS
 62
     7
 10
-15.0
 20
-47.2
 11
12.0
 21
-47.2
  0
LINE
  8
0
  6
CONTINUOUS
 62
     7
 10
-13.49998
 20
-73.4
 11
10.50001
 21
-73.4
  0
LINE
  8
0
  6
CONTINUOUS
 62
     7
 10
-13.99999
 20
-48.20001
 11
11.00001
 21
-48.20001
  0
LINE
  8
0
  6
CONTINUOUS
 62
     7
 10
-13.50003
 20
-74.4
 11
-13.50003
 21
-48.20001
  0
LINE
  8
0
  6
CONTINUOUS
 62
     7
 10
9.50002
 20
-76.4
 11
-8.67421
 21
-76.4
  0
LINE
  8
0
  6
CONTINUOUS
 62
     7
 10
-13.49998
 20
-74.4
 11
10.50001
 21
-74.4
  0
LINE
  8
0
  6
CONTINUOUS
 62
     7
 10
10.5
 20
-74.39997
 11
9.5
 21
-76.39998
  0
LINE
  8
0
  6
CONTINUOUS
 62
     7
 10
-13.49996
 20
-74.4
 11
-12.49996
 21
-76.4
  0
LINE
  8
0
  6
CONTINUOUS
 62
     7
 10
-7.50004
 20
-76.40001
 11
-7.50004
 21
-74.40001
  0
LINE
  8
0
  6
CENTER
 62
     2
 10
-10.50004
 20
-79.40001
 11
-10.50004
 21
-70.40001
  0
LINE
  8
0
  6
CONTINUOUS
 62
     7
 10
-13.04998
 20
-75.00001
 11
-7.94999
 21
-75.00001
  0
LINE
  8
0
  6
CONTINUOUS
 62
     7
 10
-10.20002
 20
-74.40001
 11
-10.03924
 21
-75.00001
  0
LINE
  8
0
  6
CONTINUOUS
 62
     7
 10
-10.80001
 20
-75.0
 11
-10.96079
 21
-74.4
  0
LINE
  8
0
  6
CONTINUOUS
 62
     7
 10
-13.05004
 20
-75.00001
 11
-13.05004
 21
-74.40001
  0
LINE
  8
0
  6
CONTINUOUS
 62
     7
 10
-7.95005
 20
-75.0
 11
-7.95005
 21
-74.40001
  0
LINE
  8
0
  6
CONTINUOUS
 62
     7
 10
-12.75004
 20
-75.69376
 11
-12.75004
 21
-75.00001
  0
LINE
  8
0
  6
CONTINUOUS
 62
     7
 10
-8.25004
 20
-75.69376
 11
-8.25004
 21
-75.0
  0
LINE
  8
0
  6
CONTINUOUS
 62
     7
 10
-12.32575
 20
-76.4
 11
-12.49998
 21
-76.4
  0
LINE
  8
0
  6
CENTER
 62
     2
 10
7.49996
 20
-79.39999
 11
7.49996
 21
-70.39999
  0
LINE
  8
0
  6
CENTER
 62
     2
 10
35.5
 20
-66.2
 11
7.5
 21
-66.2
  0
LINE
  8
0
  6
CONTINUOUS
 62
     7
 10
22.5
 20
-65.35001
 11
18.50422
 21
-65.35001
  0
LINE
  8
0
  6
CONTINUOUS
 62
     7
 10
22.5
 20
-67.05
 11
18.0487
 21
-67.05
  0
LINE
  8
0
  6
CONTINUOUS
 62
     7
 10
32.5
 20
-65.88
 11
22.5
 21
-65.88
  0
LINE
  8
0
  6
CONTINUOUS
 62
     7
 10
32.5
 20
-66.52
 11
22.5
 21
-66.52
  0
LINE
  8
0
  6
CONTINUOUS
 62
     7
 10
22.49995
 20
-67.04998
 11
22.49995
 21
-65.34998
  0
LINE
  8
0
  6
CONTINUOUS
 62
     7
 10
32.49995
 20
-66.51997
 11
32.49995
 21
-65.87997
  0
LINE
  8
0
  6
PHANTOM
 62
     2
 10
19.04012
 20
-63.34999
 11
17.51282
 21
-69.05
  0
LINE
  8
0
  6
PHANTOM
 62
     2
 10
17.48721
 20
-63.35
 11
15.9599
 21
-69.04999
  0
LINE
  8
0
  6
CONTINUOUS
 62
     7
 10
16.49579
 20
-67.05
 11
12.5
 21
-67.05
  0
LINE
  8
0
  6
CENTER
 62
     2
 10
6.0
 20
22.20863
 11
6.0
 21
15.84491
  0
LINE
  8
0
  6
CENTER
 62
     2
 10
2.97025
 20
-11.0
 11
12.98374
 21
-11.0
  0
LINE
  8
0
  6
CENTER
 62
     2
 10
2.97025
 20
19.0
 11
9.05321
 21
19.0
  0
LINE
  8
0
  6
CENTER
 62
     2
 10
6.0
 20
-8.11261
 11
6.0
 21
-14.10199
  0
LINE
  8
0
  6
CONTINUOUS
 62
     7
 10
10.49996
 20
-74.39995
 11
10.49996
 21
-48.2
  0
LINE
  8
0
  6
CONTINUOUS
 62
     7
 10
16.95131
 20
-65.35001
 11
12.5
 21
-65.35001
  0
LINE
  8
0
  6
CONTINUOUS
 62
     7
 10
12.0
 20
-67.9
 11
10.5
 21
-67.9
  0
LINE
  8
0
  6
CONTINUOUS
 62
     7
 10
12.49995
 20
-67.39999
 11
12.49995
 21
-64.99999
  0
LINE
  8
0
  6
CONTINUOUS
 62
     7
 10
12.0
 20
-64.50001
 11
10.5
 21
-64.50001
  0
LINE
  8
0
  6
CONTINUOUS
 62
     7
 10
12.0
 20
62.29998
 11
10.5
 21
62.29998
  0
LINE
  8
0
  6
CONTINUOUS
 62
     7
 10
12.50003
 20
62.80001
 11
12.50003
 21
65.2
  0
LINE
  8
0
  6
CONTINUOUS
 62
     7
 10
11.99999
 20
65.69998
 11
10.49999
 21
65.69998
  0
LINE
  8
0
  6
CENTER
 62
     2
 10
91.21839
 20
77.72955
 11
91.21839
 21
-80.17699
  0
LINE
  8
0
  6
CONTINUOUS
 62
     7
 10
100.2184
 20
45.0
 11
100.2184
 21
-47.19997
  0
LINE
  8
0
  6
CONTINUOUS
 62
     7
 10
82.21839
 20
45.0
 11
82.21839
 21
-47.19999
  0
LINE
  8
0
  6
CONTINUOUS
 62
     7
 10
82.21839
 20
25.0
 11
100.2184
 21
25.0
  0
LINE
  8
0
  6
CONTINUOUS
 62
     7
 10
82.21838
 20
-17.0
 11
100.2184
 21
-17.0
  0
LINE
  8
0
  6
CONTINUOUS
 62
     7
 10
83.2184
 20
46.00001
 11
82.2184
 21
45.00001
  0
LINE
  8
0
  6
CONTINUOUS
 62
     7
 10
99.21837
 20
45.99998
 11
100.2184
 21
44.99998
  0
LINE
  8
0
  6
CENTER
 62
     2
 10
85.13487
 20
-4.0
 11
97.29616
 21
-4.0
  0
LINE
  8
0
  6
CENTER
 62
     2
 10
85.57095
 20
12.0
 11
97.19926
 21
12.0
  0
LINE
  8
0
  6
CENTER
 62
     2
 10
97.71839
 20
23.5913
 11
97.71839
 21
14.58333
  0
LINE
  8
0
  6
CENTER
 62
     2
 10
84.71839
 20
-6.88724
 11
84.71839
 21
-15.29189
  0
LINE
  8
0
  6
CENTER
 62
     2
 10
81.80618
 20
-11.0
 11
88.87675
 21
-11.0
  0
LINE
  8
0
  6
CENTER
 62
     2
 10
93.37179
 20
19.0
 11
100.8028
 21
19.0
  0
LINE
  8
0
  6
CENTER
 62
     2
 10
88.29669
 20
42.5
 11
94.1281
 21
42.5
  0
LINE
  8
0
  6
CONTINUOUS
 62
     7
 10
83.71839
 20
72.20004
 11
83.71839
 21
46.0
  0
LINE
  8
0
  6
CONTINUOUS
 62
     7
 10
83.71841
 20
71.2
 11
98.71841
 21
71.2
  0
LINE
  8
0
  6
CONTINUOUS
 62
     7
 10
98.71839
 20
72.2
 11
98.71839
 21
46.0
  0
LINE
  8
0
  6
CONTINUOUS
 62
     7
 10
83.2184
 20
46.0
 11
99.2184
 21
46.0
  0
LINE
  8
0
  6
CONTINUOUS
 62
     7
 10
83.71841
 20
72.2
 11
98.71841
 21
72.2
  0
LINE
  8
0
  6
CONTINUOUS
 62
     7
 10
84.71841
 20
74.2
 11
84.89266
 21
74.2
  0
LINE
  8
0
  6
CONTINUOUS
 62
     7
 10
98.71838
 20
72.19999
 11
97.71838
 21
74.19999
  0
LINE
  8
0
  6
CONTINUOUS
 62
     7
 10
83.71838
 20
72.2
 11
84.71838
 21
74.20001
  0
LINE
  8
0
  6
CENTER
 62
     2
 10
86.71839
 20
77.20001
 11
86.71839
 21
68.2
  0
LINE
  8
0
  6
CONTINUOUS
 62
     7
 10
89.26841
 20
72.8
 11
84.1684
 21
72.8
  0
LINE
  8
0
  6
CONTINUOUS
 62
     7
 10
84.16839
 20
72.8
 11
84.16839
 21
72.2
  0
LINE
  8
0
  6
CONTINUOUS
 62
     7
 10
84.46841
 20
73.49374
 11
84.46841
 21
72.8
  0
LINE
  8
0
  6
CONTINUOUS
 62
     7
 10
88.54415
 20
74.2
 11
97.71841
 21
74.2
  0
LINE
  8
0
  6
CENTER
 62
     2
 10
95.71839
 20
77.20001
 11
95.71839
 21
68.2
  0
LINE
  8
0
  6
CONTINUOUS
 62
     7
 10
89.26839
 20
72.8
 11
89.26839
 21
72.2
  0
LINE
  8
0
  6
CONTINUOUS
 62
     7
 10
88.96839
 20
73.49374
 11
88.96839
 21
72.8
  0
LINE
  8
0
  6
CONTINUOUS
 62
     7
 10
89.71839
 20
74.2
 11
89.71839
 21
72.2
  0
LINE
  8
0
  6
CENTER
 62
     2
 10
89.91839
 20
67.0
 11
89.91839
 21
61.0
  0
LINE
  8
0
  6
CENTER
 62
     2
 10
92.51839
 20
67.0
 11
92.51839
 21
61.0
  0
LINE
  8
0
  6
CENTER
 62
     2
 10
87.21841
 20
64.0
 11
95.21841
 21
64.0
  0
LINE
  8
0
  6
CONTINUOUS
 62
     7
 10
82.2184
 20
45.0
 11
100.2184
 21
45.0
  0
LINE
  8
0
  6
CONTINUOUS
 62
     7
 10
82.21839
 20
-47.2
 11
83.21839
 21
-48.19999
  0
LINE
  8
0
  6
CONTINUOUS
 62
     7
 10
100.2184
 20
-47.19999
 11
99.21836
 21
-48.19999
  0
LINE
  8
0
  6
CONTINUOUS
 62
     7
 10
82.21837
 20
-47.2
 11
100.2184
 21
-47.2
  0
LINE
  8
0
  6
CONTINUOUS
 62
     7
 10
98.71836
 20
-74.39999
 11
98.71836
 21
-48.2
  0
LINE
  8
0
  6
CONTINUOUS
 62
     7
 10
98.71838
 20
-73.39999
 11
83.71838
 21
-73.39999
  0
LINE
  8
0
  6
CONTINUOUS
 62
     7
 10
83.71836
 20
-74.39998
 11
83.71836
 21
-48.2
  0
LINE
  8
0
  6
CONTINUOUS
 62
     7
 10
99.21838
 20
-48.2
 11
83.21839
 21
-48.2
  0
LINE
  8
0
  6
CONTINUOUS
 62
     7
 10
98.71838
 20
-74.39998
 11
83.71838
 21
-74.39998
  0
LINE
  8
0
  6
CONTINUOUS
 62
     7
 10
97.71838
 20
-76.39999
 11
97.54413
 21
-76.39999
  0
LINE
  8
0
  6
CONTINUOUS
 62
     7
 10
83.71838
 20
-74.4
 11
84.71838
 21
-76.4
  0
LINE
  8
0
  6
CONTINUOUS
 62
     7
 10
98.71842
 20
-74.4
 11
97.71842
 21
-76.4
  0
LINE
  8
0
  6
CENTER
 62
     2
 10
95.71835
 20
-79.39999
 11
95.71835
 21
-70.39999
  0
LINE
  8
0
  6
CONTINUOUS
 62
     7
 10
93.16837
 20
-74.99998
 11
98.26837
 21
-74.99998
  0
LINE
  8
0
  6
CONTINUOUS
 62
     7
 10
98.26834
 20
-74.99998
 11
98.26834
 21
-74.39998
  0
LINE
  8
0
  6
CONTINUOUS
 62
     7
 10
97.96832
 20
-75.69373
 11
97.96832
 21
-74.99998
  0
LINE
  8
0
  6
CONTINUOUS
 62
     7
 10
93.89264
 20
-76.39999
 11
84.71838
 21
-76.39999
  0
LINE
  8
0
  6
CENTER
 62
     2
 10
86.71835
 20
-79.39999
 11
86.71835
 21
-70.39999
  0
LINE
  8
0
  6
CONTINUOUS
 62
     7
 10
93.16835
 20
-74.99998
 11
93.16835
 21
-74.39998
  0
LINE
  8
0
  6
CONTINUOUS
 62
     7
 10
93.46835
 20
-75.69373
 11
93.46835
 21
-74.99998
  0
LINE
  8
0
  6
CONTINUOUS
 62
     7
 10
92.71835
 20
-76.39999
 11
92.71835
 21
-74.39998
  0
LINE
  8
0
  6
CENTER
 62
     2
 10
92.51836
 20
-69.2
 11
92.51836
 21
-63.2
  0
LINE
  8
0
  6
CENTER
 62
     2
 10
89.91835
 20
-69.2
 11
89.91835
 21
-63.2
  0
LINE
  8
0
  6
CENTER
 62
     2
 10
95.21838
 20
-66.19999
 11
87.21838
 21
-66.19999
  0
LINE
  8
0
  6
CENTER
 62
     2
 10
94.71838
 20
-44.69999
 11
88.38503
 21
-44.69999
  0
LINE
  8
0
  6
CENTER
 62
     2
 10
91.71839
 20
18.33186
 11
91.71839
 21
5.85731
  0
LINE
  8
0
  6
CENTER
 62
     2
 10
90.71839
 20
2.3031
 11
90.71839
 21
-10.03208
  0
LINE
  8
0
  6
CENTER
 62
     2
 10
80.46219
 20
4.0
 11
101.7741
 21
4.0
  0
LINE
  8
0
  6
CONTINUOUS
 62
     7
 10
92.51841
 20
65.7
 11
89.9184
 21
65.7
  0
LINE
  8
0
  6
CONTINUOUS
 62
     7
 10
92.51841
 20
62.3
 11
89.9184
 21
62.3
  0
LINE
  8
0
  6
CONTINUOUS
 62
     7
 10
92.51837
 20
-64.49999
 11
89.91837
 21
-64.49999
  0
LINE
  8
0
  6
CONTINUOUS
 62
     7
 10
92.51839
 20
-67.89999
 11
89.91838
 21
-67.89999
  0
LINE
  8
0
  6
CONTINUOUS
 62
     7
 10
-100.2184
 20
25.0
 11
-82.21839
 21
25.0
  0
LINE
  8
0
  6
CENTER
 62
     2
 10
-91.21839
 20
75.90001
 11
-91.21839
 21
-80.12389
  0
LINE
  8
0
  6
CONTINUOUS
 62
     7
 10
-82.21839
 20
45.0
 11
-82.21839
 21
-47.19999
  0
LINE
  8
0
  6
CONTINUOUS
 62
     7
 10
-100.2184
 20
44.99998
 11
-100.2184
 21
-47.2
  0
LINE
  8
0
  6
CONTINUOUS
 62
     7
 10
-100.2184
 20
-17.0
 11
-82.21839
 21
-17.0
  0
LINE
  8
0
  6
CONTINUOUS
 62
     7
 10
-99.21838
 20
45.99999
 11
-100.2184
 21
44.99999
  0
LINE
  8
0
  6
CONTINUOUS
 62
     7
 10
-83.21839
 20
46.0
 11
-82.21839
 21
45.0
  0
LINE
  8
0
  6
CENTER
 62
     2
 10
-97.56651
 20
-9.2
 11
-85.30103
 21
-9.2
  0
LINE
  8
0
  6
CENTER
 62
     2
 10
-97.42713
 20
4.0
 11
-84.88289
 21
4.0
  0
LINE
  8
0
  6
CENTER
 62
     2
 10
-96.9393
 20
17.2
 11
-84.88289
 21
17.2
  0
LINE
  8
0
  6
CENTER
 62
     2
 10
-97.71839
 20
21.75148
 11
-97.71839
 21
16.58577
  0
LINE
  8
0
  6
CENTER
 62
     2
 10
-84.71839
 20
-8.28171
 11
-84.71839
 21
-13.80782
  0
LINE
  8
0
  6
CENTER
 62
     2
 10
-87.29395
 20
-11.0
 11
-82.21839
 21
-11.0
  0
LINE
  8
0
  6
CENTER
 62
     2
 10
-100.2184
 20
19.0
 11
-95.22271
 21
19.0
  0
LINE
  8
0
  6
CENTER
 62
     2
 10
-94.98244
 20
37.7
 11
-87.41409
 21
37.7
  0
LINE
  8
0
  6
CONTINUOUS
 62
     7
 10
-98.71839
 20
72.2
 11
-98.71839
 21
46.0
  0
LINE
  8
0
  6
CONTINUOUS
 62
     7
 10
-99.21839
 20
46.0
 11
-83.21839
 21
46.0
  0
LINE
  8
0
  6
CONTINUOUS
 62
     7
 10
-83.71839
 20
72.20001
 11
-83.71839
 21
46.0
  0
LINE
  8
0
  6
CONTINUOUS
 62
     7
 10
-92.71839
 20
74.2
 11
-92.71839
 21
72.2
  0
LINE
  8
0
  6
CONTINUOUS
 62
     7
 10
-97.71839
 20
68.2
 11
-84.71839
 21
68.2
  0
LINE
  8
0
  6
CONTINUOUS
 62
     7
 10
-97.71839
 20
64.2
 11
-84.71839
 21
64.2
  0
LINE
  8
0
  6
CONTINUOUS
 62
     7
 10
-84.71839
 20
68.2
 11
-84.71839
 21
64.2
  0
LINE
  8
0
  6
CONTINUOUS
 62
     7
 10
-97.71839
 20
68.2
 11
-97.71839
 21
64.2
  0
LINE
  8
0
  6
CONTINUOUS
 62
     7
 10
-97.00632
 20
67.30678
 11
-94.66464
 21
67.30678
  0
LINE
  8
0
  6
CONTINUOUS
 62
     7
 10
-97.00632
 20
65.23019
 11
-95.0181
 21
65.23019
  0
LINE
  8
0
  6
CONTINUOUS
 62
     7
 10
-97.00632
 20
64.7
 11
-94.31117
 21
64.7
  0
LINE
  8
0
  6
CONTINUOUS
 62
     7
 10
-97.00632
 20
66.77659
 11
-95.0181
 21
66.77659
  0
LINE
  8
0
  6
CONTINUOUS
 62
     7
 10
-97.00632
 20
67.30678
 11
-97.00632
 21
66.77659
  0
LINE
  8
0
  6
CONTINUOUS
 62
     7
 10
-94.31117
 20
66.95332
 11
-94.31117
 21
64.7
  0
LINE
  8
0
  6
CONTINUOUS
 62
     7
 10
-95.0181
 20
66.77659
 11
-95.0181
 21
65.23019
  0
LINE
  8
0
  6
CONTINUOUS
 62
     7
 10
-93.91354
 20
67.30678
 11
-93.91354
 21
66.77659
  0
LINE
  8
0
  6
CONTINUOUS
 62
     7
 10
-91.39513
 20
66.77659
 11
-91.39513
 21
65.05345
  0
LINE
  8
0
  6
CONTINUOUS
 62
     7
 10
-92.10205
 20
66.77659
 11
-92.10205
 21
65.23019
  0
LINE
  8
0
  6
CONTINUOUS
 62
     7
 10
-97.00632
 20
65.23019
 11
-97.00632
 21
64.7
  0
LINE
  8
0
  6
CONTINUOUS
 62
     7
 10
-93.91354
 20
67.30678
 11
-93.21504
 21
67.30678
  0
LINE
  8
0
  6
CONTINUOUS
 62
     7
 10
-93.91354
 20
64.7
 11
-93.36464
 21
64.7
  0
LINE
  8
0
  6
CONTINUOUS
 62
     7
 10
-93.91352
 20
64.7
 11
-93.35709
 21
66.77659
  0
LINE
  8
0
  6
CONTINUOUS
 62
     7
 10
-93.91354
 20
66.77659
 11
-93.35712
 21
66.77659
  0
LINE
  8
0
  6
CONTINUOUS
 62
     7
 10
-93.36461
 20
64.69997
 11
-92.80819
 21
66.77655
  0
LINE
  8
0
  6
CONTINUOUS
 62
     7
 10
-92.63225
 20
65.23019
 11
-92.10205
 21
65.23019
  0
LINE
  8
0
  6
CONTINUOUS
 62
     7
 10
-92.63226
 20
65.23019
 11
-92.4902
 21
64.7
  0
LINE
  8
0
  6
CONTINUOUS
 62
     7
 10
-92.49017
 20
64.7
 11
-91.74857
 21
64.7
  0
LINE
  8
0
  6
CONTINUOUS
 62
     7
 10
-92.80821
 20
66.77659
 11
-92.10205
 21
66.77659
  0
LINE
  8
0
  6
CONTINUOUS
 62
     7
 10
-92.66615
 20
67.30678
 11
-91.92532
 21
67.30678
  0
LINE
  8
0
  6
CONTINUOUS
 62
     7
 10
-93.21503
 20
67.30677
 11
-93.10967
 21
67.7
  0
LINE
  8
0
  6
CONTINUOUS
 62
     7
 10
-92.66615
 20
67.30679
 11
-92.5608
 21
67.70002
  0
LINE
  8
0
  6
CONTINUOUS
 62
     7
 10
-90.95329
 20
67.30678
 11
-90.11382
 21
67.30678
  0
LINE
  8
0
  6
CONTINUOUS
 62
     7
 10
-90.95329
 20
66.77659
 11
-88.89159
 21
66.77659
  0
LINE
  8
0
  6
CONTINUOUS
 62
     7
 10
-90.11382
 20
64.7
 11
-89.40691
 21
64.7
  0
LINE
  8
0
  6
CONTINUOUS
 62
     7
 10
-90.95329
 20
67.30678
 11
-90.95329
 21
66.77659
  0
LINE
  8
0
  6
CONTINUOUS
 62
     7
 10
-88.34652
 20
65.81519
 11
-88.34652
 21
65.23019
  0
LINE
  8
0
  6
CONTINUOUS
 62
     7
 10
-90.9533
 20
65.23018
 11
-90.11382
 21
65.62164
  0
LINE
  8
0
  6
CONTINUOUS
 62
     7
 10
-90.95325
 20
65.81516
 11
-88.89154
 21
66.77657
  0
LINE
  8
0
  6
CONTINUOUS
 62
     7
 10
-90.95329
 20
65.81519
 11
-90.95329
 21
65.23019
  0
LINE
  8
0
  6
CONTINUOUS
 62
     7
 10
-89.40694
 20
65.72466
 11
-88.34653
 21
65.2302
  0
LINE
  8
0
  6
CONTINUOUS
 62
     7
 10
-89.02257
 20
66.13044
 11
-88.34644
 21
65.81516
  0
LINE
  8
0
  6
CONTINUOUS
 62
     7
 10
-88.34652
 20
66.95332
 11
-88.34652
 21
66.67093
  0
LINE
  8
0
  6
CONTINUOUS
 62
     7
 10
-90.11382
 20
67.7
 11
-90.11382
 21
67.30678
  0
LINE
  8
0
  6
CONTINUOUS
 62
     7
 10
-89.40691
 20
67.7
 11
-89.40691
 21
67.30678
  0
LINE
  8
0
  6
CONTINUOUS
 62
     7
 10
-89.40691
 20
67.30678
 11
-88.69998
 21
67.30678
  0
LINE
  8
0
  6
CONTINUOUS
 62
     7
 10
-90.11382
 20
65.62164
 11
-90.11382
 21
64.7
  0
LINE
  8
0
  6
CONTINUOUS
 62
     7
 10
-89.40691
 20
65.72465
 11
-89.40691
 21
64.7
  0
LINE
  8
0
  6
CONTINUOUS
 62
     7
 10
-89.02254
 20
66.13041
 11
-88.55051
 21
66.35052
  0
LINE
  8
0
  6
CONTINUOUS
 62
     7
 10
-85.96065
 20
67.54094
 11
-85.43046
 21
67.54094
  0
LINE
  8
0
  6
CONTINUOUS
 62
     7
 10
-88.1256
 20
66.44576
 11
-88.1256
 21
65.87517
  0
LINE
  8
0
  6
CONTINUOUS
 62
     7
 10
-85.43046
 20
67.54094
 11
-85.43046
 21
67.30678
  0
LINE
  8
0
  6
CONTINUOUS
 62
     7
 10
-85.96065
 20
67.54094
 11
-85.96065
 21
67.42669
  0
LINE
  8
0
  6
CONTINUOUS
 62
     7
 10
-86.66757
 20
66.45504
 11
-86.66757
 21
64.7
  0
LINE
  8
0
  6
CONTINUOUS
 62
     7
 10
-88.12555
 20
66.44572
 11
-86.07201
 21
67.26244
  0
LINE
  8
0
  6
CONTINUOUS
 62
     7
 10
-88.1256
 20
65.87517
 11
-86.66757
 21
66.45505
  0
LINE
  8
0
  6
CONTINUOUS
 62
     7
 10
-86.66757
 20
64.7
 11
-85.96065
 21
64.7
  0
LINE
  8
0
  6
CONTINUOUS
 62
     7
 10
-85.96065
 20
66.73619
 11
-85.96065
 21
64.7
  0
LINE
  8
0
  6
CONTINUOUS
 62
     7
 10
-85.96056
 20
66.73613
 11
-85.76463
 21
66.81406
  0
LINE
  8
0
  6
CONTINUOUS
 62
     7
 10
-93.10966
 20
67.7
 11
-92.56079
 21
67.7
  0
LINE
  8
0
  6
CONTINUOUS
 62
     7
 10
-91.68231
 20
67.7
 11
-91.45631
 21
67.7
  0
LINE
  8
0
  6
CONTINUOUS
 62
     7
 10
-90.11382
 20
67.7
 11
-89.40691
 21
67.7
  0
LINE
  8
0
  6
CONTINUOUS
 62
     7
 10
-91.68231
 20
67.34653
 11
-91.45631
 21
67.34653
  0
LINE
  8
0
  6
CONTINUOUS
 62
     7
 10
-91.68231
 20
67.7
 11
-91.68231
 21
67.34653
  0
LINE
  8
0
  6
CONTINUOUS
 62
     7
 10
-91.45631
 20
67.7
 11
-91.45631
 21
67.34653
  0
LINE
  8
0
  6
CONTINUOUS
 62
     7
 10
-91.29857
 20
67.7
 11
-91.29857
 21
67.34653
  0
LINE
  8
0
  6
CONTINUOUS
 62
     7
 10
-91.07258
 20
67.7
 11
-91.07258
 21
67.34653
  0
LINE
  8
0
  6
CONTINUOUS
 62
     7
 10
-91.29857
 20
67.7
 11
-91.07258
 21
67.7
  0
LINE
  8
0
  6
CONTINUOUS
 62
     7
 10
-91.29857
 20
67.34653
 11
-91.07258
 21
67.34653
  0
LINE
  8
0
  6
CONTINUOUS
 62
     7
 10
-98.71837
 20
72.19999
 11
-97.71837
 21
74.19999
  0
LINE
  8
0
  6
CONTINUOUS
 62
     7
 10
-97.96838
 20
73.49374
 11
-97.96838
 21
72.79999
  0
LINE
  8
0
  6
CENTER
 62
     2
 10
-95.71839
 20
77.20001
 11
-95.71839
 21
69.2
  0
LINE
  8
0
  6
CONTINUOUS
 62
     7
 10
-97.71838
 20
74.2
 11
-97.54414
 21
74.2
  0
LINE
  8
0
  6
CONTINUOUS
 62
     7
 10
-93.46838
 20
73.49374
 11
-93.46838
 21
72.79999
  0
LINE
  8
0
  6
CONTINUOUS
 62
     7
 10
-93.89264
 20
74.2
 11
-84.71838
 21
74.2
  0
LINE
  8
0
  6
CENTER
 62
     2
 10
-86.71839
 20
77.20001
 11
-86.71839
 21
69.2
  0
LINE
  8
0
  6
CONTINUOUS
 62
     7
 10
-83.71839
 20
72.20001
 11
-84.71839
 21
74.20001
  0
LINE
  8
0
  6
CONTINUOUS
 62
     7
 10
-98.71839
 20
72.2
 11
-83.71839
 21
72.2
  0
LINE
  8
0
  6
CONTINUOUS
 62
     7
 10
-98.71839
 20
71.2
 11
-83.71839
 21
71.2
  0
LINE
  8
0
  6
CONTINUOUS
 62
     7
 10
-93.1684
 20
72.79999
 11
-98.26839
 21
72.79999
  0
LINE
  8
0
  6
CONTINUOUS
 62
     7
 10
-93.1684
 20
72.79999
 11
-93.1684
 21
72.2
  0
LINE
  8
0
  6
CONTINUOUS
 62
     7
 10
-98.26839
 20
72.79999
 11
-98.26839
 21
72.2
  0
LINE
  8
0
  6
CONTINUOUS
 62
     7
 10
-100.2184
 20
45.0
 11
-82.21839
 21
45.0
  0
LINE
  8
0
  6
CONTINUOUS
 62
     7
 10
-92.63262
 20
36.2858
 11
-89.80419
 21
39.11422
  0
LINE
  8
0
  6
CONTINUOUS
 62
     7
 10
-92.63261
 20
39.11422
 11
-89.80418
 21
36.28578
  0
LINE
  8
0
  6
CONTINUOUS
 62
     7
 10
-93.15025
 20
38.21764
 11
-90.70075
 21
35.76815
  0
LINE
  8
0
  6
CONTINUOUS
 62
     7
 10
-91.73603
 20
39.63185
 11
-89.28654
 21
37.18236
  0
LINE
  8
0
  6
CONTINUOUS
 62
     7
 10
-93.15026
 20
37.18237
 11
-90.70077
 21
39.63186
  0
LINE
  8
0
  6
CONTINUOUS
 62
     7
 10
-91.73604
 20
35.76817
 11
-89.28654
 21
38.21766
  0
LINE
  8
0
  6
CONTINUOUS
 62
     7
 10
-100.2184
 20
-47.19999
 11
-99.21838
 21
-48.2
  0
LINE
  8
0
  6
CONTINUOUS
 62
     7
 10
-82.2184
 20
-47.19999
 11
-83.2184
 21
-48.19999
  0
LINE
  8
0
  6
CONTINUOUS
 62
     7
 10
-100.2184
 20
-47.2
 11
-82.21839
 21
-47.2
  0
LINE
  8
0
  6
CONTINUOUS
 62
     7
 10
-83.71843
 20
-74.39995
 11
-83.71843
 21
-48.19999
  0
LINE
  8
0
  6
CONTINUOUS
 62
     7
 10
-83.21838
 20
-48.2
 11
-99.21838
 21
-48.2
  0
LINE
  8
0
  6
CONTINUOUS
 62
     7
 10
-98.71843
 20
-74.4
 11
-98.71843
 21
-48.2
  0
LINE
  8
0
  6
CONTINUOUS
 62
     7
 10
-89.71843
 20
-76.4
 11
-89.71843
 21
-74.39999
  0
LINE
  8
0
  6
CONTINUOUS
 62
     7
 10
-84.71838
 20
-70.4
 11
-97.71838
 21
-70.4
  0
LINE
  8
0
  6
CONTINUOUS
 62
     7
 10
-84.71838
 20
-66.4
 11
-97.71838
 21
-66.4
  0
LINE
  8
0
  6
CONTINUOUS
 62
     7
 10
-97.71844
 20
-70.40001
 11
-97.71844
 21
-66.40001
  0
LINE
  8
0
  6
CONTINUOUS
 62
     7
 10
-84.71844
 20
-70.4
 11
-84.71844
 21
-66.4
  0
LINE
  8
0
  6
CONTINUOUS
 62
     7
 10
-85.43045
 20
-69.50678
 11
-87.77213
 21
-69.50678
  0
LINE
  8
0
  6
CONTINUOUS
 62
     7
 10
-85.43045
 20
-67.43019
 11
-87.41867
 21
-67.43019
  0
LINE
  8
0
  6
CONTINUOUS
 62
     7
 10
-85.43045
 20
-66.9
 11
-88.1256
 21
-66.9
  0
LINE
  8
0
  6
CONTINUOUS
 62
     7
 10
-85.43045
 20
-68.97659
 11
-87.41867
 21
-68.97659
  0
LINE
  8
0
  6
CONTINUOUS
 62
     7
 10
-85.4305
 20
-69.50677
 11
-85.4305
 21
-68.97659
  0
LINE
  8
0
  6
CONTINUOUS
 62
     7
 10
-88.12566
 20
-69.15331
 11
-88.12566
 21
-66.9
  0
LINE
  8
0
  6
CONTINUOUS
 62
     7
 10
-87.41872
 20
-68.97659
 11
-87.41872
 21
-67.43019
  0
LINE
  8
0
  6
CONTINUOUS
 62
     7
 10
-88.52328
 20
-69.50677
 11
-88.52328
 21
-68.97659
  0
LINE
  8
0
  6
CONTINUOUS
 62
     7
 10
-91.0417
 20
-68.97659
 11
-91.0417
 21
-67.25345
  0
LINE
  8
0
  6
CONTINUOUS
 62
     7
 10
-90.33478
 20
-68.97659
 11
-90.33478
 21
-67.43019
  0
LINE
  8
0
  6
CONTINUOUS
 62
     7
 10
-85.4305
 20
-67.43018
 11
-85.4305
 21
-66.9
  0
LINE
  8
0
  6
CONTINUOUS
 62
     7
 10
-88.52323
 20
-69.50678
 11
-89.22173
 21
-69.50678
  0
LINE
  8
0
  6
CONTINUOUS
 62
     7
 10
-88.52323
 20
-66.9
 11
-89.07214
 21
-66.9
  0
LINE
  8
0
  6
CONTINUOUS
 62
     7
 10
-88.52324
 20
-66.89999
 11
-89.07967
 21
-68.97658
  0
LINE
  8
0
  6
CONTINUOUS
 62
     7
 10
-88.52323
 20
-68.97659
 11
-89.07966
 21
-68.97659
  0
LINE
  8
0
  6
CONTINUOUS
 62
     7
 10
-89.07219
 20
-66.89996
 11
-89.6286
 21
-68.97655
  0
LINE
  8
0
  6
CONTINUOUS
 62
     7
 10
-89.80453
 20
-67.43019
 11
-90.33472
 21
-67.43019
  0
LINE
  8
0
  6
CONTINUOUS
 62
     7
 10
-89.80453
 20
-67.43019
 11
-89.94659
 21
-66.9
  0
LINE
  8
0
  6
CONTINUOUS
 62
     7
 10
-89.94661
 20
-66.9
 11
-90.68819
 21
-66.9
  0
LINE
  8
0
  6
CONTINUOUS
 62
     7
 10
-89.62856
 20
-68.97659
 11
-90.33472
 21
-68.97659
  0
LINE
  8
0
  6
CONTINUOUS
 62
     7
 10
-89.77062
 20
-69.50678
 11
-90.51145
 21
-69.50678
  0
LINE
  8
0
  6
CONTINUOUS
 62
     7
 10
-89.22175
 20
-69.50677
 11
-89.3271
 21
-69.89999
  0
LINE
  8
0
  6
CONTINUOUS
 62
     7
 10
-89.77059
 20
-69.5068
 11
-89.87595
 21
-69.90003
  0
LINE
  8
0
  6
CONTINUOUS
 62
     7
 10
-91.48347
 20
-69.50678
 11
-92.32295
 21
-69.50678
  0
LINE
  8
0
  6
CONTINUOUS
 62
     7
 10
-91.48347
 20
-68.97659
 11
-93.54519
 21
-68.97659
  0
LINE
  8
0
  6
CONTINUOUS
 62
     7
 10
-92.32295
 20
-66.9
 11
-93.02987
 21
-66.9
  0
LINE
  8
0
  6
CONTINUOUS
 62
     7
 10
-91.48353
 20
-69.50677
 11
-91.48353
 21
-68.97659
  0
LINE
  8
0
  6
CONTINUOUS
 62
     7
 10
-94.0903
 20
-68.0152
 11
-94.0903
 21
-67.43019
  0
LINE
  8
0
  6
CONTINUOUS
 62
     7
 10
-91.48344
 20
-67.43018
 11
-92.32291
 21
-67.82165
  0
LINE
  8
0
  6
CONTINUOUS
 62
     7
 10
-91.48351
 20
-68.01517
 11
-93.54522
 21
-68.97657
  0
LINE
  8
0
  6
CONTINUOUS
 62
     7
 10
-91.48353
 20
-68.0152
 11
-91.48353
 21
-67.43019
  0
LINE
  8
0
  6
CONTINUOUS
 62
     7
 10
-93.02981
 20
-67.92464
 11
-94.09022
 21
-67.43017
  0
LINE
  8
0
  6
CONTINUOUS
 62
     7
 10
-93.41419
 20
-68.33043
 11
-94.09031
 21
-68.01515
  0
LINE
  8
0
  6
CONTINUOUS
 62
     7
 10
-94.0903
 20
-69.15332
 11
-94.0903
 21
-68.87093
  0
LINE
  8
0
  6
CONTINUOUS
 62
     7
 10
-92.32301
 20
-69.90001
 11
-92.32301
 21
-69.50679
  0
LINE
  8
0
  6
CONTINUOUS
 62
     7
 10
-93.02992
 20
-69.90001
 11
-93.02992
 21
-69.50677
  0
LINE
  8
0
  6
CONTINUOUS
 62
     7
 10
-93.02987
 20
-69.50678
 11
-93.73679
 21
-69.50678
  0
LINE
  8
0
  6
CONTINUOUS
 62
     7
 10
-92.32301
 20
-67.82164
 11
-92.32301
 21
-66.90001
  0
LINE
  8
0
  6
CONTINUOUS
 62
     7
 10
-93.02992
 20
-67.92465
 11
-93.02992
 21
-66.90001
  0
LINE
  8
0
  6
CONTINUOUS
 62
     7
 10
-93.41419
 20
-68.33043
 11
-93.88622
 21
-68.55054
  0
LINE
  8
0
  6
CONTINUOUS
 62
     7
 10
-96.47613
 20
-69.74094
 11
-97.00631
 21
-69.74094
  0
LINE
  8
0
  6
CONTINUOUS
 62
     7
 10
-94.31122
 20
-68.64575
 11
-94.31122
 21
-68.07517
  0
LINE
  8
0
  6
CONTINUOUS
 62
     7
 10
-97.00637
 20
-69.74094
 11
-97.00637
 21
-69.50678
  0
LINE
  8
0
  6
CONTINUOUS
 62
     7
 10
-96.47618
 20
-69.74095
 11
-96.47618
 21
-69.62669
  0
LINE
  8
0
  6
CONTINUOUS
 62
     7
 10
-95.76926
 20
-68.65504
 11
-95.76926
 21
-66.90001
  0
LINE
  8
0
  6
CONTINUOUS
 62
     7
 10
-94.31121
 20
-68.64571
 11
-96.36475
 21
-69.46243
  0
LINE
  8
0
  6
CONTINUOUS
 62
     7
 10
-94.3112
 20
-68.07516
 11
-95.76923
 21
-68.65504
  0
LINE
  8
0
  6
CONTINUOUS
 62
     7
 10
-95.7692
 20
-66.9
 11
-96.47613
 21
-66.9
  0
LINE
  8
0
  6
CONTINUOUS
 62
     7
 10
-96.47618
 20
-68.9362
 11
-96.47618
 21
-66.90001
  0
LINE
  8
0
  6
CONTINUOUS
 62
     7
 10
-96.47619
 20
-68.93615
 11
-96.67211
 21
-69.01408
  0
LINE
  8
0
  6
CONTINUOUS
 62
     7
 10
-89.3271
 20
-69.9
 11
-89.87598
 21
-69.9
  0
LINE
  8
0
  6
CONTINUOUS
 62
     7
 10
-90.75446
 20
-69.9
 11
-90.98045
 21
-69.9
  0
LINE
  8
0
  6
CONTINUOUS
 62
     7
 10
-92.32295
 20
-69.9
 11
-93.02987
 21
-69.9
  0
LINE
  8
0
  6
CONTINUOUS
 62
     7
 10
-90.75446
 20
-69.54653
 11
-90.98045
 21
-69.54653
  0
LINE
  8
0
  6
CONTINUOUS
 62
     7
 10
-90.75452
 20
-69.90001
 11
-90.75452
 21
-69.54654
  0
LINE
  8
0
  6
CONTINUOUS
 62
     7
 10
-90.98051
 20
-69.90001
 11
-90.98051
 21
-69.54654
  0
LINE
  8
0
  6
CONTINUOUS
 62
     7
 10
-91.13826
 20
-69.90001
 11
-91.13826
 21
-69.54654
  0
LINE
  8
0
  6
CONTINUOUS
 62
     7
 10
-91.36424
 20
-69.90001
 11
-91.36424
 21
-69.54654
  0
LINE
  8
0
  6
CONTINUOUS
 62
     7
 10
-91.1382
 20
-69.9
 11
-91.3642
 21
-69.9
  0
LINE
  8
0
  6
CONTINUOUS
 62
     7
 10
-91.1382
 20
-69.54653
 11
-91.3642
 21
-69.54653
  0
LINE
  8
0
  6
CONTINUOUS
 62
     7
 10
-83.71838
 20
-74.39999
 11
-84.71838
 21
-76.39999
  0
LINE
  8
0
  6
CONTINUOUS
 62
     7
 10
-84.46846
 20
-75.69373
 11
-84.46846
 21
-74.99998
  0
LINE
  8
0
  6
CENTER
 62
     2
 10
-86.71844
 20
-79.4
 11
-86.71844
 21
-71.4
  0
LINE
  8
0
  6
CONTINUOUS
 62
     7
 10
-84.71838
 20
-76.4
 11
-84.89262
 21
-76.4
  0
LINE
  8
0
  6
CONTINUOUS
 62
     7
 10
-88.96846
 20
-75.69373
 11
-88.96846
 21
-74.99998
  0
LINE
  8
0
  6
CONTINUOUS
 62
     7
 10
-88.54412
 20
-76.4
 11
-97.71838
 21
-76.4
  0
LINE
  8
0
  6
CENTER
 62
     2
 10
-95.71844
 20
-79.40001
 11
-95.71844
 21
-71.4
  0
LINE
  8
0
  6
CONTINUOUS
 62
     7
 10
-98.71836
 20
-74.4
 11
-97.71835
 21
-76.4
  0
LINE
  8
0
  6
CONTINUOUS
 62
     7
 10
-83.71837
 20
-74.39999
 11
-98.71838
 21
-74.39999
  0
LINE
  8
0
  6
CONTINUOUS
 62
     7
 10
-83.71838
 20
-73.4
 11
-98.71838
 21
-73.4
  0
LINE
  8
0
  6
CONTINUOUS
 62
     7
 10
-89.26838
 20
-74.99999
 11
-84.16838
 21
-74.99999
  0
LINE
  8
0
  6
CONTINUOUS
 62
     7
 10
-89.26843
 20
-74.99998
 11
-89.26843
 21
-74.39999
  0
LINE
  8
0
  6
CONTINUOUS
 62
     7
 10
-84.16843
 20
-74.99998
 11
-84.16843
 21
-74.39999
  0
LINE
  8
0
  6
CENTER
 62
     2
 10
-87.05173
 20
-39.9
 11
-95.38506
 21
-39.9
  0
LINE
  8
0
  6
CONTINUOUS
 62
     7
 10
-92.63261
 20
-41.31421
 11
-89.80418
 21
-38.48578
  0
LINE
  8
0
  6
CONTINUOUS
 62
     7
 10
-92.63261
 20
-38.4858
 11
-89.80419
 21
-41.31422
  0
LINE
  8
0
  6
CONTINUOUS
 62
     7
 10
-91.73605
 20
-37.96815
 11
-89.28656
 21
-40.41764
  0
LINE
  8
0
  6
CONTINUOUS
 62
     7
 10
-93.15025
 20
-39.38237
 11
-90.70077
 21
-41.83186
  0
LINE
  8
0
  6
CONTINUOUS
 62
     7
 10
-93.15024
 20
-40.41764
 11
-90.70075
 21
-37.96815
  0
LINE
  8
0
  6
CONTINUOUS
 62
     7
 10
-91.73602
 20
-41.83185
 11
-89.28654
 21
-39.38236
  0
LINE
  8
0
  6
CENTER
 62
     2
 10
-91.71839
 20
-3.0
 11
-91.71839
 21
-15.1646
  0
LINE
  8
0
  6
CENTER
 62
     2
 10
-90.71839
 20
23.02301
 11
-90.71839
 21
11.16637
  0
LINE
  8
0
  6
CONTINUOUS
 62
     7
 10
10.5
 20
-105.1396
 11
12.0
 21
-105.1396
  0
LINE
  8
0
  6
CONTINUOUS
 62
     7
 10
11.0
 20
-105.1396
 11
11.0
 21
-110.1396
  0
LINE
  8
0
  6
CONTINUOUS
 62
     7
 10
12.0
 20
-99.13962
 11
12.0
 21
-93.63962
  0
LINE
  8
0
  6
CENTER
 62
     2
 10
-17.39624
 20
-102.1396
 11
14.42633
 21
-102.1396
  0
LINE
  8
0
  6
CONTINUOUS
 62
     7
 10
-14.5
 20
-93.13962
 11
11.5
 21
-93.13962
  0
LINE
  8
0
  6
CONTINUOUS
 62
     7
 10
-14.5
 20
-111.1396
 11
11.5
 21
-111.1396
  0
LINE
  8
0
  6
CONTINUOUS
 62
     7
 10
12.0
 20
-110.6396
 11
12.0
 21
-105.1396
  0
LINE
  8
0
  6
CONTINUOUS
 62
     7
 10
-15.0
 20
-110.6396
 11
-15.0
 21
-93.63962
  0
LINE
  8
0
  6
CENTER
 62
     2
 10
35.5
 20
-103.4396
 11
11.4031
 21
-103.4396
  0
LINE
  8
0
  6
CONTINUOUS
 62
     7
 10
22.5
 20
-102.5896
 11
18.15588
 21
-102.5896
  0
LINE
  8
0
  6
CONTINUOUS
 62
     7
 10
22.5
 20
-104.2896
 11
17.70037
 21
-104.2896
  0
LINE
  8
0
  6
CONTINUOUS
 62
     7
 10
32.5
 20
-103.1196
 11
22.5
 21
-103.1196
  0
LINE
  8
0
  6
CONTINUOUS
 62
     7
 10
32.5
 20
-103.7596
 11
22.5
 21
-103.7596
  0
LINE
  8
0
  6
CONTINUOUS
 62
     7
 10
22.5
 20
-104.2896
 11
22.5
 21
-102.5896
  0
LINE
  8
0
  6
CONTINUOUS
 62
     7
 10
32.5
 20
-103.7596
 11
32.5
 21
-103.1196
  0
LINE
  8
0
  6
CENTER
 62
     2
 10
35.5
 20
-100.8396
 11
11.46549
 21
-100.8396
  0
LINE
  8
0
  6
CONTINUOUS
 62
     7
 10
22.5
 20
-99.98962
 11
18.85255
 21
-99.98962
  0
LINE
  8
0
  6
CONTINUOUS
 62
     7
 10
22.5
 20
-101.6896
 11
18.39703
 21
-101.6896
  0
LINE
  8
0
  6
CONTINUOUS
 62
     7
 10
32.5
 20
-100.5196
 11
22.5
 21
-100.5196
  0
LINE
  8
0
  6
CONTINUOUS
 62
     7
 10
32.5
 20
-101.1596
 11
22.5
 21
-101.1596
  0
LINE
  8
0
  6
CONTINUOUS
 62
     7
 10
22.5
 20
-101.6896
 11
22.5
 21
-99.98961
  0
LINE
  8
0
  6
CONTINUOUS
 62
     7
 10
32.5
 20
-101.1596
 11
32.5
 21
-100.5196
  0
LINE
  8
0
  6
PHANTOM
 62
     2
 10
17.83554
 20
-97.98962
 11
15.61156
 21
-106.2896
  0
LINE
  8
0
  6
PHANTOM
 62
     2
 10
19.38845
 20
-97.98963
 11
17.16447
 21
-106.2896
  0
LINE
  8
0
  6
CONTINUOUS
 62
     7
 10
17.29963
 20
-99.98962
 11
12.5
 21
-99.98962
  0
LINE
  8
0
  6
CONTINUOUS
 62
     7
 10
16.84412
 20
-101.6896
 11
12.5
 21
-101.6896
  0
LINE
  8
0
  6
CONTINUOUS
 62
     7
 10
16.60297
 20
-102.5896
 11
12.5
 21
-102.5896
  0
LINE
  8
0
  6
CONTINUOUS
 62
     7
 10
16.14745
 20
-104.2896
 11
12.5
 21
-104.2896
  0
LINE
  8
0
  6
CENTER
 62
     2
 10
-1.5
 20
-113.8896
 11
-1.5
 21
-89.91219
  0
LINE
  8
0
  6
CONTINUOUS
 62
     7
 10
12.5
 20
-104.6396
 11
12.5
 21
-99.63962
  0
LINE
  8
0
  6
CONTINUOUS
 62
     7
 10
-13.99998
 20
-94.13962
 11
11.0
 21
-94.13962
  0
LINE
  8
0
  6
CONTINUOUS
 62
     7
 10
-13.99998
 20
-110.1396
 11
11.0
 21
-110.1396
  0
LINE
  8
0
  6
CONTINUOUS
 62
     7
 10
-13.99998
 20
-94.13962
 11
-13.99998
 21
-110.1396
  0
LINE
  8
0
  6
CONTINUOUS
 62
     7
 10
11.0
 20
-94.13962
 11
11.0
 21
-99.13962
  0
LINE
  8
0
  6
CONTINUOUS
 62
     7
 10
10.99999
 20
-110.1396
 11
11.85353
 21
-110.9932
  0
LINE
  8
0
  6
CONTINUOUS
 62
     7
 10
-14.00001
 20
-110.1396
 11
-14.85356
 21
-110.9932
  0
LINE
  8
0
  6
CONTINUOUS
 62
     7
 10
11.00001
 20
-94.13961
 11
11.85356
 21
-93.28606
  0
LINE
  8
0
  6
CONTINUOUS
 62
     7
 10
-14.0
 20
-94.1396
 11
-14.85355
 21
-93.28606
  0
LINE
  8
0
  6
CONTINUOUS
 62
     7
 10
10.5
 20
-99.13962
 11
12.0
 21
-99.13962
  0
LINE
  8
0
  6
CONTINUOUS
 62
     7
 10
7.5
 20
-103.6396
 11
10.5
 21
-103.6396
  0
LINE
  8
0
  6
CONTINUOUS
 62
     7
 10
-10.5
 20
-100.6396
 11
-13.5
 21
-100.6396
  0
LINE
  8
0
  6
CONTINUOUS
 62
     7
 10
-7.5
 20
-97.63962
 11
-7.5
 21
-94.63962
  0
LINE
  8
0
  6
CONTINUOUS
 62
     7
 10
4.5
 20
-106.6396
 11
4.5
 21
-109.6396
  0
LINE
  8
0
  6
CONTINUOUS
 62
     7
 10
-12.5
 20
-100.6396
 11
-12.5
 21
-108.6396
  0
LINE
  8
0
  6
CONTINUOUS
 62
     7
 10
9.5
 20
-95.63962
 11
9.5
 21
-103.6396
  0
LINE
  8
0
  6
CONTINUOUS
 62
     7
 10
-7.5
 20
-95.63962
 11
9.5
 21
-95.63962
  0
LINE
  8
0
  6
CONTINUOUS
 62
     7
 10
-12.5
 20
-108.6396
 11
4.5
 21
-108.6396
  0
LINE
  8
0
  6
CONTINUOUS
 62
     7
 10
7.8
 20
-108.8695
 11
7.8
 21
-109.1719
  0
LINE
  8
0
  6
CONTINUOUS
 62
     7
 10
7.2
 20
-108.8695
 11
7.2
 21
-109.1719
  0
LINE
  8
0
  6
CONTINUOUS
 62
     7
 10
7.03923
 20
-109.1476
 11
7.03923
 21
-108.8419
  0
LINE
  8
0
  6
CONTINUOUS
 62
     7
 10
-10.8
 20
-95.40971
 11
-10.8
 21
-95.10732
  0
LINE
  8
0
  6
CONTINUOUS
 62
     7
 10
-10.2
 20
-95.40971
 11
-10.2
 21
-95.10733
  0
LINE
  8
0
  6
CONTINUOUS
 62
     7
 10
-10.03923
 20
-95.13159
 11
-10.03923
 21
-95.4373
  0
LINE
  8
0
  6
CONTINUOUS
 62
     7
 10
6.39692
 20
-107.375
 11
6.76462
 21
-107.0073
  0
LINE
  8
0
  6
CONTINUOUS
 62
     7
 10
6.76461
 20
-107.7427
 11
7.13231
 21
-107.375
  0
LINE
  8
0
  6
CONTINUOUS
 62
     7
 10
6.39693
 20
-107.375
 11
6.76463
 21
-107.7427
  0
LINE
  8
0
  6
CONTINUOUS
 62
     7
 10
8.23541
 20
-105.5365
 11
8.60311
 21
-105.9042
  0
LINE
  8
0
  6
CONTINUOUS
 62
     7
 10
5.73584
 20
-105.2431
 11
6.76463
 21
-106.2719
  0
LINE
  8
0
  6
CONTINUOUS
 62
     7
 10
6.10352
 20
-104.8754
 11
7.13232
 21
-105.9042
  0
LINE
  8
0
  6
CONTINUOUS
 62
     7
 10
7.86771
 20
-105.9042
 11
8.2354
 21
-105.5365
  0
LINE
  8
0
  6
CONTINUOUS
 62
     7
 10
8.23539
 20
-106.2719
 11
8.60309
 21
-105.9042
  0
LINE
  8
0
  6
CONTINUOUS
 62
     7
 10
7.86772
 20
-107.375
 11
8.89651
 21
-108.4038
  0
LINE
  8
0
  6
CONTINUOUS
 62
     7
 10
8.2354
 20
-107.0073
 11
9.26419
 21
-108.0361
  0
LINE
  8
0
  6
CONTINUOUS
 62
     7
 10
-11.60309
 20
-98.37499
 11
-11.23539
 21
-98.0073
  0
LINE
  8
0
  6
CONTINUOUS
 62
     7
 10
-11.23539
 20
-98.7427
 11
-10.8677
 21
-98.37501
  0
LINE
  8
0
  6
CONTINUOUS
 62
     7
 10
-11.60308
 20
-98.37501
 11
-11.23538
 21
-98.7427
  0
LINE
  8
0
  6
CONTINUOUS
 62
     7
 10
-9.76459
 20
-96.53653
 11
-9.3969
 21
-96.90422
  0
LINE
  8
0
  6
CONTINUOUS
 62
     7
 10
-12.26417
 20
-96.24312
 11
-11.23538
 21
-97.2719
  0
LINE
  8
0
  6
CONTINUOUS
 62
     7
 10
-11.89647
 20
-95.87542
 11
-10.86768
 21
-96.90421
  0
LINE
  8
0
  6
CONTINUOUS
 62
     7
 10
-10.1323
 20
-96.90421
 11
-9.76461
 21
-96.53652
  0
LINE
  8
0
  6
CONTINUOUS
 62
     7
 10
-9.76462
 20
-97.27192
 11
-9.39692
 21
-96.90422
  0
LINE
  8
0
  6
CONTINUOUS
 62
     7
 10
-10.1323
 20
-98.37499
 11
-9.1035
 21
-99.40379
  0
LINE
  8
0
  6
CONTINUOUS
 62
     7
 10
-9.7646
 20
-98.00729
 11
-8.7358
 21
-99.03609
  0
LINE
  8
0
  6
CENTER
 62
     2
 10
7.5
 20
-102.6396
 11
7.5
 21
-110.6396
  0
LINE
  8
0
  6
CENTER
 62
     2
 10
-10.5
 20
-93.63962
 11
-10.5
 21
-101.6396
  0
LINE
  8
0
  6
CENTER
 62
     2
 10
-14.5
 20
-97.63962
 11
-6.5
 21
-97.63962
  0
LINE
  8
0
  6
CENTER
 62
     2
 10
3.5
 20
-106.6396
 11
11.5
 21
-106.6396
  0
LINE
  8
0
  6
CONTINUOUS
 62
     7
 10
-13.5
 20
-95.13962
 11
-13.5
 21
-109.1396
  0
LINE
  8
0
  6
CONTINUOUS
 62
     7
 10
-13.0
 20
-94.63962
 11
10.5
 21
-94.63962
  0
LINE
  8
0
  6
CONTINUOUS
 62
     7
 10
-13.0
 20
-109.6396
 11
10.5
 21
-109.6396
  0
LINE
  8
0
  6
CONTINUOUS
 62
     7
 10
10.5
 20
-94.63962
 11
10.5
 21
-109.6396
  0
ARC
  8
0
  6
CONTINUOUS
 62
     7
 10
136.5177
 20
-117.5228
 40
1.10594
 50
0.0
 51
89.99999
  0
ARC
  8
0
  6
CONTINUOUS
 62
     7
 10
145.6418
 20
-123.4673
 40
1.10595
 50
270.0
 51
0.0
  0
ARC
  8
0
  6
CONTINUOUS
 62
     7
 10
145.0888
 20
-118.0758
 40
1.65892
 50
0.0
 51
89.99999
  0
ARC
  8
0
  6
CONTINUOUS
 62
     7
 10
155.1806
 20
-117.5228
 40
1.10594
 50
0.0
 51
89.99999
  0
ARC
  8
0
  6
CONTINUOUS
 62
     7
 10
155.1806
 20
-118.4064
 40
1.10595
 50
295.0
 51
0.0
  0
ARC
  8
0
  6
CONTINUOUS
 62
     7
 10
163.7517
 20
-116.4169
 40
1.65892
 50
291.6884
 51
0.0
  0
ARC
  8
0
  6
CONTINUOUS
 62
     7
 10
163.1987
 20
-116.0417
 40
0.55297
 50
291.689
 51
0.0
  0
ARC
  8
0
  6
CONTINUOUS
 62
     7
 10
-14.5
 20
88.63962
 40
0.5
 50
180.0
 51
270.0
  0
ARC
  8
0
  6
CONTINUOUS
 62
     7
 10
11.5
 20
88.63962
 40
0.5
 50
270.0
 51
0.0
  0
ARC
  8
0
  6
CONTINUOUS
 62
     7
 10
11.5
 20
105.6396
 40
0.5
 50
0.0
 51
89.99989
  0
ARC
  8
0
  6
CONTINUOUS
 62
     7
 10
-14.5
 20
105.6396
 40
0.5
 50
89.99989
 51
180.0
  0
ARC
  8
0
  6
CONTINUOUS
 62
     7
 10
12.0
 20
94.63962
 40
0.5
 50
270.0
 51
0.0
  0
ARC
  8
0
  6
CONTINUOUS
 62
     7
 10
12.0
 20
99.63962
 40
0.5
 50
0.0
 51
89.99989
  0
ARC
  8
0
  6
CONTINUOUS
 62
     7
 10
7.5
 20
92.63962
 40
3.0
 50
89.99998
 51
180.0
  0
ARC
  8
0
  6
CONTINUOUS
 62
     7
 10
-10.5
 20
101.6396
 40
3.0
 50
270.0
 51
0.0
  0
ARC
  8
0
  6
CONTINUOUS
 62
     7
 10
7.5
 20
92.63962
 40
2.55
 50
276.7563
 51
263.2437
  0
ARC
  8
0
  6
CONTINUOUS
 62
     7
 10
-10.5
 20
101.6396
 40
2.55
 50
96.75634
 51
83.24372
  0
CIRCLE
  8
0
  6
CONTINUOUS
 62
     7
 10
7.5
 20
92.63962
 40
2.25
  0
ARC
  8
0
  6
CONTINUOUS
 62
     7
 10
7.5
 20
93.74271
 40
0.52
 50
225.0002
 51
314.9998
  0
ARC
  8
0
  6
CONTINUOUS
 62
     7
 10
6.39691
 20
92.63962
 40
0.52
 50
314.9998
 51
45.00026
  0
ARC
  8
0
  6
CONTINUOUS
 62
     7
 10
8.60309
 20
92.63962
 40
0.52
 50
134.9998
 51
225.0002
  0
ARC
  8
0
  6
CONTINUOUS
 62
     7
 10
7.5
 20
91.53653
 40
0.52
 50
45.00026
 51
134.9997
  0
CIRCLE
  8
0
  6
CONTINUOUS
 62
     7
 10
-10.5
 20
101.6396
 40
2.25
  0
ARC
  8
0
  6
CONTINUOUS
 62
     7
 10
-10.5
 20
102.7427
 40
0.52
 50
225.0002
 51
314.9998
  0
ARC
  8
0
  6
CONTINUOUS
 62
     7
 10
-11.60309
 20
101.6396
 40
0.52
 50
314.9998
 51
45.00022
  0
ARC
  8
0
  6
CONTINUOUS
 62
     7
 10
-9.39691
 20
101.6396
 40
0.52
 50
134.9998
 51
225.0002
  0
ARC
  8
0
  6
CONTINUOUS
 62
     7
 10
-10.5
 20
100.5365
 40
0.52
 50
45.00022
 51
134.9998
  0
ARC
  8
0
  6
CONTINUOUS
 62
     7
 10
-13.0
 20
104.1396
 40
0.5
 50
89.99999
 51
180.0
  0
ARC
  8
0
  6
CONTINUOUS
 62
     7
 10
-13.0
 20
90.13962
 40
0.5
 50
180.0
 51
270.0
  0
ARC
  8
0
  6
CONTINUOUS
 62
     7
 10
7.5
 20
68.5
 40
6.0
 50
73.80869
 51
106.1913
  0
ARC
  8
0
  6
CONTINUOUS
 62
     7
 10
8.95
 20
73.49374
 40
0.8
 50
0.0
 51
73.80873
  0
ARC
  8
0
  6
CONTINUOUS
 62
     7
 10
6.05
 20
73.49374
 40
0.8
 50
106.1913
 51
180.0
  0
ARC
  8
0
  6
CONTINUOUS
 62
     7
 10
-10.5
 20
68.49998
 40
6.0
 50
73.80865
 51
106.1913
  0
ARC
  8
0
  6
CONTINUOUS
 62
     7
 10
-11.95
 20
73.49373
 40
0.8
 50
106.1913
 51
118.0138
  0
ARC
  8
0
  6
CONTINUOUS
 62
     7
 10
-9.05
 20
73.49374
 40
0.8
 50
61.98621
 51
73.80879
  0
ARC
  8
0
  6
CONTINUOUS
 62
     7
 10
-10.49999
 20
-70.7
 40
6.0
 50
253.8087
 51
286.1913
  0
ARC
  8
0
  6
CONTINUOUS
 62
     7
 10
-11.94999
 20
-75.69375
 40
0.8
 50
180.0
 51
253.8088
  0
ARC
  8
0
  6
CONTINUOUS
 62
     7
 10
-9.04998
 20
-75.69375
 40
0.8
 50
286.1914
 51
0.0
  0
ARC
  8
0
  6
CONTINUOUS
 62
     7
 10
7.50002
 20
-70.69998
 40
6.0
 50
253.8087
 51
286.1913
  0
ARC
  8
0
  6
CONTINUOUS
 62
     7
 10
8.95002
 20
-75.69373
 40
0.8
 50
286.1914
 51
298.0138
  0
ARC
  8
0
  6
CONTINUOUS
 62
     7
 10
6.05001
 20
-75.69373
 40
0.8
 50
241.9862
 51
253.8088
  0
CIRCLE
  8
0
  6
CONTINUOUS
 62
     7
 10
6.0
 20
19.0
 40
1.6
  0
CIRCLE
  8
0
  6
CONTINUOUS
 62
     7
 10
6.0
 20
-11.0
 40
1.6
  0
ARC
  8
0
  6
CONTINUOUS
 62
     7
 10
12.0
 20
-67.39999
 40
0.5
 50
270.0
 51
0.0
  0
ARC
  8
0
  6
CONTINUOUS
 62
     7
 10
12.0
 20
-65.0
 40
0.5
 50
0.0
 51
89.99999
  0
ARC
  8
0
  6
CONTINUOUS
 62
     7
 10
12.0
 20
62.8
 40
0.5
 50
270.0
 51
0.0
  0
ARC
  8
0
  6
CONTINUOUS
 62
     7
 10
12.0
 20
65.2
 40
0.5
 50
0.0
 51
89.99999
  0
CIRCLE
  8
0
  6
CONTINUOUS
 62
     7
 10
84.71838
 20
-11.0
 40
1.6
  0
CIRCLE
  8
0
  6
CONTINUOUS
 62
     7
 10
97.71839
 20
19.0
 40
1.6
  0
ARC
  8
0
  6
CONTINUOUS
 62
     7
 10
97.71839
 20
19.0
 40
3.0
 50
33.5573
 51
326.4427
  0
ARC
  8
0
  6
CONTINUOUS
 62
     7
 10
84.71838
 20
-11.0
 40
3.0
 50
0.0
 51
146.4427
  0
ARC
  8
0
  6
CONTINUOUS
 62
     7
 10
84.71838
 20
-11.0
 40
3.0
 50
213.5573
 51
0.0
  0
CIRCLE
  8
0
  6
CONTINUOUS
 62
     7
 10
91.2184
 20
42.5
 40
1.65
  0
ARC
  8
0
  6
CONTINUOUS
 62
     7
 10
86.71841
 20
68.49999
 40
6.0
 50
73.80869
 51
106.1913
  0
ARC
  8
0
  6
CONTINUOUS
 62
     7
 10
88.1684
 20
73.49374
 40
0.8
 50
0.0
 51
73.80879
  0
ARC
  8
0
  6
CONTINUOUS
 62
     7
 10
85.26841
 20
73.49374
 40
0.8
 50
106.1912
 51
180.0
  0
ARC
  8
0
  6
CONTINUOUS
 62
     7
 10
95.71841
 20
68.49998
 40
6.0
 50
73.80862
 51
106.1913
  0
ARC
  8
0
  6
CONTINUOUS
 62
     7
 10
94.26841
 20
73.49373
 40
0.8
 50
106.1912
 51
118.0138
  0
ARC
  8
0
  6
CONTINUOUS
 62
     7
 10
97.1684
 20
73.49374
 40
0.8
 50
61.98621
 51
73.80879
  0
CIRCLE
  8
0
  6
CONTINUOUS
 62
     7
 10
90.71838
 20
-4.0
 40
4.86435
  0
CIRCLE
  8
0
  6
CONTINUOUS
 62
     7
 10
90.71838
 20
-4.0
 40
4.28325
  0
CIRCLE
  8
0
  6
CONTINUOUS
 62
     7
 10
91.71839
 20
12.0
 40
4.86435
  0
CIRCLE
  8
0
  6
CONTINUOUS
 62
     7
 10
91.71839
 20
12.0
 40
4.28325
  0
ARC
  8
0
  6
CONTINUOUS
 62
     7
 10
95.71838
 20
-70.69998
 40
6.0
 50
253.8087
 51
286.1914
  0
ARC
  8
0
  6
CONTINUOUS
 62
     7
 10
94.26838
 20
-75.69373
 40
0.8
 50
180.0
 51
253.8088
  0
ARC
  8
0
  6
CONTINUOUS
 62
     7
 10
97.16837
 20
-75.69373
 40
0.8
 50
286.1913
 51
0.0
  0
ARC
  8
0
  6
CONTINUOUS
 62
     7
 10
86.71838
 20
-70.69998
 40
6.0
 50
253.8087
 51
286.1914
  0
ARC
  8
0
  6
CONTINUOUS
 62
     7
 10
88.16837
 20
-75.69373
 40
0.8
 50
286.1913
 51
298.0138
  0
ARC
  8
0
  6
CONTINUOUS
 62
     7
 10
85.26838
 20
-75.69373
 40
0.8
 50
241.9862
 51
253.8088
  0
CIRCLE
  8
0
  6
CONTINUOUS
 62
     7
 10
91.21837
 20
-44.7
 40
1.65
  0
CIRCLE
  8
0
  6
CONTINUOUS
 62
     7
 10
89.9184
 20
64.0
 40
0.85
  0
ARC
  8
0
  6
CONTINUOUS
 62
     7
 10
89.9184
 20
64.0
 40
1.7
 50
89.99999
 51
270.0
  0
ARC
  8
0
  6
CONTINUOUS
 62
     7
 10
92.51841
 20
64.0
 40
1.7
 50
270.0
 51
89.99999
  0
CIRCLE
  8
0
  6
CONTINUOUS
 62
     7
 10
92.51841
 20
64.0
 40
0.85
  0
CIRCLE
  8
0
  6
CONTINUOUS
 62
     7
 10
89.91838
 20
-66.2
 40
0.85
  0
ARC
  8
0
  6
CONTINUOUS
 62
     7
 10
89.91838
 20
-66.2
 40
1.7
 50
89.99999
 51
270.0
  0
ARC
  8
0
  6
CONTINUOUS
 62
     7
 10
92.51839
 20
-66.2
 40
1.7
 50
270.0
 51
89.99999
  0
CIRCLE
  8
0
  6
CONTINUOUS
 62
     7
 10
92.51839
 20
-66.2
 40
0.85
  0
CIRCLE
  8
0
  6
CONTINUOUS
 62
     7
 10
-84.71839
 20
-11.0
 40
1.6
  0
CIRCLE
  8
0
  6
CONTINUOUS
 62
     7
 10
-97.71839
 20
19.0
 40
1.6
  0
CIRCLE
  8
0
  6
CONTINUOUS
 62
     7
 10
-91.21839
 20
37.7
 40
2.65
  0
ARC
  8
0
  6
CONTINUOUS
 62
     7
 10
-94.66464
 20
66.95332
 40
0.35346
 50
0.0
 51
89.99999
  0
ARC
  8
0
  6
CONTINUOUS
 62
     7
 10
-91.74857
 20
65.05345
 40
0.35346
 50
270.0
 51
0.0
  0
ARC
  8
0
  6
CONTINUOUS
 62
     7
 10
-91.92532
 20
66.77659
 40
0.53019
 50
0.0
 51
89.99999
  0
ARC
  8
0
  6
CONTINUOUS
 62
     7
 10
-88.69998
 20
66.95332
 40
0.35346
 50
0.0
 51
89.99999
  0
ARC
  8
0
  6
CONTINUOUS
 62
     7
 10
-88.69998
 20
66.67093
 40
0.35346
 50
294.9996
 51
0.0
  0
ARC
  8
0
  6
CONTINUOUS
 62
     7
 10
-85.96065
 20
67.30678
 40
0.53019
 50
291.6884
 51
0.0
  0
ARC
  8
0
  6
CONTINUOUS
 62
     7
 10
-86.13739
 20
67.42669
 40
0.17673
 50
291.6889
 51
0.0
  0
ARC
  8
0
  6
CONTINUOUS
 62
     7
 10
-97.16839
 20
73.49373
 40
0.8
 50
106.1912
 51
180.0
  0
ARC
  8
0
  6
CONTINUOUS
 62
     7
 10
-95.71839
 20
68.49998
 40
6.0
 50
73.80869
 51
106.1913
  0
ARC
  8
0
  6
CONTINUOUS
 62
     7
 10
-94.26839
 20
73.49374
 40
0.8
 50
0.0
 51
73.80879
  0
ARC
  8
0
  6
CONTINUOUS
 62
     7
 10
-86.71839
 20
68.49998
 40
6.0
 50
73.80862
 51
106.1913
  0
ARC
  8
0
  6
CONTINUOUS
 62
     7
 10
-88.1684
 20
73.49373
 40
0.8
 50
106.1912
 51
118.0138
  0
ARC
  8
0
  6
CONTINUOUS
 62
     7
 10
-85.26839
 20
73.49374
 40
0.8
 50
61.98621
 51
73.80879
  0
CIRCLE
  8
0
  6
CONTINUOUS
 62
     7
 10
-90.71839
 20
17.2
 40
4.86435
  0
CIRCLE
  8
0
  6
CONTINUOUS
 62
     7
 10
-90.71839
 20
17.2
 40
4.28325
  0
CIRCLE
  8
0
  6
CONTINUOUS
 62
     7
 10
-91.71839
 20
-9.2
 40
4.86435
  0
CIRCLE
  8
0
  6
CONTINUOUS
 62
     7
 10
-91.71839
 20
-9.2
 40
4.28325
  0
CIRCLE
  8
0
  6
CONTINUOUS
 62
     7
 10
-91.21839
 20
4.0
 40
4.86435
  0
CIRCLE
  8
0
  6
CONTINUOUS
 62
     7
 10
-91.21839
 20
4.0
 40
4.28325
  0
CIRCLE
  8
0
  6
CONTINUOUS
 62
     7
 10
-91.21839
 20
37.7
 40
2.0
  0
ARC
  8
0
  6
CONTINUOUS
 62
     7
 10
-87.77213
 20
-69.15331
 40
0.35346
 50
180.0
 51
270.0
  0
ARC
  8
0
  6
CONTINUOUS
 62
     7
 10
-90.68819
 20
-67.25345
 40
0.35346
 50
89.99999
 51
180.0
  0
ARC
  8
0
  6
CONTINUOUS
 62
     7
 10
-90.51144
 20
-68.97659
 40
0.53019
 50
180.0
 51
270.0
  0
ARC
  8
0
  6
CONTINUOUS
 62
     7
 10
-93.73679
 20
-69.15332
 40
0.35346
 50
180.0
 51
270.0
  0
ARC
  8
0
  6
CONTINUOUS
 62
     7
 10
-93.73679
 20
-68.87093
 40
0.35346
 50
114.9996
 51
180.0
  0
ARC
  8
0
  6
CONTINUOUS
 62
     7
 10
-96.47613
 20
-69.50677
 40
0.53019
 50
111.6884
 51
180.0
  0
ARC
  8
0
  6
CONTINUOUS
 62
     7
 10
-96.29939
 20
-69.62669
 40
0.17673
 50
111.6889
 51
180.0
  0
ARC
  8
0
  6
CONTINUOUS
 62
     7
 10
-85.26837
 20
-75.69373
 40
0.8
 50
286.1913
 51
0.0
  0
ARC
  8
0
  6
CONTINUOUS
 62
     7
 10
-86.71838
 20
-70.69998
 40
6.0
 50
253.8087
 51
286.1914
  0
ARC
  8
0
  6
CONTINUOUS
 62
     7
 10
-88.16837
 20
-75.69373
 40
0.8
 50
180.0
 51
253.8088
  0
ARC
  8
0
  6
CONTINUOUS
 62
     7
 10
-95.71838
 20
-70.69998
 40
6.0
 50
253.8087
 51
286.1914
  0
ARC
  8
0
  6
CONTINUOUS
 62
     7
 10
-94.26837
 20
-75.69373
 40
0.8
 50
286.1913
 51
298.0138
  0
ARC
  8
0
  6
CONTINUOUS
 62
     7
 10
-97.16837
 20
-75.69373
 40
0.8
 50
241.9862
 51
253.8088
  0
CIRCLE
  8
0
  6
CONTINUOUS
 62
     7
 10
-91.21839
 20
-39.9
 40
2.65
  0
CIRCLE
  8
0
  6
CONTINUOUS
 62
     7
 10
-91.21839
 20
-39.9
 40
2.0
  0
ARC
  8
0
  6
CONTINUOUS
 62
     7
 10
-14.5
 20
-110.6396
 40
0.5
 50
180.0
 51
270.0
  0
ARC
  8
0
  6
CONTINUOUS
 62
     7
 10
11.5
 20
-110.6396
 40
0.5
 50
270.0
 51
0.0
  0
ARC
  8
0
  6
CONTINUOUS
 62
     7
 10
11.5
 20
-93.63962
 40
0.5
 50
0.0
 51
89.99989
  0
ARC
  8
0
  6
CONTINUOUS
 62
     7
 10
-14.5
 20
-93.63962
 40
0.5
 50
89.99989
 51
180.0
  0
ARC
  8
0
  6
CONTINUOUS
 62
     7
 10
12.0
 20
-104.6396
 40
0.5
 50
270.0
 51
0.0
  0
ARC
  8
0
  6
CONTINUOUS
 62
     7
 10
12.0
 20
-99.63962
 40
0.5
 50
0.0
 51
89.99989
  0
ARC
  8
0
  6
CONTINUOUS
 62
     7
 10
7.5
 20
-106.6396
 40
3.0
 50
89.99998
 51
180.0
  0
ARC
  8
0
  6
CONTINUOUS
 62
     7
 10
-10.5
 20
-97.63962
 40
3.0
 50
270.0
 51
0.0
  0
ARC
  8
0
  6
CONTINUOUS
 62
     7
 10
7.5
 20
-106.6396
 40
2.55
 50
276.7563
 51
263.2437
  0
ARC
  8
0
  6
CONTINUOUS
 62
     7
 10
-10.5
 20
-97.63962
 40
2.55
 50
96.75634
 51
83.24372
  0
CIRCLE
  8
0
  6
CONTINUOUS
 62
     7
 10
7.5
 20
-106.6396
 40
2.25
  0
ARC
  8
0
  6
CONTINUOUS
 62
     7
 10
7.5
 20
-105.5365
 40
0.52
 50
225.0002
 51
314.9998
  0
ARC
  8
0
  6
CONTINUOUS
 62
     7
 10
6.39691
 20
-106.6396
 40
0.52
 50
314.9998
 51
45.00026
  0
ARC
  8
0
  6
CONTINUOUS
 62
     7
 10
8.60309
 20
-106.6396
 40
0.52
 50
134.9998
 51
225.0002
  0
ARC
  8
0
  6
CONTINUOUS
 62
     7
 10
7.5
 20
-107.7427
 40
0.52
 50
45.00026
 51
134.9997
  0
CIRCLE
  8
0
  6
CONTINUOUS
 62
     7
 10
-10.5
 20
-97.63962
 40
2.25
  0
ARC
  8
0
  6
CONTINUOUS
 62
     7
 10
-10.5
 20
-96.53653
 40
0.52
 50
225.0002
 51
314.9998
  0
ARC
  8
0
  6
CONTINUOUS
 62
     7
 10
-11.60309
 20
-97.63962
 40
0.52
 50
314.9998
 51
45.00022
  0
ARC
  8
0
  6
CONTINUOUS
 62
     7
 10
-9.39691
 20
-97.63962
 40
0.52
 50
134.9998
 51
225.0002
  0
ARC
  8
0
  6
CONTINUOUS
 62
     7
 10
-10.5
 20
-98.74271
 40
0.52
 50
45.00022
 51
134.9998
  0
ARC
  8
0
  6
CONTINUOUS
 62
     7
 10
-13.0
 20
-95.13962
 40
0.5
 50
89.99999
 51
180.0
  0
ARC
  8
0
  6
CONTINUOUS
 62
     7
 10
-13.0
 20
-109.1396
 40
0.5
 50
180.0
 51
270.0
  0
TEXT
  8
0
  6
CONTINUOUS
 62
     7
 10
114.5353
 20
118.1347
 40
4.24264
  1
DATE : AUG ,1989
 41
0.8
  7
STANDARD
  0
TEXT
  8
0
  6
CONTINUOUS
 62
     7
 10
-163.965
 20
117.7787
 40
5.0
  1
183-4E2
 41
0.8
  7
STANDARD
  0
TEXT
  8
0
  6
CONTINUOUS
 62
     7
 10
-162.1329
 20
91.31543
 40
5.0
  1
MODEL : 183-4E2
 41
0.8
  7
STANDARD
  0
TEXT
  8
0
  6
CONTINUOUS
 62
     7
 10
94.88696
 20
-10.94
 40
2.0
  1
B
 41
0.8
  7
STANDARD
  0
TEXT
  8
0
  6
CONTINUOUS
 62
     7
 10
84.94125
 20
17.06
 40
2.0
  1
A
 41
0.8
  7
STANDARD
  0
TEXT
  8
0
  6
CONTINUOUS
 62
     7
 10
-89.04982
 20
-15.94
 40
2.0
  1
R2
 41
0.8
  7
STANDARD
  0
TEXT
  8
0
  6
CONTINUOUS
 62
     7
 10
-87.04982
 20
-2.94
 40
2.0
  1
P
 41
0.8
  7
STANDARD
  0
TEXT
  8
0
  6
CONTINUOUS
 62
     7
 10
-97.04982
 20
22.06
 40
2.0
  1
R1
 41
0.8
  7
STANDARD
  0
ENDSEC
  0
EOF
