  0
SECTION
  2
HEADER
  0
ENDSEC
  0
SECTION
  2
TABLES
  0
TABLE
  2
LTYPE
 70
     4
  0
LTYPE
  2
CONTINUOUS
 70
    64
  3
Solid line
 72
    65
 73
     0
 40
0.000000
  0
LTYPE
  2
DASHED
 70
    64
  3
__ __ __ __ __ __ __ __ __ __ __ __ __ __ __
 72
    65
 73
     2
 40
3.500000
 49
2.000000
 49
-1.500000
  0
LTYPE
  2
CENTER
 70
    64
  3
____ _ ____ _ ____ _ ____ _ ____ _ ____ _ ____
 72
    65
 73
     4
 40
17.500000
 49
13.000000
 49
-1.500000
 49
1.500000
 49
-1.500000
  0
LTYPE
  2
PHANTOM
 70
    64
  3
_____ _ _ _____ _ _ _____ _ _ _____ _ _ ____  
 72
    65
 73
     6
 40
15.500000
 49
8.000000
 49
-1.500000
 49
1.500000
 49
-1.500000
 49
1.500000
 49
-1.500000
  0
ENDTAB
  0
TABLE
  2
LAYER
 70
     1
  0
LAYER
  2
0
 70
     0
 62
     7
  6
CONTINUOUS
  0
ENDTAB
  0
TABLE
  2
STYLE
 70
     1
  0
STYLE
  2
STANDARD
 70
     0
 40
0.000000
 41
1.000000
 50
0.000000
 71
     0
 42
0.200000
  3
txt
  4
BIGFONT
  0
ENDTAB
  0
TABLE
  2
VIEW
 70
     0
  0
ENDTAB
  0
ENDSEC
  0
SECTION
  2
BLOCKS
  0
ENDSEC
  0
SECTION
  2
ENTITIES
  0
LINE
  8
0
  6
CONTINUOUS
 62
7
 10
108.799004
 20
332.269012
 11
135.798996
 21
332.269012
  0
LINE
  8
0
  6
CONTINUOUS
 62
7
 10
233.798996
 20
332.269012
 11
233.798996
 21
234.669006
  0
LINE
  8
0
  6
CONTINUOUS
 62
7
 10
270.799011
 20
332.269012
 11
270.799011
 21
234.669006
  0
LINE
  8
0
  6
CONTINUOUS
 62
7
 10
135.798996
 20
332.269012
 11
135.798996
 21
234.669006
  0
LINE
  8
0
  6
CONTINUOUS
 62
7
 10
108.799004
 20
332.269012
 11
108.799004
 21
234.669006
  0
LINE
  8
0
  6
CONTINUOUS
 62
7
 10
358.799011
 20
332.269012
 11
358.799011
 21
234.669006
  0
LINE
  8
0
  6
CONTINUOUS
 62
7
 10
385.799011
 20
332.269012
 11
385.799011
 21
234.669006
  0
LINE
  8
0
  6
CONTINUOUS
 62
7
 10
109.598999
 20
233.869003
 11
134.998993
 21
233.869003
  0
LINE
  8
0
  6
CONTINUOUS
 62
7
 10
233.798996
 20
332.269012
 11
270.799011
 21
332.269012
  0
LINE
  8
0
  6
CONTINUOUS
 62
7
 10
234.600006
 20
233.869003
 11
270.000000
 21
233.869003
  0
LINE
  8
0
  6
CONTINUOUS
 62
7
 10
358.799011
 20
332.269012
 11
385.799011
 21
332.269012
  0
LINE
  8
0
  6
CONTINUOUS
 62
7
 10
359.600006
 20
233.869003
 11
385.000000
 21
233.869003
  0
LINE
  8
0
  6
CONTINUOUS
 62
7
 10
122.299004
 20
336.165009
 11
122.299004
 21
222.878006
  0
LINE
  8
0
  6
CONTINUOUS
 62
7
 10
372.299011
 20
336.765015
 11
372.299011
 21
231.425995
  0
LINE
  8
0
  6
CONTINUOUS
 62
7
 10
248.548996
 20
236.869003
 11
256.049011
 21
236.869003
  0
LINE
  8
0
  6
CONTINUOUS
 62
7
 10
256.049011
 20
236.869003
 11
256.049011
 21
233.869003
  0
LINE
  8
0
  6
CONTINUOUS
 62
7
 10
248.548996
 20
236.869003
 11
248.548996
 21
233.869003
  0
LINE
  8
0
  6
CONTINUOUS
 62
7
 10
233.798996
 20
284.669006
 11
270.799011
 21
284.669006
  0
LINE
  8
0
  6
CONTINUOUS
 62
7
 10
108.799004
 20
284.669006
 11
135.798996
 21
284.669006
  0
LINE
  8
0
  6
CONTINUOUS
 62
7
 10
358.799011
 20
284.669006
 11
385.799011
 21
284.669006
  0
LINE
  8
0
  6
CONTINUOUS
 62
7
 10
108.799004
 20
286.669006
 11
135.798996
 21
286.669006
  0
LINE
  8
0
  6
CONTINUOUS
 62
7
 10
233.798996
 20
286.669006
 11
270.799011
 21
286.669006
  0
LINE
  8
0
  6
CONTINUOUS
 62
7
 10
358.799011
 20
286.669006
 11
385.799011
 21
286.669006
  0
LINE
  8
0
  6
CONTINUOUS
 62
7
 10
382.799011
 20
271.984985
 11
382.799011
 21
260.671997
  0
LINE
  8
0
  6
CONTINUOUS
 62
7
 10
361.799011
 20
282.024994
 11
361.799011
 21
270.854004
  0
LINE
  8
0
  6
CONTINUOUS
 62
7
 10
377.201996
 20
266.368988
 11
387.312988
 21
266.368988
  0
LINE
  8
0
  6
CONTINUOUS
 62
7
 10
357.157013
 20
276.368988
 11
367.268005
 21
276.368988
  0
LINE
  8
0
  6
CONTINUOUS
 62
7
 10
212.001007
 20
160.369003
 11
233.035004
 21
160.369003
  0
LINE
  8
0
  6
CONTINUOUS
 62
7
 10
261.299011
 20
332.269012
 11
261.299011
 21
329.468994
  0
LINE
  8
0
  6
CONTINUOUS
 62
7
 10
261.299011
 20
329.468994
 11
270.799011
 21
329.468994
  0
LINE
  8
0
  6
CONTINUOUS
 62
7
 10
358.799011
 20
329.468994
 11
365.299011
 21
329.468994
  0
LINE
  8
0
  6
CONTINUOUS
 62
7
 10
108.799004
 20
329.468994
 11
115.299004
 21
329.468994
  0
LINE
  8
0
  6
CONTINUOUS
 62
7
 10
365.299011
 20
332.269012
 11
365.299011
 21
329.468994
  0
LINE
  8
0
  6
CONTINUOUS
 62
7
 10
115.299004
 20
332.269012
 11
115.299004
 21
329.468994
  0
LINE
  8
0
  6
CONTINUOUS
 62
7
 10
230.798996
 20
316.669006
 11
230.798996
 21
312.669006
  0
LINE
  8
0
  6
CONTINUOUS
 62
7
 10
115.315002
 20
314.669006
 11
129.242004
 21
314.669006
  0
LINE
  8
0
  6
CONTINUOUS
 62
7
 10
119.799004
 20
317.169006
 11
124.799004
 21
317.169006
  0
LINE
  8
0
  6
CONTINUOUS
 62
7
 10
119.799004
 20
312.169006
 11
124.799004
 21
312.169006
  0
LINE
  8
0
  6
CONTINUOUS
 62
7
 10
119.799004
 20
318.169006
 11
124.799004
 21
318.169006
  0
LINE
  8
0
  6
CONTINUOUS
 62
7
 10
119.799004
 20
311.169006
 11
124.799004
 21
311.169006
  0
LINE
  8
0
  6
CONTINUOUS
 62
7
 10
231.298996
 20
317.169006
 11
233.798996
 21
317.169006
  0
LINE
  8
0
  6
CONTINUOUS
 62
7
 10
231.298996
 20
312.169006
 11
233.798996
 21
312.169006
  0
LINE
  8
0
  6
CONTINUOUS
 62
7
 10
219.050995
 20
161.619003
 11
224.686996
 21
161.619003
  0
LINE
  8
0
  6
CONTINUOUS
 62
7
 10
219.050995
 20
159.119003
 11
224.623001
 21
159.119003
  0
LINE
  8
0
  6
CONTINUOUS
 62
7
 10
226.492996
 20
161.619003
 11
231.798996
 21
161.619003
  0
LINE
  8
0
  6
CONTINUOUS
 62
7
 10
226.225998
 20
159.119003
 11
231.798996
 21
159.119003
  0
LINE
  8
0
  6
CONTINUOUS
 62
7
 10
219.050995
 20
161.619003
 11
219.050995
 21
159.119003
  0
LINE
  8
0
  6
CONTINUOUS
 62
7
 10
213.089996
 20
160.869003
 11
219.050995
 21
160.869003
  0
LINE
  8
0
  6
CONTINUOUS
 62
7
 10
213.089996
 20
159.869003
 11
219.050995
 21
159.869003
  0
LINE
  8
0
  6
CONTINUOUS
 62
7
 10
213.089996
 20
160.869003
 11
213.089996
 21
159.869003
  0
LINE
  8
0
  6
CONTINUOUS
 62
7
 10
119.799004
 20
319.070007
 11
119.799004
 21
310.256989
  0
LINE
  8
0
  6
CONTINUOUS
 62
7
 10
124.799004
 20
318.990997
 11
124.799004
 21
310.217987
  0
LINE
  8
0
  6
CONTINUOUS
 62
7
 10
108.799004
 20
238.869003
 11
135.798996
 21
238.869003
  0
LINE
  8
0
  6
CONTINUOUS
 62
7
 10
233.798996
 20
238.869003
 11
270.799011
 21
238.869003
  0
LINE
  8
0
  6
CONTINUOUS
 62
7
 10
358.799011
 20
238.869003
 11
385.640991
 21
238.869003
  0
LINE
  8
0
  6
CONTINUOUS
 62
7
 10
113.300003
 20
252.369003
 11
131.908997
 21
252.369003
  0
LINE
  8
0
  6
CONTINUOUS
 62
7
 10
113.300003
 20
271.368988
 11
131.395996
 21
271.368988
  0
LINE
  8
0
  6
CONTINUOUS
 62
7
 10
262.598999
 20
259.868988
 11
275.955994
 21
259.868988
  0
LINE
  8
0
  6
CONTINUOUS
 62
7
 10
262.243988
 20
250.369003
 11
270.542999
 21
250.369003
  0
LINE
  8
0
  6
CONTINUOUS
 62
7
 10
234.093994
 20
261.368988
 11
242.735992
 21
261.368988
  0
LINE
  8
0
  6
CONTINUOUS
 62
7
 10
266.299011
 20
254.490005
 11
266.299011
 21
245.886002
  0
LINE
  8
0
  6
CONTINUOUS
 62
7
 10
238.298996
 20
265.890015
 11
238.298996
 21
256.513000
  0
LINE
  8
0
  6
CONTINUOUS
 62
7
 10
249.798996
 20
235.869003
 11
254.798996
 21
235.869003
  0
LINE
  8
0
  6
CONTINUOUS
 62
7
 10
252.298996
 20
237.412994
 11
252.298996
 21
233.268997
  0
LINE
  8
0
  6
CONTINUOUS
 62
7
 10
254.798996
 20
236.869003
 11
254.798996
 21
235.869003
  0
LINE
  8
0
  6
CONTINUOUS
 62
7
 10
249.798996
 20
236.869003
 11
249.798996
 21
235.869003
  0
LINE
  8
0
  6
CONTINUOUS
 62
7
 10
112.049004
 20
333.622009
 11
112.049004
 21
328.483002
  0
LINE
  8
0
  6
CONTINUOUS
 62
7
 10
359.549011
 20
330.169006
 11
362.049011
 21
330.169006
  0
LINE
  8
0
  6
CONTINUOUS
 62
7
 10
359.549011
 20
330.169006
 11
359.549011
 21
329.468994
  0
LINE
  8
0
  6
CONTINUOUS
 62
7
 10
364.549011
 20
330.169006
 11
362.049011
 21
330.169006
  0
LINE
  8
0
  6
CONTINUOUS
 62
7
 10
364.549011
 20
330.169006
 11
364.549011
 21
329.468994
  0
LINE
  8
0
  6
CONTINUOUS
 62
7
 10
266.049011
 20
333.687988
 11
266.049011
 21
328.481995
  0
LINE
  8
0
  6
CONTINUOUS
 62
7
 10
362.049011
 20
333.572998
 11
362.049011
 21
328.192993
  0
LINE
  8
0
  6
CONTINUOUS
 62
7
 10
109.549004
 20
330.169006
 11
112.049004
 21
330.169006
  0
LINE
  8
0
  6
CONTINUOUS
 62
7
 10
114.549004
 20
330.169006
 11
112.049004
 21
330.169006
  0
LINE
  8
0
  6
CONTINUOUS
 62
7
 10
114.549004
 20
330.169006
 11
114.549004
 21
329.468994
  0
LINE
  8
0
  6
CONTINUOUS
 62
7
 10
109.549004
 20
330.169006
 11
109.549004
 21
329.468994
  0
LINE
  8
0
  6
CONTINUOUS
 62
7
 10
263.549011
 20
330.169006
 11
266.049011
 21
330.169006
  0
LINE
  8
0
  6
CONTINUOUS
 62
7
 10
268.549011
 20
330.169006
 11
266.049011
 21
330.169006
  0
LINE
  8
0
  6
CONTINUOUS
 62
7
 10
268.549011
 20
330.169006
 11
268.549011
 21
329.468994
  0
LINE
  8
0
  6
CONTINUOUS
 62
7
 10
263.549011
 20
330.169006
 11
263.549011
 21
329.468994
  0
LINE
  8
0
  6
CONTINUOUS
 62
7
 10
252.298996
 20
336.165009
 11
252.298996
 21
222.878006
  0
LINE
  8
0
  6
CONTINUOUS
 62
7
 10
136.895996
 20
276.368988
 11
128.682007
 21
276.368988
  0
LINE
  8
0
  6
CONTINUOUS
 62
7
 10
111.799004
 20
270.403992
 11
111.799004
 21
262.446991
  0
LINE
  8
0
  6
CONTINUOUS
 62
7
 10
115.932999
 20
266.368988
 11
107.975998
 21
266.368988
  0
LINE
  8
0
  6
CONTINUOUS
 62
7
 10
132.798996
 20
280.585999
 11
132.798996
 21
272.458008
  0
LINE
  8
0
  6
CONTINUOUS
 62
7
 10
372.299988
 20
333.269012
 11
381.299011
 21
333.269012
  0
LINE
  8
0
  6
CONTINUOUS
 62
7
 10
381.299988
 20
333.269989
 11
382.299988
 21
332.269989
  0
LINE
  8
0
  6
CONTINUOUS
 62
7
 10
372.299988
 20
333.269012
 11
363.299011
 21
333.269012
  0
LINE
  8
0
  6
CONTINUOUS
 62
7
 10
363.299988
 20
333.269012
 11
362.299988
 21
332.269012
  0
LINE
  8
0
  6
CONTINUOUS
 62
7
 10
122.299004
 20
333.269012
 11
113.299004
 21
333.269012
  0
LINE
  8
0
  6
CONTINUOUS
 62
7
 10
113.299004
 20
333.269989
 11
112.299004
 21
332.269989
  0
LINE
  8
0
  6
CONTINUOUS
 62
7
 10
122.299004
 20
333.269012
 11
131.298996
 21
333.269012
  0
LINE
  8
0
  6
CONTINUOUS
 62
7
 10
131.300003
 20
333.269012
 11
132.300003
 21
332.269012
  0
LINE
  8
0
  6
CONTINUOUS
 62
7
 10
252.298996
 20
333.269012
 11
243.298996
 21
333.269012
  0
LINE
  8
0
  6
CONTINUOUS
 62
7
 10
243.298996
 20
333.269012
 11
242.298996
 21
332.269012
  0
LINE
  8
0
  6
CONTINUOUS
 62
7
 10
252.298996
 20
333.269012
 11
261.299011
 21
333.269012
  0
LINE
  8
0
  6
CONTINUOUS
 62
7
 10
261.299988
 20
333.269989
 11
262.299988
 21
332.269989
  0
LINE
  8
0
  6
CONTINUOUS
 62
7
 10
233.798996
 20
176.369003
 11
270.799011
 21
176.369003
  0
LINE
  8
0
  6
CONTINUOUS
 62
7
 10
233.798996
 20
149.369003
 11
270.799011
 21
149.369003
  0
LINE
  8
0
  6
CONTINUOUS
 62
7
 10
233.798996
 20
176.369003
 11
233.798996
 21
149.369003
  0
LINE
  8
0
  6
CONTINUOUS
 62
7
 10
270.799011
 20
176.369003
 11
270.799011
 21
149.369003
  0
LINE
  8
0
  6
CONTINUOUS
 62
7
 10
230.714005
 20
162.869003
 11
273.776001
 21
162.869003
  0
LINE
  8
0
  6
CONTINUOUS
 62
7
 10
252.298996
 20
189.477005
 11
252.298996
 21
181.108002
  0
LINE
  8
0
  6
CONTINUOUS
 62
7
 10
231.798996
 20
168.369003
 11
231.798996
 21
157.369003
  0
LINE
  8
0
  6
CONTINUOUS
 62
7
 10
231.798996
 20
168.369003
 11
233.798996
 21
168.369003
  0
LINE
  8
0
  6
CONTINUOUS
 62
7
 10
231.798996
 20
157.369003
 11
233.798996
 21
157.369003
  0
LINE
  8
0
  6
CONTINUOUS
 62
7
 10
211.001007
 20
314.669006
 11
235.425003
 21
314.669006
  0
LINE
  8
0
  6
CONTINUOUS
 62
7
 10
218.050995
 20
315.919006
 11
223.686996
 21
315.919006
  0
LINE
  8
0
  6
CONTINUOUS
 62
7
 10
218.050995
 20
313.419006
 11
223.623001
 21
313.419006
  0
LINE
  8
0
  6
CONTINUOUS
 62
7
 10
225.492996
 20
315.919006
 11
230.798996
 21
315.919006
  0
LINE
  8
0
  6
CONTINUOUS
 62
7
 10
225.225998
 20
313.419006
 11
230.798996
 21
313.419006
  0
LINE
  8
0
  6
CONTINUOUS
 62
7
 10
218.050995
 20
315.919006
 11
218.050995
 21
313.419006
  0
LINE
  8
0
  6
CONTINUOUS
 62
7
 10
212.089996
 20
315.169006
 11
218.050995
 21
315.169006
  0
LINE
  8
0
  6
CONTINUOUS
 62
7
 10
212.089996
 20
314.169006
 11
218.050995
 21
314.169006
  0
LINE
  8
0
  6
CONTINUOUS
 62
7
 10
212.089996
 20
315.169006
 11
212.089996
 21
314.169006
  0
LINE
  8
0
  6
CONTINUOUS
 62
7
 10
212.001007
 20
165.369003
 11
232.955002
 21
165.369003
  0
LINE
  8
0
  6
CONTINUOUS
 62
7
 10
219.050995
 20
166.619003
 11
224.686996
 21
166.619003
  0
LINE
  8
0
  6
CONTINUOUS
 62
7
 10
219.050995
 20
164.119003
 11
224.623001
 21
164.119003
  0
LINE
  8
0
  6
CONTINUOUS
 62
7
 10
226.492996
 20
166.619003
 11
231.798996
 21
166.619003
  0
LINE
  8
0
  6
CONTINUOUS
 62
7
 10
226.225998
 20
164.119003
 11
231.798996
 21
164.119003
  0
LINE
  8
0
  6
CONTINUOUS
 62
7
 10
219.050995
 20
166.619003
 11
219.050995
 21
164.119003
  0
LINE
  8
0
  6
CONTINUOUS
 62
7
 10
213.089996
 20
165.869003
 11
219.050995
 21
165.869003
  0
LINE
  8
0
  6
CONTINUOUS
 62
7
 10
213.089996
 20
164.869003
 11
219.050995
 21
164.869003
  0
LINE
  8
0
  6
CONTINUOUS
 62
7
 10
213.089996
 20
165.869003
 11
213.089996
 21
164.869003
  0
LINE
  8
0
  6
CONTINUOUS
 62
7
 10
235.445007
 20
173.369003
 11
243.641006
 21
173.369003
  0
LINE
  8
0
  6
CONTINUOUS
 62
7
 10
260.593994
 20
152.369003
 11
268.388000
 21
152.369003
  0
LINE
  8
0
  6
CONTINUOUS
 62
7
 10
264.799011
 20
156.231003
 11
264.799011
 21
148.190994
  0
LINE
  8
0
  6
CONTINUOUS
 62
7
 10
239.798996
 20
177.356995
 11
239.798996
 21
169.483002
  0
LINE
  8
0
  6
CONTINUOUS
 62
7
 10
255.798996
 20
176.369003
 11
255.798996
 21
172.869003
  0
LINE
  8
0
  6
CONTINUOUS
 62
7
 10
248.798996
 20
176.369003
 11
248.798996
 21
172.869003
  0
LINE
  8
0
  6
CONTINUOUS
 62
7
 10
248.798996
 20
152.869003
 11
248.798996
 21
149.369003
  0
LINE
  8
0
  6
CONTINUOUS
 62
7
 10
255.798996
 20
152.869003
 11
255.798996
 21
149.369003
  0
LINE
  8
0
  6
CONTINUOUS
 62
7
 10
248.522995
 20
172.869003
 11
256.227997
 21
172.869003
  0
LINE
  8
0
  6
CONTINUOUS
 62
7
 10
248.253998
 20
152.869003
 11
256.316986
 21
152.869003
  0
LINE
  8
0
  6
CONTINUOUS
 62
7
 10
251.098999
 20
171.669006
 11
253.563004
 21
174.132004
  0
LINE
  8
0
  6
CONTINUOUS
 62
7
 10
251.156998
 20
174.011993
 11
253.576004
 21
171.593002
  0
LINE
  8
0
  6
CONTINUOUS
 62
7
 10
251.098999
 20
154.070007
 11
253.563004
 21
151.606003
  0
LINE
  8
0
  6
CONTINUOUS
 62
7
 10
251.156998
 20
151.727005
 11
253.576004
 21
154.145996
  0
LINE
  8
0
  6
CONTINUOUS
 62
7
 10
276.173004
 20
71.102997
 11
276.173004
 21
26.103100
  0
LINE
  8
0
  6
CONTINUOUS
 62
7
 10
313.173004
 20
40.103100
 11
313.173004
 21
26.103100
  0
LINE
  8
0
  6
CONTINUOUS
 62
7
 10
423.506012
 20
71.102997
 11
423.506012
 21
26.103100
  0
LINE
  8
0
  6
CONTINUOUS
 62
7
 10
396.506012
 20
71.102997
 11
396.506012
 21
26.103100
  0
LINE
  8
0
  6
CONTINUOUS
 62
7
 10
276.173004
 20
71.102997
 11
322.173004
 21
71.102997
  0
LINE
  8
0
  6
CONTINUOUS
 62
7
 10
396.506012
 20
71.102997
 11
401.006012
 21
71.102997
  0
LINE
  8
0
  6
CONTINUOUS
 62
7
 10
313.173004
 20
40.103100
 11
322.173004
 21
40.103100
  0
LINE
  8
0
  6
CONTINUOUS
 62
7
 10
322.173004
 20
71.102997
 11
322.173004
 21
40.103100
  0
LINE
  8
0
  6
CONTINUOUS
 62
7
 10
310.673004
 20
71.102997
 11
310.673004
 21
68.303001
  0
LINE
  8
0
  6
CONTINUOUS
 62
7
 10
303.673004
 20
71.102997
 11
303.673004
 21
68.303001
  0
LINE
  8
0
  6
CONTINUOUS
 62
7
 10
316.247986
 20
54.103100
 11
358.947998
 21
54.103100
  0
LINE
  8
0
  6
CONTINUOUS
 62
7
 10
414.630005
 20
54.103100
 11
405.220001
 21
54.103100
  0
LINE
  8
0
  6
CONTINUOUS
 62
7
 10
323.673004
 20
40.103100
 11
323.673004
 21
68.352997
  0
LINE
  8
0
  6
CONTINUOUS
 62
7
 10
349.173004
 20
68.352997
 11
322.173004
 21
68.352997
  0
LINE
  8
0
  6
CONTINUOUS
 62
7
 10
351.673004
 20
42.103100
 11
351.673004
 21
65.852997
  0
LINE
  8
0
  6
CONTINUOUS
 62
7
 10
344.673004
 20
65.098602
 11
344.673004
 21
91.747597
  0
LINE
  8
0
  6
CONTINUOUS
 62
7
 10
353.673004
 20
68.352997
 11
353.673004
 21
78.352997
  0
LINE
  8
0
  6
CONTINUOUS
 62
7
 10
335.673004
 20
69.352997
 11
335.673004
 21
78.352997
  0
LINE
  8
0
  6
CONTINUOUS
 62
7
 10
353.673004
 20
68.352997
 11
351.673004
 21
63.353001
  0
LINE
  8
0
  6
CONTINUOUS
 62
7
 10
352.173004
 20
79.852997
 11
337.173004
 21
79.852997
  0
LINE
  8
0
  6
CONTINUOUS
 62
7
 10
339.673004
 20
68.352997
 11
339.673004
 21
75.852997
  0
LINE
  8
0
  6
CONTINUOUS
 62
7
 10
349.673004
 20
68.352997
 11
349.673004
 21
75.852997
  0
LINE
  8
0
  6
CONTINUOUS
 62
7
 10
347.173004
 20
78.352997
 11
342.173004
 21
78.352997
  0
LINE
  8
0
  6
CONTINUOUS
 62
7
 10
336.673004
 20
79.767197
 11
336.673004
 21
82.852997
  0
LINE
  8
0
  6
CONTINUOUS
 62
7
 10
352.673004
 20
79.767197
 11
352.673004
 21
82.852997
  0
LINE
  8
0
  6
CONTINUOUS
 62
7
 10
352.673004
 20
82.852997
 11
336.673004
 21
82.852997
  0
LINE
  8
0
  6
CONTINUOUS
 62
7
 10
337.673004
 20
82.852997
 11
337.673004
 21
84.852997
  0
LINE
  8
0
  6
CONTINUOUS
 62
7
 10
351.673004
 20
82.852997
 11
351.673004
 21
84.852997
  0
LINE
  8
0
  6
CONTINUOUS
 62
7
 10
351.673004
 20
79.802498
 11
351.673004
 21
82.852997
  0
LINE
  8
0
  6
CONTINUOUS
 62
7
 10
337.673004
 20
79.802498
 11
337.673004
 21
82.852997
  0
LINE
  8
0
  6
CONTINUOUS
 62
7
 10
353.910004
 20
84.852997
 11
344.673004
 21
84.852997
  0
LINE
  8
0
  6
CONTINUOUS
 62
7
 10
352.673004
 20
89.852997
 11
344.673004
 21
89.852997
  0
LINE
  8
0
  6
CONTINUOUS
 62
7
 10
353.910004
 20
84.852997
 11
353.910004
 21
89.138397
  0
LINE
  8
0
  6
CONTINUOUS
 62
7
 10
352.673004
 20
89.852898
 11
353.910004
 21
89.138397
  0
LINE
  8
0
  6
CONTINUOUS
 62
7
 10
349.290985
 20
89.138397
 11
349.290985
 21
84.852997
  0
LINE
  8
0
  6
CONTINUOUS
 62
7
 10
335.434998
 20
84.852997
 11
344.673004
 21
84.852997
  0
LINE
  8
0
  6
CONTINUOUS
 62
7
 10
336.673004
 20
89.852997
 11
344.673004
 21
89.852997
  0
LINE
  8
0
  6
CONTINUOUS
 62
7
 10
335.434998
 20
84.852997
 11
335.434998
 21
89.138397
  0
LINE
  8
0
  6
CONTINUOUS
 62
7
 10
336.673004
 20
89.852898
 11
335.434998
 21
89.138397
  0
LINE
  8
0
  6
CONTINUOUS
 62
7
 10
340.053986
 20
89.138397
 11
340.053986
 21
84.852997
  0
LINE
  8
0
  6
CONTINUOUS
 62
7
 10
346.673004
 20
45.103100
 11
346.673004
 21
63.103001
  0
LINE
  8
0
  6
CONTINUOUS
 62
7
 10
344.673004
 20
45.103100
 11
344.673004
 21
63.103001
  0
LINE
  8
0
  6
CONTINUOUS
 62
7
 10
342.673004
 20
45.103100
 11
342.673004
 21
63.103001
  0
LINE
  8
0
  6
CONTINUOUS
 62
7
 10
340.673004
 20
45.103100
 11
340.673004
 21
51.457298
  0
LINE
  8
0
  6
CONTINUOUS
 62
7
 10
338.673004
 20
45.103100
 11
338.673004
 21
50.230099
  0
LINE
  8
0
  6
CONTINUOUS
 62
7
 10
336.673004
 20
45.103100
 11
336.673004
 21
50.230099
  0
LINE
  8
0
  6
CONTINUOUS
 62
7
 10
334.673004
 20
45.103100
 11
334.673004
 21
51.457298
  0
LINE
  8
0
  6
CONTINUOUS
 62
7
 10
332.673004
 20
45.103100
 11
332.673004
 21
63.103001
  0
LINE
  8
0
  6
CONTINUOUS
 62
7
 10
330.673004
 20
45.103100
 11
330.673004
 21
63.103001
  0
LINE
  8
0
  6
CONTINUOUS
 62
7
 10
328.673004
 20
45.103100
 11
328.673004
 21
63.103001
  0
LINE
  8
0
  6
CONTINUOUS
 62
7
 10
334.673004
 20
56.748798
 11
334.673004
 21
63.103001
  0
LINE
  8
0
  6
CONTINUOUS
 62
7
 10
336.673004
 20
57.976002
 11
336.673004
 21
63.103001
  0
LINE
  8
0
  6
CONTINUOUS
 62
7
 10
338.673004
 20
57.976002
 11
338.673004
 21
63.103001
  0
LINE
  8
0
  6
CONTINUOUS
 62
7
 10
340.673004
 20
56.748798
 11
340.673004
 21
63.103001
  0
LINE
  8
0
  6
CONTINUOUS
 62
7
 10
349.673004
 20
40.103100
 11
317.920013
 21
40.103100
  0
LINE
  8
0
  6
CONTINUOUS
 62
7
 10
403.006012
 20
85.102997
 11
403.006012
 21
83.102997
  0
LINE
  8
0
  6
CONTINUOUS
 62
7
 10
403.006012
 20
83.102997
 11
403.006012
 21
80.102997
  0
LINE
  8
0
  6
CONTINUOUS
 62
7
 10
402.006012
 20
83.102997
 11
402.006012
 21
80.102997
  0
LINE
  8
0
  6
CONTINUOUS
 62
7
 10
420.006012
 20
68.102997
 11
420.006012
 21
42.103100
  0
LINE
  8
0
  6
CONTINUOUS
 62
7
 10
400.006012
 20
68.102997
 11
400.006012
 21
42.103100
  0
LINE
  8
0
  6
CONTINUOUS
 62
7
 10
420.006012
 20
68.102997
 11
400.006012
 21
68.102997
  0
LINE
  8
0
  6
CONTINUOUS
 62
7
 10
419.006012
 20
79.102997
 11
419.006012
 21
68.102997
  0
LINE
  8
0
  6
CONTINUOUS
 62
7
 10
418.006012
 20
80.102997
 11
402.006012
 21
80.102997
  0
LINE
  8
0
  6
CONTINUOUS
 62
7
 10
418.006012
 20
83.102997
 11
402.006012
 21
83.102997
  0
LINE
  8
0
  6
CONTINUOUS
 62
7
 10
418.006012
 20
85.102997
 11
402.006012
 21
85.102997
  0
LINE
  8
0
  6
CONTINUOUS
 62
7
 10
418.006012
 20
90.102997
 11
402.006012
 21
90.102997
  0
LINE
  8
0
  6
CONTINUOUS
 62
7
 10
418.006012
 20
90.102997
 11
418.006012
 21
85.102997
  0
LINE
  8
0
  6
CONTINUOUS
 62
7
 10
402.006012
 20
90.102997
 11
402.006012
 21
85.102997
  0
LINE
  8
0
  6
CONTINUOUS
 62
7
 10
417.006012
 20
85.102997
 11
417.006012
 21
83.102997
  0
LINE
  8
0
  6
CONTINUOUS
 62
7
 10
418.006012
 20
83.102997
 11
418.006012
 21
80.102997
  0
LINE
  8
0
  6
CONTINUOUS
 62
7
 10
417.006012
 20
83.102997
 11
417.006012
 21
80.102997
  0
LINE
  8
0
  6
CONTINUOUS
 62
7
 10
402.006012
 20
90.102997
 11
418.006012
 21
90.102997
  0
LINE
  8
0
  6
CONTINUOUS
 62
7
 10
407.884003
 20
56.224300
 11
412.127014
 21
51.981800
  0
LINE
  8
0
  6
CONTINUOUS
 62
7
 10
408.664001
 20
52.761101
 11
411.218994
 21
55.316200
  0
LINE
  8
0
  6
CONTINUOUS
 62
7
 10
418.006012
 20
40.103100
 11
402.006012
 21
40.103100
  0
LINE
  8
0
  6
CONTINUOUS
 62
7
 10
401.006012
 20
79.102997
 11
401.006012
 21
68.102997
  0
LINE
  8
0
  6
CONTINUOUS
 62
7
 10
419.006012
 20
71.102997
 11
423.506012
 21
71.102997
  0
LINE
  8
0
  6
CONTINUOUS
 62
7
 10
303.673004
 20
68.303001
 11
310.673004
 21
68.303001
  0
LINE
  8
0
  6
CONTINUOUS
 62
7
 10
307.173004
 20
72.373398
 11
307.173004
 21
67.277100
  0
LINE
  8
0
  6
CONTINUOUS
 62
7
 10
304.423004
 20
70.178802
 11
304.423004
 21
69.002998
  0
LINE
  8
0
  6
CONTINUOUS
 62
7
 10
309.923004
 20
70.178802
 11
309.923004
 21
69.002998
  0
LINE
  8
0
  6
CONTINUOUS
 62
7
 10
310.173004
 20
69.002998
 11
310.173004
 21
68.303001
  0
LINE
  8
0
  6
CONTINUOUS
 62
7
 10
304.173004
 20
69.002998
 11
310.173004
 21
69.002998
  0
LINE
  8
0
  6
CONTINUOUS
 62
7
 10
304.173004
 20
69.002998
 11
304.173004
 21
68.303001
  0
LINE
  8
0
  6
CONTINUOUS
 62
7
 10
276.173004
 20
26.103100
 11
313.173004
 21
26.103100
  0
LINE
  8
0
  6
CONTINUOUS
 62
7
 10
396.506012
 20
26.103100
 11
423.506012
 21
26.103100
  0
LINE
  8
0
  6
CONTINUOUS
 62
7
 10
410.006012
 20
94.099998
 11
410.006012
 21
22.980101
  0
LINE
  8
0
  6
CONTINUOUS
 62
7
 10
294.673004
 20
75.071198
 11
294.673004
 21
22.980101
  0
LINE
  8
0
  6
CONTINUOUS
 62
7
 10
209.003998
 20
74.698601
 11
209.003998
 21
21.917500
  0
LINE
  8
0
  6
CONTINUOUS
 62
7
 10
195.751007
 20
24.603001
 11
222.751007
 21
24.603001
  0
LINE
  8
0
  6
CONTINUOUS
 62
7
 10
93.670998
 20
74.099197
 11
93.670998
 21
21.441799
  0
LINE
  8
0
  6
CONTINUOUS
 62
7
 10
75.170998
 20
69.603104
 11
121.170998
 21
69.603104
  0
LINE
  8
0
  6
CONTINUOUS
 62
7
 10
75.170998
 20
69.603104
 11
75.170998
 21
24.603100
  0
LINE
  8
0
  6
CONTINUOUS
 62
7
 10
112.170998
 20
38.603100
 11
112.170998
 21
24.603100
  0
LINE
  8
0
  6
CONTINUOUS
 62
7
 10
121.170998
 20
69.603104
 11
121.170998
 21
38.603100
  0
LINE
  8
0
  6
CONTINUOUS
 62
7
 10
112.170998
 20
38.603100
 11
121.170998
 21
38.603100
  0
LINE
  8
0
  6
CONTINUOUS
 62
7
 10
78.670998
 20
72.372398
 11
78.670998
 21
62.664101
  0
LINE
  8
0
  6
CONTINUOUS
 62
7
 10
75.170998
 20
65.603104
 11
82.170998
 21
65.603104
  0
LINE
  8
0
  6
CONTINUOUS
 62
7
 10
82.170998
 20
69.603104
 11
82.170998
 21
65.603104
  0
LINE
  8
0
  6
CONTINUOUS
 62
7
 10
122.170998
 20
68.103104
 11
122.170998
 21
40.103100
  0
LINE
  8
0
  6
CONTINUOUS
 62
7
 10
121.170998
 20
68.103104
 11
122.170998
 21
68.103104
  0
LINE
  8
0
  6
CONTINUOUS
 62
7
 10
121.170998
 20
40.103100
 11
122.170998
 21
40.103100
  0
LINE
  8
0
  6
CONTINUOUS
 62
7
 10
122.170998
 20
67.103104
 11
133.671005
 21
67.103104
  0
LINE
  8
0
  6
CONTINUOUS
 62
7
 10
122.170998
 20
41.103100
 11
133.671005
 21
41.103100
  0
LINE
  8
0
  6
CONTINUOUS
 62
7
 10
133.671005
 20
67.103104
 11
133.671005
 21
41.103100
  0
LINE
  8
0
  6
CONTINUOUS
 62
7
 10
131.171005
 20
41.103100
 11
131.171005
 21
48.103001
  0
LINE
  8
0
  6
CONTINUOUS
 62
7
 10
131.171005
 20
48.103100
 11
133.671005
 21
48.103100
  0
LINE
  8
0
  6
CONTINUOUS
 62
7
 10
131.421005
 20
69.103104
 11
131.421005
 21
67.103104
  0
LINE
  8
0
  6
CONTINUOUS
 62
7
 10
124.420998
 20
69.103104
 11
124.420998
 21
67.103104
  0
LINE
  8
0
  6
CONTINUOUS
 62
7
 10
124.420998
 20
69.102997
 11
131.421005
 21
69.102997
  0
LINE
  8
0
  6
CONTINUOUS
 62
7
 10
127.920998
 20
95.891899
 11
127.920998
 21
68.608597
  0
LINE
  8
0
  6
CONTINUOUS
 62
7
 10
128.921005
 20
89.103104
 11
128.921005
 21
81.923401
  0
LINE
  8
0
  6
CONTINUOUS
 62
7
 10
126.920998
 20
89.103104
 11
126.920998
 21
81.997902
  0
LINE
  8
0
  6
CONTINUOUS
 62
7
 10
126.920998
 20
79.997902
 11
126.920998
 21
69.103104
  0
LINE
  8
0
  6
CONTINUOUS
 62
7
 10
128.921005
 20
79.923401
 11
128.921005
 21
69.103104
  0
LINE
  8
0
  6
CONTINUOUS
 62
7
 10
126.920998
 20
89.103104
 11
128.921005
 21
89.103104
  0
LINE
  8
0
  6
CONTINUOUS
 62
7
 10
128.570999
 20
94.103104
 11
128.570999
 21
89.103104
  0
LINE
  8
0
  6
CONTINUOUS
 62
7
 10
127.271004
 20
94.103104
 11
127.271004
 21
89.103104
  0
LINE
  8
0
  6
CONTINUOUS
 62
7
 10
127.271004
 20
94.103104
 11
128.570999
 21
94.103104
  0
LINE
  8
0
  6
CONTINUOUS
 62
7
 10
200.251007
 20
70.603104
 11
208.751007
 21
70.603104
  0
LINE
  8
0
  6
CONTINUOUS
 62
7
 10
199.251007
 20
69.603104
 11
200.251007
 21
70.603104
  0
LINE
  8
0
  6
CONTINUOUS
 62
7
 10
219.251007
 20
69.603104
 11
218.251007
 21
70.603104
  0
LINE
  8
0
  6
CONTINUOUS
 62
7
 10
222.751007
 20
69.603104
 11
222.751007
 21
24.603100
  0
LINE
  8
0
  6
CONTINUOUS
 62
7
 10
195.751007
 20
69.603104
 11
195.751007
 21
24.603100
  0
LINE
  8
0
  6
CONTINUOUS
 62
7
 10
195.751007
 20
69.603104
 11
208.751007
 21
69.603104
  0
LINE
  8
0
  6
CONTINUOUS
 62
7
 10
84.670998
 20
70.603104
 11
102.670998
 21
70.603104
  0
LINE
  8
0
  6
CONTINUOUS
 62
7
 10
103.670998
 20
69.602997
 11
102.670998
 21
70.602997
  0
LINE
  8
0
  6
CONTINUOUS
 62
7
 10
83.670898
 20
69.603203
 11
84.670898
 21
70.603203
  0
LINE
  8
0
  6
CONTINUOUS
 62
7
 10
219.251007
 20
67.103104
 11
219.251007
 21
41.103100
  0
LINE
  8
0
  6
CONTINUOUS
 62
7
 10
199.251007
 20
67.103104
 11
199.251007
 21
41.103100
  0
LINE
  8
0
  6
CONTINUOUS
 62
7
 10
199.251007
 20
67.103104
 11
219.251007
 21
67.103104
  0
LINE
  8
0
  6
CONTINUOUS
 62
7
 10
199.251007
 20
41.103100
 11
219.251007
 21
41.103100
  0
LINE
  8
0
  6
CONTINUOUS
 62
7
 10
195.751007
 20
38.603100
 11
222.751007
 21
38.603100
  0
LINE
  8
0
  6
CONTINUOUS
 62
7
 10
217.251007
 20
69.103104
 11
217.251007
 21
67.103104
  0
LINE
  8
0
  6
CONTINUOUS
 62
7
 10
206.251007
 20
69.103104
 11
206.251007
 21
67.103104
  0
LINE
  8
0
  6
CONTINUOUS
 62
7
 10
206.251007
 20
69.102997
 11
217.251007
 21
69.102997
  0
LINE
  8
0
  6
CONTINUOUS
 62
7
 10
205.119995
 20
54.103100
 11
213.341995
 21
54.103100
  0
LINE
  8
0
  6
CONTINUOUS
 62
7
 10
211.251007
 20
55.103100
 11
211.251007
 21
53.103100
  0
LINE
  8
0
  6
CONTINUOUS
 62
7
 10
207.251007
 20
55.103100
 11
207.251007
 21
53.103100
  0
LINE
  8
0
  6
CONTINUOUS
 62
7
 10
207.251007
 20
55.103100
 11
211.251007
 21
55.103100
  0
LINE
  8
0
  6
CONTINUOUS
 62
7
 10
207.251007
 20
53.103100
 11
211.251007
 21
53.103100
  0
LINE
  8
0
  6
CONTINUOUS
 62
7
 10
202.751007
 20
66.411499
 11
202.751007
 21
59.977001
  0
LINE
  8
0
  6
CONTINUOUS
 62
7
 10
199.535004
 20
63.103100
 11
205.865005
 21
63.103100
  0
LINE
  8
0
  6
CONTINUOUS
 62
7
 10
199.251007
 20
60.103001
 11
202.751007
 21
60.103001
  0
LINE
  8
0
  6
CONTINUOUS
 62
7
 10
205.751007
 20
67.103104
 11
205.751007
 21
63.103100
  0
LINE
  8
0
  6
CONTINUOUS
 62
7
 10
212.751007
 20
41.103100
 11
212.751007
 21
45.103100
  0
LINE
  8
0
  6
CONTINUOUS
 62
7
 10
219.251007
 20
48.103100
 11
215.751007
 21
48.103100
  0
LINE
  8
0
  6
CONTINUOUS
 62
7
 10
215.751007
 20
41.794701
 11
215.751007
 21
48.229198
  0
LINE
  8
0
  6
CONTINUOUS
 62
7
 10
218.966995
 20
45.103100
 11
212.636993
 21
45.103100
  0
LINE
  8
0
  6
CONTINUOUS
 62
7
 10
197.751007
 20
68.603104
 11
197.751007
 21
39.603100
  0
LINE
  8
0
  6
CONTINUOUS
 62
7
 10
220.751007
 20
68.603104
 11
220.751007
 21
39.603100
  0
LINE
  8
0
  6
CONTINUOUS
 62
7
 10
197.751007
 20
68.603104
 11
206.251007
 21
68.603104
  0
LINE
  8
0
  6
CONTINUOUS
 62
7
 10
197.751007
 20
39.603100
 11
220.751007
 21
39.603100
  0
LINE
  8
0
  6
CONTINUOUS
 62
7
 10
217.251007
 20
68.603104
 11
220.751007
 21
68.603104
  0
LINE
  8
0
  6
CONTINUOUS
 62
7
 10
201.537003
 20
61.888901
 11
203.988998
 21
64.341202
  0
LINE
  8
0
  6
CONTINUOUS
 62
7
 10
201.570999
 20
64.282501
 11
204.024002
 21
61.830101
  0
LINE
  8
0
  6
CONTINUOUS
 62
7
 10
216.964996
 20
46.317299
 11
214.513000
 21
43.865002
  0
LINE
  8
0
  6
CONTINUOUS
 62
7
 10
216.931000
 20
43.923401
 11
214.477997
 21
46.375801
  0
LINE
  8
0
  6
CONTINUOUS
 62
7
 10
213.751007
 20
95.891899
 11
213.751007
 21
68.517799
  0
LINE
  8
0
  6
CONTINUOUS
 62
7
 10
209.751007
 20
95.654099
 11
209.751007
 21
68.410004
  0
LINE
  8
0
  6
CONTINUOUS
 62
7
 10
214.751007
 20
89.103104
 11
214.751007
 21
81.997902
  0
LINE
  8
0
  6
CONTINUOUS
 62
7
 10
212.751007
 20
89.103104
 11
212.751007
 21
81.923401
  0
LINE
  8
0
  6
CONTINUOUS
 62
7
 10
210.751007
 20
89.103104
 11
210.751007
 21
81.997902
  0
LINE
  8
0
  6
CONTINUOUS
 62
7
 10
208.751007
 20
89.103104
 11
208.751007
 21
81.923401
  0
LINE
  8
0
  6
CONTINUOUS
 62
7
 10
210.751007
 20
70.603104
 11
212.751007
 21
70.603104
  0
LINE
  8
0
  6
CONTINUOUS
 62
7
 10
210.751007
 20
69.603104
 11
212.751007
 21
69.603104
  0
LINE
  8
0
  6
CONTINUOUS
 62
7
 10
214.751007
 20
70.603104
 11
218.251007
 21
70.603104
  0
LINE
  8
0
  6
CONTINUOUS
 62
7
 10
214.751007
 20
69.603104
 11
222.751007
 21
69.603104
  0
LINE
  8
0
  6
CONTINUOUS
 62
7
 10
210.751007
 20
79.997902
 11
210.751007
 21
69.103104
  0
LINE
  8
0
  6
CONTINUOUS
 62
7
 10
208.751007
 20
79.923401
 11
208.751007
 21
69.103104
  0
LINE
  8
0
  6
CONTINUOUS
 62
7
 10
212.751007
 20
79.923401
 11
212.751007
 21
69.103104
  0
LINE
  8
0
  6
CONTINUOUS
 62
7
 10
214.751007
 20
79.997902
 11
214.751007
 21
69.103104
  0
LINE
  8
0
  6
CONTINUOUS
 62
7
 10
76.170998
 20
66.303101
 11
78.670998
 21
66.303101
  0
LINE
  8
0
  6
CONTINUOUS
 62
7
 10
76.170998
 20
66.303101
 11
76.170998
 21
65.603104
  0
LINE
  8
0
  6
CONTINUOUS
 62
7
 10
81.170898
 20
66.303101
 11
78.670998
 21
66.303101
  0
LINE
  8
0
  6
CONTINUOUS
 62
7
 10
81.170898
 20
66.303101
 11
81.170898
 21
65.603104
  0
LINE
  8
0
  6
CONTINUOUS
 62
7
 10
112.170998
 20
24.603001
 11
75.170998
 21
24.603001
  0
LINE
  8
0
  6
CONTINUOUS
 62
7
 10
210.751007
 20
89.103104
 11
208.751007
 21
89.103104
  0
LINE
  8
0
  6
CONTINUOUS
 62
7
 10
214.751007
 20
89.103104
 11
212.751007
 21
89.103104
  0
LINE
  8
0
  6
CONTINUOUS
 62
7
 10
213.095993
 20
94.103104
 11
213.095993
 21
89.103104
  0
LINE
  8
0
  6
CONTINUOUS
 62
7
 10
214.406006
 20
94.103104
 11
214.406006
 21
89.103104
  0
LINE
  8
0
  6
CONTINUOUS
 62
7
 10
210.406006
 20
94.103104
 11
210.406006
 21
89.103104
  0
LINE
  8
0
  6
CONTINUOUS
 62
7
 10
209.095993
 20
94.103104
 11
209.095993
 21
89.103104
  0
LINE
  8
0
  6
CONTINUOUS
 62
7
 10
214.406006
 20
94.103104
 11
213.095993
 21
94.103104
  0
LINE
  8
0
  6
CONTINUOUS
 62
7
 10
210.406006
 20
94.103104
 11
209.095993
 21
94.103104
  0
LINE
  8
0
  6
PHANTOM
 62
7
 10
233.798996
 20
184.869003
 11
239.798996
 21
190.869003
  0
LINE
  8
0
  6
PHANTOM
 62
7
 10
239.798996
 20
190.869003
 11
264.799011
 21
190.869003
  0
LINE
  8
0
  6
PHANTOM
 62
7
 10
264.799988
 20
190.869003
 11
270.799988
 21
184.869003
  0
LINE
  8
0
  6
PHANTOM
 62
7
 10
270.799988
 20
184.869003
 11
270.799988
 21
176.369003
  0
LINE
  8
0
  6
PHANTOM
 62
7
 10
233.800003
 20
184.869003
 11
233.800003
 21
176.369003
  0
LINE
  8
0
  6
PHANTOM
 62
7
 10
233.800003
 20
149.369003
 11
233.800003
 21
140.869003
  0
LINE
  8
0
  6
PHANTOM
 62
7
 10
233.800003
 20
140.869003
 11
239.800003
 21
134.869003
  0
LINE
  8
0
  6
PHANTOM
 62
7
 10
239.798996
 20
134.869003
 11
264.799011
 21
134.869003
  0
LINE
  8
0
  6
PHANTOM
 62
7
 10
270.799988
 20
140.869003
 11
264.799988
 21
134.869003
  0
LINE
  8
0
  6
PHANTOM
 62
7
 10
270.799988
 20
149.369003
 11
270.799988
 21
140.869003
  0
LINE
  8
0
  6
PHANTOM
 62
7
 10
233.800003
 20
147.869003
 11
270.799011
 21
147.869003
  0
LINE
  8
0
  6
PHANTOM
 62
7
 10
233.800003
 20
177.869003
 11
270.799011
 21
177.869003
  0
LINE
  8
0
  6
CONTINUOUS
 62
7
 10
94.299500
 20
226.869003
 11
94.299500
 21
223.869003
  0
LINE
  8
0
  6
PHANTOM
 62
7
 10
94.299500
 20
226.869003
 11
104.299004
 21
226.869003
  0
LINE
  8
0
  6
PHANTOM
 62
7
 10
94.299500
 20
224.869003
 11
104.299004
 21
224.869003
  0
LINE
  8
0
  6
CONTINUOUS
 62
7
 10
99.799500
 20
229.240997
 11
99.799500
 21
222.425003
  0
LINE
  8
0
  6
PHANTOM
 62
7
 10
105.300003
 20
230.869003
 11
105.300003
 21
227.869003
  0
LINE
  8
0
  6
PHANTOM
 62
7
 10
107.299004
 20
230.869003
 11
107.299004
 21
227.869003
  0
LINE
  8
0
  6
PHANTOM
 62
7
 10
108.299004
 20
231.869003
 11
136.300003
 21
231.869003
  0
LINE
  8
0
  6
PHANTOM
 62
7
 10
137.298996
 20
230.869003
 11
137.298996
 21
227.869003
  0
LINE
  8
0
  6
PHANTOM
 62
7
 10
139.298996
 20
230.869003
 11
139.298996
 21
227.869003
  0
LINE
  8
0
  6
PHANTOM
 62
7
 10
140.298996
 20
224.869003
 11
150.300003
 21
224.869003
  0
LINE
  8
0
  6
PHANTOM
 62
7
 10
140.298996
 20
226.869003
 11
150.300003
 21
226.869003
  0
LINE
  8
0
  6
PHANTOM
 62
7
 10
150.300003
 20
226.869003
 11
150.300003
 21
224.869003
  0
LINE
  8
0
  6
PHANTOM
 62
7
 10
233.798996
 20
226.869003
 11
270.799011
 21
226.869003
  0
LINE
  8
0
  6
PHANTOM
 62
7
 10
233.798996
 20
224.869003
 11
270.799011
 21
224.869003
  0
LINE
  8
0
  6
PHANTOM
 62
7
 10
233.798996
 20
230.869003
 11
270.799011
 21
230.869003
  0
LINE
  8
0
  6
PHANTOM
 62
7
 10
233.798996
 20
233.869003
 11
233.798996
 21
224.869003
  0
LINE
  8
0
  6
PHANTOM
 62
7
 10
270.799011
 20
233.869003
 11
270.799011
 21
224.869003
  0
LINE
  8
0
  6
PHANTOM
 62
7
 10
344.299988
 20
226.869003
 11
344.299988
 21
224.869003
  0
LINE
  8
0
  6
PHANTOM
 62
7
 10
344.299988
 20
224.869003
 11
354.299988
 21
224.869003
  0
LINE
  8
0
  6
PHANTOM
 62
7
 10
344.299988
 20
226.869003
 11
354.299988
 21
226.869003
  0
LINE
  8
0
  6
PHANTOM
 62
7
 10
357.299011
 20
230.869003
 11
357.299011
 21
227.869003
  0
LINE
  8
0
  6
PHANTOM
 62
7
 10
355.299988
 20
230.869003
 11
355.299988
 21
227.869003
  0
LINE
  8
0
  6
PHANTOM
 62
7
 10
358.299011
 20
231.869003
 11
386.299988
 21
231.869003
  0
LINE
  8
0
  6
PHANTOM
 62
7
 10
389.299988
 20
230.869003
 11
389.299988
 21
227.869003
  0
LINE
  8
0
  6
PHANTOM
 62
7
 10
387.299011
 20
230.869003
 11
387.299011
 21
227.869003
  0
LINE
  8
0
  6
PHANTOM
 62
7
 10
390.299988
 20
226.869003
 11
400.299011
 21
226.869003
  0
LINE
  8
0
  6
PHANTOM
 62
7
 10
390.299988
 20
224.869003
 11
400.299011
 21
224.869003
  0
LINE
  8
0
  6
PHANTOM
 62
7
 10
400.299988
 20
226.869003
 11
400.299988
 21
224.869003
  0
LINE
  8
0
  6
CONTINUOUS
 62
7
 10
198.384003
 20
252.369003
 11
241.022995
 21
252.369003
  0
LINE
  8
0
  6
CONTINUOUS
 62
7
 10
227.666000
 20
271.368988
 11
241.022995
 21
271.368988
  0
LINE
  8
0
  6
CONTINUOUS
 62
7
 10
363.768005
 20
259.868988
 11
380.666992
 21
259.868988
  0
LINE
  8
0
  6
PHANTOM
 62
7
 10
207.630997
 20
252.369003
 11
207.630997
 21
245.869003
  0
LINE
  8
0
  6
PHANTOM
 62
7
 10
207.630997
 20
245.869003
 11
212.130997
 21
246.104996
  0
LINE
  8
0
  6
PHANTOM
 62
7
 10
207.630997
 20
246.869003
 11
212.725998
 21
247.136002
  0
LINE
  8
0
  6
PHANTOM
 62
7
 10
214.630997
 20
252.369003
 11
214.630997
 21
250.434998
  0
LINE
  8
0
  6
PHANTOM
 62
7
 10
212.130997
 20
252.369003
 11
212.130997
 21
245.869003
  0
LINE
  8
0
  6
PHANTOM
 62
7
 10
212.130997
 20
246.104996
 11
214.630997
 21
250.434998
  0
LINE
  8
0
  6
PHANTOM
 62
7
 10
207.630997
 20
252.369003
 11
207.630997
 21
258.868988
  0
LINE
  8
0
  6
PHANTOM
 62
7
 10
207.630997
 20
258.868988
 11
212.130997
 21
258.632996
  0
LINE
  8
0
  6
PHANTOM
 62
7
 10
207.630997
 20
257.868988
 11
212.725998
 21
257.601990
  0
LINE
  8
0
  6
PHANTOM
 62
7
 10
214.630997
 20
252.369003
 11
214.630997
 21
254.302994
  0
LINE
  8
0
  6
PHANTOM
 62
7
 10
212.130997
 20
252.369003
 11
212.130997
 21
258.868988
  0
LINE
  8
0
  6
PHANTOM
 62
7
 10
212.130997
 20
258.632996
 11
214.630997
 21
254.302994
  0
LINE
  8
0
  6
CONTINUOUS
 62
7
 10
246.677002
 20
185.369003
 11
257.834991
 21
185.369003
  0
LINE
  8
0
  6
CONTINUOUS
 62
7
 10
247.106003
 20
140.369003
 11
258.049988
 21
140.369003
  0
LINE
  8
0
  6
CONTINUOUS
 62
7
 10
252.298996
 20
143.985001
 11
252.298996
 21
136.046005
  0
LINE
  8
0
  6
CONTINUOUS
 62
7
 10
252.298996
 20
178.962006
 11
252.298996
 21
147.203995
  0
LINE
  8
0
  6
CONTINUOUS
 62
7
 10
204.125000
 20
273.670013
 11
226.095993
 21
273.670013
  0
LINE
  8
0
  6
CONTINUOUS
 62
7
 10
312.734009
 20
303.670013
 11
352.945007
 21
303.670013
  0
LINE
  8
0
  6
CONTINUOUS
 62
3
 10
0.000000
 20
0.000000
 11
0.000000
 21
360.000000
  0
LINE
  8
0
  6
CONTINUOUS
 62
3
 10
524.494019
 20
360.000000
 11
524.494019
 21
0.000000
  0
LINE
  8
0
  6
CONTINUOUS
 62
3
 10
0.000000
 20
0.000000
 11
524.494019
 21
0.000000
  0
LINE
  8
0
  6
CONTINUOUS
 62
3
 10
0.000000
 20
360.000000
 11
524.494019
 21
360.000000
  0
LINE
  8
0
  6
CONTINUOUS
 62
3
 10
0.000000
 20
339.774994
 11
107.864998
 21
339.774994
  0
LINE
  8
0
  6
CONTINUOUS
 62
3
 10
107.864998
 20
339.774994
 11
107.864998
 21
360.000000
  0
LINE
  8
0
  6
CONTINUOUS
 62
3
 10
416.628998
 20
20.224701
 11
524.494019
 21
20.224701
  0
LINE
  8
0
  6
CONTINUOUS
 62
3
 10
416.628998
 20
339.774994
 11
524.494019
 21
339.774994
  0
LINE
  8
0
  6
CONTINUOUS
 62
3
 10
416.628998
 20
360.000000
 11
416.628998
 21
339.774994
  0
LINE
  8
0
  6
CONTINUOUS
 62
3
 10
416.628998
 20
20.224701
 11
416.628998
 21
0.000000
  0
ARC
  8
0
  6
CONTINUOUS
 62
7
 10
109.599998
 20
234.669006
 40
0.800003
 50
180.000000
 51
270.000000
  0
ARC
  8
0
  6
CONTINUOUS
 62
7
 10
134.998993
 20
234.669006
 40
0.800003
 50
270.000000
 51
0.000000
  0
ARC
  8
0
  6
CONTINUOUS
 62
7
 10
269.998993
 20
234.669006
 40
0.800003
 50
270.000000
 51
0.000000
  0
ARC
  8
0
  6
CONTINUOUS
 62
7
 10
234.600006
 20
234.669006
 40
0.800003
 50
180.000000
 51
270.000000
  0
ARC
  8
0
  6
CONTINUOUS
 62
7
 10
359.600006
 20
234.669006
 40
0.799988
 50
180.000000
 51
270.000000
  0
ARC
  8
0
  6
CONTINUOUS
 62
7
 10
385.000000
 20
234.669006
 40
0.800003
 50
270.000000
 51
0.000000
  0
CIRCLE
  8
0
  6
CONTINUOUS
 62
7
 10
361.799011
 20
276.368988
 40
2.200000
  0
CIRCLE
  8
0
  6
CONTINUOUS
 62
7
 10
382.799011
 20
266.368988
 40
2.200000
  0
ARC
  8
0
  6
CONTINUOUS
 62
7
 10
361.799011
 20
276.368988
 40
4.000000
 50
0.000000
 51
138.589996
  0
ARC
  8
0
  6
CONTINUOUS
 62
7
 10
382.799011
 20
266.368988
 40
4.000000
 50
41.409599
 51
318.589996
  0
ARC
  8
0
  6
CONTINUOUS
 62
7
 10
361.799011
 20
276.368988
 40
4.000000
 50
221.410004
 51
0.000000
  0
ARC
  8
0
  6
CONTINUOUS
 62
7
 10
124.799004
 20
314.669006
 40
2.500000
 50
0.000000
 51
90.000000
  0
ARC
  8
0
  6
CONTINUOUS
 62
7
 10
119.799004
 20
314.669006
 40
2.500000
 50
90.000000
 51
270.000000
  0
ARC
  8
0
  6
CONTINUOUS
 62
7
 10
124.799004
 20
314.669006
 40
3.500000
 50
0.000000
 51
90.000000
  0
ARC
  8
0
  6
CONTINUOUS
 62
7
 10
119.799004
 20
314.669006
 40
3.500000
 50
90.000000
 51
270.000000
  0
ARC
  8
0
  6
CONTINUOUS
 62
7
 10
124.799004
 20
314.669006
 40
3.500000
 50
270.000000
 51
0.000000
  0
ARC
  8
0
  6
CONTINUOUS
 62
7
 10
124.799004
 20
314.669006
 40
2.500000
 50
270.000000
 51
0.000000
  0
CIRCLE
  8
0
  6
CONTINUOUS
 62
7
 10
124.799004
 20
314.669006
 40
1.250000
  0
CIRCLE
  8
0
  6
CONTINUOUS
 62
7
 10
119.799004
 20
314.669006
 40
1.250000
  0
ARC
  8
0
  6
CONTINUOUS
 62
7
 10
231.298996
 20
316.669006
 40
0.500000
 50
90.000000
 51
180.000000
  0
ARC
  8
0
  6
CONTINUOUS
 62
7
 10
231.298996
 20
312.669006
 40
0.500000
 50
180.000000
 51
270.000000
  0
CIRCLE
  8
0
  6
CONTINUOUS
 62
7
 10
119.799004
 20
314.669006
 40
0.500000
  0
CIRCLE
  8
0
  6
CONTINUOUS
 62
7
 10
124.799004
 20
314.669006
 40
0.500000
  0
CIRCLE
  8
0
  6
CONTINUOUS
 62
7
 10
122.299004
 20
271.368988
 40
6.750000
  0
CIRCLE
  8
0
  6
CONTINUOUS
 62
7
 10
122.299004
 20
252.369003
 40
6.750000
  0
CIRCLE
  8
0
  6
CONTINUOUS
 62
7
 10
372.299011
 20
259.868988
 40
6.750000
  0
CIRCLE
  8
0
  6
CONTINUOUS
 62
7
 10
122.299004
 20
271.368988
 40
5.500000
  0
CIRCLE
  8
0
  6
CONTINUOUS
 62
7
 10
122.299004
 20
252.369003
 40
5.500000
  0
CIRCLE
  8
0
  6
CONTINUOUS
 62
7
 10
372.299011
 20
259.868988
 40
5.500000
  0
CIRCLE
  8
0
  6
CONTINUOUS
 62
7
 10
238.298996
 20
261.368988
 40
2.200000
  0
CIRCLE
  8
0
  6
CONTINUOUS
 62
7
 10
266.299011
 20
250.369003
 40
2.200000
  0
CIRCLE
  8
0
  6
CONTINUOUS
 62
7
 10
132.798996
 20
276.368988
 40
2.200000
  0
CIRCLE
  8
0
  6
CONTINUOUS
 62
7
 10
111.799004
 20
266.368988
 40
2.200000
  0
CIRCLE
  8
0
  6
CONTINUOUS
 62
7
 10
239.798996
 20
173.369003
 40
2.000000
  0
CIRCLE
  8
0
  6
CONTINUOUS
 62
7
 10
264.799011
 20
152.369003
 40
2.000000
  0
CIRCLE
  8
0
  6
CONTINUOUS
 62
7
 10
239.798996
 20
173.369003
 40
1.500000
  0
CIRCLE
  8
0
  6
CONTINUOUS
 62
7
 10
264.799011
 20
152.369003
 40
1.500000
  0
ARC
  8
0
  6
CONTINUOUS
 62
7
 10
252.298996
 20
172.869003
 40
3.500000
 50
180.000000
 51
0.000000
  0
ARC
  8
0
  6
CONTINUOUS
 62
7
 10
252.298996
 20
152.869003
 40
3.500000
 50
0.000000
 51
180.000000
  0
CIRCLE
  8
0
  6
CONTINUOUS
 62
7
 10
252.298996
 20
172.869003
 40
2.500000
  0
CIRCLE
  8
0
  6
CONTINUOUS
 62
7
 10
252.298996
 20
152.869003
 40
2.500000
  0
ARC
  8
0
  6
CONTINUOUS
 62
7
 10
307.173004
 20
66.002998
 40
4.999990
 50
56.632900
 51
123.366997
  0
ARC
  8
0
  6
CONTINUOUS
 62
7
 10
349.173004
 20
65.852997
 40
2.500000
 50
0.000000
 51
90.000000
  0
ARC
  8
0
  6
CONTINUOUS
 62
7
 10
347.173004
 20
75.852997
 40
2.500000
 50
0.000000
 51
90.000000
  0
ARC
  8
0
  6
CONTINUOUS
 62
7
 10
342.173004
 20
75.852997
 40
2.499990
 50
90.000000
 51
180.000000
  0
ARC
  8
0
  6
CONTINUOUS
 62
7
 10
334.673004
 20
69.352997
 40
1.000000
 50
270.000000
 51
0.000000
  0
ARC
  8
0
  6
CONTINUOUS
 62
7
 10
337.173004
 20
78.352997
 40
1.499990
 50
90.000000
 51
180.000000
  0
ARC
  8
0
  6
CONTINUOUS
 62
7
 10
352.173004
 20
78.352997
 40
1.500000
 50
0.000000
 51
90.000000
  0
ARC
  8
0
  6
CONTINUOUS
 62
7
 10
351.601013
 20
85.763702
 40
4.089300
 50
55.615799
 51
124.384003
  0
ARC
  8
0
  6
CONTINUOUS
 62
7
 10
344.673004
 20
74.567497
 40
15.285400
 50
72.412102
 51
90.000000
  0
ARC
  8
0
  6
CONTINUOUS
 62
7
 10
344.673004
 20
74.567497
 40
15.285400
 50
90.000000
 51
107.587997
  0
ARC
  8
0
  6
CONTINUOUS
 62
7
 10
337.743988
 20
85.763702
 40
4.089300
 50
55.615799
 51
124.384003
  0
ARC
  8
0
  6
CONTINUOUS
 62
7
 10
349.673004
 20
42.103100
 40
2.000000
 50
270.000000
 51
0.000000
  0
ARC
  8
0
  6
CONTINUOUS
 62
7
 10
414.006012
 20
78.324402
 40
11.778500
 50
70.147400
 51
109.852997
  0
ARC
  8
0
  6
CONTINUOUS
 62
7
 10
406.006012
 20
78.324402
 40
11.778500
 50
70.147400
 51
109.851997
  0
CIRCLE
  8
0
  6
CONTINUOUS
 62
7
 10
410.006012
 20
54.103100
 40
2.999990
  0
ARC
  8
0
  6
CONTINUOUS
 62
7
 10
418.006012
 20
42.103100
 40
2.000000
 50
270.000000
 51
0.000000
  0
ARC
  8
0
  6
CONTINUOUS
 62
7
 10
402.006012
 20
42.103100
 40
2.000000
 50
180.000000
 51
270.000000
  0
ARC
  8
0
  6
CONTINUOUS
 62
7
 10
402.006012
 20
79.102997
 40
1.000000
 50
90.000000
 51
180.000000
  0
ARC
  8
0
  6
CONTINUOUS
 62
7
 10
418.006012
 20
79.102997
 40
1.000000
 50
0.000000
 51
90.000000
  0
ARC
  8
0
  6
CONTINUOUS
 62
7
 10
202.751007
 20
63.103100
 40
3.000000
 50
270.000000
 51
0.000000
  0
CIRCLE
  8
0
  6
CONTINUOUS
 62
7
 10
202.751007
 20
63.103100
 40
2.500000
  0
ARC
  8
0
  6
CONTINUOUS
 62
7
 10
215.751007
 20
45.103100
 40
3.000000
 50
90.000000
 51
180.000000
  0
CIRCLE
  8
0
  6
CONTINUOUS
 62
7
 10
215.751007
 20
45.103100
 40
2.500000
  0
CIRCLE
  8
0
  6
PHANTOM
 62
7
 10
252.298996
 20
185.369003
 40
2.750000
  0
CIRCLE
  8
0
  6
PHANTOM
 62
7
 10
252.298996
 20
140.369003
 40
2.750000
  0
ARC
  8
0
  6
PHANTOM
 62
7
 10
104.299004
 20
227.869003
 40
3.000000
 50
270.000000
 51
0.000000
  0
ARC
  8
0
  6
PHANTOM
 62
7
 10
104.299004
 20
227.869003
 40
1.000000
 50
270.000000
 51
0.000000
  0
ARC
  8
0
  6
PHANTOM
 62
7
 10
108.299004
 20
230.869003
 40
3.000000
 50
90.000000
 51
180.000000
  0
ARC
  8
0
  6
PHANTOM
 62
7
 10
108.299004
 20
230.869003
 40
1.000000
 50
90.000000
 51
180.000000
  0
ARC
  8
0
  6
PHANTOM
 62
7
 10
136.300003
 20
230.869003
 40
3.000000
 50
0.000000
 51
90.000000
  0
ARC
  8
0
  6
PHANTOM
 62
7
 10
140.300003
 20
227.869003
 40
3.000000
 50
180.000000
 51
270.000000
  0
ARC
  8
0
  6
PHANTOM
 62
7
 10
140.300003
 20
227.869003
 40
1.000000
 50
180.000000
 51
270.000000
  0
ARC
  8
0
  6
CONTINUOUS
 62
7
 10
136.300003
 20
230.869003
 40
1.000000
 50
0.000000
 51
90.000000
  0
ARC
  8
0
  6
PHANTOM
 62
7
 10
354.299988
 20
227.869003
 40
3.000000
 50
270.000000
 51
0.000000
  0
ARC
  8
0
  6
PHANTOM
 62
7
 10
354.299988
 20
227.869003
 40
1.000000
 50
270.000000
 51
0.000000
  0
ARC
  8
0
  6
PHANTOM
 62
7
 10
358.299988
 20
230.869003
 40
3.000000
 50
90.000000
 51
180.000000
  0
ARC
  8
0
  6
PHANTOM
 62
7
 10
358.299988
 20
230.869003
 40
1.000000
 50
90.000000
 51
180.000000
  0
ARC
  8
0
  6
PHANTOM
 62
7
 10
386.299988
 20
230.869003
 40
1.000000
 50
0.000000
 51
90.000000
  0
ARC
  8
0
  6
PHANTOM
 62
7
 10
386.299988
 20
230.869003
 40
3.000000
 50
0.000000
 51
90.000000
  0
ARC
  8
0
  6
PHANTOM
 62
7
 10
390.299988
 20
227.869003
 40
3.000000
 50
180.000000
 51
270.000000
  0
ARC
  8
0
  6
PHANTOM
 62
7
 10
390.299988
 20
227.869003
 40
1.000000
 50
180.000000
 51
270.000000
  0
POLYLINE
  8
0
  6
CONTINUOUS
 62
7
 66
     1
  0
VERTEX
  8
0
 10
224.690002
 20
161.632004
  0
VERTEX
  8
0
 10
224.618683
 20
161.246246
  0
VERTEX
  8
0
 10
224.623001
 20
160.830002
  0
VERTEX
  8
0
 10
224.760361
 20
160.309860
  0
VERTEX
  8
0
 10
224.856995
 20
159.828003
  0
VERTEX
  8
0
 10
224.784683
 20
159.466904
  0
VERTEX
  8
0
 10
224.623001
 20
159.126999
  0
SEQEND
  0
POLYLINE
  8
0
  6
CONTINUOUS
 62
7
 66
     1
  0
VERTEX
  8
0
 10
226.427002
 20
161.598999
  0
VERTEX
  8
0
 10
226.330338
 20
161.156525
  0
VERTEX
  8
0
 10
226.326996
 20
160.697006
  0
VERTEX
  8
0
 10
226.458130
 20
160.188950
  0
VERTEX
  8
0
 10
226.526993
 20
159.727997
  0
VERTEX
  8
0
 10
226.420090
 20
159.411484
  0
VERTEX
  8
0
 10
226.225998
 20
159.126999
  0
SEQEND
  0
POLYLINE
  8
0
  6
CONTINUOUS
 62
7
 66
     1
  0
VERTEX
  8
0
 10
249.798996
 20
235.869003
  0
VERTEX
  8
0
 10
249.845673
 20
235.326431
  0
VERTEX
  8
0
 10
250.126007
 20
234.723007
  0
VERTEX
  8
0
 10
250.710266
 20
234.216614
  0
VERTEX
  8
0
 10
251.486710
 20
233.942398
  0
VERTEX
  8
0
 10
252.298996
 20
233.869003
  0
SEQEND
  0
POLYLINE
  8
0
  6
CONTINUOUS
 62
7
 66
     1
  0
VERTEX
  8
0
 10
254.798996
 20
235.869003
  0
VERTEX
  8
0
 10
254.752853
 20
235.326508
  0
VERTEX
  8
0
 10
254.473007
 20
234.723007
  0
VERTEX
  8
0
 10
253.888474
 20
234.216507
  0
VERTEX
  8
0
 10
253.111649
 20
233.942337
  0
VERTEX
  8
0
 10
252.298996
 20
233.869003
  0
SEQEND
  0
POLYLINE
  8
0
  6
CONTINUOUS
 62
7
 66
     1
  0
VERTEX
  8
0
 10
359.549011
 20
330.169006
  0
VERTEX
  8
0
 10
359.530182
 20
330.633759
  0
VERTEX
  8
0
 10
359.726990
 20
331.225006
  0
VERTEX
  8
0
 10
360.309692
 20
331.823730
  0
VERTEX
  8
0
 10
361.154480
 20
332.161499
  0
VERTEX
  8
0
 10
362.049011
 20
332.269012
  0
SEQEND
  0
POLYLINE
  8
0
  6
CONTINUOUS
 62
7
 66
     1
  0
VERTEX
  8
0
 10
364.549011
 20
330.169006
  0
VERTEX
  8
0
 10
364.568359
 20
330.633698
  0
VERTEX
  8
0
 10
364.372009
 20
331.225006
  0
VERTEX
  8
0
 10
363.789063
 20
331.823853
  0
VERTEX
  8
0
 10
362.943909
 20
332.161530
  0
VERTEX
  8
0
 10
362.049011
 20
332.269012
  0
SEQEND
  0
POLYLINE
  8
0
  6
CONTINUOUS
 62
7
 66
     1
  0
VERTEX
  8
0
 10
114.549004
 20
330.169006
  0
VERTEX
  8
0
 10
114.568344
 20
330.633698
  0
VERTEX
  8
0
 10
114.372002
 20
331.225006
  0
VERTEX
  8
0
 10
113.789040
 20
331.823853
  0
VERTEX
  8
0
 10
112.943886
 20
332.161530
  0
VERTEX
  8
0
 10
112.049004
 20
332.269012
  0
SEQEND
  0
POLYLINE
  8
0
  6
CONTINUOUS
 62
7
 66
     1
  0
VERTEX
  8
0
 10
109.549004
 20
330.169006
  0
VERTEX
  8
0
 10
109.530182
 20
330.633759
  0
VERTEX
  8
0
 10
109.726997
 20
331.225006
  0
VERTEX
  8
0
 10
110.309708
 20
331.823730
  0
VERTEX
  8
0
 10
111.154480
 20
332.161499
  0
VERTEX
  8
0
 10
112.049004
 20
332.269012
  0
SEQEND
  0
POLYLINE
  8
0
  6
CONTINUOUS
 62
7
 66
     1
  0
VERTEX
  8
0
 10
268.549011
 20
330.169006
  0
VERTEX
  8
0
 10
268.568359
 20
330.633698
  0
VERTEX
  8
0
 10
268.372009
 20
331.225006
  0
VERTEX
  8
0
 10
267.789063
 20
331.823853
  0
VERTEX
  8
0
 10
266.943909
 20
332.161530
  0
VERTEX
  8
0
 10
266.049011
 20
332.269012
  0
SEQEND
  0
POLYLINE
  8
0
  6
CONTINUOUS
 62
7
 66
     1
  0
VERTEX
  8
0
 10
263.549011
 20
330.169006
  0
VERTEX
  8
0
 10
263.530182
 20
330.633759
  0
VERTEX
  8
0
 10
263.726990
 20
331.225006
  0
VERTEX
  8
0
 10
264.309692
 20
331.823730
  0
VERTEX
  8
0
 10
265.154480
 20
332.161499
  0
VERTEX
  8
0
 10
266.049011
 20
332.269012
  0
SEQEND
  0
POLYLINE
  8
0
  6
CONTINUOUS
 62
7
 66
     1
  0
VERTEX
  8
0
 10
223.690002
 20
315.932007
  0
VERTEX
  8
0
 10
223.618683
 20
315.546234
  0
VERTEX
  8
0
 10
223.623001
 20
315.130005
  0
VERTEX
  8
0
 10
223.760361
 20
314.609863
  0
VERTEX
  8
0
 10
223.856995
 20
314.127991
  0
VERTEX
  8
0
 10
223.784668
 20
313.766907
  0
VERTEX
  8
0
 10
223.623001
 20
313.427002
  0
SEQEND
  0
POLYLINE
  8
0
  6
CONTINUOUS
 62
7
 66
     1
  0
VERTEX
  8
0
 10
225.427002
 20
315.898987
  0
VERTEX
  8
0
 10
225.330338
 20
315.456512
  0
VERTEX
  8
0
 10
225.326996
 20
314.997009
  0
VERTEX
  8
0
 10
225.458130
 20
314.488983
  0
VERTEX
  8
0
 10
225.526993
 20
314.028015
  0
VERTEX
  8
0
 10
225.420090
 20
313.711487
  0
VERTEX
  8
0
 10
225.225998
 20
313.427002
  0
SEQEND
  0
POLYLINE
  8
0
  6
CONTINUOUS
 62
7
 66
     1
  0
VERTEX
  8
0
 10
224.690002
 20
166.632004
  0
VERTEX
  8
0
 10
224.618683
 20
166.246246
  0
VERTEX
  8
0
 10
224.623001
 20
165.830002
  0
VERTEX
  8
0
 10
224.760361
 20
165.309860
  0
VERTEX
  8
0
 10
224.856995
 20
164.828003
  0
VERTEX
  8
0
 10
224.784683
 20
164.466904
  0
VERTEX
  8
0
 10
224.623001
 20
164.126999
  0
SEQEND
  0
POLYLINE
  8
0
  6
CONTINUOUS
 62
7
 66
     1
  0
VERTEX
  8
0
 10
226.427002
 20
166.598999
  0
VERTEX
  8
0
 10
226.330338
 20
166.156525
  0
VERTEX
  8
0
 10
226.326996
 20
165.697006
  0
VERTEX
  8
0
 10
226.458130
 20
165.188950
  0
VERTEX
  8
0
 10
226.526993
 20
164.727997
  0
VERTEX
  8
0
 10
226.420090
 20
164.411484
  0
VERTEX
  8
0
 10
226.225998
 20
164.126999
  0
SEQEND
  0
POLYLINE
  8
0
  6
CONTINUOUS
 62
7
 66
     1
  0
VERTEX
  8
0
 10
400.006012
 20
64.102997
  0
VERTEX
  8
0
 10
400.309723
 20
64.926712
  0
VERTEX
  8
0
 10
400.709503
 20
65.768387
  0
VERTEX
  8
0
 10
401.192169
 20
66.567436
  0
VERTEX
  8
0
 10
401.744598
 20
67.263283
  0
VERTEX
  8
0
 10
402.353577
 20
67.795326
  0
VERTEX
  8
0
 10
403.006012
 20
68.102997
  0
VERTEX
  8
0
 10
403.809662
 20
68.134857
  0
VERTEX
  8
0
 10
404.643280
 20
67.857201
  0
VERTEX
  8
0
 10
405.479126
 20
67.322151
  0
VERTEX
  8
0
 10
406.289612
 20
66.581841
  0
VERTEX
  8
0
 10
407.046997
 20
65.688400
  0
VERTEX
  8
0
 10
407.729034
 20
64.709663
  0
VERTEX
  8
0
 10
408.350922
 20
63.744747
  0
VERTEX
  8
0
 10
408.927704
 20
62.910664
  0
VERTEX
  8
0
 10
409.474396
 20
62.324413
  0
VERTEX
  8
0
 10
410.006012
 20
62.103001
  0
VERTEX
  8
0
 10
410.536926
 20
62.323463
  0
VERTEX
  8
0
 10
411.082153
 20
62.907795
  0
VERTEX
  8
0
 10
411.657837
 20
63.740437
  0
VERTEX
  8
0
 10
412.280060
 20
64.705826
  0
VERTEX
  8
0
 10
412.964996
 20
65.688400
  0
VERTEX
  8
0
 10
413.721436
 20
66.586693
  0
VERTEX
  8
0
 10
414.524506
 20
67.329514
  0
VERTEX
  8
0
 10
415.353485
 20
67.864647
  0
VERTEX
  8
0
 10
416.187561
 20
68.139885
  0
VERTEX
  8
0
 10
417.006012
 20
68.102997
  0
VERTEX
  8
0
 10
417.672455
 20
67.791656
  0
VERTEX
  8
0
 10
418.285370
 20
67.258575
  0
VERTEX
  8
0
 10
418.834991
 20
66.563469
  0
VERTEX
  8
0
 10
419.311493
 20
65.766037
  0
VERTEX
  8
0
 10
419.705109
 20
64.925980
  0
VERTEX
  8
0
 10
420.006012
 20
64.102997
  0
SEQEND
  0
POLYLINE
  8
0
  6
CONTINUOUS
 62
7
 66
     1
  0
VERTEX
  8
0
 10
214.770004
 20
79.984596
  0
VERTEX
  8
0
 10
214.536926
 20
80.141022
  0
VERTEX
  8
0
 10
214.220993
 20
80.204498
  0
VERTEX
  8
0
 10
213.670197
 20
79.957100
  0
VERTEX
  8
0
 10
213.194000
 20
79.727997
  0
VERTEX
  8
0
 10
212.946823
 20
79.800499
  0
VERTEX
  8
0
 10
212.718002
 20
79.947998
  0
SEQEND
  0
POLYLINE
  8
0
  6
CONTINUOUS
 62
7
 66
     1
  0
VERTEX
  8
0
 10
210.770004
 20
79.984596
  0
VERTEX
  8
0
 10
210.536926
 20
80.141014
  0
VERTEX
  8
0
 10
210.220993
 20
80.204498
  0
VERTEX
  8
0
 10
209.670197
 20
79.957100
  0
VERTEX
  8
0
 10
209.194000
 20
79.727997
  0
VERTEX
  8
0
 10
208.946823
 20
79.800507
  0
VERTEX
  8
0
 10
208.718002
 20
79.947998
  0
SEQEND
  0
POLYLINE
  8
0
  6
CONTINUOUS
 62
7
 66
     1
  0
VERTEX
  8
0
 10
81.170898
 20
66.303101
  0
VERTEX
  8
0
 10
81.043434
 20
67.249229
  0
VERTEX
  8
0
 10
80.596100
 20
68.095497
  0
VERTEX
  8
0
 10
80.051140
 20
68.525650
  0
VERTEX
  8
0
 10
79.384239
 20
68.791153
  0
VERTEX
  8
0
 10
78.681702
 20
68.911697
  0
SEQEND
  0
POLYLINE
  8
0
  6
CONTINUOUS
 62
7
 66
     1
  0
VERTEX
  8
0
 10
214.770004
 20
81.984596
  0
VERTEX
  8
0
 10
214.536926
 20
82.141022
  0
VERTEX
  8
0
 10
214.220993
 20
82.204498
  0
VERTEX
  8
0
 10
213.670197
 20
81.957100
  0
VERTEX
  8
0
 10
213.194000
 20
81.727997
  0
VERTEX
  8
0
 10
212.946823
 20
81.800499
  0
VERTEX
  8
0
 10
212.718002
 20
81.947998
  0
SEQEND
  0
POLYLINE
  8
0
  6
CONTINUOUS
 62
7
 66
     1
  0
VERTEX
  8
0
 10
76.170998
 20
66.303101
  0
VERTEX
  8
0
 10
76.298462
 20
67.249237
  0
VERTEX
  8
0
 10
76.745796
 20
68.095497
  0
VERTEX
  8
0
 10
77.290756
 20
68.525642
  0
VERTEX
  8
0
 10
77.957664
 20
68.791153
  0
VERTEX
  8
0
 10
78.660202
 20
68.911697
  0
SEQEND
  0
POLYLINE
  8
0
  6
CONTINUOUS
 62
7
 66
     1
  0
VERTEX
  8
0
 10
131.171005
 20
42.103100
  0
VERTEX
  8
0
 10
131.952118
 20
42.104759
  0
VERTEX
  8
0
 10
132.738998
 20
42.412800
  0
VERTEX
  8
0
 10
133.262070
 20
42.998928
  0
VERTEX
  8
0
 10
133.562500
 20
43.780006
  0
VERTEX
  8
0
 10
133.671005
 20
44.603100
  0
SEQEND
  0
POLYLINE
  8
0
  6
CONTINUOUS
 62
7
 66
     1
  0
VERTEX
  8
0
 10
131.171005
 20
47.103100
  0
VERTEX
  8
0
 10
131.952133
 20
47.101387
  0
VERTEX
  8
0
 10
132.738998
 20
46.793301
  0
VERTEX
  8
0
 10
133.262054
 20
46.207199
  0
VERTEX
  8
0
 10
133.562500
 20
45.426159
  0
VERTEX
  8
0
 10
133.671005
 20
44.603100
  0
SEQEND
  0
POLYLINE
  8
0
  6
CONTINUOUS
 62
7
 66
     1
  0
VERTEX
  8
0
 10
126.902000
 20
79.984596
  0
VERTEX
  8
0
 10
127.135071
 20
80.141022
  0
VERTEX
  8
0
 10
127.450996
 20
80.204498
  0
VERTEX
  8
0
 10
128.001801
 20
79.957100
  0
VERTEX
  8
0
 10
128.477997
 20
79.727997
  0
VERTEX
  8
0
 10
128.725174
 20
79.800507
  0
VERTEX
  8
0
 10
128.953995
 20
79.947998
  0
SEQEND
  0
POLYLINE
  8
0
  6
CONTINUOUS
 62
7
 66
     1
  0
VERTEX
  8
0
 10
126.902000
 20
81.984596
  0
VERTEX
  8
0
 10
127.135071
 20
82.141022
  0
VERTEX
  8
0
 10
127.450996
 20
82.204498
  0
VERTEX
  8
0
 10
128.001801
 20
81.957100
  0
VERTEX
  8
0
 10
128.477997
 20
81.727997
  0
VERTEX
  8
0
 10
128.725174
 20
81.800507
  0
VERTEX
  8
0
 10
128.953995
 20
81.947998
  0
SEQEND
  0
POLYLINE
  8
0
  6
CONTINUOUS
 62
7
 66
     1
  0
VERTEX
  8
0
 10
210.770004
 20
81.984596
  0
VERTEX
  8
0
 10
210.536926
 20
82.141022
  0
VERTEX
  8
0
 10
210.220993
 20
82.204498
  0
VERTEX
  8
0
 10
209.670197
 20
81.957100
  0
VERTEX
  8
0
 10
209.194000
 20
81.727997
  0
VERTEX
  8
0
 10
208.946823
 20
81.800507
  0
VERTEX
  8
0
 10
208.718002
 20
81.947998
  0
SEQEND
  0
TEXT
  8
0
 62
7
 10
110.204994
 20
270.511993
 40
3.200000
  1
P
 50
0.000000
 41
0.820000
 51
0.000000
  7
STANDARD
  0
TEXT
  8
0
 62
7
 10
110.355995
 20
250.819000
 40
3.200000
  1
R
 50
0.000000
 41
0.820000
 51
0.000000
  7
STANDARD
  0
TEXT
  8
0
 62
7
 10
360.343994
 20
258.347992
 40
3.200000
  1
A
 50
0.000000
 41
0.820000
 51
0.000000
  7
STANDARD
  0
TEXT
  8
0
 62
7
 10
203.115997
 20
275.032013
 40
4.000000
  1
（添付品）
 50
0.000000
 41
0.690278
 51
0.000000
  7
STANDARD
  0
TEXT
  8
0
 62
7
 10
314.617004
 20
305.321991
 40
4.000000
  1
ザグリφ８深３
 50
0.000000
 41
0.660266
 51
0.000000
  7
STANDARD
  0
TEXT
  8
0
 62
7
 10
423.066986
 20
346.888000
 40
6.000000
  1
DATE : AUG ,1992
 50
0.000000
 41
0.835716
 51
0.000000
  7
STANDARD
  0
TEXT
  8
0
 62
7
 10
25.632599
 20
346.388000
 40
7.000000
  1
AIR VALBU
 50
0.000000
 41
0.767857
 51
0.000000
  7
STANDARD
  0
TEXT
  8
0
 62
7
 10
431.762024
 20
8.362400
 40
7.000000
  1
KOGANEI,CORP
 50
0.000000
 41
0.828571
 51
0.000000
  7
STANDARD
  0
TEXT
  8
0
 62
7
 10
12.411343
 20
293.070007
 40
8.000000
  1
MODEL:200E1
 50
0.000000
 41
0.841271
 51
0.000000
  7
STANDARD
  0
LINE
  8
0
  6
CONTINUOUS
 62
7
 10
270.718994
 20
96.124603
 11
231.714996
 21
96.124603
  0
LINE
  8
0
  6
CONTINUOUS
 62
7
 10
231.714996
 20
96.124603
 11
211.677002
 21
55.975700
  0
LINE
  8
0
  6
CONTINUOUS
 62
7
 10
211.677002
 20
55.975700
 11
213.665787
 21
58.221756
  0
LINE
  8
0
  6
CONTINUOUS
 62
7
 10
211.677002
 20
55.975700
 11
212.276306
 21
58.915230
  0
TEXT
  8
0
 62
7
 10
231.714996
 20
96.124603
 40
3.200000
  1
ＬＥＤインジケータ
 50
0.000000
 41
0.643645
 51
0.000000
  7
STANDARD
  0
LINE
  8
0
  6
CONTINUOUS
 62
7
 10
325.295013
 20
123.669998
 11
279.733002
 21
123.669998
  0
LINE
  8
0
  6
CONTINUOUS
 62
7
 10
279.733002
 20
123.669998
 11
265.722992
 21
150.595001
  0
LINE
  8
0
  6
CONTINUOUS
 62
7
 10
265.722992
 20
150.595001
 11
266.371765
 21
147.666000
  0
LINE
  8
0
  6
CONTINUOUS
 62
7
 10
265.722992
 20
150.595001
 11
267.749359
 21
148.382797
  0
TEXT
  8
0
 62
7
 10
279.733002
 20
123.669998
 40
3.200000
  1
２－Ｍ３Ｘ０．５深１２
 50
0.000000
 41
0.634664
 51
0.000000
  7
STANDARD
  0
LINE
  8
0
  6
CONTINUOUS
 62
7
 10
203.938004
 20
123.669998
 11
229.733002
 21
123.669998
  0
LINE
  8
0
  6
CONTINUOUS
 62
7
 10
229.733002
 20
123.669998
 11
250.089005
 21
138.733002
  0
LINE
  8
0
  6
CONTINUOUS
 62
7
 10
250.089005
 20
138.733002
 11
247.297760
 21
137.633469
  0
LINE
  8
0
  6
CONTINUOUS
 62
7
 10
250.089005
 20
138.733002
 11
248.221481
 21
136.385162
  0
TEXT
  8
0
 62
7
 10
203.938004
 20
123.669998
 40
3.200000
  1
2-φ5.5
 50
0.000000
 41
1.039609
 51
0.000000
  7
STANDARD
  0
LINE
  8
0
  6
CONTINUOUS
 62
7
 10
209.938995
 20
283.819000
 11
200.179001
 21
283.819000
  0
LINE
  8
0
  6
CONTINUOUS
 62
7
 10
200.179001
 20
283.819000
 11
210.052002
 21
258.828003
  0
LINE
  8
0
  6
CONTINUOUS
 62
7
 10
210.052002
 20
258.828003
 11
209.709427
 21
261.808380
  0
LINE
  8
0
  6
CONTINUOUS
 62
7
 10
210.052002
 20
258.828003
 11
208.265137
 21
261.237793
  0
TEXT
  8
0
 62
7
 10
200.179001
 20
283.819000
 40
3.200000
  1
-2
 50
0.000000
 41
1.140000
 51
0.000000
  7
STANDARD
  0
LINE
  8
0
  6
CONTINUOUS
 62
7
 10
183.675003
 20
213.669998
 11
209.733002
 21
213.669998
  0
LINE
  8
0
  6
CONTINUOUS
 62
7
 10
209.733002
 20
213.669998
 11
237.169006
 21
259.481995
  0
LINE
  8
0
  6
CONTINUOUS
 62
7
 10
237.169006
 20
259.481995
 11
235.014023
 21
257.394897
  0
LINE
  8
0
  6
CONTINUOUS
 62
7
 10
237.169006
 20
259.481995
 11
236.346283
 21
256.597015
  0
TEXT
  8
0
 62
7
 10
183.675003
 20
213.669998
 40
3.200000
  1
2-φ4.4
 50
0.000000
 41
1.039609
 51
0.000000
  7
STANDARD
  0
LINE
  8
0
  6
CONTINUOUS
 62
7
 10
322.811005
 20
313.670013
 11
349.733002
 21
313.670013
  0
LINE
  8
0
  6
CONTINUOUS
 62
7
 10
349.733002
 20
313.670013
 11
360.567993
 21
280.174988
  0
LINE
  8
0
  6
CONTINUOUS
 62
7
 10
360.567993
 20
280.174988
 11
360.414886
 21
283.171082
  0
LINE
  8
0
  6
CONTINUOUS
 62
7
 10
360.567993
 20
280.174988
 11
358.937347
 21
282.693115
  0
TEXT
  8
0
 62
7
 10
322.811005
 20
313.670013
 40
3.200000
  1
2-φ4.4
 50
0.000000
 41
1.039609
 51
0.000000
  7
STANDARD
  0
LINE
  8
0
  6
CONTINUOUS
 62
7
 10
426.897003
 20
313.670013
 11
399.733002
 21
313.670013
  0
LINE
  8
0
  6
CONTINUOUS
 62
7
 10
399.733002
 20
313.670013
 11
375.365997
 21
265.882996
  0
LINE
  8
0
  6
CONTINUOUS
 62
7
 10
375.365997
 20
265.882996
 11
377.374054
 21
268.111816
  0
LINE
  8
0
  6
CONTINUOUS
 62
7
 10
375.365997
 20
265.882996
 11
375.990631
 21
268.817261
  0
TEXT
  8
0
 62
7
 10
399.733002
 20
313.670013
 40
3.200000
  1
3-R
 50
0.000000
 41
0.789231
 51
0.000000
  7
STANDARD
  0
TEXT
  8
0
 62
7
 10
407.309631
 20
313.670013
 40
1.600000
  1
C
 50
0.000000
 41
0.789231
 51
0.000000
  7
STANDARD
  0
TEXT
  8
0
 62
7
 10
408.572388
 20
313.670013
 40
3.200000
  1
1/4
 50
0.000000
 41
0.789231
 51
0.000000
  7
STANDARD
  0
ENDSEC
  0
EOF
