  0
SECTION
  2
HEADER
  0
ENDSEC
  0
SECTION
  2
TABLES
  0
TABLE
  2
LTYPE
 70
     4
  0
LTYPE
  2
CONTINUOUS
 70
    64
  3
Solid line
 72
    65
 73
     0
 40
0.000000
  0
LTYPE
  2
DASHED
 70
    64
  3
__ __ __ __ __ __ __ __ __ __ __ __ __ __ __
 72
    65
 73
     2
 40
3.500000
 49
2.000000
 49
-1.500000
  0
LTYPE
  2
CENTER
 70
    64
  3
____ _ ____ _ ____ _ ____ _ ____ _ ____ _ ____
 72
    65
 73
     4
 40
17.500000
 49
13.000000
 49
-1.500000
 49
1.500000
 49
-1.500000
  0
LTYPE
  2
PHANTOM
 70
    64
  3
_____ _ _ _____ _ _ _____ _ _ _____ _ _ ____  
 72
    65
 73
     6
 40
15.500000
 49
8.000000
 49
-1.500000
 49
1.500000
 49
-1.500000
 49
1.500000
 49
-1.500000
  0
LTYPE
  2
DASHED1
 70
    64
  3
__ __ __ __ __ __ __ __ __ __ __ __ __ __ __
 72
    65
 73
     2
 40
1.500000
 49
1.000000
 49
-0.500000
  0
LTYPE
  2
DASHED2
 70
    64
  3
__ __ __ __ __ __ __ __ __ __ __ __ __ __ __
 72
    65
 73
     2
 40
3.500000
 49
2.500000
 49
-1.000000
  0
LTYPE
  2
DASHED3
 70
    64
  3
__ __ __ __ __ __ __ __ __ __ __ __ __ __ __
 72
    65
 73
     2
 40
6.000000
 49
4.000000
 49
-2.000000
  0
LTYPE
  2
DASHED4
 70
    64
  3
__ __ __ __ __ __ __ __ __ __ __ __ __ __ __
 72
    65
 73
     2
 40
12.000000
 49
10.000000
 49
-2.000000
  0
LTYPE
  2
DASHED5
 70
    64
  3
__ __ __ __ __ __ __ __ __ __ __ __ __ __ __
 72
    65
 73
     2
 40
17.000000
 49
15.000000
 49
-2.000000
  0
LTYPE
  2
DASHED6
 70
    64
  3
__ __ __ __ __ __ __ __ __ __ __ __ __ __ __
 72
    65
 73
     2
 40
29.000000
 49
27.000000
 49
-2.000000
  0
LTYPE
  2
PHANTOM1
 70
    64
  3
_____ _ _ _____ _ _ _____ _ _ _____ _ _ ____  
 72
    65
 73
     6
 40
31.000000
 49
25.000000
 49
-1.500000
 49
1.000000
 49
-1.000000
 49
1.000000
 49
-1.500000
  0
LTYPE
  2
PHANTOM2
 70
    64
  3
_____ _ _ _____ _ _ _____ _ _ _____ _ _ ____  
 72
    65
 73
     6
 40
36.000000
 49
27.000000
 49
-1.500000
 49
2.500000
 49
-1.000000
 49
2.500000
 49
-1.500000
  0
LTYPE
  2
PHANTOM3
 70
    64
  3
_____ _ _ _____ _ _ _____ _ _ _____ _ _ ____  
 72
    65
 73
     6
 40
78.000000
 49
64.000000
 49
-2.000000
 49
4.000000
 49
-2.000000
 49
4.000000
 49
-2.000000
  0
LTYPE
  2
CENTER1
 70
    64
  3
____ _ ____ _ ____ _ ____ _ ____ _ ____ _ ____
 72
    65
 73
     4
 40
19.000000
 49
14.000000
 49
-1.000000
 49
3.000000
 49
-1.000000
  0
LTYPE
  2
CENTER2
 70
    64
  3
____ _ ____ _ ____ _ ____ _ ____ _ ____ _ ____
 72
    65
 73
     4
 40
28.500000
 49
25.000000
 49
-1.000000
 49
1.500000
 49
-1.000000
  0
LTYPE
  2
CENTER3
 70
    64
  3
____ _ ____ _ ____ _ ____ _ ____ _ ____ _ ____
 72
    65
 73
     4
 40
31.500000
 49
27.000000
 49
-1.000000
 49
2.500000
 49
-1.000000
  0
LTYPE
  2
CENTER4
 70
    64
  3
____ _ ____ _ ____ _ ____ _ ____ _ ____ _ ____
 72
    65
 73
     4
 40
50.000000
 49
45.000000
 49
-1.000000
 49
3.000000
 49
-1.000000
  0
LTYPE
  2
CENTER5
 70
    64
  3
____ _ ____ _ ____ _ ____ _ ____ _ ____ _ ____
 72
    65
 73
     4
 40
100.000000
 49
92.000000
 49
-2.000000
 49
4.000000
 49
-2.000000
  0
LTYPE
  2
SBK1
 70
    64
  3
______ _ _ _ ______ _ _ _ ______ _ _ _ _____  
 72
    65
 73
     8
 40
60.500000
 49
45.000000
 49
-2.000000
 49
2.500000
 49
-2.000000
 49
2.500000
 49
-2.000000
 49
2.500000
 49
-2.000000
  0
LTYPE
  2
SBK2
 70
    64
  3
______ _ _ _ ______ _ _ _ ______ _ _ _ _____  
 72
    65
 73
     8
 40
84.000000
 49
64.000000
 49
-2.000000
 49
4.000000
 49
-2.000000
 49
4.000000
 49
-2.000000
 49
4.000000
 49
-2.000000
  0
LTYPE
  2
STCH
 70
    64
  3
__ __ __ __ __ __ __ __ __ __ __ __ __ __ __
 72
    65
 73
     2
 40
3.000000
 49
1.000000
 49
-2.000000
  0
LTYPE
  2
MTCH
 70
    64
  3
_____ _ _ _____ _ _ _____ _ _ _____ _ _ ____  
 72
    65
 73
     6
 40
80.000000
 49
66.000000
 49
-2.000000
 49
4.000000
 49
-2.000000
 49
4.000000
 49
-2.000000
  0
ENDTAB
  0
TABLE
  2
LAYER
 70
     1
  0
LAYER
  2
0
 70
     0
 62
     7
  6
CONTINUOUS
  0
ENDTAB
  0
TABLE
  2
STYLE
 70
     1
  0
STYLE
  2
STANDARD
 70
     0
 40
0.000000
 41
1.000000
 50
0.000000
 71
     0
 42
0.200000
  3
txt
  4
BIGFONT
  0
ENDTAB
  0
TABLE
  2
VIEW
 70
     0
  0
ENDTAB
  0
ENDSEC
  0
SECTION
  2
BLOCKS
  0
ENDSEC
  0
SECTION
  2
ENTITIES
  0
LINE
  8
0
 10
399.799988
 20
276.250000
 11
399.799988
 21
-276.750000
  0
LINE
  8
0
 10
-399.250000
 20
276.250000
 11
-399.250000
 21
-276.750000
  0
LINE
  8
0
 10
-399.250000
 20
276.250000
 11
399.799988
 21
276.250000
  0
LINE
  8
0
 10
-399.250000
 20
-276.750000
 11
399.799988
 21
-276.750000
  0
LINE
  8
0
 10
239.799988
 20
-251.750000
 11
399.799988
 21
-251.750000
  0
LINE
  8
0
 10
239.799988
 20
251.250000
 11
399.799988
 21
251.250000
  0
LINE
  8
0
 10
-399.250000
 20
251.250000
 11
-239.250000
 21
251.250000
  0
LINE
  8
0
 10
239.799988
 20
-251.750000
 11
239.799988
 21
-276.750000
  0
LINE
  8
0
 10
239.799988
 20
251.250000
 11
239.799988
 21
276.250000
  0
LINE
  8
0
 10
-239.250000
 20
276.250000
 11
-239.250000
 21
251.250000
  0
LINE
  8
0
 10
-384.250000
 20
-261.750000
 11
-197.250000
 21
-261.750000
  0
LINE
  8
0
 10
-384.250000
 20
-246.750000
 11
-197.250000
 21
-246.750000
  0
LINE
  8
0
 10
-384.250000
 20
-231.750000
 11
-197.250000
 21
-231.750000
  0
LINE
  8
0
 10
-384.250000
 20
-216.750000
 11
-197.250000
 21
-216.750000
  0
LINE
  8
0
 10
-384.250000
 20
-201.750000
 11
-197.250000
 21
-201.750000
  0
LINE
  8
0
 10
-384.250000
 20
-186.750000
 11
-197.250000
 21
-186.750000
  0
LINE
  8
0
 10
-384.250000
 20
-171.750000
 11
-197.250000
 21
-171.750000
  0
LINE
  8
0
 10
-384.250000
 20
-156.750000
 11
-197.250000
 21
-156.750000
  0
LINE
  8
0
 10
-384.250000
 20
-141.750000
 11
-197.250000
 21
-141.750000
  0
LINE
  8
0
 10
-384.250000
 20
-126.750000
 11
-197.250000
 21
-126.750000
  0
LINE
  8
0
 10
-384.250000
 20
-111.750000
 11
-197.250000
 21
-111.750000
  0
LINE
  8
0
 10
-384.250000
 20
-111.750000
 11
-384.250000
 21
-261.750000
  0
LINE
  8
0
 10
-287.250000
 20
-111.750000
 11
-287.250000
 21
-261.750000
  0
LINE
  8
0
 10
-242.250000
 20
-111.750000
 11
-242.250000
 21
-261.750000
  0
LINE
  8
0
 10
-197.250000
 20
-111.750000
 11
-197.250000
 21
-261.750000
  0
LINE
  8
0
 10
-9.421677
 20
47.353973
 11
-9.421677
 21
49.354012
  0
LINE
  8
0
 10
-9.421677
 20
47.353973
 11
-16.421661
 21
47.353973
  0
LINE
  8
0
 10
-16.421661
 20
47.353973
 11
-16.421661
 21
49.354012
  0
LINE
  8
0
 10
-10.421677
 20
48.353981
 11
-15.421677
 21
48.353981
  0
LINE
  8
0
 10
-15.421721
 20
48.354019
 11
-17.421724
 21
50.354023
  0
LINE
  8
0
 10
-10.421682
 20
48.354023
 11
-8.421666
 21
50.354034
  0
LINE
  8
0
 10
-100.421677
 20
47.353989
 11
-100.421677
 21
49.354004
  0
LINE
  8
0
 10
-100.421677
 20
47.353989
 11
-93.421677
 21
47.353989
  0
LINE
  8
0
 10
-93.421677
 20
47.353989
 11
-93.421677
 21
49.354004
  0
LINE
  8
0
 10
-99.421677
 20
48.354012
 11
-94.421677
 21
48.354012
  0
LINE
  8
0
 10
-94.421669
 20
48.354000
 11
-92.421661
 21
50.354004
  0
LINE
  8
0
 10
-99.421661
 20
48.354008
 11
-101.421661
 21
50.354012
  0
LINE
  8
0
 10
-18.021683
 20
131.120087
 11
-18.021683
 21
130.554016
  0
LINE
  8
0
 10
-15.821671
 20
131.120087
 11
-15.821671
 21
130.554016
  0
LINE
  8
0
 10
-15.821671
 20
130.754028
 11
-18.021683
 21
130.754028
  0
LINE
  8
0
 10
-16.521683
 20
131.554016
 11
-17.321671
 21
131.554016
  0
LINE
  8
0
 10
-165.921646
 20
50.354019
 11
-147.921646
 21
50.354019
  0
LINE
  8
0
  6
CENTER
 62
     2
 10
-178.413040
 20
121.854027
 11
-167.637711
 21
121.854027
  0
LINE
  8
0
 10
-178.421646
 20
124.354027
 11
-178.421646
 21
127.354042
  0
LINE
  8
0
 10
-178.421646
 20
116.354019
 11
-178.421646
 21
119.354027
  0
LINE
  8
0
  6
CENTER
 62
     2
 10
-173.421646
 20
116.106239
 11
-173.421646
 21
127.725716
  0
LINE
  8
0
 10
-178.421646
 20
119.354027
 11
-173.421646
 21
119.354027
  0
LINE
  8
0
 10
-178.421646
 20
124.354027
 11
-173.421646
 21
124.354027
  0
LINE
  8
0
  6
CENTER
 62
     2
 10
-178.413040
 20
57.854019
 11
-167.637711
 21
57.854019
  0
LINE
  8
0
 10
-178.421646
 20
60.354019
 11
-178.421646
 21
63.354027
  0
LINE
  8
0
 10
-178.421646
 20
52.354034
 11
-178.421646
 21
55.354019
  0
LINE
  8
0
  6
CENTER
 62
     2
 10
-173.421646
 20
52.106255
 11
-173.421646
 21
63.725708
  0
LINE
  8
0
 10
-178.421646
 20
55.354019
 11
-173.421646
 21
55.354019
  0
LINE
  8
0
 10
-178.421646
 20
60.354019
 11
-173.421646
 21
60.354019
  0
LINE
  8
0
 10
-176.421646
 20
50.354019
 11
-165.921646
 21
50.354019
  0
LINE
  8
0
 10
-176.421646
 20
65.354019
 11
-167.921646
 21
65.354019
  0
LINE
  8
0
 10
-176.421646
 20
129.354034
 11
-147.921646
 21
129.354034
  0
LINE
  8
0
 10
-176.421646
 20
114.354027
 11
-167.921646
 21
114.354027
  0
LINE
  8
0
 10
-147.921646
 20
129.354034
 11
-147.921646
 21
50.354019
  0
LINE
  8
0
 10
-165.921661
 20
129.354034
 11
-165.921661
 21
50.354019
  0
LINE
  8
0
 10
10.078293
 20
129.354034
 11
-7.921692
 21
129.354034
  0
LINE
  8
0
 10
-7.921692
 20
50.354019
 11
-7.921692
 21
129.354034
  0
LINE
  8
0
 10
10.078293
 20
129.354034
 11
10.078293
 21
50.354019
  0
LINE
  8
0
 10
10.078293
 20
50.354019
 11
-7.921692
 21
50.354019
  0
LINE
  8
0
  6
CENTER
 62
     2
 10
22.569717
 20
121.854027
 11
11.794357
 21
121.854027
  0
LINE
  8
0
 10
22.578293
 20
124.354027
 11
22.578293
 21
127.354042
  0
LINE
  8
0
 10
22.578293
 20
116.354019
 11
22.578293
 21
119.354027
  0
LINE
  8
0
  6
CENTER
 62
     2
 10
17.578293
 20
116.106239
 11
17.578293
 21
127.725716
  0
LINE
  8
0
 10
22.578293
 20
119.354027
 11
17.578323
 21
119.354027
  0
LINE
  8
0
 10
22.578323
 20
124.354027
 11
17.578323
 21
124.354027
  0
LINE
  8
0
  6
CENTER
 62
     2
 10
22.569717
 20
57.854019
 11
11.794357
 21
57.854019
  0
LINE
  8
0
 10
22.578293
 20
60.354019
 11
22.578293
 21
63.354027
  0
LINE
  8
0
 10
22.578293
 20
52.354034
 11
22.578293
 21
55.354019
  0
LINE
  8
0
  6
CENTER
 62
     2
 10
17.578293
 20
52.106255
 11
17.578293
 21
63.725708
  0
LINE
  8
0
 10
22.578323
 20
55.354019
 11
17.578323
 21
55.354019
  0
LINE
  8
0
 10
22.578293
 20
60.354019
 11
17.578323
 21
60.354019
  0
LINE
  8
0
 10
20.578323
 20
50.354019
 11
10.078293
 21
50.354019
  0
LINE
  8
0
 10
20.578323
 20
65.354019
 11
12.078323
 21
65.354019
  0
LINE
  8
0
 10
20.578323
 20
129.354034
 11
10.078293
 21
129.354034
  0
LINE
  8
0
 10
20.578323
 20
114.354027
 11
12.078323
 21
114.354027
  0
LINE
  8
0
 10
-7.921692
 20
51.354042
 11
10.078293
 21
51.354042
  0
LINE
  8
0
 10
-35.921677
 20
50.354027
 11
-7.921661
 21
50.354027
  0
LINE
  8
0
 10
-35.921661
 20
129.354034
 11
-7.921661
 21
129.354034
  0
LINE
  8
0
 10
-35.921677
 20
50.354027
 11
-35.921677
 21
129.354034
  0
LINE
  8
0
 10
-7.921661
 20
50.354027
 11
-7.921661
 21
129.354034
  0
LINE
  8
0
 10
-7.921661
 20
51.354027
 11
-35.921677
 21
51.354027
  0
LINE
  8
0
 62
     4
 10
-33.421661
 20
64.354027
 11
-10.421661
 21
64.354027
  0
LINE
  8
0
 62
     4
 10
-33.421661
 20
117.354012
 11
-10.421661
 21
117.354012
  0
LINE
  8
0
 62
     4
 10
-31.982393
 20
102.793419
 11
-29.861073
 21
104.914734
  0
LINE
  8
0
 62
     4
 10
-31.982367
 20
104.914650
 11
-29.861046
 21
102.793327
  0
LINE
  8
0
 62
     4
 10
-13.982376
 20
94.793411
 11
-11.861055
 21
96.914734
  0
LINE
  8
0
 62
     4
 10
-13.982363
 20
96.914703
 11
-11.861042
 21
94.793381
  0
LINE
  8
0
 62
     4
 10
-31.982374
 20
76.793419
 11
-29.861055
 21
78.914734
  0
LINE
  8
0
 62
     4
 10
-31.982391
 20
78.914673
 11
-29.861073
 21
76.793350
  0
LINE
  8
0
 62
     4
 10
-33.421661
 20
117.354012
 11
-33.421661
 21
64.354027
  0
LINE
  8
0
 62
     4
 10
-10.421661
 20
64.354027
 11
-10.421661
 21
117.354012
  0
LINE
  8
0
 10
-6.421692
 20
132.354034
 11
-6.421692
 21
130.354034
  0
LINE
  8
0
 10
-6.421692
 20
132.354034
 11
0.578293
 21
132.354034
  0
LINE
  8
0
 10
0.578293
 20
132.354034
 11
0.578293
 21
130.354034
  0
LINE
  8
0
 10
-5.421692
 20
131.354004
 11
-0.421677
 21
131.354004
  0
LINE
  8
0
 10
-0.421681
 20
131.354004
 11
1.578328
 21
129.354004
  0
LINE
  8
0
 10
-5.421721
 20
131.354004
 11
-7.421702
 21
129.354019
  0
LINE
  8
0
 10
-34.421661
 20
132.354034
 11
-34.421661
 21
130.354034
  0
LINE
  8
0
 10
-34.421661
 20
132.354034
 11
-27.421677
 21
132.354034
  0
LINE
  8
0
 10
-27.421677
 20
132.354034
 11
-27.421677
 21
129.354034
  0
LINE
  8
0
 10
-33.421661
 20
131.354004
 11
-28.421646
 21
131.354004
  0
LINE
  8
0
 10
-28.421656
 20
131.353989
 11
-27.421688
 21
130.354019
  0
LINE
  8
0
 10
-33.421650
 20
131.354019
 11
-35.421631
 21
129.354034
  0
LINE
  8
0
 10
-145.421707
 20
134.854034
 11
-145.421707
 21
55.354042
  0
LINE
  8
0
 10
-122.421707
 20
134.854034
 11
-122.421707
 21
55.354042
  0
LINE
  8
0
  6
CENTER
 62
     2
 10
-133.921707
 20
159.222961
 11
-133.921707
 21
47.779991
  0
LINE
  8
0
 10
-145.421707
 20
55.354042
 11
-122.421707
 21
55.354042
  0
LINE
  8
0
 10
-147.921707
 20
129.354034
 11
-145.421707
 21
129.354034
  0
LINE
  8
0
 10
-147.921707
 20
50.354027
 11
-147.921707
 21
129.354034
  0
LINE
  8
0
 10
-122.421707
 20
129.354034
 11
-119.921707
 21
129.354034
  0
LINE
  8
0
 10
-119.921707
 20
51.354027
 11
-147.921707
 21
51.354027
  0
LINE
  8
0
 10
-119.921707
 20
50.354027
 11
-119.921707
 21
129.354034
  0
LINE
  8
0
 10
-145.421707
 20
134.854034
 11
-122.421707
 21
134.854034
  0
LINE
  8
0
 10
-146.421707
 20
132.054016
 11
-146.421707
 21
130.354034
  0
LINE
  8
0
 10
-146.421722
 20
132.054001
 11
-145.902100
 21
132.354004
  0
LINE
  8
0
 10
-145.902084
 20
132.354034
 11
-145.421707
 21
132.354034
  0
LINE
  8
0
 10
-146.421707
 20
132.054016
 11
-145.421707
 21
132.054016
  0
LINE
  8
0
 10
-145.421692
 20
131.353989
 11
-147.421692
 21
129.353989
  0
LINE
  8
0
 10
-147.921707
 20
50.354027
 11
-119.921707
 21
50.354027
  0
LINE
  8
0
 10
-142.921707
 20
80.854034
 11
-145.421707
 21
80.854034
  0
LINE
  8
0
 10
-142.921707
 20
74.854034
 11
-145.421707
 21
74.854034
  0
LINE
  8
0
 10
-125.421707
 20
68.354042
 11
-122.421707
 21
68.354042
  0
LINE
  8
0
 10
-125.421707
 20
73.354042
 11
-122.421707
 21
73.354042
  0
LINE
  8
0
 10
-124.921707
 20
92.854034
 11
-122.421707
 21
92.854034
  0
LINE
  8
0
 10
-124.921707
 20
98.854034
 11
-122.421707
 21
98.854034
  0
LINE
  8
0
 10
-142.421707
 20
113.354027
 11
-145.421707
 21
113.354027
  0
LINE
  8
0
 10
-142.421707
 20
108.354027
 11
-145.421707
 21
108.354027
  0
LINE
  8
0
 10
-142.921707
 20
106.854027
 11
-145.421707
 21
106.854027
  0
LINE
  8
0
 10
-142.921707
 20
100.854034
 11
-145.421707
 21
100.854034
  0
LINE
  8
0
 10
-143.921707
 20
115.854027
 11
-143.921707
 21
113.354027
  0
LINE
  8
0
 10
-123.921707
 20
115.854027
 11
-123.921707
 21
98.854034
  0
LINE
  8
0
 10
-145.421707
 20
64.354042
 11
-122.421707
 21
64.354042
  0
LINE
  8
0
 10
-145.421707
 20
117.354027
 11
-122.421707
 21
117.354027
  0
LINE
  8
0
 10
-143.921707
 20
115.854027
 11
-123.921707
 21
115.854027
  0
LINE
  8
0
 10
-143.921707
 20
65.854042
 11
-123.921707
 21
65.854042
  0
LINE
  8
0
 10
-143.921707
 20
74.854034
 11
-143.921707
 21
65.854042
  0
LINE
  8
0
 10
-143.921707
 20
100.854034
 11
-143.921707
 21
80.854034
  0
LINE
  8
0
 10
-143.921707
 20
108.354027
 11
-143.921707
 21
106.854027
  0
LINE
  8
0
 10
-123.921707
 20
92.854034
 11
-123.921707
 21
73.354042
  0
LINE
  8
0
 10
-123.921707
 20
68.354042
 11
-123.921707
 21
65.854042
  0
LINE
  8
0
 10
-145.421707
 20
64.354027
 11
-143.921692
 21
65.854034
  0
LINE
  8
0
 10
-123.921654
 20
65.854103
 11
-122.421646
 21
64.354088
  0
LINE
  8
0
 10
-122.421677
 20
117.354019
 11
-123.921669
 21
115.854034
  0
LINE
  8
0
 10
-145.421646
 20
117.354042
 11
-143.921646
 21
115.854057
  0
LINE
  8
0
 10
-126.482491
 20
69.793495
 11
-124.361168
 21
71.914810
  0
LINE
  8
0
 10
-143.482422
 20
109.793442
 11
-141.361115
 21
111.914764
  0
LINE
  8
0
 10
-143.482407
 20
111.914650
 11
-141.361084
 21
109.793335
  0
LINE
  8
0
 10
-126.482498
 20
71.914688
 11
-124.361176
 21
69.793365
  0
LINE
  8
0
 10
-143.982452
 20
102.793457
 11
-141.861145
 21
104.914780
  0
LINE
  8
0
 10
-143.982452
 20
104.914635
 11
-141.861130
 21
102.793312
  0
LINE
  8
0
 10
-125.982445
 20
94.793442
 11
-123.861122
 21
96.914764
  0
LINE
  8
0
 10
-125.982430
 20
96.914688
 11
-123.861115
 21
94.793365
  0
LINE
  8
0
 10
-143.982437
 20
76.793449
 11
-141.861115
 21
78.914764
  0
LINE
  8
0
 10
-143.982437
 20
78.914658
 11
-141.861115
 21
76.793335
  0
LINE
  8
0
 10
-117.421707
 20
134.854034
 11
-117.421707
 21
55.354042
  0
LINE
  8
0
 10
-94.421707
 20
134.854034
 11
-94.421707
 21
55.354042
  0
LINE
  8
0
  6
CENTER
 62
     2
 10
-105.921707
 20
159.222961
 11
-105.921707
 21
47.779991
  0
LINE
  8
0
 10
-117.421707
 20
55.354042
 11
-94.421707
 21
55.354042
  0
LINE
  8
0
 10
-119.921707
 20
129.354034
 11
-117.421707
 21
129.354034
  0
LINE
  8
0
 10
-119.921715
 20
50.354027
 11
-119.921715
 21
129.354034
  0
LINE
  8
0
 10
-94.421707
 20
129.354034
 11
-91.921707
 21
129.354034
  0
LINE
  8
0
 10
-91.921707
 20
51.354027
 11
-119.921715
 21
51.354027
  0
LINE
  8
0
 10
-91.921707
 20
50.354027
 11
-91.921707
 21
129.354034
  0
LINE
  8
0
 10
-117.421707
 20
134.854034
 11
-94.421707
 21
134.854034
  0
LINE
  8
0
 10
-118.421707
 20
132.054016
 11
-118.421707
 21
130.354034
  0
LINE
  8
0
 10
-118.421715
 20
132.053986
 11
-117.902092
 21
132.353989
  0
LINE
  8
0
 10
-117.902092
 20
132.354034
 11
-117.421707
 21
132.354034
  0
LINE
  8
0
 10
-118.421707
 20
132.054016
 11
-117.421707
 21
132.054016
  0
LINE
  8
0
 10
-117.421669
 20
131.353989
 11
-119.421677
 21
129.353989
  0
LINE
  8
0
 10
-119.921715
 20
50.354027
 11
-91.921707
 21
50.354027
  0
LINE
  8
0
 10
-114.921707
 20
80.854034
 11
-117.421707
 21
80.854034
  0
LINE
  8
0
 10
-114.921707
 20
74.854034
 11
-117.421707
 21
74.854034
  0
LINE
  8
0
 10
-97.421707
 20
68.354042
 11
-94.421707
 21
68.354042
  0
LINE
  8
0
 10
-97.421707
 20
73.354042
 11
-94.421707
 21
73.354042
  0
LINE
  8
0
 10
-96.921707
 20
92.854034
 11
-94.421707
 21
92.854034
  0
LINE
  8
0
 10
-96.921707
 20
98.854034
 11
-94.421707
 21
98.854034
  0
LINE
  8
0
 10
-114.421707
 20
113.354027
 11
-117.421707
 21
113.354027
  0
LINE
  8
0
 10
-114.421707
 20
108.354027
 11
-117.421707
 21
108.354027
  0
LINE
  8
0
 10
-114.921707
 20
106.854027
 11
-117.421707
 21
106.854027
  0
LINE
  8
0
 10
-114.921707
 20
100.854034
 11
-117.421707
 21
100.854034
  0
LINE
  8
0
 10
-115.921707
 20
115.854027
 11
-115.921707
 21
113.354027
  0
LINE
  8
0
 10
-95.921707
 20
115.854027
 11
-95.921707
 21
98.854034
  0
LINE
  8
0
 10
-117.421707
 20
64.354042
 11
-94.421707
 21
64.354042
  0
LINE
  8
0
 10
-117.421707
 20
117.354027
 11
-94.421707
 21
117.354027
  0
LINE
  8
0
 10
-115.921707
 20
115.854027
 11
-95.921707
 21
115.854027
  0
LINE
  8
0
 10
-115.921707
 20
65.854042
 11
-95.921707
 21
65.854042
  0
LINE
  8
0
 10
-115.921707
 20
74.854034
 11
-115.921707
 21
65.854042
  0
LINE
  8
0
 10
-115.921707
 20
100.854034
 11
-115.921707
 21
80.854034
  0
LINE
  8
0
 10
-115.921707
 20
108.354027
 11
-115.921707
 21
106.854027
  0
LINE
  8
0
 10
-95.921707
 20
92.854034
 11
-95.921707
 21
73.354042
  0
LINE
  8
0
 10
-95.921707
 20
68.354042
 11
-95.921707
 21
65.854042
  0
LINE
  8
0
 10
-117.421700
 20
64.354004
 11
-115.921692
 21
65.854012
  0
LINE
  8
0
 10
-95.921669
 20
65.854118
 11
-94.421654
 21
64.354103
  0
LINE
  8
0
 10
-94.421700
 20
117.354034
 11
-95.921692
 21
115.854042
  0
LINE
  8
0
 10
-117.421654
 20
117.354042
 11
-115.921661
 21
115.854050
  0
LINE
  8
0
 10
-98.482475
 20
69.793472
 11
-96.361153
 21
71.914795
  0
LINE
  8
0
 10
-115.482407
 20
109.793427
 11
-113.361084
 21
111.914749
  0
LINE
  8
0
 10
-115.482384
 20
111.914642
 11
-113.361069
 21
109.793320
  0
LINE
  8
0
 10
-98.482483
 20
71.914673
 11
-96.361160
 21
69.793358
  0
LINE
  8
0
 10
-115.982437
 20
102.793465
 11
-113.861122
 21
104.914787
  0
LINE
  8
0
 10
-115.982445
 20
104.914650
 11
-113.861122
 21
102.793327
  0
LINE
  8
0
 10
-97.982422
 20
94.793434
 11
-95.861099
 21
96.914749
  0
LINE
  8
0
 10
-97.982430
 20
96.914703
 11
-95.861107
 21
94.793381
  0
LINE
  8
0
 10
-115.982422
 20
76.793434
 11
-113.861099
 21
78.914757
  0
LINE
  8
0
 10
-115.982452
 20
78.914658
 11
-113.861130
 21
76.793335
  0
LINE
  8
0
 10
-89.421692
 20
134.854034
 11
-89.421692
 21
46.854057
  0
LINE
  8
0
 10
-66.421692
 20
134.854034
 11
-66.421692
 21
46.854057
  0
LINE
  8
0
  6
CENTER
 62
     2
 10
-77.921692
 20
160.687378
 11
-77.921692
 21
15.854057
  0
LINE
  8
0
 10
-91.921692
 20
129.354034
 11
-89.421692
 21
129.354034
  0
LINE
  8
0
 10
-91.921700
 20
50.354042
 11
-91.921700
 21
129.354034
  0
LINE
  8
0
 10
-66.421692
 20
129.354034
 11
-63.921692
 21
129.354034
  0
LINE
  8
0
 10
-63.921692
 20
51.354042
 11
-66.421692
 21
51.354042
  0
LINE
  8
0
 10
-63.921692
 20
50.354042
 11
-63.921692
 21
129.354034
  0
LINE
  8
0
 10
-66.421692
 20
47.354042
 11
-65.421692
 21
47.354042
  0
LINE
  8
0
 10
-65.421692
 20
47.354042
 11
-65.421692
 21
49.354042
  0
LINE
  8
0
 10
-66.421684
 20
48.354046
 11
-64.421684
 21
50.354046
  0
LINE
  8
0
 10
-66.421700
 20
46.854057
 11
-89.421700
 21
46.854057
  0
LINE
  8
0
 10
-90.421692
 20
132.054047
 11
-90.421692
 21
130.354034
  0
LINE
  8
0
 10
-90.421684
 20
132.054016
 11
-89.902061
 21
132.354019
  0
LINE
  8
0
 10
-89.902077
 20
132.354034
 11
-89.421692
 21
132.354034
  0
LINE
  8
0
 10
-90.421692
 20
132.054047
 11
-89.421692
 21
132.054047
  0
LINE
  8
0
 10
-89.421661
 20
131.354019
 11
-91.421661
 21
129.354004
  0
LINE
  8
0
 10
-91.921700
 20
50.354042
 11
-89.421692
 21
50.354042
  0
LINE
  8
0
 10
-86.921692
 20
80.854050
 11
-89.421692
 21
80.854050
  0
LINE
  8
0
 10
-86.921692
 20
74.854050
 11
-89.421692
 21
74.854050
  0
LINE
  8
0
 10
-69.421692
 20
68.354057
 11
-66.421692
 21
68.354057
  0
LINE
  8
0
 10
-69.421692
 20
73.354057
 11
-66.421692
 21
73.354057
  0
LINE
  8
0
 10
-68.921692
 20
92.854050
 11
-66.421692
 21
92.854050
  0
LINE
  8
0
 10
-68.921692
 20
98.854050
 11
-66.421692
 21
98.854050
  0
LINE
  8
0
 10
-86.421692
 20
113.354042
 11
-89.421692
 21
113.354042
  0
LINE
  8
0
 10
-86.421692
 20
108.354042
 11
-89.421692
 21
108.354042
  0
LINE
  8
0
 10
-86.921692
 20
106.854042
 11
-89.421692
 21
106.854042
  0
LINE
  8
0
 10
-86.921692
 20
100.854050
 11
-89.421692
 21
100.854050
  0
LINE
  8
0
 10
-87.921692
 20
115.854042
 11
-87.921692
 21
113.354042
  0
LINE
  8
0
 10
-67.921692
 20
115.854042
 11
-67.921692
 21
98.854050
  0
LINE
  8
0
 10
-89.421692
 20
64.354057
 11
-66.421692
 21
64.354057
  0
LINE
  8
0
 10
-89.421692
 20
117.354042
 11
-66.421692
 21
117.354042
  0
LINE
  8
0
 10
-87.921692
 20
115.854042
 11
-67.921692
 21
115.854042
  0
LINE
  8
0
 10
-87.921692
 20
65.854057
 11
-67.921692
 21
65.854057
  0
LINE
  8
0
 10
-87.921692
 20
74.854050
 11
-87.921692
 21
65.854057
  0
LINE
  8
0
 10
-87.921692
 20
100.854050
 11
-87.921692
 21
80.854050
  0
LINE
  8
0
 10
-87.921692
 20
108.354042
 11
-87.921692
 21
106.854042
  0
LINE
  8
0
 10
-67.921692
 20
92.854050
 11
-67.921692
 21
73.354057
  0
LINE
  8
0
 10
-67.921692
 20
68.354057
 11
-67.921692
 21
65.854057
  0
LINE
  8
0
 10
-89.421700
 20
64.354027
 11
-87.921692
 21
65.854042
  0
LINE
  8
0
 10
-67.921661
 20
65.854111
 11
-66.421646
 21
64.354095
  0
LINE
  8
0
 10
-66.421677
 20
117.354057
 11
-67.921661
 21
115.854065
  0
LINE
  8
0
 10
-89.421654
 20
117.354057
 11
-87.921661
 21
115.854065
  0
LINE
  8
0
 10
-70.482460
 20
69.793495
 11
-68.361145
 21
71.914810
  0
LINE
  8
0
 10
-87.482399
 20
109.793449
 11
-85.361076
 21
111.914764
  0
LINE
  8
0
 10
-87.482384
 20
111.914673
 11
-85.361069
 21
109.793358
  0
LINE
  8
0
 10
-70.482460
 20
71.914688
 11
-68.361137
 21
69.793365
  0
LINE
  8
0
 10
-87.982445
 20
102.793472
 11
-85.861122
 21
104.914795
  0
LINE
  8
0
 10
-87.982391
 20
104.914650
 11
-85.861076
 21
102.793327
  0
LINE
  8
0
 10
-69.982391
 20
94.793449
 11
-67.861076
 21
96.914772
  0
LINE
  8
0
 10
-69.982422
 20
96.914711
 11
-67.861099
 21
94.793388
  0
LINE
  8
0
 10
-87.982391
 20
76.793449
 11
-85.861076
 21
78.914772
  0
LINE
  8
0
 10
-87.982430
 20
78.914673
 11
-85.861107
 21
76.793350
  0
LINE
  8
0
 10
-89.421692
 20
134.854034
 11
-66.421692
 21
134.854034
  0
LINE
  8
0
 10
-89.421692
 20
51.354042
 11
-91.921700
 21
51.354042
  0
LINE
  8
0
 10
-66.421692
 20
50.354042
 11
-63.921692
 21
50.354042
  0
LINE
  8
0
 10
-61.421677
 20
149.854034
 11
-61.421677
 21
31.854027
  0
LINE
  8
0
 10
-38.421677
 20
149.854034
 11
-38.421677
 21
31.854027
  0
LINE
  8
0
  6
CENTER
 62
     2
 10
-49.921677
 20
174.222931
 11
-49.921677
 21
0.854027
  0
LINE
  8
0
 10
-38.421677
 20
31.854027
 11
-61.421684
 21
31.854027
  0
LINE
  8
0
 10
-63.921684
 20
50.354027
 11
-61.421677
 21
50.354027
  0
LINE
  8
0
 10
-63.921677
 20
129.354034
 11
-61.421677
 21
129.354034
  0
LINE
  8
0
 10
-63.921684
 20
50.354027
 11
-63.921684
 21
129.354034
  0
LINE
  8
0
 10
-38.421677
 20
129.354034
 11
-35.921677
 21
129.354034
  0
LINE
  8
0
 10
-35.921677
 20
51.354027
 11
-38.421677
 21
51.354027
  0
LINE
  8
0
 10
-35.921677
 20
50.354027
 11
-35.921677
 21
129.354034
  0
LINE
  8
0
 10
-61.421677
 20
51.354027
 11
-63.921684
 21
51.354027
  0
LINE
  8
0
 10
-38.421677
 20
50.354027
 11
-35.921677
 21
50.354027
  0
LINE
  8
0
 10
-61.421677
 20
149.854034
 11
-38.421677
 21
149.854034
  0
LINE
  8
0
 10
-62.421677
 20
132.054016
 11
-62.421677
 21
130.354034
  0
LINE
  8
0
 10
-62.421677
 20
132.054001
 11
-61.902054
 21
132.354004
  0
LINE
  8
0
 10
-61.902069
 20
132.354034
 11
-61.421677
 21
132.354034
  0
LINE
  8
0
 10
-62.421677
 20
132.054016
 11
-61.421677
 21
132.054016
  0
LINE
  8
0
 10
-61.421665
 20
131.354019
 11
-63.421658
 21
129.354019
  0
LINE
  8
0
 10
-38.421677
 20
47.354027
 11
-37.421677
 21
47.354027
  0
LINE
  8
0
 10
-37.421677
 20
47.354027
 11
-37.421677
 21
49.354027
  0
LINE
  8
0
 10
-38.421680
 20
48.354027
 11
-36.421677
 21
50.354027
  0
LINE
  8
0
 10
-58.921677
 20
80.854019
 11
-61.421677
 21
80.854019
  0
LINE
  8
0
 10
-58.921677
 20
74.854019
 11
-61.421677
 21
74.854019
  0
LINE
  8
0
 10
-41.421677
 20
68.354027
 11
-38.421677
 21
68.354027
  0
LINE
  8
0
 10
-41.421677
 20
73.354027
 11
-38.421677
 21
73.354027
  0
LINE
  8
0
 10
-40.921677
 20
92.854019
 11
-38.421677
 21
92.854019
  0
LINE
  8
0
 10
-40.921677
 20
98.854019
 11
-38.421677
 21
98.854019
  0
LINE
  8
0
 10
-58.421677
 20
113.354012
 11
-61.421677
 21
113.354012
  0
LINE
  8
0
 10
-58.421677
 20
108.354012
 11
-61.421677
 21
108.354012
  0
LINE
  8
0
 10
-58.921677
 20
106.854012
 11
-61.421677
 21
106.854012
  0
LINE
  8
0
 10
-58.921677
 20
100.854019
 11
-61.421677
 21
100.854019
  0
LINE
  8
0
 10
-59.921677
 20
115.854012
 11
-59.921677
 21
113.354012
  0
LINE
  8
0
 10
-39.921677
 20
115.854012
 11
-39.921677
 21
98.854019
  0
LINE
  8
0
 10
-61.421677
 20
64.354027
 11
-38.421677
 21
64.354027
  0
LINE
  8
0
 10
-61.421677
 20
117.354012
 11
-38.421677
 21
117.354012
  0
LINE
  8
0
 10
-59.921677
 20
115.854012
 11
-39.921677
 21
115.854012
  0
LINE
  8
0
 10
-59.921677
 20
65.854027
 11
-39.921677
 21
65.854027
  0
LINE
  8
0
 10
-59.921677
 20
74.854019
 11
-59.921677
 21
65.854027
  0
LINE
  8
0
 10
-59.921677
 20
100.854019
 11
-59.921677
 21
80.854019
  0
LINE
  8
0
 10
-59.921677
 20
108.354012
 11
-59.921677
 21
106.854012
  0
LINE
  8
0
 10
-39.921677
 20
92.854019
 11
-39.921677
 21
73.354027
  0
LINE
  8
0
 10
-39.921677
 20
68.354027
 11
-39.921677
 21
65.854027
  0
LINE
  8
0
 10
-61.421696
 20
64.354004
 11
-59.921684
 21
65.854019
  0
LINE
  8
0
 10
-39.921631
 20
65.854080
 11
-38.421619
 21
64.354065
  0
LINE
  8
0
 10
-38.421677
 20
117.354019
 11
-39.921665
 21
115.854034
  0
LINE
  8
0
 10
-61.421638
 20
117.354034
 11
-59.921646
 21
115.854042
  0
LINE
  8
0
 10
-42.482445
 20
69.793472
 11
-40.361126
 21
71.914787
  0
LINE
  8
0
 10
-59.482395
 20
109.793411
 11
-57.361076
 21
111.914726
  0
LINE
  8
0
 10
-59.482368
 20
111.914650
 11
-57.361046
 21
109.793327
  0
LINE
  8
0
 10
-42.482479
 20
71.914696
 11
-40.361164
 21
69.793381
  0
LINE
  8
0
 10
-59.982407
 20
102.793434
 11
-57.861088
 21
104.914757
  0
LINE
  8
0
 10
-59.982403
 20
104.914642
 11
-57.861080
 21
102.793327
  0
LINE
  8
0
 10
-41.982388
 20
94.793427
 11
-39.861069
 21
96.914742
  0
LINE
  8
0
 10
-41.982384
 20
96.914673
 11
-39.861065
 21
94.793358
  0
LINE
  8
0
 10
-59.982380
 20
76.793434
 11
-57.861061
 21
78.914749
  0
LINE
  8
0
 10
-59.982414
 20
78.914642
 11
-57.861095
 21
76.793327
  0
LINE
  8
0
  6
CENTER
 62
     2
 10
-21.921677
 20
46.854057
 11
-21.921677
 21
134.854034
  0
LINE
  8
0
 10
-27.421677
 20
130.554016
 11
-9.421677
 21
130.554016
  0
LINE
  8
0
 10
-9.421677
 20
129.354034
 11
-9.421677
 21
130.554016
  0
LINE
  8
0
 10
-121.421722
 20
130.553986
 11
-121.421722
 21
129.353973
  0
LINE
  8
0
 10
-121.421722
 20
130.553986
 11
-122.421722
 21
130.553986
  0
LINE
  8
0
 10
-37.421677
 20
130.554016
 11
-38.421677
 21
130.554016
  0
LINE
  8
0
 10
-37.421677
 20
130.554016
 11
-37.421677
 21
129.354034
  0
LINE
  8
0
 10
-65.421692
 20
130.554016
 11
-66.421692
 21
130.554016
  0
LINE
  8
0
 10
-65.421692
 20
130.554016
 11
-65.421692
 21
129.354004
  0
LINE
  8
0
 10
-93.421707
 20
130.553986
 11
-94.421707
 21
130.553986
  0
LINE
  8
0
 10
-93.421707
 20
130.553986
 11
-93.421707
 21
129.354004
  0
LINE
  8
0
 10
-156.421677
 20
47.353989
 11
-156.421677
 21
49.354004
  0
LINE
  8
0
 10
-156.421677
 20
47.353989
 11
-149.421677
 21
47.353989
  0
LINE
  8
0
 10
-149.421677
 20
47.353989
 11
-149.421677
 21
49.354004
  0
LINE
  8
0
 10
-155.421677
 20
48.354012
 11
-150.421677
 21
48.354012
  0
LINE
  8
0
 10
-150.421661
 20
48.354004
 11
-148.421661
 21
50.354004
  0
LINE
  8
0
 10
-155.421661
 20
48.354019
 11
-157.421661
 21
50.354019
  0
LINE
  8
0
 10
-128.421677
 20
47.353989
 11
-128.421677
 21
49.354004
  0
LINE
  8
0
 10
-128.421677
 20
47.353989
 11
-121.421677
 21
47.353989
  0
LINE
  8
0
 10
-121.421677
 20
47.353989
 11
-121.421677
 21
49.354004
  0
LINE
  8
0
 10
-127.421677
 20
48.354012
 11
-122.421677
 21
48.354012
  0
LINE
  8
0
 10
-122.421654
 20
48.353996
 11
-120.421654
 21
50.354000
  0
LINE
  8
0
 10
-127.421669
 20
48.354019
 11
-129.421677
 21
50.354023
  0
LINE
  8
0
 10
-25.521683
 20
131.120087
 11
-25.521683
 21
130.554016
  0
LINE
  8
0
 10
-23.321671
 20
131.120087
 11
-23.321671
 21
130.554016
  0
LINE
  8
0
 10
-23.321671
 20
130.754028
 11
-25.521683
 21
130.754028
  0
LINE
  8
0
 10
-24.021683
 20
131.554016
 11
-24.821671
 21
131.554016
  0
LINE
  8
0
 62
     4
 10
-122.421707
 20
155.854034
 11
-122.421707
 21
134.854034
  0
LINE
  8
0
 62
     4
 10
-145.421707
 20
155.854034
 11
-145.421707
 21
134.854034
  0
LINE
  8
0
 62
     4
 10
-122.421707
 20
154.854034
 11
-145.421707
 21
154.854034
  0
LINE
  8
0
 62
     4
 10
-122.421707
 20
155.854034
 11
-145.421707
 21
155.854034
  0
LINE
  8
0
 62
     4
 10
-144.421616
 20
157.853989
 11
-145.421616
 21
155.853973
  0
LINE
  8
0
 62
     4
 10
-123.421783
 20
157.854034
 11
-144.421646
 21
157.854034
  0
LINE
  8
0
 62
     4
 10
-125.171707
 20
158.554047
 11
-126.671707
 21
158.554047
  0
LINE
  8
0
 62
     4
 10
-141.171707
 20
158.554047
 11
-142.671707
 21
158.554047
  0
LINE
  8
0
 62
     4
 10
-122.421707
 20
153.854034
 11
-145.421707
 21
153.854034
  0
LINE
  8
0
 62
     4
 10
-132.621719
 20
149.554016
 11
-135.221695
 21
149.554016
  0
LINE
  8
0
 62
     4
 10
-132.621719
 20
146.154022
 11
-135.221695
 21
146.154022
  0
LINE
  8
0
 62
     4
 10
-123.421867
 20
157.854019
 11
-122.421860
 21
155.854004
  0
LINE
  8
0
 62
     4
 10
-94.421707
 20
155.854034
 11
-94.421707
 21
134.854034
  0
LINE
  8
0
 62
     4
 10
-117.421707
 20
155.854034
 11
-117.421707
 21
134.854034
  0
LINE
  8
0
 62
     4
 10
-94.421707
 20
154.854034
 11
-117.421707
 21
154.854034
  0
LINE
  8
0
 62
     4
 10
-94.421707
 20
155.854034
 11
-117.421707
 21
155.854034
  0
LINE
  8
0
 62
     4
 10
-116.421616
 20
157.854004
 11
-117.421623
 21
155.853973
  0
LINE
  8
0
 62
     4
 10
-95.421783
 20
157.854034
 11
-116.421646
 21
157.854034
  0
LINE
  8
0
 62
     4
 10
-97.171707
 20
158.554047
 11
-98.671707
 21
158.554047
  0
LINE
  8
0
 62
     4
 10
-113.171707
 20
158.554047
 11
-114.671707
 21
158.554047
  0
LINE
  8
0
 62
     4
 10
-94.421707
 20
153.854034
 11
-117.421707
 21
153.854034
  0
LINE
  8
0
 62
     4
 10
-104.621719
 20
149.554016
 11
-107.221695
 21
149.554016
  0
LINE
  8
0
 62
     4
 10
-104.621719
 20
146.154022
 11
-107.221695
 21
146.154022
  0
LINE
  8
0
 62
     4
 10
-95.421837
 20
157.854019
 11
-94.421829
 21
155.854004
  0
LINE
  8
0
 62
     4
 10
-66.421692
 20
155.854034
 11
-66.421692
 21
134.854034
  0
LINE
  8
0
 62
     4
 10
-89.421692
 20
155.854034
 11
-89.421692
 21
134.854034
  0
LINE
  8
0
 62
     4
 10
-66.421692
 20
154.854034
 11
-89.421692
 21
154.854034
  0
LINE
  8
0
 62
     4
 10
-66.421692
 20
155.854034
 11
-89.421692
 21
155.854034
  0
LINE
  8
0
 62
     4
 10
-88.421608
 20
157.854034
 11
-89.421623
 21
155.854019
  0
LINE
  8
0
 62
     4
 10
-67.421768
 20
157.854034
 11
-88.421631
 21
157.854034
  0
LINE
  8
0
 62
     4
 10
-69.171692
 20
158.554047
 11
-70.671692
 21
158.554047
  0
LINE
  8
0
 62
     4
 10
-85.171692
 20
158.554047
 11
-86.671692
 21
158.554047
  0
LINE
  8
0
 62
     4
 10
-66.421692
 20
153.854034
 11
-89.421692
 21
153.854034
  0
LINE
  8
0
 62
     4
 10
-76.621704
 20
149.554047
 11
-79.221680
 21
149.554047
  0
LINE
  8
0
 62
     4
 10
-76.621704
 20
146.154053
 11
-79.221680
 21
146.154053
  0
LINE
  8
0
 62
     4
 10
-67.421822
 20
157.854034
 11
-66.421822
 21
155.854019
  0
LINE
  8
0
 62
     4
 10
-38.421677
 20
170.854034
 11
-38.421677
 21
149.854034
  0
LINE
  8
0
 62
     4
 10
-61.421677
 20
170.854034
 11
-61.421677
 21
149.854034
  0
LINE
  8
0
 62
     4
 10
-38.421677
 20
169.854034
 11
-61.421677
 21
169.854034
  0
LINE
  8
0
 62
     4
 10
-38.421677
 20
170.854034
 11
-61.421677
 21
170.854034
  0
LINE
  8
0
 62
     4
 10
-60.421597
 20
172.854004
 11
-61.421608
 21
170.853989
  0
LINE
  8
0
 62
     4
 10
-39.421753
 20
172.854034
 11
-60.421616
 21
172.854034
  0
LINE
  8
0
 62
     4
 10
-41.171677
 20
173.554047
 11
-42.671677
 21
173.554047
  0
LINE
  8
0
 62
     4
 10
-57.171677
 20
173.554047
 11
-58.671677
 21
173.554047
  0
LINE
  8
0
 62
     4
 10
-38.421677
 20
168.854034
 11
-61.421677
 21
168.854034
  0
LINE
  8
0
 62
     4
 10
-48.621689
 20
164.554016
 11
-51.221664
 21
164.554016
  0
LINE
  8
0
 62
     4
 10
-48.621689
 20
161.154022
 11
-51.221664
 21
161.154022
  0
LINE
  8
0
 62
     4
 10
-39.421787
 20
172.854019
 11
-38.421783
 21
170.854004
  0
LINE
  8
0
 62
     4
 10
-89.421692
 20
25.854057
 11
-89.421692
 21
46.854057
  0
LINE
  8
0
 62
     4
 10
-66.421692
 20
25.854057
 11
-66.421692
 21
46.854057
  0
LINE
  8
0
 62
     4
 10
-89.421692
 20
26.854057
 11
-66.421692
 21
26.854057
  0
LINE
  8
0
 62
     4
 10
-89.421692
 20
25.854057
 11
-66.421692
 21
25.854057
  0
LINE
  8
0
 62
     4
 10
-67.421768
 20
23.854065
 11
-66.421761
 21
25.854078
  0
LINE
  8
0
 62
     4
 10
-88.421616
 20
23.854057
 11
-67.421753
 21
23.854057
  0
LINE
  8
0
 62
     4
 10
-86.671692
 20
23.154045
 11
-85.171692
 21
23.154045
  0
LINE
  8
0
 62
     4
 10
-70.671692
 20
23.154045
 11
-69.171692
 21
23.154045
  0
LINE
  8
0
 62
     4
 10
-89.421692
 20
27.854057
 11
-66.421692
 21
27.854057
  0
LINE
  8
0
 62
     4
 10
-79.221680
 20
32.154060
 11
-76.621704
 21
32.154060
  0
LINE
  8
0
 62
     4
 10
-79.221680
 20
35.554054
 11
-76.621704
 21
35.554054
  0
LINE
  8
0
 62
     4
 10
-88.421585
 20
23.854086
 11
-89.421585
 21
25.854103
  0
LINE
  8
0
 62
     4
 10
-61.421677
 20
10.854027
 11
-61.421677
 21
31.854027
  0
LINE
  8
0
 62
     4
 10
-38.421677
 20
10.854027
 11
-38.421677
 21
31.854027
  0
LINE
  8
0
 62
     4
 10
-61.421677
 20
11.854027
 11
-38.421677
 21
11.854027
  0
LINE
  8
0
 62
     4
 10
-61.421677
 20
10.854027
 11
-38.421677
 21
10.854027
  0
LINE
  8
0
 62
     4
 10
-39.421776
 20
8.854033
 11
-38.421768
 21
10.854048
  0
LINE
  8
0
 62
     4
 10
-60.421600
 20
8.854027
 11
-39.421738
 21
8.854027
  0
LINE
  8
0
 62
     4
 10
-58.671677
 20
8.154015
 11
-57.171677
 21
8.154015
  0
LINE
  8
0
 62
     4
 10
-42.671677
 20
8.154015
 11
-41.171677
 21
8.154015
  0
LINE
  8
0
 62
     4
 10
-61.421677
 20
12.854027
 11
-38.421677
 21
12.854027
  0
LINE
  8
0
 62
     4
 10
-51.221664
 20
17.154030
 11
-48.621689
 21
17.154030
  0
LINE
  8
0
 62
     4
 10
-51.221664
 20
20.554024
 11
-48.621689
 21
20.554024
  0
LINE
  8
0
 62
     4
 10
-60.421566
 20
8.854033
 11
-61.421570
 21
10.854050
  0
LINE
  8
0
 10
214.185410
 20
129.354019
 11
214.185410
 21
50.354004
  0
LINE
  8
0
  6
CENTER
 62
     2
 10
177.185379
 20
72.337868
 11
177.185379
 21
59.125763
  0
LINE
  8
0
  6
CENTER
 62
     2
 10
182.185379
 20
101.461365
 11
182.185379
 21
81.288025
  0
LINE
  8
0
  6
CENTER
 62
     2
 10
197.185379
 20
115.673485
 11
197.185379
 21
99.620041
  0
LINE
  8
0
  6
CENTER
 62
     2
 10
173.628860
 20
91.854012
 11
189.966446
 21
91.854012
  0
LINE
  8
0
  6
CENTER
 62
     2
 10
170.503433
 20
65.853996
 11
183.289322
 21
65.853996
  0
LINE
  8
0
  6
CENTER
 62
     2
 10
197.185379
 20
84.129341
 11
197.185379
 21
68.360039
  0
LINE
  8
0
  6
CENTER
 62
     2
 10
189.682327
 20
107.854012
 11
205.735733
 21
107.854012
  0
LINE
  8
0
 10
209.185410
 20
55.354012
 11
214.185410
 21
55.354012
  0
LINE
  8
0
 10
209.185410
 20
60.354012
 11
214.185410
 21
60.354012
  0
LINE
  8
0
 10
209.185410
 20
65.354012
 11
214.185410
 21
65.354012
  0
LINE
  8
0
 10
209.185410
 20
65.354012
 11
209.185410
 21
50.354004
  0
LINE
  8
0
 10
209.185410
 20
129.354019
 11
209.185410
 21
114.354012
  0
LINE
  8
0
 10
209.185410
 20
119.354019
 11
214.185410
 21
119.354019
  0
LINE
  8
0
 10
209.185410
 20
124.354019
 11
214.185410
 21
124.354019
  0
LINE
  8
0
 10
209.185410
 20
114.354012
 11
214.185410
 21
114.354012
  0
LINE
  8
0
 10
208.685410
 20
129.354019
 11
214.185410
 21
129.354019
  0
LINE
  8
0
 10
168.185379
 20
50.354004
 11
214.185410
 21
50.354004
  0
LINE
  8
0
 10
168.185379
 20
129.354019
 11
214.185410
 21
129.354019
  0
LINE
  8
0
  6
CENTER
 62
     2
 10
189.682327
 20
76.854012
 11
205.735733
 21
76.854012
  0
LINE
  8
0
 10
128.685410
 20
117.354210
 11
128.685410
 21
98.854027
  0
LINE
  8
0
 10
128.685440
 20
64.354034
 11
165.685410
 21
64.354034
  0
LINE
  8
0
 10
128.685440
 20
117.354042
 11
165.685410
 21
117.354042
  0
LINE
  8
0
 10
128.685349
 20
117.354164
 11
127.185356
 21
115.854179
  0
LINE
  8
0
 10
127.185165
 20
65.853889
 11
128.685135
 21
64.353905
  0
LINE
  8
0
 10
127.185410
 20
92.854027
 11
130.185440
 21
92.854027
  0
LINE
  8
0
 10
127.185410
 20
98.854027
 11
130.185440
 21
98.854027
  0
LINE
  8
0
 10
128.685410
 20
92.854027
 11
128.685410
 21
64.353745
  0
LINE
  8
0
 10
127.185410
 20
73.354034
 11
128.685440
 21
73.354034
  0
LINE
  8
0
 10
127.185410
 20
68.354034
 11
128.685440
 21
68.354034
  0
LINE
  8
0
 10
130.185440
 20
117.354042
 11
130.185440
 21
64.354034
  0
LINE
  8
0
 10
130.685410
 20
149.854050
 11
130.685410
 21
31.854034
  0
LINE
  8
0
 10
127.798004
 20
73.104034
 11
128.685410
 21
73.104034
  0
LINE
  8
0
 10
127.797989
 20
68.604042
 11
128.685410
 21
68.604042
  0
LINE
  8
0
 10
127.185410
 20
115.854210
 11
127.185410
 21
72.454025
  0
LINE
  8
0
 10
128.517151
 20
93.103767
 11
130.185440
 21
93.103767
  0
LINE
  8
0
 10
128.517166
 20
98.604019
 11
130.185440
 21
98.604019
  0
LINE
  8
0
 10
129.485428
 20
98.604019
 11
129.485428
 21
93.104034
  0
LINE
  8
0
 10
127.485428
 20
96.854034
 11
127.485428
 21
94.854019
  0
LINE
  8
0
 10
126.985428
 20
71.654037
 11
126.985428
 21
70.054039
  0
LINE
  8
0
 10
167.185379
 20
128.354019
 11
167.185379
 21
51.354004
  0
LINE
  8
0
 10
193.185379
 20
132.354019
 11
193.185379
 21
130.354019
  0
LINE
  8
0
 10
193.185379
 20
132.354019
 11
186.185379
 21
132.354019
  0
LINE
  8
0
 10
186.185379
 20
132.354019
 11
186.185379
 21
130.353973
  0
LINE
  8
0
 10
192.185379
 20
131.354004
 11
187.185410
 21
131.354004
  0
LINE
  8
0
 10
187.185410
 20
131.354004
 11
185.185425
 21
129.354019
  0
LINE
  8
0
 10
192.185562
 20
131.354202
 11
194.185577
 21
129.354202
  0
LINE
  8
0
 10
191.685410
 20
47.354004
 11
191.685410
 21
49.354019
  0
LINE
  8
0
 10
191.685410
 20
47.354004
 11
184.685410
 21
47.354004
  0
LINE
  8
0
 10
184.685410
 20
47.354004
 11
184.685410
 21
49.354019
  0
LINE
  8
0
 10
190.685410
 20
48.354019
 11
185.685410
 21
48.354019
  0
LINE
  8
0
 10
185.685165
 20
48.353821
 11
183.685165
 21
50.353825
  0
LINE
  8
0
 10
190.685364
 20
48.354065
 11
192.685364
 21
50.354073
  0
LINE
  8
0
 10
168.685410
 20
130.554001
 11
186.185379
 21
130.554001
  0
LINE
  8
0
  6
CENTER
 62
     2
 10
216.676834
 20
121.854034
 11
205.901474
 21
121.854034
  0
LINE
  8
0
  6
CENTER
 62
     2
 10
216.676834
 20
57.854027
 11
205.901474
 21
57.854027
  0
LINE
  8
0
 10
165.685410
 20
117.354042
 11
166.685379
 21
117.354042
  0
LINE
  8
0
 10
165.685410
 20
64.354042
 11
166.685379
 21
64.354042
  0
LINE
  8
0
 10
165.685410
 20
149.854034
 11
165.685410
 21
31.854034
  0
LINE
  8
0
 62
     4
 10
161.685410
 20
117.354019
 11
165.685410
 21
117.354019
  0
LINE
  8
0
 62
     4
 10
161.685410
 20
64.354034
 11
165.685410
 21
64.354034
  0
LINE
  8
0
 62
     4
 10
161.685410
 20
117.354019
 11
161.685410
 21
64.354034
  0
LINE
  8
0
 62
     4
 10
159.813583
 20
106.654030
 11
160.985413
 21
106.654030
  0
LINE
  8
0
 62
     4
 10
159.813583
 20
101.054024
 11
160.985413
 21
101.054024
  0
LINE
  8
0
 62
     4
 10
160.985413
 20
106.654030
 11
160.985413
 21
101.054024
  0
LINE
  8
0
 62
     4
 10
161.685410
 20
100.904030
 11
160.985413
 21
100.904030
  0
LINE
  8
0
 62
     4
 10
160.985413
 20
100.904030
 11
160.985413
 21
106.804024
  0
LINE
  8
0
 62
     4
 10
161.685410
 20
106.804024
 11
160.985413
 21
106.804024
  0
LINE
  8
0
 62
     4
 10
159.813583
 20
98.654030
 11
160.985413
 21
98.654030
  0
LINE
  8
0
 62
     4
 10
159.813583
 20
93.054024
 11
160.985413
 21
93.054024
  0
LINE
  8
0
 62
     4
 10
160.985413
 20
98.654030
 11
160.985413
 21
93.054024
  0
LINE
  8
0
 62
     4
 10
161.685410
 20
92.904030
 11
160.985413
 21
92.904030
  0
LINE
  8
0
 62
     4
 10
160.985413
 20
92.904030
 11
160.985413
 21
98.804024
  0
LINE
  8
0
 62
     4
 10
161.685410
 20
98.804024
 11
160.985413
 21
98.804024
  0
LINE
  8
0
 62
     4
 10
159.813583
 20
80.654030
 11
160.985413
 21
80.654030
  0
LINE
  8
0
 62
     4
 10
159.813583
 20
75.054024
 11
160.985413
 21
75.054024
  0
LINE
  8
0
 62
     4
 10
160.985413
 20
80.654030
 11
160.985413
 21
75.054024
  0
LINE
  8
0
 62
     4
 10
161.685410
 20
74.904030
 11
160.985413
 21
74.904030
  0
LINE
  8
0
 62
     4
 10
160.985413
 20
74.904030
 11
160.985413
 21
80.804024
  0
LINE
  8
0
 62
     4
 10
161.685410
 20
80.804024
 11
160.985413
 21
80.804024
  0
LINE
  8
0
 10
168.685410
 20
130.554016
 11
168.685410
 21
129.354019
  0
LINE
  8
0
 10
127.185410
 20
69.254044
 11
127.185410
 21
65.854034
  0
LINE
  8
0
 10
170.585373
 20
131.120071
 11
170.585373
 21
130.754013
  0
LINE
  8
0
 10
172.785385
 20
131.120071
 11
172.785385
 21
130.754013
  0
LINE
  8
0
 10
172.785385
 20
130.754013
 11
170.585373
 21
130.754013
  0
LINE
  8
0
 10
172.085373
 20
131.554001
 11
171.285385
 21
131.554001
  0
LINE
  8
0
 10
172.785385
 20
130.754013
 11
172.785385
 21
130.554016
  0
LINE
  8
0
 10
170.585373
 20
130.754013
 11
170.585373
 21
130.554016
  0
LINE
  8
0
 10
166.685379
 20
117.354042
 11
166.685379
 21
64.354042
  0
LINE
  8
0
 10
166.685379
 20
117.354042
 11
167.185379
 21
117.354042
  0
LINE
  8
0
 10
166.685379
 20
64.354042
 11
167.185379
 21
64.354042
  0
LINE
  8
0
 62
     4
 10
130.685410
 20
170.854034
 11
130.685410
 21
149.854034
  0
LINE
  8
0
 62
     4
 10
165.685410
 20
169.854034
 11
130.685410
 21
169.854034
  0
LINE
  8
0
 62
     4
 10
165.685410
 20
169.854034
 11
165.685410
 21
149.854034
  0
LINE
  8
0
 62
     4
 10
165.685410
 20
170.854034
 11
130.685410
 21
170.854034
  0
LINE
  8
0
 62
     4
 10
165.685410
 20
170.854034
 11
165.685410
 21
169.854034
  0
LINE
  8
0
 62
     4
 10
165.685364
 20
170.854004
 11
164.685364
 21
172.854004
  0
LINE
  8
0
 62
     4
 10
154.185410
 20
172.854034
 11
154.185410
 21
170.854034
  0
LINE
  8
0
 62
     4
 10
131.685532
 20
172.854034
 11
130.685501
 21
170.853989
  0
LINE
  8
0
 62
     4
 10
155.435410
 20
171.554047
 11
160.935410
 21
171.554047
  0
LINE
  8
0
 62
     4
 10
160.935410
 20
171.554047
 11
160.935410
 21
170.854034
  0
LINE
  8
0
 62
     4
 10
155.435410
 20
171.554047
 11
155.435410
 21
170.854034
  0
LINE
  8
0
 62
     4
 10
157.435410
 20
173.554047
 11
158.935410
 21
173.554047
  0
LINE
  8
0
 62
     4
 10
137.435410
 20
173.554047
 11
138.935410
 21
173.554047
  0
LINE
  8
0
 62
     4
 10
164.685379
 20
172.854034
 11
160.455292
 21
172.854034
  0
LINE
  8
0
 62
     4
 10
155.915527
 20
172.854034
 11
131.685501
 21
172.854034
  0
LINE
  8
0
 62
     4
 10
118.685410
 20
147.004028
 11
122.681183
 21
147.004028
  0
LINE
  8
0
 62
     4
 10
118.685410
 20
148.704041
 11
123.136703
 21
148.704041
  0
LINE
  8
0
 62
     4
 10
108.685394
 20
147.534027
 11
118.685410
 21
147.534027
  0
LINE
  8
0
 62
     4
 10
108.685394
 20
148.174026
 11
118.685410
 21
148.174026
  0
LINE
  8
0
 62
     4
 10
118.685394
 20
148.704010
 11
118.685394
 21
147.004013
  0
LINE
  8
0
 62
     4
 10
108.685394
 20
148.174011
 11
108.685394
 21
147.534027
  0
LINE
  8
0
 62
     4
 10
124.234100
 20
147.004028
 11
128.685425
 21
147.004028
  0
LINE
  8
0
 62
     4
 10
124.689621
 20
148.704041
 11
128.685425
 21
148.704041
  0
LINE
  8
0
 62
     4
 10
128.685410
 20
146.154037
 11
130.685410
 21
146.154037
  0
LINE
  8
0
 62
     4
 10
128.685394
 20
149.554016
 11
128.685394
 21
146.154022
  0
LINE
  8
0
 62
     4
 10
128.685410
 20
149.554031
 11
130.685410
 21
149.554031
  0
LINE
  8
0
 62
     4
 10
162.185410
 20
172.854034
 11
162.185410
 21
170.854034
  0
LINE
  8
0
 62
     4
 10
118.685410
 20
162.004028
 11
122.681183
 21
162.004028
  0
LINE
  8
0
 62
     4
 10
118.685410
 20
163.704041
 11
123.136703
 21
163.704041
  0
LINE
  8
0
 62
     4
 10
108.685394
 20
162.534027
 11
118.685410
 21
162.534027
  0
LINE
  8
0
 62
     4
 10
108.685394
 20
163.174026
 11
118.685410
 21
163.174026
  0
LINE
  8
0
 62
     4
 10
118.685394
 20
163.704010
 11
118.685394
 21
162.004013
  0
LINE
  8
0
 62
     4
 10
108.685394
 20
163.174011
 11
108.685394
 21
162.534027
  0
LINE
  8
0
 62
     4
 10
124.234100
 20
162.004028
 11
128.685425
 21
162.004028
  0
LINE
  8
0
 62
     4
 10
124.689621
 20
163.704041
 11
128.685425
 21
163.704041
  0
LINE
  8
0
 62
     4
 10
128.685410
 20
161.154037
 11
130.685410
 21
161.154037
  0
LINE
  8
0
 62
     4
 10
128.685394
 20
164.554016
 11
128.685394
 21
161.154022
  0
LINE
  8
0
 62
     4
 10
128.685410
 20
164.554031
 11
130.685410
 21
164.554031
  0
LINE
  8
0
 62
     1
 10
123.698303
 20
145.004013
 11
125.225616
 21
150.704010
  0
LINE
  8
0
  6
CENTER
 62
     1
 10
106.634155
 20
147.854034
 11
132.695969
 21
147.854034
  0
LINE
  8
0
  6
CENTER
 62
     1
 10
106.634155
 20
162.854034
 11
132.695969
 21
162.854034
  0
LINE
  8
0
 62
     1
 10
123.698311
 20
160.003983
 11
125.225616
 21
165.703964
  0
LINE
  8
0
 62
     1
 10
122.145325
 20
160.003983
 11
123.672646
 21
165.704010
  0
LINE
  8
0
 62
     1
 10
122.145332
 20
145.003998
 11
123.672653
 21
150.704010
  0
LINE
  8
0
 10
165.685410
 20
149.854034
 11
130.685410
 21
149.854034
  0
LINE
  8
0
 62
     4
 10
130.685410
 20
10.854027
 11
130.685410
 21
31.854034
  0
LINE
  8
0
 62
     4
 10
165.685410
 20
11.854027
 11
130.685410
 21
11.854027
  0
LINE
  8
0
 62
     4
 10
165.685410
 20
11.854027
 11
165.685410
 21
31.854034
  0
LINE
  8
0
 62
     4
 10
165.685410
 20
10.854027
 11
130.685410
 21
10.854027
  0
LINE
  8
0
 62
     4
 10
165.685410
 20
10.854027
 11
165.685410
 21
11.854027
  0
LINE
  8
0
 62
     4
 10
165.685257
 20
10.854074
 11
164.685257
 21
8.854074
  0
LINE
  8
0
 62
     4
 10
142.185410
 20
8.854027
 11
142.185410
 21
10.854027
  0
LINE
  8
0
 62
     4
 10
131.685547
 20
8.854040
 11
130.685532
 21
10.854080
  0
LINE
  8
0
 62
     4
 10
140.935410
 20
10.154015
 11
135.435410
 21
10.154015
  0
LINE
  8
0
 62
     4
 10
135.435410
 20
10.154015
 11
135.435410
 21
10.854027
  0
LINE
  8
0
 62
     4
 10
140.935410
 20
10.154015
 11
140.935410
 21
10.854027
  0
LINE
  8
0
 62
     4
 10
138.935410
 20
8.154015
 11
137.435410
 21
8.154015
  0
LINE
  8
0
 62
     4
 10
158.935410
 20
8.154015
 11
157.435410
 21
8.154015
  0
LINE
  8
0
 62
     4
 10
164.685379
 20
8.854027
 11
140.455292
 21
8.854027
  0
LINE
  8
0
 62
     4
 10
135.915527
 20
8.854027
 11
131.685501
 21
8.854027
  0
LINE
  8
0
 62
     4
 10
118.685417
 20
34.704033
 11
122.681190
 21
34.704033
  0
LINE
  8
0
 62
     4
 10
118.685417
 20
33.004021
 11
123.136711
 21
33.004021
  0
LINE
  8
0
 62
     4
 10
108.685402
 20
34.174034
 11
118.685417
 21
34.174034
  0
LINE
  8
0
 62
     4
 10
108.685402
 20
33.534035
 11
118.685417
 21
33.534035
  0
LINE
  8
0
 62
     4
 10
118.685402
 20
33.004051
 11
118.685402
 21
34.704048
  0
LINE
  8
0
 62
     4
 10
108.685402
 20
33.534050
 11
108.685402
 21
34.174034
  0
LINE
  8
0
 62
     1
 10
122.145317
 20
36.704075
 11
123.672630
 21
31.004065
  0
LINE
  8
0
 62
     1
 10
123.698227
 20
36.704044
 11
125.225540
 21
31.004059
  0
LINE
  8
0
 62
     4
 10
124.234108
 20
34.704033
 11
128.685440
 21
34.704033
  0
LINE
  8
0
 62
     4
 10
124.689629
 20
33.004021
 11
128.685440
 21
33.004021
  0
LINE
  8
0
 62
     4
 10
128.685410
 20
35.554024
 11
130.685410
 21
35.554024
  0
LINE
  8
0
 62
     4
 10
128.685410
 20
32.154045
 11
128.685410
 21
35.554039
  0
LINE
  8
0
 62
     4
 10
128.685410
 20
32.154030
 11
130.685410
 21
32.154030
  0
LINE
  8
0
 62
     4
 10
134.185410
 20
8.854027
 11
134.185410
 21
10.854027
  0
LINE
  8
0
  6
CENTER
 62
     1
 10
106.634163
 20
33.854027
 11
132.695969
 21
33.854027
  0
LINE
  8
0
 10
165.685410
 20
31.854034
 11
130.685410
 21
31.854034
  0
LINE
  8
0
 62
     4
 10
118.685410
 20
19.704033
 11
122.681183
 21
19.704033
  0
LINE
  8
0
 62
     4
 10
118.685410
 20
18.004021
 11
123.136703
 21
18.004021
  0
LINE
  8
0
 62
     4
 10
108.685394
 20
19.174034
 11
118.685410
 21
19.174034
  0
LINE
  8
0
 62
     4
 10
108.685394
 20
18.534035
 11
118.685410
 21
18.534035
  0
LINE
  8
0
 62
     4
 10
118.685394
 20
18.004051
 11
118.685394
 21
19.704048
  0
LINE
  8
0
 62
     4
 10
108.685394
 20
18.534050
 11
108.685394
 21
19.174034
  0
LINE
  8
0
 62
     1
 10
122.145317
 20
21.704065
 11
123.672630
 21
16.004055
  0
LINE
  8
0
 62
     1
 10
123.698242
 20
21.704056
 11
125.225555
 21
16.004070
  0
LINE
  8
0
 62
     4
 10
124.234100
 20
19.704033
 11
128.685425
 21
19.704033
  0
LINE
  8
0
 62
     4
 10
124.689621
 20
18.004021
 11
128.685425
 21
18.004021
  0
LINE
  8
0
 62
     4
 10
128.685410
 20
20.554024
 11
130.685410
 21
20.554024
  0
LINE
  8
0
 62
     4
 10
128.685394
 20
17.154045
 11
128.685394
 21
20.554039
  0
LINE
  8
0
 62
     4
 10
128.685410
 20
17.154030
 11
130.685410
 21
17.154030
  0
LINE
  8
0
  6
CENTER
 62
     1
 10
106.634155
 20
18.854027
 11
132.695969
 21
18.854027
  0
LINE
  8
0
 10
-147.921661
 20
-134.145966
 11
-147.921661
 21
-150.245972
  0
LINE
  8
0
 10
-163.921661
 20
-134.145966
 11
-147.921661
 21
-134.145966
  0
LINE
  8
0
 10
-165.921661
 20
-135.145966
 11
-147.921661
 21
-135.145966
  0
LINE
  8
0
 10
-149.921661
 20
-180.145966
 11
-147.921661
 21
-180.145966
  0
LINE
  8
0
 10
-165.921661
 20
-136.145966
 11
-165.921661
 21
-173.145981
  0
LINE
  8
0
 10
-149.921661
 20
-180.145966
 11
-149.921661
 21
-181.145966
  0
LINE
  8
0
 10
-178.421661
 20
-181.145966
 11
-149.921661
 21
-181.145966
  0
LINE
  8
0
 10
-178.421677
 20
-178.145981
 11
-178.421677
 21
-181.145966
  0
LINE
  8
0
 10
-176.421661
 20
-176.145966
 11
-168.921661
 21
-176.145966
  0
LINE
  8
0
 10
-161.321671
 20
-160.045959
 11
-144.521683
 21
-160.045959
  0
LINE
  8
0
 10
-162.921661
 20
-151.845963
 11
-162.921661
 21
-158.445969
  0
LINE
  8
0
 10
-161.321671
 20
-150.245972
 11
-144.521683
 21
-150.245972
  0
LINE
  8
0
 10
-161.321655
 20
-150.245972
 11
-161.321655
 21
-160.045959
  0
LINE
  8
0
 10
-162.921616
 20
-151.845993
 11
-161.321609
 21
-150.245987
  0
LINE
  8
0
 10
-162.921707
 20
-158.446060
 11
-161.321716
 21
-160.046051
  0
LINE
  8
0
 10
-157.421661
 20
-158.945969
 11
-148.421661
 21
-158.945969
  0
LINE
  8
0
 10
-157.421661
 20
-151.345963
 11
-148.421661
 21
-151.345963
  0
LINE
  8
0
 10
-150.421661
 20
-150.245972
 11
-150.421661
 21
-151.345963
  0
LINE
  8
0
 10
-155.421661
 20
-158.945969
 11
-155.421661
 21
-160.045959
  0
LINE
  8
0
 10
-155.421661
 20
-150.245972
 11
-155.421661
 21
-151.345963
  0
LINE
  8
0
 10
-150.421661
 20
-158.945969
 11
-150.421661
 21
-160.045959
  0
LINE
  8
0
 10
-148.421661
 20
-150.245972
 11
-148.421661
 21
-151.345963
  0
LINE
  8
0
 10
-157.421661
 20
-150.245972
 11
-157.421661
 21
-151.345963
  0
LINE
  8
0
 10
-157.421661
 20
-158.945969
 11
-157.421661
 21
-160.045959
  0
LINE
  8
0
 10
-148.421661
 20
-158.945969
 11
-148.421661
 21
-160.045959
  0
LINE
  8
0
 10
-151.381638
 20
-154.214096
 11
-151.381638
 21
-156.077835
  0
LINE
  8
0
 10
-154.461670
 20
-154.214096
 11
-154.461670
 21
-156.077835
  0
LINE
  8
0
 10
-154.461639
 20
-154.214142
 11
-152.921631
 21
-153.325012
  0
LINE
  8
0
 10
-152.921677
 20
-156.967026
 11
-151.381653
 21
-156.077896
  0
LINE
  8
0
 10
-154.461639
 20
-156.077896
 11
-152.921646
 21
-156.967010
  0
LINE
  8
0
 10
-152.921677
 20
-153.325012
 11
-151.381699
 21
-154.214111
  0
LINE
  8
0
 10
-163.421661
 20
-149.745972
 11
-163.421661
 21
-160.545959
  0
LINE
  8
0
 10
-163.421661
 20
-160.545959
 11
-147.921661
 21
-160.545959
  0
LINE
  8
0
 10
-163.421661
 20
-149.745972
 11
-147.921661
 21
-149.745972
  0
LINE
  8
0
 10
-147.921661
 20
-160.045959
 11
-147.921661
 21
-180.145966
  0
LINE
  8
0
 10
-7.921707
 20
-134.145966
 11
-7.921707
 21
-149.745972
  0
LINE
  8
0
 10
8.078278
 20
-134.145966
 11
-7.921707
 21
-134.145966
  0
LINE
  8
0
 10
9.810333
 20
-135.145966
 11
-7.921707
 21
-135.145966
  0
LINE
  8
0
 10
-5.921707
 20
-180.145966
 11
-7.921707
 21
-180.145966
  0
LINE
  8
0
 10
10.078278
 20
-136.145966
 11
10.078278
 21
-173.145981
  0
LINE
  8
0
 10
-5.921707
 20
-180.145966
 11
-5.921707
 21
-181.145966
  0
LINE
  8
0
 10
22.578308
 20
-181.145966
 11
-5.921707
 21
-181.145966
  0
LINE
  8
0
 10
22.578308
 20
-178.145981
 11
22.578308
 21
-181.145966
  0
LINE
  8
0
 10
20.578308
 20
-176.145966
 11
13.078278
 21
-176.145966
  0
LINE
  8
0
 10
-7.921707
 20
-160.545959
 11
-7.921707
 21
-180.145966
  0
LINE
  8
0
 10
-2.921692
 20
-151.845963
 11
-2.921692
 21
-158.445969
  0
LINE
  8
0
 10
-4.521713
 20
-150.245972
 11
-4.521713
 21
-160.045959
  0
LINE
  8
0
 10
-4.521623
 20
-160.046051
 11
-2.921634
 21
-158.446060
  0
LINE
  8
0
 10
-4.521718
 20
-150.246002
 11
-2.921729
 21
-151.845993
  0
LINE
  8
0
 10
-2.421692
 20
-149.745972
 11
-2.421692
 21
-160.545959
  0
LINE
  8
0
 62
     4
 10
-10.421707
 20
-128.645966
 11
-10.421707
 21
-132.645966
  0
LINE
  8
0
 10
-33.421707
 20
-132.645966
 11
-10.421707
 21
-132.645966
  0
LINE
  8
0
 62
     4
 10
-33.421707
 20
-128.645966
 11
-33.421707
 21
-132.645966
  0
LINE
  8
0
 62
     4
 10
-28.121704
 20
-126.403496
 11
-28.121704
 21
-128.645966
  0
LINE
  8
0
 62
     4
 10
-33.721710
 20
-126.403496
 11
-33.721710
 21
-128.645966
  0
LINE
  8
0
 62
     4
 10
-28.121704
 20
-127.945969
 11
-33.721710
 21
-127.945969
  0
LINE
  8
0
 62
     4
 10
-33.871704
 20
-127.945969
 11
-28.121704
 21
-127.945969
  0
LINE
  8
0
 62
     4
 10
-10.121704
 20
-126.403496
 11
-10.121704
 21
-128.645966
  0
LINE
  8
0
 62
     4
 10
-15.721710
 20
-126.403496
 11
-15.721710
 21
-128.645966
  0
LINE
  8
0
 62
     4
 10
-10.121704
 20
-127.945969
 11
-15.721710
 21
-127.945969
  0
LINE
  8
0
 62
     4
 10
-33.721710
 20
-128.645966
 11
-10.121704
 21
-128.645966
  0
LINE
  8
0
 62
     4
 10
-15.721710
 20
-127.945969
 11
-10.121704
 21
-127.945969
  0
LINE
  8
0
 10
-145.421722
 20
-97.645966
 11
-122.421722
 21
-97.645966
  0
LINE
  8
0
 10
-145.421722
 20
-132.645966
 11
-122.421722
 21
-132.645966
  0
LINE
  8
0
 10
-125.921722
 20
-102.145966
 11
-122.421722
 21
-102.145966
  0
LINE
  8
0
 10
-125.921722
 20
-108.145966
 11
-122.421722
 21
-108.145966
  0
LINE
  8
0
 10
-145.421722
 20
-122.145966
 11
-141.921722
 21
-122.145966
  0
LINE
  8
0
 10
-145.421722
 20
-128.145966
 11
-141.921722
 21
-128.145966
  0
LINE
  8
0
 10
-143.921722
 20
-94.145966
 11
-123.921722
 21
-94.145966
  0
LINE
  8
0
 10
-145.421722
 20
-95.645966
 11
-122.421722
 21
-95.645966
  0
LINE
  8
0
 10
-123.921730
 20
-94.145966
 11
-122.421730
 21
-95.645966
  0
LINE
  8
0
 10
-145.421738
 20
-95.646019
 11
-143.921738
 21
-94.146019
  0
LINE
  8
0
 10
-143.010315
 20
-126.234627
 11
-140.954590
 21
-124.178902
  0
LINE
  8
0
 10
-143.082489
 20
-123.985222
 11
-140.890778
 21
-126.176933
  0
LINE
  8
0
 10
-127.010315
 20
-106.234627
 11
-124.954575
 21
-104.178886
  0
LINE
  8
0
 10
-127.082481
 20
-103.985207
 11
-124.890778
 21
-106.176910
  0
LINE
  8
0
  6
CENTER
 62
     2
 10
-145.921722
 20
-103.645966
 11
-135.921722
 21
-103.645966
  0
LINE
  8
0
  6
CENTER
 62
     2
 10
-131.921722
 20
-126.645966
 11
-121.921722
 21
-126.645966
  0
LINE
  8
0
  6
CENTER
 62
     2
 10
-126.921722
 20
-121.645966
 11
-126.921722
 21
-131.645966
  0
LINE
  8
0
  6
CENTER
 62
     2
 10
-140.921722
 20
-98.645966
 11
-140.921722
 21
-108.645966
  0
LINE
  8
0
 10
-145.421722
 20
-95.645966
 11
-145.421722
 21
-132.645966
  0
LINE
  8
0
 10
-122.421722
 20
-95.645966
 11
-122.421722
 21
-132.645966
  0
LINE
  8
0
 10
-145.421722
 20
-132.645966
 11
-145.421722
 21
-133.645966
  0
LINE
  8
0
 10
-122.421722
 20
-132.645966
 11
-122.421722
 21
-133.645966
  0
LINE
  8
0
 10
-117.421722
 20
-97.645966
 11
-94.421722
 21
-97.645966
  0
LINE
  8
0
 10
-117.421722
 20
-132.645966
 11
-94.421722
 21
-132.645966
  0
LINE
  8
0
 10
-97.921722
 20
-102.145966
 11
-94.421722
 21
-102.145966
  0
LINE
  8
0
 10
-97.921722
 20
-108.145966
 11
-94.421722
 21
-108.145966
  0
LINE
  8
0
 10
-117.421722
 20
-122.145966
 11
-113.921722
 21
-122.145966
  0
LINE
  8
0
 10
-117.421722
 20
-128.145966
 11
-113.921722
 21
-128.145966
  0
LINE
  8
0
 10
-59.921722
 20
-94.145966
 11
-52.071716
 21
-94.145966
  0
LINE
  8
0
 10
-61.421722
 20
-95.645966
 11
-52.921707
 21
-95.645966
  0
LINE
  8
0
 10
-39.921730
 20
-94.145973
 11
-38.421726
 21
-95.645973
  0
LINE
  8
0
 10
-61.421711
 20
-95.646027
 11
-59.921711
 21
-94.146027
  0
LINE
  8
0
 10
-115.010284
 20
-126.234627
 11
-112.954567
 21
-124.178902
  0
LINE
  8
0
 10
-115.082481
 20
-123.985214
 11
-112.890770
 21
-126.176926
  0
LINE
  8
0
 10
-99.010284
 20
-106.234627
 11
-96.954567
 21
-104.178909
  0
LINE
  8
0
 10
-99.082489
 20
-103.985191
 11
-96.890793
 21
-106.176888
  0
LINE
  8
0
  6
CENTER
 62
     2
 10
-117.921722
 20
-103.645966
 11
-107.921722
 21
-103.645966
  0
LINE
  8
0
  6
CENTER
 62
     2
 10
-103.921722
 20
-126.645966
 11
-93.921722
 21
-126.645966
  0
LINE
  8
0
  6
CENTER
 62
     2
 10
-98.921722
 20
-121.645966
 11
-98.921722
 21
-131.645966
  0
LINE
  8
0
  6
CENTER
 62
     2
 10
-112.921722
 20
-98.645966
 11
-112.921722
 21
-108.645966
  0
LINE
  8
0
 10
-117.421722
 20
-95.645966
 11
-117.421722
 21
-132.645966
  0
LINE
  8
0
 10
-94.421722
 20
-95.645966
 11
-94.421722
 21
-132.645966
  0
LINE
  8
0
 10
-117.421722
 20
-132.645966
 11
-117.421722
 21
-133.645966
  0
LINE
  8
0
 10
-94.421722
 20
-132.645966
 11
-94.421722
 21
-133.645966
  0
LINE
  8
0
 10
-66.421707
 20
-132.645950
 11
-66.421707
 21
-133.645950
  0
LINE
  8
0
 10
-89.421707
 20
-132.645950
 11
-66.421707
 21
-132.645950
  0
LINE
  8
0
 10
-89.421707
 20
-132.645950
 11
-89.421707
 21
-133.645950
  0
LINE
  8
0
  6
CENTER
 62
     2
 10
-77.921707
 20
-88.872437
 11
-77.921707
 21
-136.163895
  0
LINE
  8
0
 10
-61.421692
 20
-132.645966
 11
-38.421692
 21
-132.645966
  0
LINE
  8
0
  6
CENTER
 62
     2
 10
-49.921692
 20
-88.872452
 11
-49.921692
 21
-136.163910
  0
LINE
  8
0
 10
-61.421692
 20
-132.645966
 11
-61.421692
 21
-133.645966
  0
LINE
  8
0
 10
-38.421692
 20
-132.645966
 11
-38.421692
 21
-133.645966
  0
LINE
  8
0
 10
-91.921707
 20
-134.145966
 11
-63.921707
 21
-134.145966
  0
LINE
  8
0
 10
-91.921707
 20
-135.145966
 11
-63.921707
 21
-135.145966
  0
LINE
  8
0
  6
CENTER
 62
     2
 10
-89.535721
 20
-142.645966
 11
-72.904434
 21
-142.645966
  0
LINE
  8
0
  6
CENTER
 62
     2
 10
-81.921692
 20
-135.170105
 11
-81.921692
 21
-151.336838
  0
LINE
  8
0
  6
CENTER
 62
     2
 10
-86.457840
 20
-168.645966
 11
-71.231995
 21
-168.645966
  0
LINE
  8
0
  6
CENTER
 62
     2
 10
-78.921692
 20
-160.535156
 11
-78.921692
 21
-176.423126
  0
LINE
  8
0
 10
-91.921707
 20
-180.145966
 11
-63.921707
 21
-180.145966
  0
LINE
  8
0
 10
-91.921707
 20
-179.645966
 11
-63.921707
 21
-179.645966
  0
LINE
  8
0
  6
CENTER
 62
     2
 10
-77.921707
 20
-131.145966
 11
-77.921707
 21
-183.145966
  0
LINE
  8
0
 10
-89.921707
 20
-133.645966
 11
-65.921707
 21
-133.645966
  0
LINE
  8
0
 10
-89.921707
 20
-133.645966
 11
-89.921707
 21
-134.145966
  0
LINE
  8
0
 10
-65.921707
 20
-133.645966
 11
-65.921707
 21
-134.145966
  0
LINE
  8
0
 10
-63.921722
 20
-134.145966
 11
-35.921722
 21
-134.145966
  0
LINE
  8
0
 10
-63.921722
 20
-135.145966
 11
-35.921722
 21
-135.145966
  0
LINE
  8
0
  6
CENTER
 62
     2
 10
-61.535736
 20
-142.645966
 11
-44.904449
 21
-142.645966
  0
LINE
  8
0
  6
CENTER
 62
     2
 10
-53.921707
 20
-135.170105
 11
-53.921707
 21
-151.336838
  0
LINE
  8
0
  6
CENTER
 62
     2
 10
-58.457855
 20
-168.645966
 11
-43.232010
 21
-168.645966
  0
LINE
  8
0
  6
CENTER
 62
     2
 10
-50.921707
 20
-160.535156
 11
-50.921707
 21
-176.423126
  0
LINE
  8
0
 10
-63.921722
 20
-180.145966
 11
-35.921722
 21
-180.145966
  0
LINE
  8
0
 10
-63.921722
 20
-179.645966
 11
-35.921722
 21
-179.645966
  0
LINE
  8
0
  6
CENTER
 62
     2
 10
-49.921722
 20
-131.145966
 11
-49.921722
 21
-183.145966
  0
LINE
  8
0
 10
-61.921722
 20
-133.645966
 11
-37.921722
 21
-133.645966
  0
LINE
  8
0
 10
-61.921722
 20
-133.645966
 11
-61.921722
 21
-134.145966
  0
LINE
  8
0
 10
-37.921722
 20
-133.645966
 11
-37.921722
 21
-134.145966
  0
LINE
  8
0
 10
-35.921707
 20
-134.145966
 11
-7.921707
 21
-134.145966
  0
LINE
  8
0
 10
-35.921707
 20
-135.145966
 11
-7.921707
 21
-135.145966
  0
LINE
  8
0
  6
CENTER
 62
     2
 10
-33.535721
 20
-142.645966
 11
-16.904434
 21
-142.645966
  0
LINE
  8
0
  6
CENTER
 62
     2
 10
-25.921692
 20
-135.170105
 11
-25.921692
 21
-151.336838
  0
LINE
  8
0
  6
CENTER
 62
     2
 10
-30.457840
 20
-168.645966
 11
-15.231995
 21
-168.645966
  0
LINE
  8
0
  6
CENTER
 62
     2
 10
-22.921692
 20
-160.535156
 11
-22.921692
 21
-176.423126
  0
LINE
  8
0
 10
-35.921707
 20
-180.145966
 11
-7.921707
 21
-180.145966
  0
LINE
  8
0
 10
-35.921707
 20
-179.645966
 11
-7.921707
 21
-179.645966
  0
LINE
  8
0
 10
-21.321701
 20
-160.045959
 11
-4.521713
 21
-160.045959
  0
LINE
  8
0
 10
-22.921692
 20
-151.845978
 11
-22.921692
 21
-158.445969
  0
LINE
  8
0
 10
-21.321701
 20
-150.245972
 11
-4.521713
 21
-150.245972
  0
LINE
  8
0
 10
-21.321701
 20
-150.245972
 11
-21.321701
 21
-160.045959
  0
LINE
  8
0
 10
-22.921635
 20
-151.846024
 11
-21.321625
 21
-150.246017
  0
LINE
  8
0
 10
-22.921707
 20
-158.445999
 11
-21.321718
 21
-160.045990
  0
LINE
  8
0
 10
-17.421707
 20
-158.945969
 11
-8.421692
 21
-158.945969
  0
LINE
  8
0
 10
-17.421707
 20
-151.345963
 11
-8.421692
 21
-151.345963
  0
LINE
  8
0
 10
-10.421692
 20
-150.245972
 11
-10.421692
 21
-151.345963
  0
LINE
  8
0
 10
-15.421692
 20
-158.945969
 11
-15.421692
 21
-160.045959
  0
LINE
  8
0
 10
-15.421692
 20
-150.245972
 11
-15.421692
 21
-151.345963
  0
LINE
  8
0
 10
-10.421692
 20
-158.945969
 11
-10.421692
 21
-160.045959
  0
LINE
  8
0
 10
-8.421692
 20
-150.245972
 11
-8.421692
 21
-151.345963
  0
LINE
  8
0
 10
-17.421677
 20
-150.245972
 11
-17.421677
 21
-151.345963
  0
LINE
  8
0
 10
-17.421677
 20
-158.945969
 11
-17.421677
 21
-160.045959
  0
LINE
  8
0
 10
-8.421692
 20
-158.945969
 11
-8.421692
 21
-160.045959
  0
LINE
  8
0
 10
-11.381714
 20
-154.214081
 11
-11.381714
 21
-156.077850
  0
LINE
  8
0
 10
-14.461700
 20
-154.214081
 11
-14.461700
 21
-156.077850
  0
LINE
  8
0
 10
-14.461688
 20
-154.214127
 11
-12.921697
 21
-153.325012
  0
LINE
  8
0
 10
-12.921708
 20
-156.967026
 11
-11.381690
 21
-156.077896
  0
LINE
  8
0
 10
-14.461687
 20
-156.077881
 11
-12.921696
 21
-156.966995
  0
LINE
  8
0
 10
-12.921705
 20
-153.324966
 11
-11.381714
 21
-154.214081
  0
LINE
  8
0
 10
-23.421707
 20
-151.638855
 11
-23.421707
 21
-158.653076
  0
LINE
  8
0
 10
-23.421635
 20
-151.638931
 11
-21.528746
 21
-149.746048
  0
LINE
  8
0
 10
-21.528824
 20
-149.745972
 11
-2.421692
 21
-149.745972
  0
LINE
  8
0
 10
-21.528824
 20
-160.545959
 11
-2.421692
 21
-160.545959
  0
LINE
  8
0
 10
-23.421682
 20
-158.653091
 11
-21.528788
 21
-160.545990
  0
LINE
  8
0
  6
CENTER
 62
     2
 10
-21.921707
 20
-123.975739
 11
-21.921707
 21
-183.145966
  0
LINE
  8
0
 10
-33.921707
 20
-133.645966
 11
-9.921707
 21
-133.645966
  0
LINE
  8
0
 10
-33.921707
 20
-133.645966
 11
-33.921707
 21
-134.145966
  0
LINE
  8
0
 10
-9.921707
 20
-133.645966
 11
-9.921707
 21
-134.145966
  0
LINE
  8
0
 10
-35.921661
 20
-134.145966
 11
-35.921661
 21
-149.745972
  0
LINE
  8
0
 10
-119.921677
 20
-134.145966
 11
-91.921677
 21
-134.145966
  0
LINE
  8
0
 10
-119.921677
 20
-135.145966
 11
-91.921677
 21
-135.145966
  0
LINE
  8
0
  6
CENTER
 62
     2
 10
-117.535690
 20
-142.645966
 11
-100.904404
 21
-142.645966
  0
LINE
  8
0
  6
CENTER
 62
     2
 10
-109.921661
 20
-135.170105
 11
-109.921661
 21
-151.336838
  0
LINE
  8
0
  6
CENTER
 62
     2
 10
-114.457809
 20
-168.645966
 11
-99.231964
 21
-168.645966
  0
LINE
  8
0
  6
CENTER
 62
     2
 10
-106.921661
 20
-160.535156
 11
-106.921661
 21
-176.423126
  0
LINE
  8
0
 10
-119.921677
 20
-180.145966
 11
-91.921677
 21
-180.145966
  0
LINE
  8
0
 10
-119.921677
 20
-179.645966
 11
-91.921677
 21
-179.645966
  0
LINE
  8
0
 10
-35.921661
 20
-160.545959
 11
-35.921661
 21
-180.145966
  0
LINE
  8
0
  6
CENTER
 62
     2
 10
-105.921677
 20
-88.872437
 11
-105.921677
 21
-183.145966
  0
LINE
  8
0
 10
-117.921677
 20
-133.645966
 11
-93.921677
 21
-133.645966
  0
LINE
  8
0
 10
-117.921677
 20
-133.645966
 11
-117.921677
 21
-134.145966
  0
LINE
  8
0
 10
-93.921677
 20
-133.645966
 11
-93.921677
 21
-134.145966
  0
LINE
  8
0
 10
-147.921677
 20
-134.145966
 11
-147.921677
 21
-150.245972
  0
LINE
  8
0
 10
-147.921692
 20
-134.145966
 11
-119.921692
 21
-134.145966
  0
LINE
  8
0
 10
-147.921692
 20
-135.145966
 11
-119.921692
 21
-135.145966
  0
LINE
  8
0
  6
CENTER
 62
     2
 10
-145.535706
 20
-142.645966
 11
-128.904419
 21
-142.645966
  0
LINE
  8
0
  6
CENTER
 62
     2
 10
-137.921677
 20
-135.170105
 11
-137.921677
 21
-151.336838
  0
LINE
  8
0
  6
CENTER
 62
     2
 10
-142.457825
 20
-168.645966
 11
-127.231979
 21
-168.645966
  0
LINE
  8
0
  6
CENTER
 62
     2
 10
-134.921677
 20
-160.535156
 11
-134.921677
 21
-176.423126
  0
LINE
  8
0
 10
-147.921692
 20
-180.145966
 11
-119.921692
 21
-180.145966
  0
LINE
  8
0
 10
-147.921692
 20
-179.645966
 11
-119.921692
 21
-179.645966
  0
LINE
  8
0
 10
-142.921677
 20
-151.845963
 11
-142.921677
 21
-158.445969
  0
LINE
  8
0
 10
-144.521683
 20
-150.245972
 11
-144.521683
 21
-160.045959
  0
LINE
  8
0
 10
-144.521667
 20
-160.046021
 11
-142.921661
 21
-158.446014
  0
LINE
  8
0
 10
-147.921677
 20
-149.745972
 11
-144.314575
 21
-149.745972
  0
LINE
  8
0
 10
-147.921677
 20
-160.545959
 11
-144.314575
 21
-160.545959
  0
LINE
  8
0
 10
-144.314560
 20
-160.546005
 11
-142.421661
 21
-158.653107
  0
LINE
  8
0
 10
-142.421677
 20
-151.638855
 11
-142.421677
 21
-158.653076
  0
LINE
  8
0
 10
-144.314575
 20
-149.745987
 11
-142.421692
 21
-151.638870
  0
LINE
  8
0
 10
-147.921677
 20
-160.045959
 11
-147.921677
 21
-180.145966
  0
LINE
  8
0
  6
CENTER
 62
     2
 10
-133.921692
 20
-88.872437
 11
-133.921692
 21
-183.145966
  0
LINE
  8
0
 10
-145.921692
 20
-133.645966
 11
-121.921692
 21
-133.645966
  0
LINE
  8
0
 10
-145.921692
 20
-133.645966
 11
-145.921692
 21
-134.145966
  0
LINE
  8
0
 10
-121.921692
 20
-133.645966
 11
-121.921692
 21
-134.145966
  0
LINE
  8
0
 10
-142.921753
 20
-151.846039
 11
-144.521744
 21
-150.246048
  0
LINE
  8
0
 10
-51.421669
 20
-158.653137
 11
-49.528774
 21
-160.546036
  0
LINE
  8
0
 10
-49.528809
 20
-160.545959
 11
-32.314484
 21
-160.545959
  0
LINE
  8
0
 10
-45.421661
 20
-150.245972
 11
-36.421677
 21
-150.245972
  0
LINE
  8
0
 10
-49.321686
 20
-149.745972
 11
-49.321686
 21
-160.545959
  0
LINE
  8
0
 10
-45.421692
 20
-158.945969
 11
-36.421677
 21
-158.945969
  0
LINE
  8
0
 10
-45.421692
 20
-151.345963
 11
-36.421677
 21
-151.345963
  0
LINE
  8
0
 10
-38.421677
 20
-150.245972
 11
-38.421677
 21
-151.345963
  0
LINE
  8
0
 10
-43.421677
 20
-158.945969
 11
-43.421677
 21
-160.045959
  0
LINE
  8
0
 10
-43.421677
 20
-150.245972
 11
-43.421677
 21
-151.345963
  0
LINE
  8
0
 10
-38.421677
 20
-158.945969
 11
-38.421677
 21
-160.045959
  0
LINE
  8
0
 10
-36.421677
 20
-150.245972
 11
-36.421677
 21
-151.345963
  0
LINE
  8
0
 10
-45.421661
 20
-150.245972
 11
-45.421661
 21
-151.345963
  0
LINE
  8
0
 10
-45.421661
 20
-158.945969
 11
-45.421661
 21
-160.045959
  0
LINE
  8
0
 10
-36.421677
 20
-158.945969
 11
-36.421677
 21
-160.045959
  0
LINE
  8
0
 10
-39.381699
 20
-154.214081
 11
-39.381699
 21
-156.077850
  0
LINE
  8
0
 10
-42.461685
 20
-154.214081
 11
-42.461685
 21
-156.077850
  0
LINE
  8
0
 10
-42.461681
 20
-154.214127
 11
-40.921696
 21
-153.325027
  0
LINE
  8
0
 10
-40.921665
 20
-156.967010
 11
-39.381649
 21
-156.077881
  0
LINE
  8
0
 10
-42.461689
 20
-156.077866
 11
-40.921696
 21
-156.966980
  0
LINE
  8
0
 10
-40.921715
 20
-153.324966
 11
-39.381725
 21
-154.214081
  0
LINE
  8
0
 10
-51.421692
 20
-151.638855
 11
-51.421692
 21
-158.653076
  0
LINE
  8
0
 10
-51.421646
 20
-151.638901
 11
-49.528763
 21
-149.746017
  0
LINE
  8
0
 10
-49.528809
 20
-149.745972
 11
-32.314545
 21
-149.745972
  0
LINE
  8
0
 10
-30.421661
 20
-151.638855
 11
-30.421661
 21
-158.653076
  0
LINE
  8
0
 10
-32.314583
 20
-149.746017
 11
-30.421700
 21
-151.638901
  0
LINE
  8
0
 10
-32.521667
 20
-149.745972
 11
-32.521667
 21
-160.545959
  0
LINE
  8
0
 10
-32.314510
 20
-160.546051
 11
-30.421606
 21
-158.653137
  0
LINE
  8
0
 10
-45.421661
 20
-160.045959
 11
-36.421677
 21
-160.045959
  0
LINE
  8
0
 10
-33.421707
 20
-132.645966
 11
-33.421707
 21
-133.645966
  0
LINE
  8
0
 10
-10.421707
 20
-132.645966
 11
-10.421707
 21
-133.645966
  0
LINE
  8
0
  6
CENTER
 62
     2
 10
-173.421661
 20
-171.371780
 11
-173.421661
 21
-186.119415
  0
LINE
  8
0
  6
CENTER
 62
     2
 10
17.578278
 20
-171.371780
 11
17.578278
 21
-186.119415
  0
LINE
  8
0
 10
-119.921661
 20
-134.145966
 11
-119.921661
 21
-149.745972
  0
LINE
  8
0
 10
-119.921661
 20
-160.545959
 11
-119.921661
 21
-180.145966
  0
LINE
  8
0
 10
-135.421661
 20
-158.653107
 11
-133.528763
 21
-160.546005
  0
LINE
  8
0
 10
-133.528809
 20
-160.545959
 11
-116.314491
 21
-160.545959
  0
LINE
  8
0
 10
-129.421661
 20
-150.245972
 11
-120.421677
 21
-150.245972
  0
LINE
  8
0
 10
-133.321686
 20
-149.745972
 11
-133.321686
 21
-160.545959
  0
LINE
  8
0
 10
-129.421692
 20
-158.945969
 11
-120.421677
 21
-158.945969
  0
LINE
  8
0
 10
-129.421692
 20
-151.345963
 11
-120.421677
 21
-151.345963
  0
LINE
  8
0
 10
-122.421677
 20
-150.245972
 11
-122.421677
 21
-151.345963
  0
LINE
  8
0
 10
-127.421677
 20
-158.945969
 11
-127.421677
 21
-160.045959
  0
LINE
  8
0
 10
-127.421677
 20
-150.245972
 11
-127.421677
 21
-151.345963
  0
LINE
  8
0
 10
-122.421677
 20
-158.945969
 11
-122.421677
 21
-160.045959
  0
LINE
  8
0
 10
-120.421677
 20
-150.245972
 11
-120.421677
 21
-151.345963
  0
LINE
  8
0
 10
-129.421661
 20
-150.245972
 11
-129.421661
 21
-151.345963
  0
LINE
  8
0
 10
-129.421661
 20
-158.945969
 11
-129.421661
 21
-160.045959
  0
LINE
  8
0
 10
-120.421677
 20
-158.945969
 11
-120.421677
 21
-160.045959
  0
LINE
  8
0
 10
-123.381699
 20
-154.214081
 11
-123.381699
 21
-156.077850
  0
LINE
  8
0
 10
-126.461685
 20
-154.214081
 11
-126.461685
 21
-156.077850
  0
LINE
  8
0
 10
-126.461678
 20
-154.214127
 11
-124.921684
 21
-153.325012
  0
LINE
  8
0
 10
-124.921684
 20
-156.967026
 11
-123.381660
 21
-156.077896
  0
LINE
  8
0
 10
-126.461670
 20
-156.077866
 11
-124.921677
 21
-156.966980
  0
LINE
  8
0
 10
-124.921692
 20
-153.324982
 11
-123.381706
 21
-154.214096
  0
LINE
  8
0
 10
-135.421692
 20
-151.638855
 11
-135.421692
 21
-158.653076
  0
LINE
  8
0
 10
-135.421661
 20
-151.638916
 11
-133.528763
 21
-149.746017
  0
LINE
  8
0
 10
-133.528809
 20
-149.745972
 11
-116.314545
 21
-149.745972
  0
LINE
  8
0
 10
-114.421661
 20
-151.638855
 11
-114.421661
 21
-158.653076
  0
LINE
  8
0
 10
-116.314606
 20
-149.746017
 11
-114.421722
 21
-151.638901
  0
LINE
  8
0
 10
-116.521667
 20
-149.745972
 11
-116.521667
 21
-160.545959
  0
LINE
  8
0
 10
-116.314537
 20
-160.546051
 11
-114.421631
 21
-158.653137
  0
LINE
  8
0
 10
-129.421661
 20
-160.045959
 11
-120.421677
 21
-160.045959
  0
LINE
  8
0
 10
-91.921661
 20
-134.145966
 11
-91.921661
 21
-149.745972
  0
LINE
  8
0
 10
-91.921661
 20
-160.545959
 11
-91.921661
 21
-180.145966
  0
LINE
  8
0
 10
-107.421700
 20
-158.653152
 11
-105.528809
 21
-160.546036
  0
LINE
  8
0
 10
-105.528809
 20
-160.545959
 11
-88.314491
 21
-160.545959
  0
LINE
  8
0
 10
-101.421661
 20
-150.245972
 11
-92.421677
 21
-150.245972
  0
LINE
  8
0
 10
-105.321686
 20
-149.745972
 11
-105.321686
 21
-160.545959
  0
LINE
  8
0
 10
-101.421692
 20
-158.945969
 11
-92.421677
 21
-158.945969
  0
LINE
  8
0
 10
-101.421692
 20
-151.345963
 11
-92.421677
 21
-151.345963
  0
LINE
  8
0
 10
-94.421677
 20
-150.245972
 11
-94.421677
 21
-151.345963
  0
LINE
  8
0
 10
-99.421677
 20
-158.945969
 11
-99.421677
 21
-160.045959
  0
LINE
  8
0
 10
-99.421677
 20
-150.245972
 11
-99.421677
 21
-151.345963
  0
LINE
  8
0
 10
-94.421677
 20
-158.945969
 11
-94.421677
 21
-160.045959
  0
LINE
  8
0
 10
-92.421677
 20
-150.245972
 11
-92.421677
 21
-151.345963
  0
LINE
  8
0
 10
-101.421661
 20
-150.245972
 11
-101.421661
 21
-151.345963
  0
LINE
  8
0
 10
-101.421661
 20
-158.945969
 11
-101.421661
 21
-160.045959
  0
LINE
  8
0
 10
-92.421677
 20
-158.945969
 11
-92.421677
 21
-160.045959
  0
LINE
  8
0
 10
-95.381699
 20
-154.214081
 11
-95.381699
 21
-156.077850
  0
LINE
  8
0
 10
-98.461685
 20
-154.214081
 11
-98.461685
 21
-156.077850
  0
LINE
  8
0
 10
-98.461670
 20
-154.214127
 11
-96.921677
 21
-153.325012
  0
LINE
  8
0
 10
-96.921677
 20
-156.967026
 11
-95.381660
 21
-156.077896
  0
LINE
  8
0
 10
-98.461693
 20
-156.077896
 11
-96.921700
 21
-156.967010
  0
LINE
  8
0
 10
-96.921715
 20
-153.324951
 11
-95.381721
 21
-154.214066
  0
LINE
  8
0
 10
-107.421692
 20
-151.638855
 11
-107.421692
 21
-158.653076
  0
LINE
  8
0
 10
-107.421669
 20
-151.638916
 11
-105.528786
 21
-149.746033
  0
LINE
  8
0
 10
-105.528809
 20
-149.745972
 11
-88.314545
 21
-149.745972
  0
LINE
  8
0
 10
-86.421661
 20
-151.638855
 11
-86.421661
 21
-158.653076
  0
LINE
  8
0
 10
-88.314590
 20
-149.746002
 11
-86.421707
 21
-151.638885
  0
LINE
  8
0
 10
-88.521667
 20
-149.745972
 11
-88.521667
 21
-160.545959
  0
LINE
  8
0
 10
-88.314529
 20
-160.546051
 11
-86.421623
 21
-158.653137
  0
LINE
  8
0
 10
-101.421661
 20
-160.045959
 11
-92.421677
 21
-160.045959
  0
LINE
  8
0
 10
-63.921661
 20
-134.145966
 11
-63.921661
 21
-149.745972
  0
LINE
  8
0
 10
-63.921661
 20
-160.545959
 11
-63.921661
 21
-180.145966
  0
LINE
  8
0
 10
-79.421684
 20
-158.653137
 11
-77.528793
 21
-160.546021
  0
LINE
  8
0
 10
-77.528809
 20
-160.545959
 11
-60.314491
 21
-160.545959
  0
LINE
  8
0
 10
-73.421661
 20
-150.245972
 11
-64.421677
 21
-150.245972
  0
LINE
  8
0
 10
-77.321686
 20
-149.745972
 11
-77.321686
 21
-160.545959
  0
LINE
  8
0
 10
-73.421692
 20
-158.945969
 11
-64.421677
 21
-158.945969
  0
LINE
  8
0
 10
-73.421692
 20
-151.345963
 11
-64.421677
 21
-151.345963
  0
LINE
  8
0
 10
-66.421677
 20
-150.245972
 11
-66.421677
 21
-151.345963
  0
LINE
  8
0
 10
-71.421677
 20
-158.945969
 11
-71.421677
 21
-160.045959
  0
LINE
  8
0
 10
-71.421677
 20
-150.245972
 11
-71.421677
 21
-151.345963
  0
LINE
  8
0
 10
-66.421677
 20
-158.945969
 11
-66.421677
 21
-160.045959
  0
LINE
  8
0
 10
-64.421677
 20
-150.245972
 11
-64.421677
 21
-151.345963
  0
LINE
  8
0
 10
-73.421661
 20
-150.245972
 11
-73.421661
 21
-151.345963
  0
LINE
  8
0
 10
-73.421661
 20
-158.945969
 11
-73.421661
 21
-160.045959
  0
LINE
  8
0
 10
-64.421677
 20
-158.945969
 11
-64.421677
 21
-160.045959
  0
LINE
  8
0
 10
-67.381699
 20
-154.214081
 11
-67.381699
 21
-156.077850
  0
LINE
  8
0
 10
-70.461685
 20
-154.214081
 11
-70.461685
 21
-156.077850
  0
LINE
  8
0
 10
-70.461670
 20
-154.214142
 11
-68.921684
 21
-153.325027
  0
LINE
  8
0
 10
-68.921677
 20
-156.967010
 11
-67.381653
 21
-156.077881
  0
LINE
  8
0
 10
-70.461708
 20
-156.077911
 11
-68.921715
 21
-156.967026
  0
LINE
  8
0
 10
-68.921707
 20
-153.324966
 11
-67.381714
 21
-154.214081
  0
LINE
  8
0
 10
-79.421692
 20
-151.638855
 11
-79.421692
 21
-158.653076
  0
LINE
  8
0
 10
-79.421646
 20
-151.638901
 11
-77.528748
 21
-149.746017
  0
LINE
  8
0
 10
-77.528809
 20
-149.745972
 11
-60.314545
 21
-149.745972
  0
LINE
  8
0
 10
-58.421661
 20
-151.638855
 11
-58.421661
 21
-158.653076
  0
LINE
  8
0
 10
-60.314583
 20
-149.746002
 11
-58.421692
 21
-151.638885
  0
LINE
  8
0
 10
-60.521667
 20
-149.745972
 11
-60.521667
 21
-160.545959
  0
LINE
  8
0
 10
-60.314526
 20
-160.546036
 11
-58.421619
 21
-158.653137
  0
LINE
  8
0
 10
-73.421661
 20
-160.045959
 11
-64.421677
 21
-160.045959
  0
LINE
  8
0
 10
-89.421707
 20
-132.645966
 11
-66.421707
 21
-132.645966
  0
LINE
  8
0
 62
     1
 10
-131.071625
 20
-89.095322
 11
-136.771652
 21
-90.622650
  0
LINE
  8
0
 62
     1
 10
-131.071655
 20
-90.648277
 11
-136.771637
 21
-92.175591
  0
LINE
  8
0
  6
CENTER
 62
     1
 10
-132.621735
 20
-73.584145
 11
-132.621735
 21
-96.367409
  0
LINE
  8
0
 62
     4
 10
-66.421707
 20
-97.645950
 11
-66.421707
 21
-132.645950
  0
LINE
  8
0
 62
     4
 10
-89.421707
 20
-97.645950
 11
-66.421707
 21
-97.645950
  0
LINE
  8
0
 62
     4
 10
-89.421707
 20
-97.645950
 11
-89.421707
 21
-132.645950
  0
LINE
  8
0
 62
     4
 10
-87.009903
 20
-126.234955
 11
-84.954185
 21
-124.179230
  0
LINE
  8
0
 62
     4
 10
-87.082611
 20
-123.985268
 11
-84.890907
 21
-126.176971
  0
LINE
  8
0
 62
     4
 10
-69.921707
 20
-101.145950
 11
-66.421707
 21
-101.145950
  0
LINE
  8
0
 62
     4
 10
-85.921707
 20
-121.145950
 11
-89.421707
 21
-121.145950
  0
LINE
  8
0
 62
     4
 10
-85.921707
 20
-129.145950
 11
-89.421707
 21
-129.145950
  0
LINE
  8
0
 62
     4
 10
-68.833511
 20
-104.057068
 11
-70.889221
 21
-106.112785
  0
LINE
  8
0
 62
     4
 10
-68.760780
 20
-106.306641
 11
-70.952499
 21
-104.114922
  0
LINE
  8
0
 62
     4
 10
-69.921707
 20
-109.145950
 11
-66.421707
 21
-109.145950
  0
LINE
  8
0
 62
     4
 10
-89.421707
 20
-132.645950
 11
-66.421707
 21
-132.645950
  0
LINE
  8
0
 62
     4
 10
-133.471710
 20
-85.645950
 11
-133.471710
 21
-89.738419
  0
LINE
  8
0
 62
     4
 10
-131.771698
 20
-85.645950
 11
-131.771698
 21
-89.282898
  0
LINE
  8
0
 62
     4
 10
-132.941711
 20
-75.645920
 11
-132.941711
 21
-85.645950
  0
LINE
  8
0
 62
     4
 10
-132.301697
 20
-75.645920
 11
-132.301697
 21
-85.645950
  0
LINE
  8
0
 62
     4
 10
-131.771729
 20
-85.645920
 11
-133.471741
 21
-85.645920
  0
LINE
  8
0
 62
     4
 10
-132.301727
 20
-75.645920
 11
-132.941711
 21
-75.645920
  0
LINE
  8
0
 62
     4
 10
-74.921707
 20
-95.645950
 11
-74.921707
 21
-97.645950
  0
LINE
  8
0
 62
     4
 10
-80.921707
 20
-95.645950
 11
-80.921707
 21
-97.645950
  0
LINE
  8
0
 62
     4
 10
-80.921707
 20
-95.645950
 11
-74.921707
 21
-95.645950
  0
LINE
  8
0
  6
CENTER
 62
     2
 10
-77.921707
 20
-88.872452
 11
-77.921707
 21
-136.163910
  0
LINE
  8
0
 62
     4
 10
-136.071716
 20
-85.645950
 11
-136.071716
 21
-90.435097
  0
LINE
  8
0
 62
     4
 10
-134.371704
 20
-85.645950
 11
-134.371704
 21
-89.979576
  0
LINE
  8
0
 62
     4
 10
-135.541718
 20
-75.645920
 11
-135.541718
 21
-85.645950
  0
LINE
  8
0
 62
     4
 10
-134.901703
 20
-75.645920
 11
-134.901703
 21
-85.645950
  0
LINE
  8
0
 62
     4
 10
-134.371735
 20
-85.645920
 11
-136.071747
 21
-85.645920
  0
LINE
  8
0
 62
     4
 10
-134.901733
 20
-75.645920
 11
-135.541718
 21
-75.645920
  0
LINE
  8
0
  6
CENTER
 62
     1
 10
-135.221741
 20
-73.584145
 11
-135.221741
 21
-96.367409
  0
LINE
  8
0
 62
     4
 10
-136.071716
 20
-91.988068
 11
-136.071716
 21
-94.145966
  0
LINE
  8
0
 62
     4
 10
-134.371704
 20
-91.532547
 11
-134.371704
 21
-94.145966
  0
LINE
  8
0
 62
     4
 10
-133.471710
 20
-91.291389
 11
-133.471710
 21
-94.145966
  0
LINE
  8
0
 62
     4
 10
-131.771698
 20
-90.835876
 11
-131.771698
 21
-94.145966
  0
LINE
  8
0
 10
-61.421692
 20
-132.645981
 11
-38.421692
 21
-132.645981
  0
LINE
  8
0
 62
     1
 10
-103.071632
 20
-89.095329
 11
-108.771660
 21
-90.622665
  0
LINE
  8
0
 62
     1
 10
-103.071632
 20
-90.648300
 11
-108.771622
 21
-92.175613
  0
LINE
  8
0
  6
CENTER
 62
     1
 10
-104.621719
 20
-73.584160
 11
-104.621719
 21
-96.367409
  0
LINE
  8
0
 62
     4
 10
-38.421692
 20
-97.645966
 11
-38.421692
 21
-132.645966
  0
LINE
  8
0
 62
     4
 10
-61.421692
 20
-97.645966
 11
-38.421692
 21
-97.645966
  0
LINE
  8
0
 62
     4
 10
-61.421692
 20
-97.645966
 11
-61.421692
 21
-132.645966
  0
LINE
  8
0
 62
     4
 10
-59.009914
 20
-126.234978
 11
-56.954197
 21
-124.179260
  0
LINE
  8
0
 62
     4
 10
-59.082596
 20
-123.985298
 11
-56.890896
 21
-126.176994
  0
LINE
  8
0
 62
     4
 10
-41.921692
 20
-101.145966
 11
-38.421692
 21
-101.145966
  0
LINE
  8
0
 62
     4
 10
-57.921692
 20
-121.145966
 11
-61.421692
 21
-121.145966
  0
LINE
  8
0
 62
     4
 10
-57.921692
 20
-129.145966
 11
-61.421692
 21
-129.145966
  0
LINE
  8
0
 62
     4
 10
-40.833515
 20
-104.057091
 11
-42.889233
 21
-106.112816
  0
LINE
  8
0
 62
     4
 10
-40.760788
 20
-106.306679
 11
-42.952511
 21
-104.114952
  0
LINE
  8
0
 62
     4
 10
-41.921692
 20
-109.145966
 11
-38.421692
 21
-109.145966
  0
LINE
  8
0
 62
     4
 10
-61.421692
 20
-132.645966
 11
-38.421692
 21
-132.645966
  0
LINE
  8
0
 62
     4
 10
-105.471695
 20
-85.645966
 11
-105.471695
 21
-89.738434
  0
LINE
  8
0
 62
     4
 10
-103.771683
 20
-85.645966
 11
-103.771683
 21
-89.282913
  0
LINE
  8
0
 62
     4
 10
-104.941696
 20
-75.645935
 11
-104.941696
 21
-85.645966
  0
LINE
  8
0
 62
     4
 10
-104.301682
 20
-75.645935
 11
-104.301682
 21
-85.645966
  0
LINE
  8
0
 62
     4
 10
-103.771713
 20
-85.645935
 11
-105.471725
 21
-85.645935
  0
LINE
  8
0
 62
     4
 10
-104.301712
 20
-75.645935
 11
-104.941696
 21
-75.645935
  0
LINE
  8
0
 62
     4
 10
-46.921692
 20
-95.645966
 11
-46.921692
 21
-97.645966
  0
LINE
  8
0
 62
     4
 10
-52.921692
 20
-95.645966
 11
-52.921692
 21
-97.645966
  0
LINE
  8
0
 62
     4
 10
-52.921692
 20
-95.645966
 11
-46.921692
 21
-95.645966
  0
LINE
  8
0
  6
CENTER
 62
     2
 10
-49.921692
 20
-88.872467
 11
-49.921692
 21
-136.163925
  0
LINE
  8
0
 62
     4
 10
-108.071701
 20
-85.645966
 11
-108.071701
 21
-90.435112
  0
LINE
  8
0
 62
     4
 10
-106.371689
 20
-85.645966
 11
-106.371689
 21
-89.979591
  0
LINE
  8
0
 62
     4
 10
-107.541702
 20
-75.645935
 11
-107.541702
 21
-85.645966
  0
LINE
  8
0
 62
     4
 10
-106.901688
 20
-75.645935
 11
-106.901688
 21
-85.645966
  0
LINE
  8
0
 62
     4
 10
-106.371719
 20
-85.645935
 11
-108.071732
 21
-85.645935
  0
LINE
  8
0
 62
     4
 10
-106.901718
 20
-75.645935
 11
-107.541702
 21
-75.645935
  0
LINE
  8
0
  6
CENTER
 62
     1
 10
-107.221725
 20
-73.584160
 11
-107.221725
 21
-96.367409
  0
LINE
  8
0
 62
     4
 10
-108.071701
 20
-91.988083
 11
-108.071701
 21
-94.145966
  0
LINE
  8
0
 62
     4
 10
-106.371689
 20
-91.532562
 11
-106.371689
 21
-94.145966
  0
LINE
  8
0
 62
     4
 10
-105.471695
 20
-91.291405
 11
-105.471695
 21
-94.145966
  0
LINE
  8
0
 62
     4
 10
-103.771683
 20
-90.835892
 11
-103.771683
 21
-94.145966
  0
LINE
  8
0
 10
-115.921722
 20
-94.145966
 11
-95.921722
 21
-94.145966
  0
LINE
  8
0
 10
-95.921707
 20
-94.145958
 11
-94.421707
 21
-95.645958
  0
LINE
  8
0
 10
-117.421722
 20
-95.645966
 11
-94.421722
 21
-95.645966
  0
LINE
  8
0
 10
-117.421707
 20
-95.646004
 11
-115.921707
 21
-94.146004
  0
LINE
  8
0
 10
-47.771698
 20
-94.145966
 11
-39.921722
 21
-94.145966
  0
LINE
  8
0
 10
-50.371704
 20
-94.145966
 11
-49.471710
 21
-94.145966
  0
LINE
  8
0
 10
-46.921707
 20
-95.645966
 11
-38.421722
 21
-95.645966
  0
LINE
  8
0
 10
-61.421722
 20
-95.645966
 11
-61.421722
 21
-97.645950
  0
LINE
  8
0
 10
-38.421722
 20
-95.645966
 11
-38.421722
 21
-97.645950
  0
LINE
  8
0
 10
-66.421722
 20
-95.645966
 11
-66.421722
 21
-97.645950
  0
LINE
  8
0
 10
-89.421722
 20
-95.645966
 11
-89.421722
 21
-97.645950
  0
LINE
  8
0
 10
-74.921707
 20
-95.645966
 11
-66.421722
 21
-95.645966
  0
LINE
  8
0
 10
-78.371704
 20
-94.145966
 11
-77.471710
 21
-94.145966
  0
LINE
  8
0
 10
-87.921722
 20
-94.145966
 11
-80.071716
 21
-94.145966
  0
LINE
  8
0
 10
-89.421722
 20
-95.645966
 11
-80.921707
 21
-95.645966
  0
LINE
  8
0
 10
-67.921722
 20
-94.145966
 11
-66.421715
 21
-95.645973
  0
LINE
  8
0
 10
-89.421707
 20
-95.646019
 11
-87.921707
 21
-94.146019
  0
LINE
  8
0
 10
-75.771698
 20
-94.145966
 11
-67.921722
 21
-94.145966
  0
LINE
  8
0
 62
     4
 10
-47.771683
 20
-90.835892
 11
-47.771683
 21
-95.645966
  0
LINE
  8
0
 62
     4
 10
-49.471695
 20
-91.291405
 11
-49.471695
 21
-95.645966
  0
LINE
  8
0
 62
     1
 10
-75.071640
 20
-89.095299
 11
-80.771667
 21
-90.622627
  0
LINE
  8
0
 62
     1
 10
-75.071655
 20
-90.648285
 11
-80.771645
 21
-92.175598
  0
LINE
  8
0
  6
CENTER
 62
     1
 10
-76.621735
 20
-73.584145
 11
-76.621735
 21
-99.645966
  0
LINE
  8
0
 62
     4
 10
-77.471710
 20
-85.645950
 11
-77.471710
 21
-89.738419
  0
LINE
  8
0
 62
     4
 10
-75.771698
 20
-85.645950
 11
-75.771698
 21
-89.282898
  0
LINE
  8
0
 62
     4
 10
-76.941711
 20
-75.645920
 11
-76.941711
 21
-85.645950
  0
LINE
  8
0
 62
     4
 10
-76.301697
 20
-75.645920
 11
-76.301697
 21
-85.645950
  0
LINE
  8
0
 62
     4
 10
-75.771729
 20
-85.645920
 11
-77.471741
 21
-85.645920
  0
LINE
  8
0
 62
     4
 10
-76.301727
 20
-75.645920
 11
-76.941711
 21
-75.645920
  0
LINE
  8
0
 62
     4
 10
-50.371689
 20
-91.532562
 11
-50.371689
 21
-95.645966
  0
LINE
  8
0
 62
     4
 10
-80.071716
 20
-85.645950
 11
-80.071716
 21
-90.435097
  0
LINE
  8
0
 62
     4
 10
-78.371704
 20
-85.645950
 11
-78.371704
 21
-89.979576
  0
LINE
  8
0
 62
     4
 10
-79.541718
 20
-75.645920
 11
-79.541718
 21
-85.645950
  0
LINE
  8
0
 62
     4
 10
-78.901703
 20
-75.645920
 11
-78.901703
 21
-85.645950
  0
LINE
  8
0
 62
     4
 10
-78.371735
 20
-85.645920
 11
-80.071747
 21
-85.645920
  0
LINE
  8
0
 62
     4
 10
-78.901733
 20
-75.645920
 11
-79.541718
 21
-75.645920
  0
LINE
  8
0
  6
CENTER
 62
     1
 10
-79.221741
 20
-73.584145
 11
-79.221741
 21
-99.645966
  0
LINE
  8
0
 62
     4
 10
-80.071716
 20
-91.988068
 11
-80.071716
 21
-95.645950
  0
LINE
  8
0
 62
     4
 10
-78.371704
 20
-91.532547
 11
-78.371704
 21
-95.645950
  0
LINE
  8
0
 62
     4
 10
-77.471710
 20
-91.291389
 11
-77.471710
 21
-95.645950
  0
LINE
  8
0
 62
     4
 10
-75.771698
 20
-90.835876
 11
-75.771698
 21
-95.645950
  0
LINE
  8
0
 62
     1
 10
-47.071606
 20
-89.095337
 11
-52.771648
 21
-90.622665
  0
LINE
  8
0
 62
     1
 10
-47.071636
 20
-90.648315
 11
-52.771622
 21
-92.175629
  0
LINE
  8
0
  6
CENTER
 62
     1
 10
-48.621719
 20
-73.584160
 11
-48.621719
 21
-99.645981
  0
LINE
  8
0
 62
     4
 10
-49.471695
 20
-85.645966
 11
-49.471695
 21
-89.738434
  0
LINE
  8
0
 62
     4
 10
-47.771683
 20
-85.645966
 11
-47.771683
 21
-89.282913
  0
LINE
  8
0
 62
     4
 10
-48.941696
 20
-75.645935
 11
-48.941696
 21
-85.645966
  0
LINE
  8
0
 62
     4
 10
-48.301682
 20
-75.645935
 11
-48.301682
 21
-85.645966
  0
LINE
  8
0
 62
     4
 10
-47.771713
 20
-85.645935
 11
-49.471725
 21
-85.645935
  0
LINE
  8
0
 62
     4
 10
-48.301712
 20
-75.645935
 11
-48.941696
 21
-75.645935
  0
LINE
  8
0
 62
     4
 10
-52.071701
 20
-91.988083
 11
-52.071701
 21
-95.645966
  0
LINE
  8
0
 62
     4
 10
-52.071701
 20
-85.645966
 11
-52.071701
 21
-90.435112
  0
LINE
  8
0
 62
     4
 10
-50.371689
 20
-85.645966
 11
-50.371689
 21
-89.979591
  0
LINE
  8
0
 62
     4
 10
-51.541702
 20
-75.645935
 11
-51.541702
 21
-85.645966
  0
LINE
  8
0
 62
     4
 10
-50.901688
 20
-75.645935
 11
-50.901688
 21
-85.645966
  0
LINE
  8
0
 62
     4
 10
-50.371719
 20
-85.645935
 11
-52.071732
 21
-85.645935
  0
LINE
  8
0
 62
     4
 10
-50.901718
 20
-75.645935
 11
-51.541702
 21
-75.645935
  0
LINE
  8
0
  6
CENTER
 62
     1
 10
-51.221725
 20
-73.584160
 11
-51.221725
 21
-99.645981
  0
LINE
  8
0
 62
     4
 10
-88.421707
 20
-98.645950
 11
-88.421707
 21
-121.145950
  0
LINE
  8
0
 62
     4
 10
-60.421692
 20
-98.645966
 11
-60.421692
 21
-121.145966
  0
LINE
  8
0
 62
     4
 10
-67.421707
 20
-109.145950
 11
-67.421707
 21
-131.645950
  0
LINE
  8
0
 62
     4
 10
-67.421707
 20
-98.645950
 11
-67.421707
 21
-101.145950
  0
LINE
  8
0
 62
     4
 10
-88.421707
 20
-129.145950
 11
-88.421707
 21
-131.645950
  0
LINE
  8
0
 62
     4
 10
-39.421692
 20
-98.645966
 11
-39.421692
 21
-101.145966
  0
LINE
  8
0
 62
     4
 10
-60.421692
 20
-98.645966
 11
-39.421692
 21
-98.645966
  0
LINE
  8
0
 62
     4
 10
-60.421692
 20
-131.645966
 11
-39.421692
 21
-131.645966
  0
LINE
  8
0
 62
     4
 10
-88.421707
 20
-98.645950
 11
-67.421707
 21
-98.645950
  0
LINE
  8
0
 62
     4
 10
-88.421707
 20
-131.645950
 11
-67.421707
 21
-131.645950
  0
LINE
  8
0
 62
     4
 10
-60.421692
 20
-129.145966
 11
-60.421692
 21
-131.645966
  0
LINE
  8
0
 62
     4
 10
-89.421722
 20
-97.645950
 11
-88.421707
 21
-98.645950
  0
LINE
  8
0
 62
     4
 10
-66.421715
 20
-97.645935
 11
-67.421692
 21
-98.645927
  0
LINE
  8
0
 62
     4
 10
-66.421715
 20
-132.645950
 11
-67.421715
 21
-131.645950
  0
LINE
  8
0
 62
     4
 10
-89.421700
 20
-132.645950
 11
-88.421700
 21
-131.645950
  0
LINE
  8
0
 62
     4
 10
-61.421684
 20
-132.645950
 11
-60.421684
 21
-131.645950
  0
LINE
  8
0
 62
     4
 10
-38.421688
 20
-132.645966
 11
-39.421688
 21
-131.645966
  0
LINE
  8
0
 62
     4
 10
-38.421730
 20
-97.645958
 11
-39.421692
 21
-98.645958
  0
LINE
  8
0
 62
     4
 10
-61.421722
 20
-97.645966
 11
-60.421692
 21
-98.645966
  0
LINE
  8
0
 62
     4
 10
-39.421692
 20
-109.145966
 11
-39.421692
 21
-131.645966
  0
LINE
  8
0
 10
177.792480
 20
-182.646027
 11
177.792480
 21
-180.645996
  0
LINE
  8
0
 10
177.792480
 20
-182.646027
 11
184.792480
 21
-182.646027
  0
LINE
  8
0
 10
184.792480
 20
-182.646027
 11
184.792480
 21
-180.645996
  0
LINE
  8
0
 10
178.792480
 20
-181.646027
 11
183.792480
 21
-181.646027
  0
LINE
  8
0
 10
183.792282
 20
-181.645767
 11
185.792282
 21
-179.645767
  0
LINE
  8
0
 10
178.792572
 20
-181.645966
 11
176.792572
 21
-179.645950
  0
LINE
  8
0
 10
324.792480
 20
-182.646027
 11
324.792480
 21
-180.645996
  0
LINE
  8
0
 10
324.792480
 20
-182.646027
 11
317.792480
 21
-182.646027
  0
LINE
  8
0
 10
317.792480
 20
-182.646027
 11
317.792480
 21
-180.645996
  0
LINE
  8
0
 10
323.792480
 20
-181.645996
 11
318.792480
 21
-181.645996
  0
LINE
  8
0
 10
318.792480
 20
-181.646057
 11
316.792450
 21
-179.646042
  0
LINE
  8
0
 10
323.792389
 20
-181.645966
 11
325.792389
 21
-179.645966
  0
LINE
  8
0
 10
334.292450
 20
-179.645996
 11
316.292450
 21
-179.645996
  0
LINE
  8
0
  6
CENTER
 62
     2
 10
346.783844
 20
-108.145981
 11
336.008514
 21
-108.145981
  0
LINE
  8
0
 10
346.792450
 20
-105.645981
 11
346.792450
 21
-102.645966
  0
LINE
  8
0
 10
346.792450
 20
-113.045975
 11
346.792450
 21
-110.645981
  0
LINE
  8
0
  6
CENTER
 62
     2
 10
341.792450
 20
-113.893768
 11
341.792450
 21
-102.274292
  0
LINE
  8
0
 10
346.792450
 20
-110.645981
 11
341.792450
 21
-110.645981
  0
LINE
  8
0
 10
346.792450
 20
-105.645981
 11
341.792450
 21
-105.645981
  0
LINE
  8
0
  6
CENTER
 62
     2
 10
346.783844
 20
-172.145996
 11
336.008514
 21
-172.145996
  0
LINE
  8
0
 10
346.792450
 20
-169.645996
 11
346.792450
 21
-167.245972
  0
LINE
  8
0
 10
346.792450
 20
-177.645966
 11
346.792450
 21
-174.645996
  0
LINE
  8
0
  6
CENTER
 62
     2
 10
341.792450
 20
-177.893753
 11
341.792450
 21
-166.274292
  0
LINE
  8
0
 10
346.792450
 20
-174.645996
 11
341.792450
 21
-174.645996
  0
LINE
  8
0
 10
346.792450
 20
-169.645996
 11
341.792450
 21
-169.645996
  0
LINE
  8
0
 10
344.792450
 20
-179.645996
 11
334.292450
 21
-179.645996
  0
LINE
  8
0
 10
344.792450
 20
-165.245987
 11
336.292450
 21
-165.245987
  0
LINE
  8
0
 10
344.792450
 20
-115.045967
 11
336.292450
 21
-115.045967
  0
LINE
  8
0
 10
334.292450
 20
-100.645981
 11
334.292450
 21
-179.645996
  0
LINE
  8
0
 10
158.292511
 20
-100.645981
 11
176.292480
 21
-100.645981
  0
LINE
  8
0
 10
176.292480
 20
-179.645996
 11
176.292480
 21
-100.645981
  0
LINE
  8
0
 10
158.292511
 20
-100.645981
 11
158.292511
 21
-179.645996
  0
LINE
  8
0
 10
158.292511
 20
-179.645996
 11
176.292480
 21
-179.645996
  0
LINE
  8
0
  6
CENTER
 62
     2
 10
145.801086
 20
-108.145981
 11
156.576447
 21
-108.145981
  0
LINE
  8
0
 10
145.792511
 20
-105.645981
 11
145.792511
 21
-102.645966
  0
LINE
  8
0
 10
145.792511
 20
-113.645988
 11
145.792511
 21
-110.645981
  0
LINE
  8
0
  6
CENTER
 62
     2
 10
150.792511
 20
-113.893768
 11
150.792511
 21
-102.274292
  0
LINE
  8
0
 10
145.792480
 20
-110.645981
 11
150.792480
 21
-110.645981
  0
LINE
  8
0
 10
145.792480
 20
-105.645981
 11
150.792480
 21
-105.645981
  0
LINE
  8
0
  6
CENTER
 62
     2
 10
145.801086
 20
-172.145996
 11
156.576447
 21
-172.145996
  0
LINE
  8
0
 10
145.792511
 20
-169.645996
 11
145.792511
 21
-166.645981
  0
LINE
  8
0
 10
145.792511
 20
-177.645966
 11
145.792511
 21
-174.645996
  0
LINE
  8
0
  6
CENTER
 62
     2
 10
150.792511
 20
-177.893753
 11
150.792511
 21
-166.274292
  0
LINE
  8
0
 10
145.792480
 20
-174.645996
 11
150.792480
 21
-174.645996
  0
LINE
  8
0
 10
145.792511
 20
-169.645996
 11
150.792480
 21
-169.645996
  0
LINE
  8
0
 10
147.792480
 20
-179.645996
 11
158.292511
 21
-179.645996
  0
LINE
  8
0
 10
147.792480
 20
-164.645996
 11
156.292480
 21
-164.645996
  0
LINE
  8
0
 10
147.792480
 20
-100.645981
 11
158.292511
 21
-100.645981
  0
LINE
  8
0
 10
147.792480
 20
-115.645981
 11
156.292480
 21
-115.645981
  0
LINE
  8
0
 10
176.292480
 20
-178.645966
 11
158.292511
 21
-178.645966
  0
LINE
  8
0
 10
204.292480
 20
-179.645981
 11
176.292480
 21
-179.645981
  0
LINE
  8
0
 10
316.292480
 20
-100.645981
 11
288.292480
 21
-100.645981
  0
LINE
  8
0
 10
176.292480
 20
-179.645981
 11
176.292480
 21
-100.645981
  0
LINE
  8
0
 10
176.292480
 20
-178.645981
 11
204.292480
 21
-178.645981
  0
LINE
  8
0
 10
314.792480
 20
-97.645981
 11
314.792480
 21
-99.645981
  0
LINE
  8
0
 10
314.792480
 20
-97.645981
 11
307.792511
 21
-97.645981
  0
LINE
  8
0
 10
307.792511
 20
-97.645981
 11
307.792511
 21
-99.645981
  0
LINE
  8
0
 10
313.792480
 20
-98.645996
 11
308.792480
 21
-98.645996
  0
LINE
  8
0
 10
308.792603
 20
-98.646103
 11
306.792603
 21
-100.646118
  0
LINE
  8
0
 10
313.792450
 20
-98.646095
 11
315.792389
 21
-100.646057
  0
LINE
  8
0
 10
204.292480
 20
-179.645981
 11
204.292480
 21
-100.645981
  0
LINE
  8
0
 10
316.292511
 20
-179.645981
 11
316.292511
 21
-100.645981
  0
LINE
  8
0
 10
288.292511
 20
-178.645981
 11
316.292511
 21
-178.645981
  0
LINE
  8
0
 10
296.792511
 20
-182.645981
 11
296.792511
 21
-180.645981
  0
LINE
  8
0
 10
296.792511
 20
-182.645981
 11
289.792511
 21
-182.645981
  0
LINE
  8
0
 10
289.792511
 20
-182.645981
 11
289.792511
 21
-180.645981
  0
LINE
  8
0
 10
295.792511
 20
-181.645981
 11
290.792511
 21
-181.645981
  0
LINE
  8
0
 10
290.792328
 20
-181.646164
 11
288.792297
 21
-179.646149
  0
LINE
  8
0
 10
295.792389
 20
-181.645905
 11
297.792389
 21
-179.645905
  0
LINE
  8
0
 10
316.292511
 20
-179.645981
 11
288.292511
 21
-179.645981
  0
LINE
  8
0
 10
288.292511
 20
-179.645981
 11
288.292511
 21
-100.645981
  0
LINE
  8
0
 10
204.292511
 20
-178.645981
 11
232.292511
 21
-178.645981
  0
LINE
  8
0
 10
212.792511
 20
-182.645981
 11
212.792511
 21
-180.645981
  0
LINE
  8
0
 10
212.792511
 20
-182.645981
 11
205.792511
 21
-182.645981
  0
LINE
  8
0
 10
205.792511
 20
-182.645981
 11
205.792511
 21
-180.645981
  0
LINE
  8
0
 10
211.792511
 20
-181.645981
 11
206.792511
 21
-181.645981
  0
LINE
  8
0
 10
206.792404
 20
-181.645966
 11
204.792435
 21
-179.645996
  0
LINE
  8
0
 10
211.792435
 20
-181.645889
 11
213.792435
 21
-179.645889
  0
LINE
  8
0
 10
232.292511
 20
-179.645981
 11
204.292511
 21
-179.645981
  0
LINE
  8
0
 10
260.292480
 20
-179.645966
 11
260.292480
 21
-100.645966
  0
LINE
  8
0
 10
232.292480
 20
-179.645966
 11
232.292480
 21
-100.645966
  0
LINE
  8
0
 10
260.292511
 20
-178.645981
 11
288.292511
 21
-178.645981
  0
LINE
  8
0
 10
268.792511
 20
-182.645981
 11
268.792511
 21
-180.645981
  0
LINE
  8
0
 10
268.792511
 20
-182.645981
 11
261.792511
 21
-182.645981
  0
LINE
  8
0
 10
261.792511
 20
-182.645981
 11
261.792511
 21
-180.645981
  0
LINE
  8
0
 10
267.792511
 20
-181.645981
 11
262.792511
 21
-181.645981
  0
LINE
  8
0
 10
262.792389
 20
-181.645966
 11
260.792419
 21
-179.645981
  0
LINE
  8
0
 10
267.792389
 20
-181.645889
 11
269.792389
 21
-179.645889
  0
LINE
  8
0
 10
288.292511
 20
-179.645981
 11
260.292511
 21
-179.645981
  0
LINE
  8
0
 10
232.292511
 20
-178.645981
 11
260.292511
 21
-178.645981
  0
LINE
  8
0
 10
240.792511
 20
-182.645981
 11
240.792511
 21
-180.645981
  0
LINE
  8
0
 10
240.792511
 20
-182.645981
 11
233.792511
 21
-182.645981
  0
LINE
  8
0
 10
233.792511
 20
-182.645981
 11
233.792511
 21
-180.645981
  0
LINE
  8
0
 10
239.792511
 20
-181.645981
 11
234.792511
 21
-181.645981
  0
LINE
  8
0
 10
234.792389
 20
-181.645981
 11
232.792389
 21
-179.645966
  0
LINE
  8
0
 10
239.792374
 20
-181.645859
 11
241.792374
 21
-179.645844
  0
LINE
  8
0
 10
260.292511
 20
-179.645981
 11
232.292511
 21
-179.645981
  0
LINE
  8
0
 10
204.292480
 20
-100.645981
 11
176.292480
 21
-100.645981
  0
LINE
  8
0
 10
232.292480
 20
-100.645981
 11
204.292480
 21
-100.645981
  0
LINE
  8
0
 10
260.292480
 20
-100.645981
 11
232.292480
 21
-100.645981
  0
LINE
  8
0
 10
288.292480
 20
-100.645981
 11
260.292480
 21
-100.645981
  0
LINE
  8
0
 10
316.292511
 20
-100.645981
 11
344.792419
 21
-100.645981
  0
LINE
  8
0
  6
CENTER
 62
     2
 10
294.792480
 20
-157.458191
 11
294.792480
 21
-141.968201
  0
LINE
  8
0
  6
CENTER
 62
     2
 10
287.906189
 20
-149.645996
 11
301.573853
 21
-149.645996
  0
LINE
  8
0
  6
CENTER
 62
     2
 10
289.272949
 20
-127.646004
 11
301.346039
 21
-127.646004
  0
LINE
  8
0
  6
CENTER
 62
     2
 10
294.792480
 20
-135.589935
 11
294.792480
 21
-120.327736
  0
LINE
  8
0
  6
CENTER
 62
     2
 10
300.662689
 20
-116.645973
 11
316.292480
 21
-116.645973
  0
LINE
  8
0
  6
CENTER
 62
     2
 10
308.792480
 20
-123.516853
 11
308.792480
 21
-108.938034
  0
LINE
  8
0
  6
CENTER
 62
     2
 10
301.118256
 20
-138.645966
 11
316.292480
 21
-138.645966
  0
LINE
  8
0
  6
CENTER
 62
     2
 10
308.792480
 20
-146.068481
 11
308.792480
 21
-130.806274
  0
LINE
  8
0
  6
CENTER
 62
     2
 10
300.662689
 20
-163.645981
 11
316.292480
 21
-163.645981
  0
LINE
  8
0
  6
CENTER
 62
     2
 10
308.792480
 20
-171.125839
 11
308.792480
 21
-154.952454
  0
LINE
  8
0
  6
CENTER
 62
     2
 10
182.792480
 20
-157.458191
 11
182.792480
 21
-141.968201
  0
LINE
  8
0
  6
CENTER
 62
     2
 10
175.906189
 20
-149.645996
 11
189.573853
 21
-149.645996
  0
LINE
  8
0
  6
CENTER
 62
     2
 10
177.272949
 20
-127.646004
 11
189.346039
 21
-127.646004
  0
LINE
  8
0
  6
CENTER
 62
     2
 10
182.792480
 20
-135.589935
 11
182.792480
 21
-120.327736
  0
LINE
  8
0
  6
CENTER
 62
     2
 10
188.662689
 20
-116.645973
 11
204.292480
 21
-116.645973
  0
LINE
  8
0
  6
CENTER
 62
     2
 10
196.792480
 20
-123.516853
 11
196.792480
 21
-108.938034
  0
LINE
  8
0
  6
CENTER
 62
     2
 10
189.118256
 20
-138.645966
 11
204.292480
 21
-138.645966
  0
LINE
  8
0
  6
CENTER
 62
     2
 10
196.792480
 20
-146.068481
 11
196.792480
 21
-130.806274
  0
LINE
  8
0
  6
CENTER
 62
     2
 10
188.662689
 20
-163.645981
 11
204.292480
 21
-163.645981
  0
LINE
  8
0
  6
CENTER
 62
     2
 10
196.792480
 20
-171.125839
 11
196.792480
 21
-154.952454
  0
LINE
  8
0
  6
CENTER
 62
     2
 10
210.792480
 20
-157.458191
 11
210.792480
 21
-141.968201
  0
LINE
  8
0
  6
CENTER
 62
     2
 10
203.906189
 20
-149.645996
 11
217.573853
 21
-149.645996
  0
LINE
  8
0
  6
CENTER
 62
     2
 10
205.272949
 20
-127.646004
 11
217.346039
 21
-127.646004
  0
LINE
  8
0
  6
CENTER
 62
     2
 10
210.792480
 20
-135.589935
 11
210.792480
 21
-120.327736
  0
LINE
  8
0
  6
CENTER
 62
     2
 10
216.662689
 20
-116.645973
 11
232.292480
 21
-116.645973
  0
LINE
  8
0
  6
CENTER
 62
     2
 10
224.792480
 20
-123.516853
 11
224.792480
 21
-108.938034
  0
LINE
  8
0
  6
CENTER
 62
     2
 10
217.118256
 20
-138.645966
 11
232.292480
 21
-138.645966
  0
LINE
  8
0
  6
CENTER
 62
     2
 10
224.792480
 20
-146.068481
 11
224.792480
 21
-130.806274
  0
LINE
  8
0
  6
CENTER
 62
     2
 10
216.662689
 20
-163.645981
 11
232.292480
 21
-163.645981
  0
LINE
  8
0
  6
CENTER
 62
     2
 10
224.792480
 20
-171.125839
 11
224.792480
 21
-154.952454
  0
LINE
  8
0
  6
CENTER
 62
     2
 10
238.792480
 20
-157.458191
 11
238.792480
 21
-141.968201
  0
LINE
  8
0
  6
CENTER
 62
     2
 10
231.906189
 20
-149.645996
 11
245.573853
 21
-149.645996
  0
LINE
  8
0
  6
CENTER
 62
     2
 10
233.272949
 20
-127.646004
 11
245.346039
 21
-127.646004
  0
LINE
  8
0
  6
CENTER
 62
     2
 10
238.792480
 20
-135.589935
 11
238.792480
 21
-120.327736
  0
LINE
  8
0
  6
CENTER
 62
     2
 10
244.662689
 20
-116.645973
 11
260.292480
 21
-116.645973
  0
LINE
  8
0
  6
CENTER
 62
     2
 10
252.792480
 20
-123.516853
 11
252.792480
 21
-108.938034
  0
LINE
  8
0
  6
CENTER
 62
     2
 10
245.118256
 20
-138.645966
 11
260.292480
 21
-138.645966
  0
LINE
  8
0
  6
CENTER
 62
     2
 10
252.792480
 20
-146.068481
 11
252.792480
 21
-130.806274
  0
LINE
  8
0
  6
CENTER
 62
     2
 10
244.662689
 20
-163.645981
 11
260.292480
 21
-163.645981
  0
LINE
  8
0
  6
CENTER
 62
     2
 10
252.792480
 20
-171.125839
 11
252.792480
 21
-154.952454
  0
LINE
  8
0
  6
CENTER
 62
     2
 10
266.792480
 20
-157.458191
 11
266.792480
 21
-141.968201
  0
LINE
  8
0
  6
CENTER
 62
     2
 10
259.906189
 20
-149.645996
 11
273.573853
 21
-149.645996
  0
LINE
  8
0
  6
CENTER
 62
     2
 10
261.272949
 20
-127.646004
 11
273.346039
 21
-127.646004
  0
LINE
  8
0
  6
CENTER
 62
     2
 10
266.792480
 20
-135.589935
 11
266.792480
 21
-120.327736
  0
LINE
  8
0
  6
CENTER
 62
     2
 10
272.662689
 20
-116.645973
 11
288.292480
 21
-116.645973
  0
LINE
  8
0
  6
CENTER
 62
     2
 10
280.792480
 20
-123.516853
 11
280.792480
 21
-108.938034
  0
LINE
  8
0
  6
CENTER
 62
     2
 10
273.118256
 20
-138.645966
 11
288.292480
 21
-138.645966
  0
LINE
  8
0
  6
CENTER
 62
     2
 10
280.792480
 20
-146.068481
 11
280.792480
 21
-130.806274
  0
LINE
  8
0
  6
CENTER
 62
     2
 10
272.662689
 20
-163.645981
 11
288.292480
 21
-163.645981
  0
LINE
  8
0
  6
CENTER
 62
     2
 10
280.792480
 20
-171.125839
 11
280.792480
 21
-154.952454
  0
LINE
  8
0
 10
303.692474
 20
-98.879929
 11
303.692474
 21
-99.445984
  0
LINE
  8
0
 10
305.892487
 20
-98.879929
 11
305.892487
 21
-99.445984
  0
LINE
  8
0
 10
305.892487
 20
-99.245987
 11
303.692474
 21
-99.245987
  0
LINE
  8
0
 10
305.192474
 20
-98.445999
 11
304.392487
 21
-98.445999
  0
LINE
  8
0
 10
174.792480
 20
-97.645981
 11
174.792480
 21
-99.645981
  0
LINE
  8
0
 10
174.792480
 20
-97.645981
 11
167.792511
 21
-97.645981
  0
LINE
  8
0
 10
167.792511
 20
-97.645981
 11
167.792511
 21
-99.645981
  0
LINE
  8
0
 10
173.792480
 20
-98.645996
 11
168.792480
 21
-98.645996
  0
LINE
  8
0
 10
168.792557
 20
-98.646072
 11
166.792557
 21
-100.646080
  0
LINE
  8
0
 10
173.792542
 20
-98.646027
 11
175.792496
 21
-100.645988
  0
LINE
  8
0
 10
202.792480
 20
-97.645981
 11
202.792480
 21
-99.645981
  0
LINE
  8
0
 10
202.792480
 20
-97.645981
 11
195.792511
 21
-97.645981
  0
LINE
  8
0
 10
195.792511
 20
-97.645981
 11
195.792511
 21
-99.645981
  0
LINE
  8
0
 10
201.792480
 20
-98.645996
 11
196.792480
 21
-98.645996
  0
LINE
  8
0
 10
196.792542
 20
-98.646095
 11
194.792542
 21
-100.646111
  0
LINE
  8
0
 10
201.792526
 20
-98.646019
 11
203.792496
 21
-100.645973
  0
LINE
  8
0
 10
230.792480
 20
-97.645981
 11
230.792480
 21
-99.645981
  0
LINE
  8
0
 10
230.792480
 20
-97.645981
 11
223.792511
 21
-97.645981
  0
LINE
  8
0
 10
223.792511
 20
-97.645981
 11
223.792511
 21
-99.645981
  0
LINE
  8
0
 10
229.792480
 20
-98.645996
 11
224.792480
 21
-98.645996
  0
LINE
  8
0
 10
224.792526
 20
-98.646133
 11
222.792542
 21
-100.646141
  0
LINE
  8
0
 10
229.792465
 20
-98.646065
 11
231.792435
 21
-100.646034
  0
LINE
  8
0
 10
258.792480
 20
-97.645981
 11
258.792480
 21
-99.645981
  0
LINE
  8
0
 10
258.792480
 20
-97.645981
 11
251.792511
 21
-97.645981
  0
LINE
  8
0
 10
251.792511
 20
-97.645981
 11
251.792511
 21
-99.645981
  0
LINE
  8
0
 10
257.792480
 20
-98.645996
 11
252.792480
 21
-98.645996
  0
LINE
  8
0
 10
252.792526
 20
-98.646118
 11
250.792542
 21
-100.646133
  0
LINE
  8
0
 10
257.792511
 20
-98.646042
 11
259.792450
 21
-100.645996
  0
LINE
  8
0
 10
286.792480
 20
-97.645981
 11
286.792480
 21
-99.645981
  0
LINE
  8
0
 10
286.792480
 20
-97.645981
 11
279.792511
 21
-97.645981
  0
LINE
  8
0
 10
279.792511
 20
-97.645981
 11
279.792511
 21
-99.645981
  0
LINE
  8
0
 10
285.792480
 20
-98.645996
 11
280.792480
 21
-98.645996
  0
LINE
  8
0
 10
280.792572
 20
-98.646103
 11
278.792572
 21
-100.646111
  0
LINE
  8
0
 10
285.792450
 20
-98.646133
 11
287.792419
 21
-100.646088
  0
LINE
  8
0
 10
307.792480
 20
-99.445984
 11
289.792480
 21
-99.445984
  0
LINE
  8
0
 10
289.792480
 20
-99.445984
 11
289.792480
 21
-100.645981
  0
LINE
  8
0
 10
303.792480
 20
-99.445984
 11
303.792480
 21
-100.645981
  0
LINE
  8
0
 10
195.792480
 20
-99.445984
 11
195.792480
 21
-100.645981
  0
LINE
  8
0
 10
296.192474
 20
-98.879929
 11
296.192474
 21
-99.445984
  0
LINE
  8
0
 10
298.392487
 20
-98.879929
 11
298.392487
 21
-99.445984
  0
LINE
  8
0
 10
298.392487
 20
-99.245987
 11
296.192474
 21
-99.245987
  0
LINE
  8
0
 10
297.692474
 20
-98.445999
 11
296.892487
 21
-98.445999
  0
LINE
  8
0
 10
191.692474
 20
-98.879929
 11
191.692474
 21
-99.445984
  0
LINE
  8
0
 10
193.892487
 20
-98.879929
 11
193.892487
 21
-99.445984
  0
LINE
  8
0
 10
193.892487
 20
-99.245987
 11
191.692474
 21
-99.245987
  0
LINE
  8
0
 10
193.192474
 20
-98.445999
 11
192.392487
 21
-98.445999
  0
LINE
  8
0
 10
195.792480
 20
-99.445984
 11
177.792480
 21
-99.445984
  0
LINE
  8
0
 10
177.792480
 20
-99.445984
 11
177.792480
 21
-100.645981
  0
LINE
  8
0
 10
191.792480
 20
-99.445984
 11
191.792480
 21
-100.645981
  0
LINE
  8
0
 10
184.192474
 20
-98.879929
 11
184.192474
 21
-99.445984
  0
LINE
  8
0
 10
186.392487
 20
-98.879929
 11
186.392487
 21
-99.445984
  0
LINE
  8
0
 10
186.392487
 20
-99.245987
 11
184.192474
 21
-99.245987
  0
LINE
  8
0
 10
185.692474
 20
-98.445999
 11
184.892487
 21
-98.445999
  0
LINE
  8
0
 10
219.692474
 20
-98.879929
 11
219.692474
 21
-99.445984
  0
LINE
  8
0
 10
221.892487
 20
-98.879929
 11
221.892487
 21
-99.445984
  0
LINE
  8
0
 10
221.892487
 20
-99.245987
 11
219.692474
 21
-99.245987
  0
LINE
  8
0
 10
221.192474
 20
-98.445999
 11
220.392487
 21
-98.445999
  0
LINE
  8
0
 10
223.792480
 20
-99.445984
 11
205.792480
 21
-99.445984
  0
LINE
  8
0
 10
205.792480
 20
-99.445984
 11
205.792480
 21
-100.645981
  0
LINE
  8
0
 10
219.792480
 20
-99.445984
 11
219.792480
 21
-100.645981
  0
LINE
  8
0
 10
212.192474
 20
-98.879929
 11
212.192474
 21
-99.445984
  0
LINE
  8
0
 10
214.392487
 20
-98.879929
 11
214.392487
 21
-99.445984
  0
LINE
  8
0
 10
214.392487
 20
-99.245987
 11
212.192474
 21
-99.245987
  0
LINE
  8
0
 10
213.692474
 20
-98.445999
 11
212.892487
 21
-98.445999
  0
LINE
  8
0
 10
247.692474
 20
-98.879929
 11
247.692474
 21
-99.445984
  0
LINE
  8
0
 10
249.892487
 20
-98.879929
 11
249.892487
 21
-99.445984
  0
LINE
  8
0
 10
249.892487
 20
-99.245987
 11
247.692474
 21
-99.245987
  0
LINE
  8
0
 10
249.192474
 20
-98.445999
 11
248.392487
 21
-98.445999
  0
LINE
  8
0
 10
251.792480
 20
-99.445984
 11
233.792480
 21
-99.445984
  0
LINE
  8
0
 10
233.792480
 20
-99.445984
 11
233.792480
 21
-100.645981
  0
LINE
  8
0
 10
247.792480
 20
-99.445984
 11
247.792480
 21
-100.645981
  0
LINE
  8
0
 10
240.192474
 20
-98.879929
 11
240.192474
 21
-99.445984
  0
LINE
  8
0
 10
242.392487
 20
-98.879929
 11
242.392487
 21
-99.445984
  0
LINE
  8
0
 10
242.392487
 20
-99.245987
 11
240.192474
 21
-99.245987
  0
LINE
  8
0
 10
241.692474
 20
-98.445999
 11
240.892487
 21
-98.445999
  0
LINE
  8
0
 10
275.692474
 20
-98.879929
 11
275.692474
 21
-99.445984
  0
LINE
  8
0
 10
277.892487
 20
-98.879929
 11
277.892487
 21
-99.445984
  0
LINE
  8
0
 10
277.892487
 20
-99.245987
 11
275.692474
 21
-99.245987
  0
LINE
  8
0
 10
277.192474
 20
-98.445999
 11
276.392487
 21
-98.445999
  0
LINE
  8
0
 10
279.792480
 20
-99.445984
 11
261.792480
 21
-99.445984
  0
LINE
  8
0
 10
261.792480
 20
-99.445984
 11
261.792480
 21
-100.645981
  0
LINE
  8
0
 10
275.792480
 20
-99.445984
 11
275.792480
 21
-100.645981
  0
LINE
  8
0
 10
268.192474
 20
-98.879929
 11
268.192474
 21
-99.445984
  0
LINE
  8
0
 10
270.392487
 20
-98.879929
 11
270.392487
 21
-99.445984
  0
LINE
  8
0
 10
270.392487
 20
-99.245987
 11
268.192474
 21
-99.245987
  0
LINE
  8
0
 10
269.692474
 20
-98.445999
 11
268.892487
 21
-98.445999
  0
ARC
  8
0
 10
-16.521683
 20
130.754028
 40
0.800000
 50
28.955046
 51
90.000000
  0
ARC
  8
0
 10
-17.321671
 20
130.754028
 40
0.800003
 50
90.000000
 51
151.044922
  0
ARC
  8
0
 10
-173.421646
 20
121.854027
 40
2.500000
 50
270.000000
 51
90.000000
  0
ARC
  8
0
 10
-176.421616
 20
63.354027
 40
2.000000
 50
90.000000
 51
180.000000
  0
ARC
  8
0
 10
-173.421646
 20
57.854019
 40
2.500000
 50
270.000000
 51
90.000000
  0
ARC
  8
0
 10
-176.421616
 20
52.354027
 40
2.000000
 50
180.000000
 51
270.000000
  0
ARC
  8
0
 10
-167.921646
 20
67.354012
 40
2.000000
 50
270.000000
 51
0.000000
  0
ARC
  8
0
 10
-176.421616
 20
127.354012
 40
1.999992
 50
90.000000
 51
180.000000
  0
ARC
  8
0
 10
-176.421616
 20
116.354019
 40
2.000000
 50
180.000000
 51
270.000000
  0
ARC
  8
0
 10
-167.921646
 20
112.354019
 40
2.000000
 50
0.000000
 51
90.000000
  0
ARC
  8
0
 10
17.578293
 20
121.854027
 40
2.500000
 50
90.000046
 51
270.000000
  0
ARC
  8
0
 10
20.578293
 20
63.354027
 40
2.000000
 50
0.000000
 51
90.000053
  0
ARC
  8
0
 10
17.578293
 20
57.854019
 40
2.500000
 50
90.000046
 51
270.000000
  0
ARC
  8
0
 10
20.578293
 20
52.354027
 40
2.000000
 50
270.000000
 51
0.000000
  0
ARC
  8
0
 10
12.078323
 20
67.354012
 40
2.000000
 50
180.000000
 51
270.000031
  0
ARC
  8
0
 10
20.578293
 20
127.354012
 40
2.000000
 50
0.000000
 51
90.000053
  0
ARC
  8
0
 10
20.578293
 20
116.354019
 40
2.000000
 50
270.000000
 51
0.000000
  0
ARC
  8
0
 10
12.078323
 20
112.354019
 40
2.000000
 50
90.000031
 51
180.000000
  0
ARC
  8
0
 62
     4
 10
-12.921661
 20
96.354027
 40
3.000000
 50
0.000000
 51
0.399688
  0
ARC
  8
0
 62
     4
 10
-12.921661
 20
96.854027
 40
3.000000
 50
0.000000
 51
2.505128
  0
ARC
  8
0
 62
     4
 10
-12.921661
 20
95.354027
 40
3.000000
 50
0.000000
 51
0.399688
  0
ARC
  8
0
 62
     4
 10
-12.921661
 20
95.854027
 40
3.000000
 50
0.000000
 51
2.505128
  0
ARC
  8
0
 62
     4
 10
-12.921661
 20
95.854027
 40
3.000000
 50
0.000000
 51
2.440372
  0
CIRCLE
  8
0
 62
     4
 10
-30.921661
 20
77.854019
 40
2.500000
  0
CIRCLE
  8
0
 62
     4
 10
-30.921661
 20
103.854019
 40
2.500000
  0
CIRCLE
  8
0
 62
     4
 10
-12.921661
 20
95.854019
 40
2.500000
  0
ARC
  8
0
 10
-124.921707
 20
96.354027
 40
3.000000
 50
0.000000
 51
0.399688
  0
ARC
  8
0
 10
-124.921707
 20
96.854034
 40
3.000000
 50
0.000000
 51
2.505129
  0
CIRCLE
  8
0
 10
-133.921707
 20
131.354034
 40
2.299999
  0
CIRCLE
  8
0
 10
-133.921707
 20
131.354034
 40
1.500000
  0
ARC
  8
0
 10
-124.921707
 20
95.354027
 40
3.000000
 50
0.000000
 51
0.399688
  0
ARC
  8
0
 10
-124.921707
 20
95.854027
 40
3.000000
 50
0.000000
 51
2.505129
  0
ARC
  8
0
 10
-124.921707
 20
95.854027
 40
3.000000
 50
0.000000
 51
2.440374
  0
ARC
  8
0
 10
-125.421707
 20
70.854042
 40
2.500000
 50
90.000000
 51
270.000000
  0
ARC
  8
0
 10
-142.921707
 20
77.854034
 40
3.000000
 50
270.000000
 51
90.000000
  0
ARC
  8
0
 10
-142.921707
 20
103.854034
 40
3.000000
 50
270.000000
 51
90.000000
  0
ARC
  8
0
 10
-124.921707
 20
95.854034
 40
3.000000
 50
90.000000
 51
270.000000
  0
ARC
  8
0
 10
-142.421707
 20
110.854027
 40
2.500000
 50
270.000000
 51
90.000000
  0
CIRCLE
  8
0
 10
-142.921707
 20
77.854034
 40
2.500000
  0
CIRCLE
  8
0
 10
-142.921707
 20
103.854034
 40
2.500000
  0
CIRCLE
  8
0
 10
-124.921707
 20
95.854034
 40
2.500000
  0
CIRCLE
  8
0
 10
-125.421707
 20
70.854042
 40
2.250000
  0
CIRCLE
  8
0
 10
-142.421707
 20
110.854027
 40
2.250000
  0
ARC
  8
0
 10
-96.921707
 20
96.354027
 40
3.000000
 50
0.000000
 51
0.399688
  0
ARC
  8
0
 10
-96.921707
 20
96.854034
 40
3.000000
 50
0.000000
 51
2.505129
  0
CIRCLE
  8
0
 10
-105.921707
 20
131.354034
 40
2.299999
  0
CIRCLE
  8
0
 10
-105.921707
 20
131.354034
 40
1.500000
  0
ARC
  8
0
 10
-96.921707
 20
95.354027
 40
3.000000
 50
0.000000
 51
0.399688
  0
ARC
  8
0
 10
-96.921707
 20
95.854027
 40
3.000000
 50
0.000000
 51
2.505129
  0
ARC
  8
0
 10
-96.921707
 20
95.854027
 40
3.000000
 50
0.000000
 51
2.440374
  0
ARC
  8
0
 10
-97.421707
 20
70.854042
 40
2.500000
 50
90.000000
 51
270.000000
  0
ARC
  8
0
 10
-114.921707
 20
77.854034
 40
3.000000
 50
270.000000
 51
90.000000
  0
ARC
  8
0
 10
-114.921707
 20
103.854034
 40
3.000000
 50
270.000000
 51
90.000000
  0
ARC
  8
0
 10
-96.921707
 20
95.854034
 40
3.000000
 50
90.000000
 51
270.000000
  0
ARC
  8
0
 10
-114.421707
 20
110.854027
 40
2.500000
 50
270.000000
 51
90.000000
  0
CIRCLE
  8
0
 10
-114.921707
 20
77.854034
 40
2.500000
  0
CIRCLE
  8
0
 10
-114.921707
 20
103.854034
 40
2.500000
  0
CIRCLE
  8
0
 10
-96.921707
 20
95.854034
 40
2.500000
  0
CIRCLE
  8
0
 10
-97.421707
 20
70.854042
 40
2.250000
  0
CIRCLE
  8
0
 10
-114.421707
 20
110.854027
 40
2.250000
  0
ARC
  8
0
 10
-68.921692
 20
96.354042
 40
3.000000
 50
0.000000
 51
0.399688
  0
ARC
  8
0
 10
-68.921692
 20
96.854050
 40
3.000000
 50
0.000000
 51
2.505129
  0
CIRCLE
  8
0
 10
-77.921700
 20
50.354057
 40
2.299999
  0
CIRCLE
  8
0
 10
-77.921700
 20
50.354057
 40
1.500000
  0
ARC
  8
0
 10
-68.921692
 20
95.354042
 40
3.000000
 50
0.000000
 51
0.399688
  0
ARC
  8
0
 10
-68.921692
 20
95.854042
 40
3.000000
 50
0.000000
 51
2.505129
  0
ARC
  8
0
 10
-68.921692
 20
95.854042
 40
3.000000
 50
0.000000
 51
2.440374
  0
ARC
  8
0
 10
-69.421692
 20
70.854057
 40
2.500000
 50
90.000000
 51
270.000000
  0
ARC
  8
0
 10
-86.921692
 20
77.854050
 40
3.000000
 50
270.000000
 51
90.000000
  0
ARC
  8
0
 10
-86.921692
 20
103.854050
 40
3.000000
 50
270.000000
 51
90.000000
  0
ARC
  8
0
 10
-68.921692
 20
95.854050
 40
3.000000
 50
90.000000
 51
270.000000
  0
ARC
  8
0
 10
-86.421692
 20
110.854042
 40
2.500000
 50
270.000000
 51
90.000000
  0
CIRCLE
  8
0
 10
-86.921692
 20
77.854050
 40
2.500000
  0
CIRCLE
  8
0
 10
-86.921692
 20
103.854050
 40
2.500000
  0
CIRCLE
  8
0
 10
-68.921692
 20
95.854050
 40
2.500000
  0
CIRCLE
  8
0
 10
-69.421692
 20
70.854057
 40
2.250000
  0
CIRCLE
  8
0
 10
-86.421692
 20
110.854042
 40
2.250000
  0
CIRCLE
  8
0
 10
-77.921692
 20
131.354034
 40
1.500000
  0
CIRCLE
  8
0
 10
-77.921692
 20
131.354034
 40
2.299999
  0
ARC
  8
0
 10
-40.921677
 20
96.354027
 40
3.000000
 50
0.000000
 51
0.399688
  0
ARC
  8
0
 10
-40.921677
 20
96.854027
 40
3.000000
 50
0.000000
 51
2.505129
  0
CIRCLE
  8
0
 10
-49.921684
 20
35.354027
 40
2.299999
  0
CIRCLE
  8
0
 10
-49.921684
 20
35.354027
 40
1.500000
  0
CIRCLE
  8
0
 10
-49.921677
 20
146.354034
 40
2.299999
  0
CIRCLE
  8
0
 10
-49.921677
 20
146.354034
 40
1.500000
  0
ARC
  8
0
 10
-40.921677
 20
95.354027
 40
3.000000
 50
0.000000
 51
0.399688
  0
ARC
  8
0
 10
-40.921677
 20
95.854027
 40
3.000000
 50
0.000000
 51
2.505129
  0
ARC
  8
0
 10
-40.921677
 20
95.854027
 40
3.000000
 50
0.000000
 51
2.440371
  0
CIRCLE
  8
0
 10
-58.421677
 20
110.854012
 40
2.250000
  0
ARC
  8
0
 10
-41.421677
 20
70.854027
 40
2.500000
 50
90.000000
 51
270.000000
  0
ARC
  8
0
 10
-58.421677
 20
110.854012
 40
2.500000
 50
270.000000
 51
90.000000
  0
ARC
  8
0
 10
-58.921677
 20
77.854019
 40
3.000000
 50
270.000000
 51
90.000000
  0
ARC
  8
0
 10
-58.921677
 20
103.854019
 40
3.000000
 50
270.000000
 51
90.000000
  0
ARC
  8
0
 10
-40.921677
 20
95.854019
 40
3.000000
 50
90.000000
 51
270.000000
  0
CIRCLE
  8
0
 10
-58.921677
 20
77.854019
 40
2.500000
  0
CIRCLE
  8
0
 10
-58.921677
 20
103.854019
 40
2.500000
  0
CIRCLE
  8
0
 10
-40.921677
 20
95.854019
 40
2.500000
  0
CIRCLE
  8
0
 10
-41.421677
 20
70.854027
 40
2.250000
  0
ARC
  8
0
 10
-24.821671
 20
130.754028
 40
0.800003
 50
90.000000
 51
151.044922
  0
ARC
  8
0
 10
-24.021683
 20
130.754028
 40
0.800001
 50
28.955013
 51
90.000000
  0
CIRCLE
  8
0
 62
     4
 10
-132.621719
 20
147.854034
 40
0.850000
  0
CIRCLE
  8
0
 62
     4
 10
-135.221695
 20
147.854034
 40
0.850000
  0
ARC
  8
0
 62
     4
 10
-125.171707
 20
156.554047
 40
2.000003
 50
40.541080
 51
90.000000
  0
ARC
  8
0
 62
     4
 10
-126.671707
 20
156.554047
 40
2.000000
 50
90.000000
 51
139.458923
  0
ARC
  8
0
 62
     4
 10
-141.171707
 20
156.554047
 40
2.000001
 50
40.541695
 51
90.000000
  0
ARC
  8
0
 62
     4
 10
-142.671707
 20
156.554047
 40
2.000001
 50
84.816414
 51
90.000000
  0
ARC
  8
0
 62
     4
 10
-142.671707
 20
156.554047
 40
2.000000
 50
90.000000
 51
139.458298
  0
ARC
  8
0
 62
     4
 10
-132.621719
 20
147.854034
 40
1.699997
 50
270.000000
 51
90.000000
  0
ARC
  8
0
 62
     4
 10
-135.221695
 20
147.854034
 40
1.699997
 50
90.000000
 51
270.000000
  0
CIRCLE
  8
0
 62
     4
 10
-104.621719
 20
147.854034
 40
0.850000
  0
CIRCLE
  8
0
 62
     4
 10
-107.221695
 20
147.854034
 40
0.850000
  0
ARC
  8
0
 62
     4
 10
-97.171707
 20
156.554047
 40
2.000003
 50
40.541080
 51
90.000000
  0
ARC
  8
0
 62
     4
 10
-98.671707
 20
156.554047
 40
2.000000
 50
90.000000
 51
139.458923
  0
ARC
  8
0
 62
     4
 10
-113.171707
 20
156.554047
 40
2.000001
 50
40.541695
 51
90.000000
  0
ARC
  8
0
 62
     4
 10
-114.671707
 20
156.554047
 40
2.000001
 50
84.816414
 51
90.000000
  0
ARC
  8
0
 62
     4
 10
-114.671707
 20
156.554047
 40
2.000000
 50
90.000000
 51
139.458298
  0
ARC
  8
0
 62
     4
 10
-104.621719
 20
147.854034
 40
1.699997
 50
269.999756
 51
90.000259
  0
ARC
  8
0
 62
     4
 10
-107.221695
 20
147.854034
 40
1.699997
 50
90.000000
 51
270.000000
  0
CIRCLE
  8
0
 62
     4
 10
-76.621704
 20
147.854034
 40
0.850000
  0
CIRCLE
  8
0
 62
     4
 10
-79.221680
 20
147.854034
 40
0.850000
  0
ARC
  8
0
 62
     4
 10
-69.171692
 20
156.554047
 40
2.000003
 50
40.541080
 51
90.000000
  0
ARC
  8
0
 62
     4
 10
-70.671692
 20
156.554047
 40
2.000000
 50
90.000000
 51
139.458923
  0
ARC
  8
0
 62
     4
 10
-85.171692
 20
156.554047
 40
2.000001
 50
40.541695
 51
90.000000
  0
ARC
  8
0
 62
     4
 10
-86.671692
 20
156.554047
 40
2.000001
 50
84.816414
 51
90.000000
  0
ARC
  8
0
 62
     4
 10
-86.671692
 20
156.554047
 40
2.000000
 50
90.000000
 51
139.458298
  0
ARC
  8
0
 62
     4
 10
-76.621704
 20
147.854034
 40
1.699997
 50
269.999756
 51
90.000259
  0
ARC
  8
0
 62
     4
 10
-79.221680
 20
147.854034
 40
1.699997
 50
90.000000
 51
270.000000
  0
CIRCLE
  8
0
 62
     4
 10
-48.621689
 20
162.854034
 40
0.850000
  0
CIRCLE
  8
0
 62
     4
 10
-51.221664
 20
162.854034
 40
0.850000
  0
ARC
  8
0
 62
     4
 10
-41.171677
 20
171.554047
 40
2.000003
 50
40.541080
 51
90.000000
  0
ARC
  8
0
 62
     4
 10
-42.671677
 20
171.554047
 40
2.000000
 50
90.000000
 51
139.458923
  0
ARC
  8
0
 62
     4
 10
-57.171677
 20
171.554047
 40
2.000004
 50
40.541626
 51
90.000000
  0
ARC
  8
0
 62
     4
 10
-58.671677
 20
171.554047
 40
2.000001
 50
84.816307
 51
90.000000
  0
ARC
  8
0
 62
     4
 10
-58.671677
 20
171.554047
 40
2.000000
 50
90.000000
 51
139.458298
  0
ARC
  8
0
 62
     4
 10
-48.621689
 20
162.854034
 40
1.699997
 50
269.999878
 51
90.000130
  0
ARC
  8
0
 62
     4
 10
-51.221664
 20
162.854034
 40
1.699997
 50
89.999870
 51
270.000122
  0
ARC
  8
0
 62
     4
 10
-86.671692
 20
25.154045
 40
2.000001
 50
220.541031
 51
270.000000
  0
ARC
  8
0
 62
     4
 10
-85.171692
 20
25.154045
 40
2.000000
 50
270.000000
 51
319.458954
  0
ARC
  8
0
 62
     4
 10
-70.671692
 20
25.154045
 40
1.999998
 50
220.541611
 51
270.000000
  0
ARC
  8
0
 62
     4
 10
-69.171692
 20
25.154045
 40
2.000001
 50
264.816406
 51
270.000000
  0
ARC
  8
0
 62
     4
 10
-69.171692
 20
25.154045
 40
2.000000
 50
270.000000
 51
319.458374
  0
ARC
  8
0
 62
     4
 10
-79.221680
 20
33.854057
 40
1.699997
 50
89.999741
 51
270.000244
  0
ARC
  8
0
 62
     4
 10
-76.621704
 20
33.854057
 40
1.699997
 50
270.000000
 51
90.000259
  0
CIRCLE
  8
0
 62
     4
 10
-76.621704
 20
33.854057
 40
0.850000
  0
CIRCLE
  8
0
 62
     4
 10
-79.221680
 20
33.854057
 40
0.850000
  0
ARC
  8
0
 62
     4
 10
-58.671677
 20
10.154015
 40
1.999999
 50
220.541122
 51
270.000000
  0
ARC
  8
0
 62
     4
 10
-57.171677
 20
10.154015
 40
2.000000
 50
270.000000
 51
319.458954
  0
ARC
  8
0
 62
     4
 10
-42.671677
 20
10.154015
 40
2.000001
 50
220.541534
 51
270.000000
  0
ARC
  8
0
 62
     4
 10
-41.171677
 20
10.154015
 40
2.000000
 50
264.816315
 51
270.000000
  0
ARC
  8
0
 62
     4
 10
-41.171677
 20
10.154015
 40
2.000000
 50
270.000000
 51
319.458374
  0
ARC
  8
0
 62
     4
 10
-51.221664
 20
18.854027
 40
1.699997
 50
89.999870
 51
270.000122
  0
ARC
  8
0
 62
     4
 10
-48.621689
 20
18.854027
 40
1.699997
 50
269.999878
 51
90.000130
  0
CIRCLE
  8
0
 62
     4
 10
-48.621689
 20
18.854027
 40
0.850000
  0
CIRCLE
  8
0
 62
     4
 10
-51.221664
 20
18.854027
 40
0.850000
  0
CIRCLE
  8
0
 62
     2
 10
177.185379
 20
65.854019
 40
4.899999
  0
CIRCLE
  8
0
 10
177.185379
 20
65.854019
 40
4.299999
  0
CIRCLE
  8
0
 62
     2
 10
197.185410
 20
107.854012
 40
6.600000
  0
CIRCLE
  8
0
 62
     2
 10
182.185410
 20
91.854012
 40
6.600000
  0
CIRCLE
  8
0
 10
197.185410
 20
107.854012
 40
5.750000
  0
CIRCLE
  8
0
 10
182.185410
 20
91.854012
 40
5.750000
  0
ARC
  8
0
 10
168.185379
 20
51.354004
 40
1.000000
 50
180.000000
 51
270.000000
  0
ARC
  8
0
 10
168.185379
 20
128.354019
 40
1.000000
 50
90.000000
 51
180.000000
  0
CIRCLE
  8
0
 62
     2
 10
197.185410
 20
76.854012
 40
6.600000
  0
CIRCLE
  8
0
 10
197.185410
 20
76.854012
 40
5.750000
  0
ARC
  8
0
 10
128.685410
 20
71.654030
 40
1.700001
 50
121.466705
 51
180.000000
  0
ARC
  8
0
 10
128.685410
 20
70.054039
 40
1.699997
 50
180.000000
 51
238.532715
  0
ARC
  8
0
 10
129.485428
 20
96.854034
 40
2.000002
 50
118.956017
 51
180.000000
  0
ARC
  8
0
 10
129.485428
 20
94.854019
 40
2.000000
 50
180.000000
 51
241.043976
  0
ARC
  8
0
 62
     4
 10
163.585403
 20
103.854027
 40
5.000006
 50
150.507645
 51
209.492279
  0
ARC
  8
0
 62
     4
 10
159.813583
 20
105.987358
 40
0.666664
 50
90.000000
 51
150.507736
  0
ARC
  8
0
 62
     4
 10
159.813583
 20
101.720695
 40
0.666665
 50
209.492844
 51
270.000000
  0
ARC
  8
0
 62
     4
 10
163.585403
 20
95.854027
 40
5.000006
 50
150.507645
 51
209.492279
  0
ARC
  8
0
 62
     4
 10
159.813583
 20
97.987358
 40
0.666664
 50
90.000000
 51
150.507736
  0
ARC
  8
0
 62
     4
 10
159.813583
 20
93.720695
 40
0.666665
 50
209.492844
 51
270.000000
  0
ARC
  8
0
 62
     4
 10
163.585403
 20
77.854027
 40
5.000006
 50
150.507645
 51
209.492279
  0
ARC
  8
0
 62
     4
 10
159.813583
 20
79.987358
 40
0.666664
 50
90.000000
 51
150.507736
  0
ARC
  8
0
 62
     4
 10
159.813583
 20
75.720695
 40
0.666665
 50
209.492844
 51
270.000000
  0
ARC
  8
0
 10
172.085373
 20
130.754013
 40
0.799997
 50
28.955145
 51
90.000000
  0
ARC
  8
0
 10
171.285385
 20
130.754013
 40
0.800003
 50
90.000000
 51
151.044861
  0
ARC
  8
0
 62
     4
 10
157.435410
 20
171.554047
 40
2.000000
 50
90.000000
 51
180.000000
  0
ARC
  8
0
 62
     4
 10
158.935410
 20
171.554047
 40
2.000000
 50
0.000000
 51
90.000000
  0
ARC
  8
0
 62
     4
 10
137.435410
 20
171.554047
 40
2.000000
 50
90.000000
 51
139.458298
  0
ARC
  8
0
 62
     4
 10
138.935410
 20
171.554047
 40
2.000009
 50
40.788151
 51
90.000000
  0
ARC
  8
0
 62
     4
 10
138.935410
 20
10.154015
 40
2.000000
 50
270.000000
 51
0.000055
  0
ARC
  8
0
 62
     4
 10
137.435410
 20
10.154015
 40
2.000000
 50
180.000061
 51
270.000000
  0
ARC
  8
0
 62
     4
 10
158.935410
 20
10.154015
 40
2.000000
 50
270.000000
 51
319.458344
  0
ARC
  8
0
 62
     4
 10
157.435410
 20
10.154015
 40
1.999995
 50
220.788376
 51
270.000000
  0
ARC
  8
0
 10
-168.921661
 20
-173.145966
 40
3.000000
 50
270.000000
 51
0.000000
  0
ARC
  8
0
 10
-176.421661
 20
-178.145966
 40
2.000000
 50
90.000000
 51
180.000000
  0
ARC
  8
0
 10
-163.921661
 20
-136.145966
 40
2.000000
 50
90.000000
 51
180.000000
  0
CIRCLE
  8
0
 10
-152.921661
 20
-155.145966
 40
3.500000
  0
CIRCLE
  8
0
 10
-152.921661
 20
-155.145966
 40
1.799999
  0
ARC
  8
0
 10
13.078278
 20
-173.145966
 40
3.000001
 50
180.000000
 51
269.999939
  0
ARC
  8
0
 10
20.578278
 20
-178.145966
 40
2.000000
 50
0.000000
 51
90.000000
  0
ARC
  8
0
 10
8.078278
 20
-136.145966
 40
2.000000
 50
0.000000
 51
89.999969
  0
ARC
  8
0
 10
-13.921707
 20
-105.145966
 40
3.000000
 50
0.000000
 51
2.873162
  0
ARC
  8
0
 62
     4
 10
-30.921707
 20
-130.545959
 40
5.000001
 50
55.944195
 51
124.055824
  0
ARC
  8
0
 62
     4
 10
-12.921707
 20
-130.545959
 40
5.000002
 50
55.944187
 51
124.055824
  0
ARC
  8
0
 10
-141.921722
 20
-125.145966
 40
3.000000
 50
0.000000
 51
90.000000
  0
ARC
  8
0
 10
-125.921722
 20
-105.145966
 40
3.000000
 50
0.000000
 51
2.873160
  0
ARC
  8
0
 10
-125.921722
 20
-105.145966
 40
3.000000
 50
90.000000
 51
270.000000
  0
ARC
  8
0
 10
-141.921722
 20
-125.145966
 40
3.000000
 50
270.000000
 51
0.000000
  0
CIRCLE
  8
0
 10
-125.921722
 20
-105.145966
 40
2.750000
  0
CIRCLE
  8
0
 10
-141.921722
 20
-125.145966
 40
2.750000
  0
CIRCLE
  8
0
 10
-140.921722
 20
-103.645966
 40
2.299999
  0
CIRCLE
  8
0
 10
-126.921722
 20
-126.645966
 40
2.299999
  0
CIRCLE
  8
0
 62
     2
 10
-140.921722
 20
-103.645966
 40
1.500000
  0
CIRCLE
  8
0
 62
     2
 10
-126.921722
 20
-126.645966
 40
1.500000
  0
CIRCLE
  8
0
 10
-140.921722
 20
-103.645966
 40
1.200000
  0
CIRCLE
  8
0
 10
-126.921722
 20
-126.645966
 40
1.200000
  0
ARC
  8
0
 10
-113.921722
 20
-125.145966
 40
3.000000
 50
0.000000
 51
90.000000
  0
ARC
  8
0
 10
-97.921722
 20
-105.145966
 40
3.000000
 50
0.000000
 51
2.873160
  0
ARC
  8
0
 10
-97.921722
 20
-105.145966
 40
3.000000
 50
90.000000
 51
270.000000
  0
ARC
  8
0
 10
-113.921722
 20
-125.145966
 40
3.000000
 50
270.000000
 51
0.000000
  0
CIRCLE
  8
0
 10
-97.921722
 20
-105.145966
 40
2.750000
  0
CIRCLE
  8
0
 10
-113.921722
 20
-125.145966
 40
2.750000
  0
CIRCLE
  8
0
 10
-112.921722
 20
-103.645966
 40
2.299999
  0
CIRCLE
  8
0
 10
-98.921722
 20
-126.645966
 40
2.299999
  0
CIRCLE
  8
0
 62
     2
 10
-112.921722
 20
-103.645966
 40
1.500000
  0
CIRCLE
  8
0
 62
     2
 10
-98.921722
 20
-126.645966
 40
1.500000
  0
CIRCLE
  8
0
 10
-112.921722
 20
-103.645966
 40
1.200000
  0
CIRCLE
  8
0
 10
-98.921722
 20
-126.645966
 40
1.200000
  0
CIRCLE
  8
0
 62
     2
 10
-81.921692
 20
-142.645966
 40
6.499999
  0
CIRCLE
  8
0
 62
     2
 10
-78.921692
 20
-168.645966
 40
6.499999
  0
CIRCLE
  8
0
 10
-81.921692
 20
-142.645966
 40
6.000000
  0
CIRCLE
  8
0
 10
-78.921692
 20
-168.645966
 40
6.000000
  0
CIRCLE
  8
0
 62
     2
 10
-53.921707
 20
-142.645966
 40
6.499999
  0
CIRCLE
  8
0
 62
     2
 10
-50.921707
 20
-168.645966
 40
6.499999
  0
CIRCLE
  8
0
 10
-53.921707
 20
-142.645966
 40
6.000000
  0
CIRCLE
  8
0
 10
-50.921707
 20
-168.645966
 40
6.000000
  0
CIRCLE
  8
0
 10
-12.921692
 20
-155.145966
 40
3.500000
  0
CIRCLE
  8
0
 10
-12.921692
 20
-155.145966
 40
1.799999
  0
CIRCLE
  8
0
 62
     2
 10
-25.921692
 20
-142.645966
 40
6.499999
  0
CIRCLE
  8
0
 62
     2
 10
-22.921692
 20
-168.645966
 40
6.499999
  0
CIRCLE
  8
0
 10
-25.921692
 20
-142.645966
 40
6.000000
  0
CIRCLE
  8
0
 10
-22.921692
 20
-168.645966
 40
6.000000
  0
CIRCLE
  8
0
 62
     2
 10
-109.921661
 20
-142.645966
 40
6.499999
  0
CIRCLE
  8
0
 62
     2
 10
-106.921661
 20
-168.645966
 40
6.499999
  0
CIRCLE
  8
0
 10
-109.921661
 20
-142.645966
 40
6.000000
  0
CIRCLE
  8
0
 10
-106.921661
 20
-168.645966
 40
6.000000
  0
CIRCLE
  8
0
 62
     2
 10
-137.921677
 20
-142.645966
 40
6.499999
  0
CIRCLE
  8
0
 62
     2
 10
-134.921677
 20
-168.645966
 40
6.499999
  0
CIRCLE
  8
0
 10
-137.921677
 20
-142.645966
 40
6.000000
  0
CIRCLE
  8
0
 10
-134.921677
 20
-168.645966
 40
6.000000
  0
CIRCLE
  8
0
 10
-40.921677
 20
-155.145966
 40
3.500000
  0
CIRCLE
  8
0
 10
-40.921677
 20
-155.145966
 40
1.799999
  0
CIRCLE
  8
0
 10
-124.921677
 20
-155.145966
 40
1.799999
  0
CIRCLE
  8
0
 10
-124.921677
 20
-155.145966
 40
3.500000
  0
CIRCLE
  8
0
 10
-96.921677
 20
-155.145966
 40
1.799999
  0
CIRCLE
  8
0
 10
-96.921677
 20
-155.145966
 40
3.500000
  0
CIRCLE
  8
0
 10
-68.921677
 20
-155.145966
 40
1.799999
  0
CIRCLE
  8
0
 10
-68.921677
 20
-155.145966
 40
3.500000
  0
ARC
  8
0
 62
     4
 10
-69.921707
 20
-105.145950
 40
4.000000
 50
90.000000
 51
270.000000
  0
CIRCLE
  8
0
 62
     4
 10
-85.921707
 20
-125.145950
 40
2.750000
  0
CIRCLE
  8
0
 62
     4
 10
-69.921707
 20
-105.145950
 40
2.750000
  0
ARC
  8
0
 62
     4
 10
-85.921707
 20
-125.145950
 40
4.000000
 50
270.000000
 51
90.000000
  0
ARC
  8
0
 62
     4
 10
-41.921692
 20
-105.145966
 40
4.000000
 50
90.000053
 51
270.000000
  0
CIRCLE
  8
0
 62
     4
 10
-57.921692
 20
-125.145966
 40
2.750000
  0
CIRCLE
  8
0
 62
     4
 10
-41.921692
 20
-105.145966
 40
2.750000
  0
ARC
  8
0
 62
     4
 10
-57.921692
 20
-125.145966
 40
4.000000
 50
270.000000
 51
90.000000
  0
ARC
  8
0
 10
341.792450
 20
-108.145981
 40
2.500000
 50
90.000000
 51
270.000000
  0
ARC
  8
0
 10
344.792419
 20
-167.245972
 40
2.000000
 50
0.000000
 51
90.000000
  0
ARC
  8
0
 10
341.792450
 20
-172.145996
 40
2.500000
 50
90.000000
 51
270.000000
  0
ARC
  8
0
 10
344.792419
 20
-177.645981
 40
2.000000
 50
270.000000
 51
0.000000
  0
ARC
  8
0
 10
336.292450
 20
-163.246002
 40
2.000000
 50
180.000000
 51
270.000000
  0
ARC
  8
0
 10
344.792419
 20
-102.645996
 40
2.000000
 50
0.000000
 51
90.000000
  0
ARC
  8
0
 10
344.792419
 20
-113.045975
 40
2.000000
 50
270.000000
 51
0.000000
  0
ARC
  8
0
 10
336.292450
 20
-117.045975
 40
2.000000
 50
90.000000
 51
180.000000
  0
ARC
  8
0
 10
150.792511
 20
-108.145981
 40
2.500000
 50
270.000000
 51
90.000000
  0
ARC
  8
0
 10
147.792511
 20
-166.645981
 40
2.000000
 50
90.000000
 51
180.000000
  0
ARC
  8
0
 10
150.792511
 20
-172.145996
 40
2.500000
 50
270.000000
 51
90.000000
  0
ARC
  8
0
 10
147.792511
 20
-177.645981
 40
2.000000
 50
180.000000
 51
270.000000
  0
ARC
  8
0
 10
156.292480
 20
-162.645996
 40
2.000000
 50
270.000000
 51
0.000000
  0
ARC
  8
0
 10
147.792511
 20
-102.645996
 40
2.000000
 50
90.000000
 51
180.000000
  0
ARC
  8
0
 10
147.792511
 20
-113.645988
 40
2.000000
 50
180.000000
 51
270.000000
  0
ARC
  8
0
 10
156.292480
 20
-117.645988
 40
2.000000
 50
0.000000
 51
90.000000
  0
CIRCLE
  8
0
 10
294.792480
 20
-149.645996
 40
4.300000
  0
CIRCLE
  8
0
 62
     2
 10
294.792480
 20
-149.645996
 40
4.899999
  0
CIRCLE
  8
0
 10
294.792480
 20
-127.646004
 40
4.300000
  0
CIRCLE
  8
0
 62
     2
 10
294.792480
 20
-127.646004
 40
4.899999
  0
CIRCLE
  8
0
 10
308.792480
 20
-116.645973
 40
4.300000
  0
CIRCLE
  8
0
 62
     2
 10
308.792480
 20
-116.645973
 40
4.899999
  0
CIRCLE
  8
0
 10
308.792480
 20
-138.645966
 40
4.300000
  0
CIRCLE
  8
0
 62
     2
 10
308.792480
 20
-138.645966
 40
4.899999
  0
CIRCLE
  8
0
 10
308.792480
 20
-163.645981
 40
4.300000
  0
CIRCLE
  8
0
 62
     2
 10
308.792480
 20
-163.645981
 40
4.899999
  0
CIRCLE
  8
0
 10
182.792480
 20
-149.645996
 40
4.300000
  0
CIRCLE
  8
0
 62
     2
 10
182.792480
 20
-149.645996
 40
4.899999
  0
CIRCLE
  8
0
 10
182.792480
 20
-127.646004
 40
4.300000
  0
CIRCLE
  8
0
 62
     2
 10
182.792480
 20
-127.646004
 40
4.899999
  0
CIRCLE
  8
0
 10
196.792480
 20
-116.645973
 40
4.300000
  0
CIRCLE
  8
0
 62
     2
 10
196.792480
 20
-116.645973
 40
4.899999
  0
CIRCLE
  8
0
 10
196.792480
 20
-138.645966
 40
4.300000
  0
CIRCLE
  8
0
 62
     2
 10
196.792480
 20
-138.645966
 40
4.899999
  0
CIRCLE
  8
0
 10
196.792480
 20
-163.645981
 40
4.300000
  0
CIRCLE
  8
0
 62
     2
 10
196.792480
 20
-163.645981
 40
4.899999
  0
CIRCLE
  8
0
 10
210.792480
 20
-149.645996
 40
4.300000
  0
CIRCLE
  8
0
 62
     2
 10
210.792480
 20
-149.645996
 40
4.899999
  0
CIRCLE
  8
0
 10
210.792480
 20
-127.646004
 40
4.300000
  0
CIRCLE
  8
0
 62
     2
 10
210.792480
 20
-127.646004
 40
4.899999
  0
CIRCLE
  8
0
 10
224.792480
 20
-116.645973
 40
4.300000
  0
CIRCLE
  8
0
 62
     2
 10
224.792480
 20
-116.645973
 40
4.899999
  0
CIRCLE
  8
0
 10
224.792480
 20
-138.645966
 40
4.300000
  0
CIRCLE
  8
0
 62
     2
 10
224.792480
 20
-138.645966
 40
4.899999
  0
CIRCLE
  8
0
 10
224.792480
 20
-163.645981
 40
4.300000
  0
CIRCLE
  8
0
 62
     2
 10
224.792480
 20
-163.645981
 40
4.899999
  0
CIRCLE
  8
0
 10
238.792480
 20
-149.645996
 40
4.300000
  0
CIRCLE
  8
0
 62
     2
 10
238.792480
 20
-149.645996
 40
4.899999
  0
CIRCLE
  8
0
 10
238.792480
 20
-127.646004
 40
4.300000
  0
CIRCLE
  8
0
 62
     2
 10
238.792480
 20
-127.646004
 40
4.899999
  0
CIRCLE
  8
0
 10
252.792480
 20
-116.645973
 40
4.300000
  0
CIRCLE
  8
0
 62
     2
 10
252.792480
 20
-116.645973
 40
4.899999
  0
CIRCLE
  8
0
 10
252.792480
 20
-138.645966
 40
4.300000
  0
CIRCLE
  8
0
 62
     2
 10
252.792480
 20
-138.645966
 40
4.899999
  0
CIRCLE
  8
0
 10
252.792480
 20
-163.645981
 40
4.300000
  0
CIRCLE
  8
0
 62
     2
 10
252.792480
 20
-163.645981
 40
4.899999
  0
CIRCLE
  8
0
 10
266.792480
 20
-149.645996
 40
4.300000
  0
CIRCLE
  8
0
 62
     2
 10
266.792480
 20
-149.645996
 40
4.899999
  0
CIRCLE
  8
0
 10
266.792480
 20
-127.646004
 40
4.300000
  0
CIRCLE
  8
0
 62
     2
 10
266.792480
 20
-127.646004
 40
4.899999
  0
CIRCLE
  8
0
 10
280.792480
 20
-116.645973
 40
4.300000
  0
CIRCLE
  8
0
 62
     2
 10
280.792480
 20
-116.645973
 40
4.899999
  0
CIRCLE
  8
0
 10
280.792480
 20
-138.645966
 40
4.300000
  0
CIRCLE
  8
0
 62
     2
 10
280.792480
 20
-138.645966
 40
4.899999
  0
CIRCLE
  8
0
 10
280.792480
 20
-163.645981
 40
4.300000
  0
CIRCLE
  8
0
 62
     2
 10
280.792480
 20
-163.645981
 40
4.899999
  0
ARC
  8
0
 10
305.192474
 20
-99.245987
 40
0.800011
 50
28.954617
 51
90.000000
  0
ARC
  8
0
 10
304.392487
 20
-99.245987
 40
0.800003
 50
90.000000
 51
151.045380
  0
ARC
  8
0
 10
296.892487
 20
-99.245987
 40
0.800003
 50
90.000000
 51
151.045380
  0
ARC
  8
0
 10
297.692474
 20
-99.245987
 40
0.800011
 50
28.954617
 51
90.000000
  0
ARC
  8
0
 10
193.192474
 20
-99.245987
 40
0.799997
 50
28.955145
 51
90.000000
  0
ARC
  8
0
 10
192.392487
 20
-99.245987
 40
0.800003
 50
90.000000
 51
151.044861
  0
ARC
  8
0
 10
184.892487
 20
-99.245987
 40
0.800003
 50
90.000000
 51
151.044861
  0
ARC
  8
0
 10
185.692474
 20
-99.245987
 40
0.799997
 50
28.955145
 51
90.000000
  0
ARC
  8
0
 10
221.192474
 20
-99.245987
 40
0.799997
 50
28.955145
 51
90.000000
  0
ARC
  8
0
 10
220.392487
 20
-99.245987
 40
0.800003
 50
90.000000
 51
151.044861
  0
ARC
  8
0
 10
212.892487
 20
-99.245987
 40
0.800003
 50
90.000000
 51
151.044861
  0
ARC
  8
0
 10
213.692474
 20
-99.245987
 40
0.799997
 50
28.955145
 51
90.000000
  0
ARC
  8
0
 10
249.192474
 20
-99.245987
 40
0.799997
 50
28.955145
 51
90.000000
  0
ARC
  8
0
 10
248.392487
 20
-99.245987
 40
0.800003
 50
90.000000
 51
151.044861
  0
ARC
  8
0
 10
240.892487
 20
-99.245987
 40
0.800003
 50
90.000000
 51
151.044861
  0
ARC
  8
0
 10
241.692474
 20
-99.245987
 40
0.799997
 50
28.955145
 51
90.000000
  0
ARC
  8
0
 10
277.192474
 20
-99.245987
 40
0.800011
 50
28.954617
 51
90.000000
  0
ARC
  8
0
 10
276.392487
 20
-99.245987
 40
0.800003
 50
90.000000
 51
151.045380
  0
ARC
  8
0
 10
268.892487
 20
-99.245987
 40
0.800003
 50
90.000000
 51
151.045380
  0
ARC
  8
0
 10
269.692474
 20
-99.245987
 40
0.800011
 50
28.954617
 51
90.000000
  0
TEXT
  8
0
 10
-342.785309
 20
256.649994
 40
9.000000
  1
240MA
 50
0.000000
 41
1.052632
 51
0.000000
  7
STANDARD
  0
TEXT
  8
0
 10
242.014816
 20
-274.500000
 40
12.500000
  1
KOGANEI CORP.
 50
0.000000
 41
1.052632
 51
0.000000
  7
STANDARD
  0
TEXT
  8
0
 10
251.264664
 20
256.649994
 40
9.000000
  1
DATE: NOV ,1993
 50
0.000000
 41
1.052632
 51
0.000000
  7
STANDARD
  0
TEXT
  8
0
 10
-352.499725
 20
-123.919998
 40
6.300000
  1
TYPE
 50
0.000000
 41
1.052632
 51
0.000000
  7
STANDARD
  0
TEXT
  8
0
 10
-374.949463
 20
-138.919998
 40
6.300000
  1
240M2A/240M2B
 50
0.000000
 41
1.052632
 51
0.000000
  7
STANDARD
  0
TEXT
  8
0
 10
-374.949463
 20
-153.919998
 40
6.300000
  1
240M3A/240M3B
 50
0.000000
 41
1.052632
 51
0.000000
  7
STANDARD
  0
TEXT
  8
0
 10
-374.949463
 20
-168.919998
 40
6.300000
  1
240M4A/240M4B
 50
0.000000
 41
1.052632
 51
0.000000
  7
STANDARD
  0
TEXT
  8
0
 10
-374.949463
 20
-183.919998
 40
6.300000
  1
240M5A/240M5B
 50
0.000000
 41
1.052632
 51
0.000000
  7
STANDARD
  0
TEXT
  8
0
 10
-374.949463
 20
-198.919998
 40
6.300000
  1
240M6A/240M6B
 50
0.000000
 41
1.052632
 51
0.000000
  7
STANDARD
  0
TEXT
  8
0
 10
-374.949463
 20
-213.919998
 40
6.300000
  1
240M7A/240M7B
 50
0.000000
 41
1.052632
 51
0.000000
  7
STANDARD
  0
TEXT
  8
0
 10
-374.949463
 20
-228.919998
 40
6.300000
  1
240M8A/240M8B
 50
0.000000
 41
1.052632
 51
0.000000
  7
STANDARD
  0
TEXT
  8
0
 10
-374.949463
 20
-243.919998
 40
6.300000
  1
240M9A/240M9B
 50
0.000000
 41
1.052632
 51
0.000000
  7
STANDARD
  0
TEXT
  8
0
 10
-387.549438
 20
-258.920013
 40
6.300000
  1
240M10A/240M10B
 50
0.000000
 41
1.052632
 51
0.000000
  7
STANDARD
  0
TEXT
  8
0
 10
-223.549713
 20
-123.919998
 40
6.300000
  1
L
 50
0.000000
 41
1.052632
 51
0.000000
  7
STANDARD
  0
TEXT
  8
0
 10
-268.549713
 20
-123.919998
 40
6.300000
  1
P
 50
0.000000
 41
1.052632
 51
0.000000
  7
STANDARD
  0
TEXT
  8
0
 10
-229.849716
 20
-138.919998
 40
6.300000
  1
117
 50
0.000000
 41
1.052632
 51
0.000000
  7
STANDARD
  0
TEXT
  8
0
 10
-229.849716
 20
-153.919998
 40
6.300000
  1
145
 50
0.000000
 41
1.052632
 51
0.000000
  7
STANDARD
  0
TEXT
  8
0
 10
-229.849716
 20
-168.919998
 40
6.300000
  1
173
 50
0.000000
 41
1.052632
 51
0.000000
  7
STANDARD
  0
TEXT
  8
0
 10
-229.849716
 20
-183.919998
 40
6.300000
  1
201
 50
0.000000
 41
1.052632
 51
0.000000
  7
STANDARD
  0
TEXT
  8
0
 10
-229.849716
 20
-198.919998
 40
6.300000
  1
229
 50
0.000000
 41
1.052632
 51
0.000000
  7
STANDARD
  0
TEXT
  8
0
 10
-229.849716
 20
-213.919998
 40
6.300000
  1
257
 50
0.000000
 41
1.052632
 51
0.000000
  7
STANDARD
  0
TEXT
  8
0
 10
-229.849716
 20
-228.919998
 40
6.300000
  1
285
 50
0.000000
 41
1.052632
 51
0.000000
  7
STANDARD
  0
TEXT
  8
0
 10
-229.849716
 20
-243.919998
 40
6.300000
  1
313
 50
0.000000
 41
1.052632
 51
0.000000
  7
STANDARD
  0
TEXT
  8
0
 10
-229.849716
 20
-258.920013
 40
6.300000
  1
341
 50
0.000000
 41
1.052632
 51
0.000000
  7
STANDARD
  0
TEXT
  8
0
 10
-274.849731
 20
-138.919998
 40
6.300000
  1
107
 50
0.000000
 41
1.052632
 51
0.000000
  7
STANDARD
  0
TEXT
  8
0
 10
-274.849731
 20
-153.919998
 40
6.300000
  1
135
 50
0.000000
 41
1.052632
 51
0.000000
  7
STANDARD
  0
TEXT
  8
0
 10
-274.849731
 20
-168.919998
 40
6.300000
  1
163
 50
0.000000
 41
1.052632
 51
0.000000
  7
STANDARD
  0
TEXT
  8
0
 10
-274.849731
 20
-183.919998
 40
6.300000
  1
191
 50
0.000000
 41
1.052632
 51
0.000000
  7
STANDARD
  0
TEXT
  8
0
 10
-274.849731
 20
-198.919998
 40
6.300000
  1
219
 50
0.000000
 41
1.052632
 51
0.000000
  7
STANDARD
  0
TEXT
  8
0
 10
-274.849731
 20
-213.919998
 40
6.300000
  1
247
 50
0.000000
 41
1.052632
 51
0.000000
  7
STANDARD
  0
TEXT
  8
0
 10
-274.849731
 20
-228.919998
 40
6.300000
  1
275
 50
0.000000
 41
1.052632
 51
0.000000
  7
STANDARD
  0
TEXT
  8
0
 10
-274.849731
 20
-243.919998
 40
6.300000
  1
303
 50
0.000000
 41
1.052632
 51
0.000000
  7
STANDARD
  0
TEXT
  8
0
 10
-274.849731
 20
-258.920013
 40
6.300000
  1
331
 50
0.000000
 41
1.052632
 51
0.000000
  7
STANDARD
  0
TEXT
  8
0
 10
-338.999725
 20
-108.919998
 40
6.300000
  1
DIMENSION LIST
 50
0.000000
 41
1.052632
 51
0.000000
  7
STANDARD
  0
TEXT
  8
0
 10
-384.785309
 20
208.149994
 40
9.000000
  1
MODEL:240M5B
 50
0.000000
 41
1.052632
 51
0.000000
  7
STANDARD
  0
TEXT
  8
0
 10
217.957413
 20
-212.061691
 40
6.300000
  1
(240M5B)
 50
0.000000
 41
1.052632
 51
0.000000
  7
STANDARD
  0
TEXT
  8
0
 10
-384.785309
 20
224.149994
 40
9.000000
  1
MODEL:240M5A
 50
0.000000
 41
1.052632
 51
0.000000
  7
STANDARD
  0
TEXT
  8
0
 10
188.385406
 20
62.675583
 40
3.000000
  1
PR
 50
90.000000
 41
1.052631
 51
0.000000
  7
STANDARD
  0
TEXT
  8
0
 10
210.385406
 20
104.675575
 40
3.000000
  1
R1
 50
90.000000
 41
1.052631
 51
0.000000
  7
STANDARD
  0
TEXT
  8
0
 10
210.385406
 20
73.675552
 40
3.000000
  1
R2
 50
90.000000
 41
1.052631
 51
0.000000
  7
STANDARD
  0
TEXT
  8
0
 10
195.385406
 20
90.175575
 40
3.000000
  1
P
 50
90.000000
 41
1.052631
 51
0.000000
  7
STANDARD
  0
TEXT
  8
0
 10
-87.822350
 20
-174.775238
 40
3.200000
  1
A
 50
0.000000
 41
1.052632
 51
0.000000
  7
STANDARD
  0
TEXT
  8
0
 10
-74.428551
 20
-146.235413
 40
3.200000
  1
B
 50
0.000000
 41
1.052632
 51
0.000000
  7
STANDARD
  0
TEXT
  8
0
 10
-59.822365
 20
-174.775238
 40
3.200000
  1
A
 50
0.000000
 41
1.052632
 51
0.000000
  7
STANDARD
  0
TEXT
  8
0
 10
-46.428566
 20
-146.235413
 40
3.200000
  1
B
 50
0.000000
 41
1.052632
 51
0.000000
  7
STANDARD
  0
TEXT
  8
0
 10
-31.822350
 20
-174.775238
 40
3.200000
  1
A
 50
0.000000
 41
1.052632
 51
0.000000
  7
STANDARD
  0
TEXT
  8
0
 10
-18.428551
 20
-146.235413
 40
3.200000
  1
B
 50
0.000000
 41
1.052632
 51
0.000000
  7
STANDARD
  0
TEXT
  8
0
 10
-115.822319
 20
-174.775238
 40
3.200000
  1
A
 50
0.000000
 41
1.052632
 51
0.000000
  7
STANDARD
  0
TEXT
  8
0
 10
-102.428520
 20
-146.235413
 40
3.200000
  1
B
 50
0.000000
 41
1.052632
 51
0.000000
  7
STANDARD
  0
TEXT
  8
0
 10
-143.822342
 20
-174.775238
 40
3.200000
  1
A
 50
0.000000
 41
1.052632
 51
0.000000
  7
STANDARD
  0
TEXT
  8
0
 10
-130.428543
 20
-146.235413
 40
3.200000
  1
B
 50
0.000000
 41
1.052632
 51
0.000000
  7
STANDARD
  0
TEXT
  8
0
 10
314.267883
 20
-110.279045
 40
1.599999
  1
R1
 50
90.000000
 41
1.052631
 51
0.000000
  7
STANDARD
  0
TEXT
  8
0
 10
291.129242
 20
-160.048981
 40
1.599999
  1
R2
 50
90.000000
 41
1.052631
 51
0.000000
  7
STANDARD
  0
TEXT
  8
0
 10
291.129242
 20
-119.520355
 40
1.599999
  1
A
 50
90.000000
 41
1.052631
 51
0.000000
  7
STANDARD
  0
TEXT
  8
0
 10
314.267853
 20
-156.411194
 40
1.599999
  1
B
 50
90.000000
 41
1.052631
 51
0.000000
  7
STANDARD
  0
TEXT
  8
0
 10
314.572449
 20
-148.116211
 40
1.599999
  1
P
 50
90.000000
 41
1.052631
 51
0.000000
  7
STANDARD
  0
TEXT
  8
0
 10
179.129242
 20
-160.048981
 40
1.599999
  1
R2
 50
90.000000
 41
1.052631
 51
0.000000
  7
STANDARD
  0
TEXT
  8
0
 10
179.129242
 20
-119.520355
 40
1.599999
  1
A
 50
90.000000
 41
1.052631
 51
0.000000
  7
STANDARD
  0
TEXT
  8
0
 10
202.267883
 20
-110.279045
 40
1.599999
  1
R1
 50
90.000000
 41
1.052631
 51
0.000000
  7
STANDARD
  0
TEXT
  8
0
 10
202.267853
 20
-156.411194
 40
1.599999
  1
B
 50
90.000000
 41
1.052631
 51
0.000000
  7
STANDARD
  0
TEXT
  8
0
 10
202.572449
 20
-148.116211
 40
1.599999
  1
P
 50
90.000000
 41
1.052631
 51
0.000000
  7
STANDARD
  0
TEXT
  8
0
 10
207.129242
 20
-160.048981
 40
1.599999
  1
R2
 50
90.000000
 41
1.052631
 51
0.000000
  7
STANDARD
  0
TEXT
  8
0
 10
207.129242
 20
-119.520355
 40
1.599999
  1
A
 50
90.000000
 41
1.052631
 51
0.000000
  7
STANDARD
  0
TEXT
  8
0
 10
230.267883
 20
-110.279045
 40
1.599999
  1
R1
 50
90.000000
 41
1.052631
 51
0.000000
  7
STANDARD
  0
TEXT
  8
0
 10
230.267853
 20
-156.411194
 40
1.599999
  1
B
 50
90.000000
 41
1.052631
 51
0.000000
  7
STANDARD
  0
TEXT
  8
0
 10
230.572449
 20
-148.116211
 40
1.599999
  1
P
 50
90.000000
 41
1.052631
 51
0.000000
  7
STANDARD
  0
TEXT
  8
0
 10
235.129242
 20
-160.048981
 40
1.599999
  1
R2
 50
90.000000
 41
1.052631
 51
0.000000
  7
STANDARD
  0
TEXT
  8
0
 10
235.129242
 20
-119.520355
 40
1.599999
  1
A
 50
90.000000
 41
1.052631
 51
0.000000
  7
STANDARD
  0
TEXT
  8
0
 10
258.267883
 20
-110.279045
 40
1.599999
  1
R1
 50
90.000000
 41
1.052631
 51
0.000000
  7
STANDARD
  0
TEXT
  8
0
 10
258.267853
 20
-156.411194
 40
1.599999
  1
B
 50
90.000000
 41
1.052631
 51
0.000000
  7
STANDARD
  0
TEXT
  8
0
 10
258.572449
 20
-148.116211
 40
1.599999
  1
P
 50
90.000000
 41
1.052631
 51
0.000000
  7
STANDARD
  0
TEXT
  8
0
 10
263.129242
 20
-160.048981
 40
1.599999
  1
R2
 50
90.000000
 41
1.052631
 51
0.000000
  7
STANDARD
  0
TEXT
  8
0
 10
263.129242
 20
-119.520355
 40
1.599999
  1
A
 50
90.000000
 41
1.052631
 51
0.000000
  7
STANDARD
  0
TEXT
  8
0
 10
286.267883
 20
-110.279045
 40
1.599999
  1
R1
 50
90.000000
 41
1.052631
 51
0.000000
  7
STANDARD
  0
TEXT
  8
0
 10
286.267853
 20
-156.411194
 40
1.599999
  1
B
 50
90.000000
 41
1.052631
 51
0.000000
  7
STANDARD
  0
TEXT
  8
0
 10
286.572449
 20
-148.116211
 40
1.599999
  1
P
 50
90.000000
 41
1.052631
 51
0.000000
  7
STANDARD
  0
TEXT
  8
0
 62
     2
 10
-81.719940
 20
210.360657
 40
6.300000
  1
L
 50
359.899994
 41
1.052632
 51
0.000000
  7
STANDARD
  0
LINE
  8
0
 62
     2
 10
-178.421661
 20
209.354034
 11
22.578278
 21
209.354034
  0
LINE
  8
0
 62
     2
 10
-178.421661
 20
209.354034
 11
-175.523880
 21
210.130493
  0
LINE
  8
0
 62
     2
 10
-178.421661
 20
209.354034
 11
-175.523880
 21
208.577576
  0
LINE
  8
0
 62
     2
 10
22.578278
 20
209.354034
 11
19.680500
 21
208.577576
  0
LINE
  8
0
 62
     2
 10
22.578278
 20
209.354034
 11
19.680500
 21
210.130493
  0
LINE
  8
0
 62
     2
 10
-178.421661
 20
127.354050
 11
-178.421661
 21
210.854034
  0
LINE
  8
0
 62
     2
 10
22.578278
 20
127.354050
 11
22.578278
 21
210.854034
  0
TEXT
  8
0
 62
     2
 10
-81.719940
 20
190.360657
 40
6.300000
  1
P
 50
359.899994
 41
1.052632
 51
0.000000
  7
STANDARD
  0
LINE
  8
0
 62
     2
 10
-173.421661
 20
189.354034
 11
17.578278
 21
189.354034
  0
LINE
  8
0
 62
     2
 10
-173.421661
 20
189.354034
 11
-170.523880
 21
190.130493
  0
LINE
  8
0
 62
     2
 10
-173.421661
 20
189.354034
 11
-170.523880
 21
188.577576
  0
LINE
  8
0
 62
     2
 10
17.578278
 20
189.354034
 11
14.680500
 21
188.577576
  0
LINE
  8
0
 62
     2
 10
17.578278
 20
189.354034
 11
14.680500
 21
190.130493
  0
LINE
  8
0
 62
     2
 10
-173.421661
 20
127.725723
 11
-173.421661
 21
190.854034
  0
LINE
  8
0
 62
     2
 10
17.578278
 20
127.725723
 11
17.578278
 21
190.854034
  0
TEXT
  8
0
 62
     2
 10
27.556023
 20
190.360657
 40
6.300000
  1
5
 50
359.899994
 41
1.052632
 51
0.000000
  7
STANDARD
  0
LINE
  8
0
 62
     2
 10
22.578278
 20
189.354034
 11
33.604271
 21
189.354034
  0
LINE
  8
0
 62
     2
 10
17.578278
 20
189.354034
 11
22.578278
 21
189.354034
  0
LINE
  8
0
 62
     2
 10
22.578278
 20
189.354034
 11
25.476055
 21
190.130493
  0
LINE
  8
0
 62
     2
 10
22.578278
 20
189.354034
 11
25.476055
 21
188.577576
  0
LINE
  8
0
 62
     2
 10
22.578278
 20
189.354034
 11
28.578278
 21
189.354034
  0
LINE
  8
0
 62
     2
 10
17.578278
 20
127.725723
 11
17.578278
 21
190.854034
  0
LINE
  8
0
 62
     2
 10
22.578278
 20
127.354050
 11
22.578278
 21
190.854034
  0
TEXT
  8
0
 62
     2
 10
-188.703491
 20
190.354034
 40
6.300000
  1
5
 50
0.000000
 41
1.052632
 51
0.000000
  7
STANDARD
  0
LINE
  8
0
 62
     2
 10
-178.421661
 20
189.354034
 11
-187.153488
 21
189.354034
  0
LINE
  8
0
 62
     2
 10
-173.421661
 20
189.354034
 11
-178.421661
 21
189.354034
  0
LINE
  8
0
 62
     2
 10
-178.421661
 20
189.354034
 11
-181.319443
 21
188.577576
  0
LINE
  8
0
 62
     2
 10
-178.421661
 20
189.354034
 11
-181.319443
 21
190.130493
  0
LINE
  8
0
 62
     2
 10
-178.421661
 20
189.354034
 11
-184.421661
 21
189.354034
  0
LINE
  8
0
 62
     2
 10
-173.421661
 20
121.854034
 11
-173.421661
 21
190.854034
  0
LINE
  8
0
 62
     2
 10
-178.421661
 20
127.354050
 11
-178.421661
 21
190.854034
  0
LINE
  8
0
 62
     2
 10
-143.921722
 20
-94.145966
 11
-153.921722
 21
-76.825455
  0
LINE
  8
0
 62
     2
 10
-153.921722
 20
-76.825455
 11
-207.740662
 21
-76.825455
  0
LINE
  8
0
 62
     2
 10
-143.921722
 20
-94.145966
 11
-144.698181
 21
-91.248184
  0
LINE
  8
0
 62
     2
 10
-143.921722
 20
-94.145966
 11
-146.043045
 21
-92.024643
  0
TEXT
  8
0
 62
     2
 10
-207.490662
 20
-75.825455
 40
6.300000
  1
A240-4E1
 50
0.000000
 41
1.052632
 51
0.000000
  7
STANDARD
  0
LINE
  8
0
 62
     2
 10
-115.921730
 20
-94.145966
 11
-133.421722
 21
-63.835075
  0
LINE
  8
0
 62
     2
 10
-133.421722
 20
-63.835075
 11
-187.002838
 21
-63.835072
  0
LINE
  8
0
 62
     2
 10
-115.921730
 20
-94.145966
 11
-116.698189
 21
-91.248184
  0
LINE
  8
0
 62
     2
 10
-115.921730
 20
-94.145966
 11
-118.043053
 21
-92.024643
  0
TEXT
  8
0
 62
     2
 10
-186.752838
 20
-62.835072
 40
6.300000
  1
A240-4E1
 50
0.000000
 41
1.052632
 51
0.000000
  7
STANDARD
  0
LINE
  8
0
 62
     2
 10
-67.921722
 20
-94.145966
 11
-50.421719
 21
-63.835079
  0
LINE
  8
0
 62
     2
 10
-50.421719
 20
-63.835079
 11
3.510718
 21
-63.835079
  0
LINE
  8
0
 62
     2
 10
-67.921722
 20
-94.145966
 11
-65.800400
 21
-92.024643
  0
LINE
  8
0
 62
     2
 10
-67.921722
 20
-94.145966
 11
-67.145264
 21
-91.248192
  0
TEXT
  8
0
 62
     2
 10
-48.438721
 20
-62.835079
 40
6.300000
  1
A240-4E2
 50
0.000000
 41
1.052632
 51
0.000000
  7
STANDARD
  0
LINE
  8
0
 62
     2
 10
-39.921722
 20
-94.145966
 11
-29.921721
 21
-76.825447
  0
LINE
  8
0
 62
     2
 10
-29.921721
 20
-76.825447
 11
23.897049
 21
-76.825455
  0
LINE
  8
0
 62
     2
 10
-39.921722
 20
-94.145966
 11
-37.800404
 21
-92.024643
  0
LINE
  8
0
 62
     2
 10
-39.921722
 20
-94.145966
 11
-39.145264
 21
-91.248192
  0
TEXT
  8
0
 62
     2
 10
-28.052391
 20
-75.825455
 40
6.300000
  1
A243-4E2
 50
0.000000
 41
1.052632
 51
0.000000
  7
STANDARD
  0
LINE
  8
0
 62
     2
 10
-21.921709
 20
-128.645966
 11
-11.921703
 21
-111.325447
  0
LINE
  8
0
 62
     2
 10
-11.921703
 20
-111.325447
 11
9.430185
 21
-111.325455
  0
LINE
  8
0
 62
     2
 10
-21.921709
 20
-128.645966
 11
-19.800388
 21
-126.524643
  0
LINE
  8
0
 62
     2
 10
-21.921709
 20
-128.645966
 11
-21.145252
 21
-125.748192
  0
TEXT
  8
0
 62
     2
 10
-11.019253
 20
-110.325455
 40
6.300000
  1
-BP
 50
0.000000
 41
1.052632
 51
0.000000
  7
STANDARD
  0
ENDSEC
  0
EOF
