  0
SECTION
  2
HEADER
  0
ENDSEC
  0
SECTION
  2
TABLES
  0
TABLE
  2
LTYPE
 70
     4
  0
LTYPE
  2
CONTINUOUS
 70
    64
  3
Solid line
 72
    65
 73
     0
 40
0.000000
  0
LTYPE
  2
DASHED
 70
    64
  3
__ __ __ __ __ __ __ __ __ __ __ __ __ __ __
 72
    65
 73
     2
 40
3.500000
 49
2.000000
 49
-1.500000
  0
LTYPE
  2
CENTER
 70
    64
  3
____ _ ____ _ ____ _ ____ _ ____ _ ____ _ ____
 72
    65
 73
     4
 40
17.500000
 49
13.000000
 49
-1.500000
 49
1.500000
 49
-1.500000
  0
LTYPE
  2
PHANTOM
 70
    64
  3
_____ _ _ _____ _ _ _____ _ _ _____ _ _ ____  
 72
    65
 73
     6
 40
15.500000
 49
8.000000
 49
-1.500000
 49
1.500000
 49
-1.500000
 49
1.500000
 49
-1.500000
  0
LTYPE
  2
DASHED1
 70
    64
  3
__ __ __ __ __ __ __ __ __ __ __ __ __ __ __
 72
    65
 73
     2
 40
1.500000
 49
1.000000
 49
-0.500000
  0
LTYPE
  2
DASHED2
 70
    64
  3
__ __ __ __ __ __ __ __ __ __ __ __ __ __ __
 72
    65
 73
     2
 40
3.500000
 49
2.500000
 49
-1.000000
  0
LTYPE
  2
DASHED3
 70
    64
  3
__ __ __ __ __ __ __ __ __ __ __ __ __ __ __
 72
    65
 73
     2
 40
6.000000
 49
4.000000
 49
-2.000000
  0
LTYPE
  2
DASHED4
 70
    64
  3
__ __ __ __ __ __ __ __ __ __ __ __ __ __ __
 72
    65
 73
     2
 40
12.000000
 49
10.000000
 49
-2.000000
  0
LTYPE
  2
DASHED5
 70
    64
  3
__ __ __ __ __ __ __ __ __ __ __ __ __ __ __
 72
    65
 73
     2
 40
17.000000
 49
15.000000
 49
-2.000000
  0
LTYPE
  2
DASHED6
 70
    64
  3
__ __ __ __ __ __ __ __ __ __ __ __ __ __ __
 72
    65
 73
     2
 40
29.000000
 49
27.000000
 49
-2.000000
  0
LTYPE
  2
PHANTOM1
 70
    64
  3
_____ _ _ _____ _ _ _____ _ _ _____ _ _ ____  
 72
    65
 73
     6
 40
31.000000
 49
25.000000
 49
-1.500000
 49
1.000000
 49
-1.000000
 49
1.000000
 49
-1.500000
  0
LTYPE
  2
PHANTOM2
 70
    64
  3
_____ _ _ _____ _ _ _____ _ _ _____ _ _ ____  
 72
    65
 73
     6
 40
36.000000
 49
27.000000
 49
-1.500000
 49
2.500000
 49
-1.000000
 49
2.500000
 49
-1.500000
  0
LTYPE
  2
PHANTOM3
 70
    64
  3
_____ _ _ _____ _ _ _____ _ _ _____ _ _ ____  
 72
    65
 73
     6
 40
78.000000
 49
64.000000
 49
-2.000000
 49
4.000000
 49
-2.000000
 49
4.000000
 49
-2.000000
  0
LTYPE
  2
CENTER1
 70
    64
  3
____ _ ____ _ ____ _ ____ _ ____ _ ____ _ ____
 72
    65
 73
     4
 40
19.000000
 49
14.000000
 49
-1.000000
 49
3.000000
 49
-1.000000
  0
LTYPE
  2
CENTER2
 70
    64
  3
____ _ ____ _ ____ _ ____ _ ____ _ ____ _ ____
 72
    65
 73
     4
 40
28.500000
 49
25.000000
 49
-1.000000
 49
1.500000
 49
-1.000000
  0
LTYPE
  2
CENTER3
 70
    64
  3
____ _ ____ _ ____ _ ____ _ ____ _ ____ _ ____
 72
    65
 73
     4
 40
31.500000
 49
27.000000
 49
-1.000000
 49
2.500000
 49
-1.000000
  0
LTYPE
  2
CENTER4
 70
    64
  3
____ _ ____ _ ____ _ ____ _ ____ _ ____ _ ____
 72
    65
 73
     4
 40
50.000000
 49
45.000000
 49
-1.000000
 49
3.000000
 49
-1.000000
  0
LTYPE
  2
CENTER5
 70
    64
  3
____ _ ____ _ ____ _ ____ _ ____ _ ____ _ ____
 72
    65
 73
     4
 40
100.000000
 49
92.000000
 49
-2.000000
 49
4.000000
 49
-2.000000
  0
LTYPE
  2
SBK1
 70
    64
  3
______ _ _ _ ______ _ _ _ ______ _ _ _ _____  
 72
    65
 73
     8
 40
60.500000
 49
45.000000
 49
-2.000000
 49
2.500000
 49
-2.000000
 49
2.500000
 49
-2.000000
 49
2.500000
 49
-2.000000
  0
LTYPE
  2
SBK2
 70
    64
  3
______ _ _ _ ______ _ _ _ ______ _ _ _ _____  
 72
    65
 73
     8
 40
84.000000
 49
64.000000
 49
-2.000000
 49
4.000000
 49
-2.000000
 49
4.000000
 49
-2.000000
 49
4.000000
 49
-2.000000
  0
LTYPE
  2
STCH
 70
    64
  3
__ __ __ __ __ __ __ __ __ __ __ __ __ __ __
 72
    65
 73
     2
 40
3.000000
 49
1.000000
 49
-2.000000
  0
LTYPE
  2
MTCH
 70
    64
  3
_____ _ _ _____ _ _ _____ _ _ _____ _ _ ____  
 72
    65
 73
     6
 40
80.000000
 49
66.000000
 49
-2.000000
 49
4.000000
 49
-2.000000
 49
4.000000
 49
-2.000000
  0
ENDTAB
  0
TABLE
  2
LAYER
 70
     1
  0
LAYER
  2
0
 70
     0
 62
     7
  6
CONTINUOUS
  0
ENDTAB
  0
TABLE
  2
STYLE
 70
     1
  0
STYLE
  2
STANDARD
 70
     0
 40
0.000000
 41
1.000000
 50
0.000000
 71
     0
 42
0.200000
  3
txt
  4
BIGFONT
  0
ENDTAB
  0
TABLE
  2
VIEW
 70
     0
  0
ENDTAB
  0
ENDSEC
  0
SECTION
  2
BLOCKS
  0
ENDSEC
  0
SECTION
  2
ENTITIES
  0
LINE
  8
0
 10
399.799988
 20
276.250000
 11
399.799988
 21
-276.750000
  0
LINE
  8
0
 10
-399.250000
 20
276.250000
 11
-399.250000
 21
-276.750000
  0
LINE
  8
0
 10
-399.250000
 20
276.250000
 11
399.799988
 21
276.250000
  0
LINE
  8
0
 10
-399.250000
 20
-276.750000
 11
399.799988
 21
-276.750000
  0
LINE
  8
0
 10
239.799988
 20
-251.750000
 11
399.799988
 21
-251.750000
  0
LINE
  8
0
 10
239.799988
 20
251.250000
 11
399.799988
 21
251.250000
  0
LINE
  8
0
 10
-399.250000
 20
251.250000
 11
-239.250000
 21
251.250000
  0
LINE
  8
0
 10
239.799988
 20
-251.750000
 11
239.799988
 21
-276.750000
  0
LINE
  8
0
 10
239.799988
 20
251.250000
 11
239.799988
 21
276.250000
  0
LINE
  8
0
 10
-239.250000
 20
276.250000
 11
-239.250000
 21
251.250000
  0
LINE
  8
0
 10
-384.250000
 20
-261.750000
 11
-172.350006
 21
-261.750000
  0
LINE
  8
0
 10
-384.250000
 20
-246.750000
 11
-172.350006
 21
-246.750000
  0
LINE
  8
0
 10
-384.250000
 20
-231.750000
 11
-172.350006
 21
-231.750000
  0
LINE
  8
0
 10
-384.250000
 20
-216.750000
 11
-172.350006
 21
-216.750000
  0
LINE
  8
0
 10
-384.250000
 20
-201.750000
 11
-172.350006
 21
-201.750000
  0
LINE
  8
0
 10
-384.250000
 20
-186.750000
 11
-172.350006
 21
-186.750000
  0
LINE
  8
0
 10
-384.250000
 20
-171.750000
 11
-172.350006
 21
-171.750000
  0
LINE
  8
0
 10
-384.250000
 20
-156.750000
 11
-172.350006
 21
-156.750000
  0
LINE
  8
0
 10
-384.250000
 20
-141.750000
 11
-172.350006
 21
-141.750000
  0
LINE
  8
0
 10
-384.250000
 20
-126.750000
 11
-172.350006
 21
-126.750000
  0
LINE
  8
0
 10
-384.250000
 20
-111.750000
 11
-172.350006
 21
-111.750000
  0
LINE
  8
0
 10
-384.250000
 20
-111.750000
 11
-384.250000
 21
-261.750000
  0
LINE
  8
0
 10
-262.350006
 20
-111.750000
 11
-262.350006
 21
-261.750000
  0
LINE
  8
0
 10
-217.350006
 20
-111.750000
 11
-217.350006
 21
-261.750000
  0
LINE
  8
0
 10
-172.350006
 20
-111.750000
 11
-172.350006
 21
-261.750000
  0
LINE
  8
0
 10
-114.421700
 20
186.854034
 11
-113.921707
 21
186.854034
  0
LINE
  8
0
 10
-114.421700
 20
186.854034
 11
-114.421700
 21
172.854034
  0
LINE
  8
0
 10
-116.621712
 20
185.854034
 11
-116.621712
 21
172.854034
  0
LINE
  8
0
 10
-130.921707
 20
185.854034
 11
-114.421700
 21
185.854034
  0
LINE
  8
0
 10
-131.921692
 20
184.854034
 11
-131.921692
 21
60.354034
  0
LINE
  8
0
 10
-131.921692
 20
60.354034
 11
-121.949005
 21
60.354034
  0
LINE
  8
0
  6
CENTER
 62
     2
 10
-144.413101
 20
131.854034
 11
-133.637772
 21
131.854034
  0
LINE
  8
0
 10
-144.421692
 20
134.354034
 11
-144.421692
 21
137.354034
  0
LINE
  8
0
 10
-144.421692
 20
126.954041
 11
-144.421692
 21
129.354034
  0
LINE
  8
0
  6
CENTER
 62
     2
 10
-139.421692
 20
126.106232
 11
-139.421692
 21
137.725723
  0
LINE
  8
0
 10
-131.921616
 20
60.354004
 11
-131.344269
 21
61.354012
  0
LINE
  8
0
 10
-144.421707
 20
129.354034
 11
-139.421707
 21
129.354034
  0
LINE
  8
0
 10
-144.421707
 20
134.354034
 11
-139.421707
 21
134.354034
  0
LINE
  8
0
  6
CENTER
 62
     2
 10
-144.413101
 20
67.854034
 11
-133.637772
 21
67.854034
  0
LINE
  8
0
 10
-144.421692
 20
70.354034
 11
-144.421692
 21
72.754028
  0
LINE
  8
0
 10
-144.421692
 20
62.354034
 11
-144.421692
 21
65.354034
  0
LINE
  8
0
  6
CENTER
 62
     2
 10
-139.421692
 20
62.106247
 11
-139.421692
 21
73.725723
  0
LINE
  8
0
 10
-144.421707
 20
65.354034
 11
-139.421707
 21
65.354034
  0
LINE
  8
0
 10
-144.421707
 20
70.354034
 11
-139.421707
 21
70.354034
  0
LINE
  8
0
 10
-142.421707
 20
60.354034
 11
-131.921692
 21
60.354034
  0
LINE
  8
0
 10
-142.421707
 20
74.754028
 11
-133.921707
 21
74.754028
  0
LINE
  8
0
 10
-142.421707
 20
139.354034
 11
-131.921692
 21
139.354034
  0
LINE
  8
0
 10
-142.421707
 20
124.954041
 11
-133.921707
 21
124.954041
  0
LINE
  8
0
 10
-122.787750
 20
61.354034
 11
-131.921692
 21
61.354034
  0
LINE
  8
0
 10
-123.921707
 20
172.354034
 11
-123.921707
 21
75.354034
  0
LINE
  8
0
 10
-57.921707
 20
172.354050
 11
-57.921707
 21
75.354065
  0
LINE
  8
0
 10
-123.421753
 20
172.854034
 11
-58.421753
 21
172.854034
  0
LINE
  8
0
 10
-123.421722
 20
74.854034
 11
-122.921722
 21
74.854034
  0
LINE
  8
0
 10
-57.921772
 20
172.354019
 11
-58.421761
 21
172.854004
  0
LINE
  8
0
 10
-123.421799
 20
172.854050
 11
-123.921806
 21
172.354034
  0
LINE
  8
0
 10
-123.921684
 20
75.354057
 11
-123.421692
 21
74.854065
  0
LINE
  8
0
 10
-58.421707
 20
74.854034
 11
-57.921711
 21
75.354034
  0
LINE
  8
0
 10
-58.921707
 20
171.854050
 11
-58.921707
 21
61.854050
  0
LINE
  8
0
 10
-122.921707
 20
171.854034
 11
-122.921707
 21
61.854034
  0
LINE
  8
0
 10
-121.921722
 20
60.854034
 11
-59.921722
 21
60.854034
  0
LINE
  8
0
 10
-58.921722
 20
74.854034
 11
-58.421722
 21
74.854034
  0
LINE
  8
0
 10
-121.921707
 20
52.854034
 11
-59.921707
 21
52.854034
  0
LINE
  8
0
 10
-121.921707
 20
60.121994
 11
-121.921707
 21
52.854034
  0
LINE
  8
0
 10
-59.921707
 20
60.122009
 11
-59.921707
 21
52.854034
  0
LINE
  8
0
 10
-112.921707
 20
171.854034
 11
-112.921707
 21
61.854034
  0
LINE
  8
0
 10
-99.021713
 20
168.904037
 11
-72.821716
 21
168.904037
  0
LINE
  8
0
 10
-99.021713
 20
64.704041
 11
-72.821716
 21
64.704041
  0
LINE
  8
0
 10
-72.821716
 20
168.904037
 11
-72.821716
 21
64.704041
  0
LINE
  8
0
 10
-99.021713
 20
168.904037
 11
-99.021713
 21
64.704041
  0
LINE
  8
0
 10
-93.521713
 20
77.204041
 11
-83.521713
 21
77.204041
  0
LINE
  8
0
 10
-93.521713
 20
98.204041
 11
-83.521713
 21
98.204041
  0
LINE
  8
0
 10
-93.521713
 20
98.204041
 11
-93.521713
 21
77.204041
  0
LINE
  8
0
 10
-83.521713
 20
98.204041
 11
-83.521713
 21
77.204041
  0
LINE
  8
0
 10
-99.021736
 20
105.704041
 11
-96.821747
 21
105.704041
  0
LINE
  8
0
 10
-75.021713
 20
105.704048
 11
-75.021713
 21
103.704048
  0
LINE
  8
0
 10
-96.821716
 20
105.704048
 11
-96.821716
 21
103.704048
  0
LINE
  8
0
 10
-96.821747
 20
103.704041
 11
-75.021744
 21
103.704041
  0
LINE
  8
0
 10
-75.021744
 20
105.704041
 11
-72.821747
 21
105.704041
  0
LINE
  8
0
 10
-112.921707
 20
161.854034
 11
-106.921738
 21
161.854034
  0
LINE
  8
0
 10
-112.921707
 20
71.854034
 11
-106.921722
 21
71.854034
  0
LINE
  8
0
 10
-101.921707
 20
172.854034
 11
-101.921707
 21
166.854034
  0
LINE
  8
0
 10
-69.921707
 20
172.854034
 11
-69.921707
 21
166.854034
  0
LINE
  8
0
 10
-64.921722
 20
71.854034
 11
-58.921707
 21
71.854034
  0
LINE
  8
0
 10
-101.921707
 20
66.854034
 11
-101.921707
 21
60.854034
  0
LINE
  8
0
 10
-64.921753
 20
161.854034
 11
-58.921707
 21
161.854034
  0
LINE
  8
0
 10
-69.921707
 20
66.854050
 11
-69.921707
 21
60.854034
  0
LINE
  8
0
 10
-115.671692
 20
16.354034
 11
-98.171677
 21
16.354034
  0
LINE
  8
0
 10
-119.921707
 20
36.354034
 11
-93.921722
 21
36.354034
  0
LINE
  8
0
 10
-118.921707
 20
50.354034
 11
-118.921707
 21
45.354034
  0
LINE
  8
0
 10
-94.921722
 20
50.354050
 11
-94.921722
 21
45.354050
  0
LINE
  8
0
 10
-120.421722
 20
50.354034
 11
-93.421722
 21
50.354034
  0
LINE
  8
0
 10
-120.421707
 20
51.854034
 11
-120.421707
 21
50.354034
  0
LINE
  8
0
 10
-93.421707
 20
51.854050
 11
-93.421707
 21
50.354050
  0
LINE
  8
0
 10
-118.277786
 20
50.354034
 11
-118.277786
 21
45.354034
  0
LINE
  8
0
 10
-107.565613
 20
50.354034
 11
-107.565613
 21
45.354034
  0
LINE
  8
0
 10
-106.277786
 20
50.354034
 11
-106.277786
 21
45.354034
  0
LINE
  8
0
 10
-95.565643
 20
50.354050
 11
-95.565643
 21
45.354050
  0
LINE
  8
0
 10
-118.921722
 20
45.354034
 11
-94.921738
 21
45.354034
  0
LINE
  8
0
 62
     2
 10
-96.444214
 20
45.354050
 11
-96.444214
 21
36.354050
  0
LINE
  8
0
 62
     2
 10
-117.399208
 20
45.354034
 11
-117.399208
 21
36.354034
  0
LINE
  8
0
 10
-97.606216
 20
45.354050
 11
-97.606216
 21
36.354050
  0
LINE
  8
0
 10
-116.237206
 20
45.354034
 11
-116.237206
 21
36.354034
  0
LINE
  8
0
 10
-119.921707
 20
34.554031
 11
-93.921722
 21
34.554031
  0
LINE
  8
0
 10
-119.921707
 20
36.354034
 11
-119.921707
 21
34.554031
  0
LINE
  8
0
 10
-93.921707
 20
36.354050
 11
-93.921707
 21
34.554047
  0
LINE
  8
0
 10
-108.591583
 20
34.554031
 11
-108.591583
 21
25.554031
  0
LINE
  8
0
 10
-105.251846
 20
34.554031
 11
-105.251846
 21
25.554031
  0
LINE
  8
0
 10
-94.921707
 20
34.554047
 11
-94.921707
 21
23.053963
  0
LINE
  8
0
 10
-118.921707
 20
34.554031
 11
-118.921707
 21
23.054054
  0
LINE
  8
0
 10
-117.251831
 20
34.554031
 11
-117.251831
 21
25.554031
  0
LINE
  8
0
 10
-115.671692
 20
16.354044
 11
-118.921707
 21
23.054062
  0
LINE
  8
0
 10
-98.171684
 20
16.354038
 11
-94.921715
 21
23.053965
  0
LINE
  8
0
 10
-96.591583
 20
34.554047
 11
-96.591583
 21
25.554047
  0
LINE
  8
0
 10
-83.671707
 20
16.354034
 11
-66.171677
 21
16.354034
  0
LINE
  8
0
 10
-87.921722
 20
36.354034
 11
-61.921722
 21
36.354034
  0
LINE
  8
0
 10
-86.921707
 20
50.354050
 11
-86.921707
 21
45.354050
  0
LINE
  8
0
 10
-62.921707
 20
50.354050
 11
-62.921707
 21
45.354050
  0
LINE
  8
0
 10
-88.421722
 20
50.354034
 11
-61.421722
 21
50.354034
  0
LINE
  8
0
 10
-88.421707
 20
51.854050
 11
-88.421707
 21
50.354050
  0
LINE
  8
0
 10
-61.421707
 20
51.854050
 11
-61.421707
 21
50.354050
  0
LINE
  8
0
 10
-86.277786
 20
50.354050
 11
-86.277786
 21
45.354050
  0
LINE
  8
0
 10
-75.565613
 20
50.354050
 11
-75.565613
 21
45.354050
  0
LINE
  8
0
 10
-74.277771
 20
50.354050
 11
-74.277771
 21
45.354050
  0
LINE
  8
0
 10
-63.565628
 20
50.354050
 11
-63.565628
 21
45.354050
  0
LINE
  8
0
 10
-86.921722
 20
45.354034
 11
-62.921722
 21
45.354034
  0
LINE
  8
0
 62
     2
 10
-64.444214
 20
45.354050
 11
-64.444214
 21
36.354050
  0
LINE
  8
0
 62
     2
 10
-85.399216
 20
45.354050
 11
-85.399216
 21
36.354050
  0
LINE
  8
0
 10
-65.606216
 20
45.354050
 11
-65.606216
 21
36.354050
  0
LINE
  8
0
 10
-84.237213
 20
45.354050
 11
-84.237213
 21
36.354050
  0
LINE
  8
0
 10
-87.921722
 20
34.554031
 11
-61.921722
 21
34.554031
  0
LINE
  8
0
 10
-87.921707
 20
36.354050
 11
-87.921707
 21
34.554047
  0
LINE
  8
0
 10
-61.921707
 20
36.354050
 11
-61.921707
 21
34.554047
  0
LINE
  8
0
 10
-76.591583
 20
34.554047
 11
-76.591583
 21
25.554047
  0
LINE
  8
0
 10
-73.251846
 20
34.554047
 11
-73.251846
 21
25.554047
  0
LINE
  8
0
 10
-62.921707
 20
34.554047
 11
-62.921707
 21
23.053955
  0
LINE
  8
0
 10
-86.921707
 20
34.554047
 11
-86.921707
 21
23.054039
  0
LINE
  8
0
 10
-85.251831
 20
34.554047
 11
-85.251831
 21
25.554047
  0
LINE
  8
0
 10
-83.671700
 20
16.354038
 11
-86.921700
 21
23.054041
  0
LINE
  8
0
 10
-66.171684
 20
16.354027
 11
-62.921715
 21
23.053946
  0
LINE
  8
0
 10
-64.591583
 20
34.554047
 11
-64.591583
 21
25.554047
  0
LINE
  8
0
 10
-88.421722
 20
51.854034
 11
-61.421722
 21
51.854034
  0
LINE
  8
0
 10
-87.921707
 20
52.854050
 11
-87.921707
 21
51.854050
  0
LINE
  8
0
 10
-61.921707
 20
52.854050
 11
-61.921707
 21
51.854050
  0
LINE
  8
0
 10
-120.421722
 20
51.854034
 11
-93.421722
 21
51.854034
  0
LINE
  8
0
 10
-119.921707
 20
52.854034
 11
-119.921707
 21
51.854034
  0
LINE
  8
0
 10
-93.921707
 20
52.854050
 11
-93.921707
 21
51.854050
  0
LINE
  8
0
  6
CENTER
 62
     2
 10
-136.763885
 20
170.854034
 11
-128.256516
 21
170.854034
  0
LINE
  8
0
 10
-135.921692
 20
158.354034
 11
-131.921692
 21
158.354034
  0
LINE
  8
0
 10
-135.921692
 20
183.354034
 11
-131.921692
 21
183.354034
  0
LINE
  8
0
 10
-135.921692
 20
183.354034
 11
-135.921692
 21
158.354034
  0
LINE
  8
0
 10
-111.421707
 20
185.854034
 11
-60.421722
 21
185.854034
  0
LINE
  8
0
 10
-111.421715
 20
185.854034
 11
-111.421715
 21
172.854034
  0
LINE
  8
0
 10
-111.421707
 20
182.354034
 11
-60.421722
 21
182.354034
  0
LINE
  8
0
 10
-113.921715
 20
186.854034
 11
-113.421715
 21
186.854034
  0
LINE
  8
0
 10
-113.421700
 20
186.854034
 11
-113.421700
 21
185.854034
  0
LINE
  8
0
 10
-113.421715
 20
185.854034
 11
-111.621719
 21
185.854034
  0
LINE
  8
0
 10
-111.621719
 20
185.854034
 11
-111.621719
 21
172.854034
  0
LINE
  8
0
 10
-113.421715
 20
182.354034
 11
-111.621719
 21
182.354034
  0
LINE
  8
0
 10
-113.421700
 20
182.354034
 11
-113.421700
 21
172.854034
  0
LINE
  8
0
 10
-60.421707
 20
185.854034
 11
-60.421707
 21
172.854034
  0
LINE
  8
0
 10
-58.421722
 20
186.854034
 11
-57.921707
 21
186.854034
  0
LINE
  8
0
 10
-60.121719
 20
185.854034
 11
-58.421722
 21
185.854034
  0
LINE
  8
0
 10
-58.421707
 20
186.854034
 11
-58.421707
 21
185.854034
  0
LINE
  8
0
 10
-60.121719
 20
185.854034
 11
-60.121719
 21
172.854034
  0
LINE
  8
0
 10
-60.121719
 20
182.354034
 11
-58.421722
 21
182.354034
  0
LINE
  8
0
 10
-58.421707
 20
182.354034
 11
-58.421707
 21
172.854034
  0
LINE
  8
0
 10
-87.194534
 20
70.076859
 11
-84.648941
 21
67.531273
  0
LINE
  8
0
 10
-87.194519
 20
67.531288
 11
-84.648933
 21
70.076866
  0
LINE
  8
0
 10
-108.442078
 20
165.333817
 11
-105.401512
 21
168.374390
  0
LINE
  8
0
 10
-108.442017
 20
168.374344
 11
-105.401466
 21
165.333786
  0
LINE
  8
0
 10
-118.194519
 20
168.126846
 11
-115.648933
 21
165.581253
  0
LINE
  8
0
 10
-118.194572
 20
165.581284
 11
-115.648994
 21
168.126862
  0
LINE
  8
0
 10
-108.442009
 20
68.374321
 11
-105.401451
 21
65.333755
  0
LINE
  8
0
 10
-108.442017
 20
65.333786
 11
-105.401459
 21
68.374344
  0
LINE
  8
0
 10
-66.442009
 20
68.374313
 11
-63.401447
 21
65.333755
  0
LINE
  8
0
 10
-66.442017
 20
65.333786
 11
-63.401451
 21
68.374344
  0
LINE
  8
0
 10
-66.442017
 20
168.374359
 11
-63.401463
 21
165.333817
  0
LINE
  8
0
 10
-66.442062
 20
165.333817
 11
-63.401501
 21
168.374374
  0
LINE
  8
0
 10
-118.194496
 20
68.126808
 11
-115.648918
 21
65.581230
  0
LINE
  8
0
 10
-118.194534
 20
65.581268
 11
-115.648956
 21
68.126846
  0
LINE
  8
0
 10
-117.251831
 20
25.554031
 11
-118.921707
 21
25.554031
  0
LINE
  8
0
 10
-108.591583
 20
25.554031
 11
-105.251846
 21
25.554031
  0
LINE
  8
0
 10
-96.591583
 20
25.554047
 11
-94.921707
 21
25.554047
  0
LINE
  8
0
 10
-85.251831
 20
25.554047
 11
-86.921707
 21
25.554047
  0
LINE
  8
0
 10
-76.591583
 20
25.554047
 11
-73.251846
 21
25.554047
  0
LINE
  8
0
 10
-64.591583
 20
25.554047
 11
-62.921707
 21
25.554047
  0
LINE
  8
0
 10
84.778320
 20
139.354034
 11
82.078308
 21
139.354034
  0
LINE
  8
0
 10
82.078308
 20
60.354034
 11
82.078308
 21
139.354034
  0
LINE
  8
0
 10
82.578308
 20
186.854034
 11
82.078308
 21
186.854034
  0
LINE
  8
0
 10
82.578308
 20
186.854034
 11
82.578308
 21
139.354034
  0
LINE
  8
0
 10
84.778320
 20
185.854034
 11
84.778320
 21
139.354034
  0
LINE
  8
0
 10
99.078308
 20
185.854034
 11
82.578308
 21
185.854034
  0
LINE
  8
0
 10
100.078293
 20
184.854034
 11
100.078293
 21
60.354034
  0
LINE
  8
0
 10
100.078293
 20
60.354034
 11
82.078308
 21
60.354034
  0
LINE
  8
0
  6
CENTER
 62
     2
 10
112.569702
 20
131.854034
 11
101.794373
 21
131.854034
  0
LINE
  8
0
 10
112.578293
 20
134.354034
 11
112.578293
 21
137.354034
  0
LINE
  8
0
 10
112.578293
 20
126.954041
 11
112.578293
 21
129.354034
  0
LINE
  8
0
  6
CENTER
 62
     2
 10
107.578293
 20
126.106232
 11
107.578293
 21
137.725723
  0
LINE
  8
0
 10
100.078308
 20
60.354042
 11
99.500954
 21
61.354046
  0
LINE
  8
0
 10
112.578308
 20
129.354034
 11
107.578308
 21
129.354034
  0
LINE
  8
0
 10
112.578308
 20
134.354034
 11
107.578308
 21
134.354034
  0
LINE
  8
0
  6
CENTER
 62
     2
 10
112.569702
 20
67.854034
 11
101.794373
 21
67.854034
  0
LINE
  8
0
 10
112.578293
 20
70.354034
 11
112.578293
 21
72.754028
  0
LINE
  8
0
 10
112.578293
 20
62.354034
 11
112.578293
 21
65.354034
  0
LINE
  8
0
  6
CENTER
 62
     2
 10
107.578293
 20
62.106247
 11
107.578293
 21
73.725723
  0
LINE
  8
0
 10
112.578308
 20
65.354034
 11
107.578308
 21
65.354034
  0
LINE
  8
0
 10
112.578308
 20
70.354034
 11
107.578308
 21
70.354034
  0
LINE
  8
0
 10
110.578308
 20
60.354034
 11
100.078293
 21
60.354034
  0
LINE
  8
0
 10
110.578308
 20
74.754028
 11
102.078308
 21
74.754028
  0
LINE
  8
0
 10
110.578308
 20
139.354034
 11
100.078293
 21
139.354034
  0
LINE
  8
0
 10
110.578308
 20
124.954041
 11
102.078308
 21
124.954041
  0
LINE
  8
0
 10
82.078308
 20
61.354034
 11
100.078293
 21
61.354034
  0
LINE
  8
0
  6
CENTER
 62
     2
 10
106.046051
 20
170.854034
 11
97.006622
 21
170.854034
  0
LINE
  8
0
 10
104.078293
 20
158.354034
 11
100.078293
 21
158.354034
  0
LINE
  8
0
 10
104.078293
 20
183.354034
 11
100.078293
 21
183.354034
  0
LINE
  8
0
 10
104.078293
 20
183.354034
 11
104.078293
 21
158.354034
  0
LINE
  8
0
 62
     4
 10
-55.421722
 20
165.854034
 11
-55.421722
 21
144.854034
  0
LINE
  8
0
 62
     4
 10
-32.421722
 20
165.854034
 11
-32.421722
 21
144.854034
  0
LINE
  8
0
  6
CENTER
 62
     2
 10
-43.921722
 20
169.222961
 11
-43.921722
 21
62.145279
  0
LINE
  8
0
 10
-52.921722
 20
90.854042
 11
-55.421722
 21
90.854042
  0
LINE
  8
0
 10
-52.921722
 20
84.854042
 11
-55.421722
 21
84.854042
  0
LINE
  8
0
 10
-34.921722
 20
78.354050
 11
-32.421722
 21
78.354050
  0
LINE
  8
0
 10
-34.921722
 20
83.354050
 11
-32.421722
 21
83.354050
  0
LINE
  8
0
 10
-34.921722
 20
102.854042
 11
-32.421722
 21
102.854042
  0
LINE
  8
0
 10
-34.921722
 20
108.854042
 11
-32.421722
 21
108.854042
  0
LINE
  8
0
 10
-51.921722
 20
123.354034
 11
-55.421722
 21
123.354034
  0
LINE
  8
0
 10
-51.921722
 20
118.354034
 11
-55.421722
 21
118.354034
  0
LINE
  8
0
 10
-52.921722
 20
116.854034
 11
-55.421722
 21
116.854034
  0
LINE
  8
0
 10
-52.921722
 20
110.854042
 11
-55.421722
 21
110.854042
  0
LINE
  8
0
 10
-53.921722
 20
125.854034
 11
-53.921722
 21
123.354034
  0
LINE
  8
0
 10
-33.921722
 20
125.854034
 11
-33.921722
 21
108.854042
  0
LINE
  8
0
 10
-55.421722
 20
74.354050
 11
-32.421722
 21
74.354050
  0
LINE
  8
0
 10
-55.421722
 20
127.354034
 11
-32.421722
 21
127.354034
  0
LINE
  8
0
 10
-53.921722
 20
125.854034
 11
-33.921722
 21
125.854034
  0
LINE
  8
0
 10
-53.921722
 20
75.854050
 11
-33.921722
 21
75.854050
  0
LINE
  8
0
 10
-53.921722
 20
84.854042
 11
-53.921722
 21
75.854050
  0
LINE
  8
0
 10
-53.921722
 20
110.854042
 11
-53.921722
 21
90.854042
  0
LINE
  8
0
 10
-53.921722
 20
118.354034
 11
-53.921722
 21
116.854034
  0
LINE
  8
0
 10
-33.921722
 20
102.854042
 11
-33.921722
 21
83.354050
  0
LINE
  8
0
 10
-33.921722
 20
78.354050
 11
-33.921722
 21
75.854050
  0
LINE
  8
0
 10
-55.421776
 20
74.354088
 11
-53.921764
 21
75.854103
  0
LINE
  8
0
 10
-33.921684
 20
75.854126
 11
-32.421684
 21
74.354126
  0
LINE
  8
0
 10
-32.421795
 20
127.354103
 11
-33.921787
 21
125.854111
  0
LINE
  8
0
 10
-55.421654
 20
127.354134
 11
-53.921646
 21
125.854126
  0
LINE
  8
0
 62
     4
 10
-55.421722
 20
144.854034
 11
-32.421722
 21
144.854034
  0
LINE
  8
0
 62
     4
 10
-55.421722
 20
164.854034
 11
-32.421722
 21
164.854034
  0
LINE
  8
0
 62
     4
 10
-55.421722
 20
165.854034
 11
-32.421722
 21
165.854034
  0
LINE
  8
0
 62
     4
 10
-33.421787
 20
167.854034
 11
-32.421780
 21
165.854019
  0
LINE
  8
0
 10
-55.421722
 20
65.354050
 11
-32.421722
 21
65.354050
  0
LINE
  8
0
 62
     4
 10
-47.921722
 20
167.854034
 11
-47.921722
 21
165.854034
  0
LINE
  8
0
 62
     4
 10
-54.671722
 20
166.554047
 11
-49.171722
 21
166.554047
  0
LINE
  8
0
 62
     4
 10
-49.171722
 20
166.554047
 11
-49.171722
 21
165.854034
  0
LINE
  8
0
 62
     4
 10
-54.671722
 20
166.554047
 11
-54.671722
 21
165.854034
  0
LINE
  8
0
 62
     4
 10
-54.421692
 20
167.854034
 11
-54.191589
 21
167.854034
  0
LINE
  8
0
 62
     4
 10
-52.671722
 20
168.554047
 11
-51.171722
 21
168.554047
  0
LINE
  8
0
 62
     4
 10
-36.671722
 20
168.554047
 11
-35.171722
 21
168.554047
  0
LINE
  8
0
 62
     4
 10
-49.651848
 20
167.854034
 11
-33.421761
 21
167.854034
  0
LINE
  8
0
 10
-54.010349
 20
112.765465
 11
-51.954628
 21
114.821182
  0
LINE
  8
0
 10
-54.082462
 20
115.014832
 11
-51.890762
 21
112.823135
  0
LINE
  8
0
 10
-53.010345
 20
119.765472
 11
-50.954628
 21
121.821190
  0
LINE
  8
0
 10
-53.082455
 20
122.014839
 11
-50.890751
 21
119.823128
  0
LINE
  8
0
 10
-36.010353
 20
104.765465
 11
-33.954632
 21
106.821182
  0
LINE
  8
0
 10
-36.082474
 20
107.014847
 11
-33.890762
 21
104.823135
  0
LINE
  8
0
 10
-54.010361
 20
86.765457
 11
-51.954639
 21
88.821175
  0
LINE
  8
0
 10
-54.082485
 20
89.014832
 11
-51.890774
 21
86.823120
  0
LINE
  8
0
 10
-36.010345
 20
79.765465
 11
-33.954624
 21
81.821182
  0
LINE
  8
0
 10
-36.082455
 20
82.014824
 11
-33.890755
 21
79.823128
  0
LINE
  8
0
 10
-57.921738
 20
60.354034
 11
-29.921722
 21
60.354034
  0
LINE
  8
0
 10
-57.921722
 20
139.354034
 11
-55.421722
 21
139.354034
  0
LINE
  8
0
 10
-55.421722
 20
185.854034
 11
-32.421738
 21
185.854034
  0
LINE
  8
0
 10
-32.421722
 20
185.854034
 11
-32.421722
 21
165.853973
  0
LINE
  8
0
 10
-55.421738
 20
185.854034
 11
-55.421738
 21
165.854034
  0
LINE
  8
0
 10
-55.421722
 20
182.354034
 11
-32.421738
 21
182.354034
  0
LINE
  8
0
 10
-30.421738
 20
186.854034
 11
-29.921722
 21
186.854034
  0
LINE
  8
0
 10
-32.121735
 20
185.854034
 11
-30.421738
 21
185.854034
  0
LINE
  8
0
 10
-30.421722
 20
186.854034
 11
-30.421722
 21
185.854034
  0
LINE
  8
0
 10
-32.121735
 20
185.854034
 11
-32.121735
 21
146.854034
  0
LINE
  8
0
 10
-32.421722
 20
146.854034
 11
-31.321732
 21
146.854034
  0
LINE
  8
0
 10
-32.421722
 20
139.354034
 11
-29.921722
 21
139.354034
  0
LINE
  8
0
 10
-31.321716
 20
146.854034
 11
-31.321716
 21
139.354034
  0
LINE
  8
0
 10
-32.121735
 20
182.354034
 11
-30.421738
 21
182.354034
  0
LINE
  8
0
 10
-30.421722
 20
182.354034
 11
-30.421722
 21
139.354034
  0
LINE
  8
0
 10
-57.921738
 20
186.854034
 11
-57.421738
 21
186.854034
  0
LINE
  8
0
 10
-57.421722
 20
186.854034
 11
-57.421722
 21
185.854034
  0
LINE
  8
0
 10
-57.421738
 20
185.854034
 11
-55.621735
 21
185.854034
  0
LINE
  8
0
 10
-55.621735
 20
185.854034
 11
-55.621735
 21
146.854034
  0
LINE
  8
0
 10
-56.421738
 20
146.854034
 11
-55.421722
 21
146.854034
  0
LINE
  8
0
 10
-57.421738
 20
182.354034
 11
-55.621735
 21
182.354034
  0
LINE
  8
0
 10
-57.421722
 20
182.354034
 11
-57.421722
 21
139.354034
  0
LINE
  8
0
 10
-56.421722
 20
146.854034
 11
-56.421722
 21
139.354034
  0
LINE
  8
0
 10
-29.921722
 20
61.354034
 11
-57.921738
 21
61.354034
  0
LINE
  8
0
 10
-29.921722
 20
60.354034
 11
-29.921722
 21
139.354034
  0
LINE
  8
0
 10
-38.421722
 20
57.354034
 11
-38.421722
 21
59.354034
  0
LINE
  8
0
 10
-38.421722
 20
57.354034
 11
-31.421722
 21
57.354034
  0
LINE
  8
0
 10
-31.421722
 20
57.354034
 11
-31.421722
 21
59.354034
  0
LINE
  8
0
 10
-37.421722
 20
58.354034
 11
-32.421722
 21
58.354034
  0
LINE
  8
0
 10
-32.421715
 20
58.354023
 11
-30.421709
 21
60.354023
  0
LINE
  8
0
 10
-37.421722
 20
58.354038
 11
-39.421722
 21
60.354038
  0
LINE
  8
0
 62
     4
 10
-41.921722
 20
155.854034
 11
-41.921722
 21
151.854034
  0
LINE
  8
0
 62
     4
 10
-51.921722
 20
150.854034
 11
-36.921722
 21
150.854034
  0
LINE
  8
0
 62
     4
 10
-36.921722
 20
150.854034
 11
-36.921722
 21
146.854034
  0
LINE
  8
0
 62
     4
 10
-51.921722
 20
146.854034
 11
-36.921722
 21
146.854034
  0
LINE
  8
0
 62
     4
 10
-51.921722
 20
150.854034
 11
-51.921722
 21
146.854034
  0
LINE
  8
0
 62
     4
 10
-54.421696
 20
167.854065
 11
-55.421711
 21
165.854034
  0
LINE
  8
0
 10
-55.421722
 20
144.854034
 11
-55.421722
 21
65.354050
  0
LINE
  8
0
 10
-32.421722
 20
144.854034
 11
-32.421722
 21
65.354050
  0
LINE
  8
0
 62
     4
 10
-27.421722
 20
165.854034
 11
-27.421722
 21
144.854034
  0
LINE
  8
0
 62
     4
 10
-4.421722
 20
165.854034
 11
-4.421722
 21
144.854034
  0
LINE
  8
0
  6
CENTER
 62
     2
 10
-15.921722
 20
169.222961
 11
-15.921722
 21
62.145279
  0
LINE
  8
0
 10
-24.921722
 20
90.854042
 11
-27.421722
 21
90.854042
  0
LINE
  8
0
 10
-24.921722
 20
84.854042
 11
-27.421722
 21
84.854042
  0
LINE
  8
0
 10
-6.921722
 20
78.354050
 11
-4.421722
 21
78.354050
  0
LINE
  8
0
 10
-6.921722
 20
83.354050
 11
-4.421722
 21
83.354050
  0
LINE
  8
0
 10
-6.921722
 20
102.854042
 11
-4.421722
 21
102.854042
  0
LINE
  8
0
 10
-6.921722
 20
108.854042
 11
-4.421722
 21
108.854042
  0
LINE
  8
0
 10
-23.921722
 20
123.354034
 11
-27.421722
 21
123.354034
  0
LINE
  8
0
 10
-23.921722
 20
118.354034
 11
-27.421722
 21
118.354034
  0
LINE
  8
0
 10
-24.921722
 20
116.854034
 11
-27.421722
 21
116.854034
  0
LINE
  8
0
 10
-24.921722
 20
110.854042
 11
-27.421722
 21
110.854042
  0
LINE
  8
0
 10
-25.921722
 20
125.854034
 11
-25.921722
 21
123.354034
  0
LINE
  8
0
 10
-5.921722
 20
125.854034
 11
-5.921722
 21
108.854042
  0
LINE
  8
0
 10
-27.421722
 20
74.354050
 11
-4.421722
 21
74.354050
  0
LINE
  8
0
 10
-27.421722
 20
127.354034
 11
-4.421722
 21
127.354034
  0
LINE
  8
0
 10
-25.921722
 20
125.854034
 11
-5.921722
 21
125.854034
  0
LINE
  8
0
 10
-25.921722
 20
75.854050
 11
-5.921722
 21
75.854050
  0
LINE
  8
0
 10
-25.921722
 20
84.854042
 11
-25.921722
 21
75.854050
  0
LINE
  8
0
 10
-25.921722
 20
110.854042
 11
-25.921722
 21
90.854042
  0
LINE
  8
0
 10
-25.921722
 20
118.354034
 11
-25.921722
 21
116.854034
  0
LINE
  8
0
 10
-5.921722
 20
102.854042
 11
-5.921722
 21
83.354050
  0
LINE
  8
0
 10
-5.921722
 20
78.354050
 11
-5.921722
 21
75.854050
  0
LINE
  8
0
 10
-27.421755
 20
74.354080
 11
-25.921743
 21
75.854088
  0
LINE
  8
0
 10
-5.921666
 20
75.854134
 11
-4.421675
 21
74.354141
  0
LINE
  8
0
 10
-4.421775
 20
127.354095
 11
-5.921766
 21
125.854103
  0
LINE
  8
0
 10
-27.421629
 20
127.354156
 11
-25.921627
 21
125.854156
  0
LINE
  8
0
 62
     4
 10
-27.421722
 20
144.854034
 11
-4.421722
 21
144.854034
  0
LINE
  8
0
 62
     4
 10
-27.421722
 20
164.854034
 11
-4.421722
 21
164.854034
  0
LINE
  8
0
 62
     4
 10
-27.421722
 20
165.854034
 11
-4.421722
 21
165.854034
  0
LINE
  8
0
 62
     4
 10
-5.421755
 20
167.854034
 11
-4.421748
 21
165.854019
  0
LINE
  8
0
 10
-27.421722
 20
65.354050
 11
-4.421722
 21
65.354050
  0
LINE
  8
0
 62
     4
 10
-19.921722
 20
167.854034
 11
-19.921722
 21
165.854034
  0
LINE
  8
0
 62
     4
 10
-26.671722
 20
166.554047
 11
-21.171722
 21
166.554047
  0
LINE
  8
0
 62
     4
 10
-21.171722
 20
166.554047
 11
-21.171722
 21
165.854034
  0
LINE
  8
0
 62
     4
 10
-26.671722
 20
166.554047
 11
-26.671722
 21
165.854034
  0
LINE
  8
0
 62
     4
 10
-26.421684
 20
167.854034
 11
-26.191589
 21
167.854034
  0
LINE
  8
0
 62
     4
 10
-24.671722
 20
168.554047
 11
-23.171722
 21
168.554047
  0
LINE
  8
0
 62
     4
 10
-8.671722
 20
168.554047
 11
-7.171722
 21
168.554047
  0
LINE
  8
0
 62
     4
 10
-21.651840
 20
167.854034
 11
-5.421753
 21
167.854034
  0
LINE
  8
0
 10
-26.010317
 20
112.765465
 11
-23.954597
 21
114.821182
  0
LINE
  8
0
 10
-26.082455
 20
115.014832
 11
-23.890755
 21
112.823128
  0
LINE
  8
0
 10
-25.010347
 20
119.765457
 11
-22.954628
 21
121.821182
  0
LINE
  8
0
 10
-25.082428
 20
122.014832
 11
-22.890726
 21
119.823135
  0
LINE
  8
0
 10
-8.010314
 20
104.765450
 11
-5.954594
 21
106.821167
  0
LINE
  8
0
 10
-8.082451
 20
107.014862
 11
-5.890739
 21
104.823151
  0
LINE
  8
0
 10
-26.010324
 20
86.765442
 11
-23.954603
 21
88.821159
  0
LINE
  8
0
 10
-26.082464
 20
89.014847
 11
-23.890753
 21
86.823135
  0
LINE
  8
0
 10
-8.010337
 20
79.765457
 11
-5.954614
 21
81.821182
  0
LINE
  8
0
 10
-8.082445
 20
82.014832
 11
-5.890744
 21
79.823128
  0
LINE
  8
0
 10
-29.921722
 20
60.354034
 11
-1.921722
 21
60.354034
  0
LINE
  8
0
 10
-29.921722
 20
139.354034
 11
-27.421722
 21
139.354034
  0
LINE
  8
0
 10
-27.421722
 20
185.854034
 11
-4.421738
 21
185.854034
  0
LINE
  8
0
 10
-4.421722
 20
185.854034
 11
-4.421722
 21
165.853989
  0
LINE
  8
0
 10
-27.421722
 20
185.854034
 11
-27.421722
 21
165.854034
  0
LINE
  8
0
 10
-27.421722
 20
182.354034
 11
-4.421738
 21
182.354034
  0
LINE
  8
0
 10
-2.421738
 20
186.854034
 11
-1.921722
 21
186.854034
  0
LINE
  8
0
 10
-4.121735
 20
185.854034
 11
-2.421738
 21
185.854034
  0
LINE
  8
0
 10
-2.421722
 20
186.854034
 11
-2.421722
 21
185.854034
  0
LINE
  8
0
 10
-4.121735
 20
185.854034
 11
-4.121735
 21
146.854034
  0
LINE
  8
0
 10
-4.421722
 20
146.854034
 11
-3.321732
 21
146.854034
  0
LINE
  8
0
 10
-4.421722
 20
139.354034
 11
-1.921722
 21
139.354034
  0
LINE
  8
0
 10
-3.321716
 20
146.854034
 11
-3.321716
 21
139.354034
  0
LINE
  8
0
 10
-4.121735
 20
182.354034
 11
-2.421738
 21
182.354034
  0
LINE
  8
0
 10
-2.421722
 20
182.354034
 11
-2.421722
 21
139.354034
  0
LINE
  8
0
 10
-29.921722
 20
186.854034
 11
-29.421722
 21
186.854034
  0
LINE
  8
0
 10
-29.421707
 20
186.854034
 11
-29.421707
 21
185.854034
  0
LINE
  8
0
 10
-29.421722
 20
185.854034
 11
-27.621735
 21
185.854034
  0
LINE
  8
0
 10
-27.621735
 20
185.854034
 11
-27.621735
 21
146.854034
  0
LINE
  8
0
 10
-28.421722
 20
146.854034
 11
-27.421722
 21
146.854034
  0
LINE
  8
0
 10
-29.421722
 20
182.354034
 11
-27.621735
 21
182.354034
  0
LINE
  8
0
 10
-29.421707
 20
182.354034
 11
-29.421707
 21
139.354034
  0
LINE
  8
0
 10
-28.421722
 20
146.854034
 11
-28.421722
 21
139.354034
  0
LINE
  8
0
 10
-1.921722
 20
61.354034
 11
-29.921722
 21
61.354034
  0
LINE
  8
0
 10
-1.921722
 20
60.354034
 11
-1.921722
 21
139.354034
  0
LINE
  8
0
 10
-10.421722
 20
57.354034
 11
-10.421722
 21
59.354034
  0
LINE
  8
0
 10
-10.421722
 20
57.354034
 11
-3.421722
 21
57.354034
  0
LINE
  8
0
 10
-3.421722
 20
57.354034
 11
-3.421722
 21
59.354034
  0
LINE
  8
0
 10
-9.421722
 20
58.354034
 11
-4.421722
 21
58.354034
  0
LINE
  8
0
 10
-4.421716
 20
58.354023
 11
-2.421712
 21
60.354027
  0
LINE
  8
0
 10
-9.421711
 20
58.354034
 11
-11.421714
 21
60.354038
  0
LINE
  8
0
 62
     4
 10
-13.921722
 20
155.854034
 11
-13.921722
 21
151.854034
  0
LINE
  8
0
 62
     4
 10
-23.921722
 20
150.854034
 11
-8.921722
 21
150.854034
  0
LINE
  8
0
 62
     4
 10
-8.921722
 20
150.854034
 11
-8.921722
 21
146.854034
  0
LINE
  8
0
 62
     4
 10
-23.921722
 20
146.854034
 11
-8.921722
 21
146.854034
  0
LINE
  8
0
 62
     4
 10
-23.921722
 20
150.854034
 11
-23.921722
 21
146.854034
  0
LINE
  8
0
 62
     4
 10
-26.421673
 20
167.854050
 11
-27.421679
 21
165.854034
  0
LINE
  8
0
 10
-27.421722
 20
144.854034
 11
-27.421722
 21
65.354050
  0
LINE
  8
0
 10
-4.421722
 20
144.854034
 11
-4.421722
 21
65.354050
  0
LINE
  8
0
 10
0.578278
 20
144.854034
 11
0.578278
 21
56.854034
  0
LINE
  8
0
 10
23.578278
 20
144.854034
 11
23.578278
 21
56.854034
  0
LINE
  8
0
  6
CENTER
 62
     2
 10
12.078278
 20
169.222946
 11
12.078278
 21
31.854034
  0
LINE
  8
0
 10
3.078278
 20
90.854034
 11
0.578278
 21
90.854034
  0
LINE
  8
0
 10
3.078278
 20
84.854034
 11
0.578278
 21
84.854034
  0
LINE
  8
0
 10
21.078278
 20
78.354034
 11
23.578278
 21
78.354034
  0
LINE
  8
0
 10
21.078278
 20
83.354034
 11
23.578278
 21
83.354034
  0
LINE
  8
0
 10
21.078278
 20
102.854034
 11
23.578278
 21
102.854034
  0
LINE
  8
0
 10
21.078278
 20
108.854034
 11
23.578278
 21
108.854034
  0
LINE
  8
0
 10
4.078278
 20
123.354034
 11
0.578278
 21
123.354034
  0
LINE
  8
0
 10
4.078278
 20
118.354034
 11
0.578278
 21
118.354034
  0
LINE
  8
0
 10
3.078278
 20
116.854034
 11
0.578278
 21
116.854034
  0
LINE
  8
0
 10
3.078278
 20
110.854034
 11
0.578278
 21
110.854034
  0
LINE
  8
0
 10
2.078278
 20
125.854034
 11
2.078278
 21
123.354034
  0
LINE
  8
0
 10
22.078278
 20
125.854034
 11
22.078278
 21
108.854034
  0
LINE
  8
0
 10
0.578278
 20
74.354034
 11
23.578278
 21
74.354034
  0
LINE
  8
0
 10
0.578278
 20
127.354034
 11
23.578278
 21
127.354034
  0
LINE
  8
0
 10
2.078278
 20
125.854034
 11
22.078278
 21
125.854034
  0
LINE
  8
0
 10
2.078278
 20
75.854034
 11
22.078278
 21
75.854034
  0
LINE
  8
0
 10
2.078278
 20
84.854034
 11
2.078278
 21
75.854034
  0
LINE
  8
0
 10
2.078278
 20
110.854034
 11
2.078278
 21
90.854034
  0
LINE
  8
0
 10
2.078278
 20
118.354034
 11
2.078278
 21
116.854034
  0
LINE
  8
0
 10
22.078278
 20
102.854034
 11
22.078278
 21
83.354034
  0
LINE
  8
0
 10
22.078278
 20
78.354034
 11
22.078278
 21
75.854034
  0
LINE
  8
0
 10
0.578263
 20
74.354057
 11
2.078265
 21
75.854057
  0
LINE
  8
0
 10
22.078320
 20
75.854088
 11
23.578310
 21
74.354095
  0
LINE
  8
0
 10
23.578230
 20
127.354080
 11
22.078239
 21
125.854088
  0
LINE
  8
0
 10
0.578338
 20
127.354134
 11
2.078340
 21
125.854134
  0
LINE
  8
0
 62
     4
 10
23.578278
 20
56.854034
 11
0.578278
 21
56.854034
  0
LINE
  8
0
 62
     4
 10
23.578278
 20
36.854034
 11
0.578278
 21
36.854034
  0
LINE
  8
0
 62
     4
 10
23.578278
 20
35.854034
 11
0.578278
 21
35.854034
  0
LINE
  8
0
 62
     4
 10
1.578247
 20
33.854031
 11
0.578240
 21
35.854046
  0
LINE
  8
0
 62
     4
 10
16.078278
 20
33.854034
 11
16.078278
 21
35.854034
  0
LINE
  8
0
 62
     4
 10
22.828278
 20
35.154037
 11
17.328278
 21
35.154037
  0
LINE
  8
0
 62
     4
 10
17.328278
 20
35.154037
 11
17.328278
 21
35.854034
  0
LINE
  8
0
 62
     4
 10
22.828278
 20
35.154037
 11
22.828278
 21
35.854034
  0
LINE
  8
0
 62
     4
 10
22.578278
 20
33.854034
 11
22.348145
 21
33.854034
  0
LINE
  8
0
 62
     4
 10
20.828262
 20
33.154037
 11
19.328262
 21
33.154037
  0
LINE
  8
0
 62
     4
 10
4.828262
 20
33.154037
 11
3.328262
 21
33.154037
  0
LINE
  8
0
 62
     4
 10
17.808411
 20
33.854034
 11
1.578278
 21
33.854034
  0
LINE
  8
0
 10
1.989660
 20
112.765442
 11
4.045380
 21
114.821159
  0
LINE
  8
0
 10
1.917543
 20
115.014809
 11
4.109233
 21
112.823120
  0
LINE
  8
0
 10
2.989650
 20
119.765457
 11
5.045370
 21
121.821175
  0
LINE
  8
0
 10
2.917539
 20
122.014839
 11
5.109251
 21
119.823128
  0
LINE
  8
0
 10
19.989679
 20
104.765442
 11
22.045399
 21
106.821159
  0
LINE
  8
0
 10
19.917547
 20
107.014839
 11
22.109259
 21
104.823128
  0
LINE
  8
0
 10
1.989680
 20
86.765442
 11
4.045400
 21
88.821167
  0
LINE
  8
0
 10
1.917544
 20
89.014839
 11
4.109256
 21
86.823128
  0
LINE
  8
0
 10
19.989662
 20
79.765442
 11
22.045376
 21
81.821152
  0
LINE
  8
0
 10
19.917532
 20
82.014816
 11
22.109234
 21
79.823120
  0
LINE
  8
0
 62
     4
 10
0.578278
 20
144.854034
 11
23.578278
 21
144.854034
  0
LINE
  8
0
 62
     4
 10
0.578278
 20
164.854034
 11
23.578278
 21
164.854034
  0
LINE
  8
0
 62
     4
 10
20.078278
 20
50.854034
 11
5.078278
 21
50.854034
  0
LINE
  8
0
 62
     4
 10
20.078278
 20
54.854034
 11
5.078278
 21
54.854034
  0
LINE
  8
0
 62
     4
 10
20.078278
 20
50.854034
 11
20.078278
 21
54.854034
  0
LINE
  8
0
 62
     4
 10
5.078278
 20
50.854034
 11
5.078278
 21
54.854034
  0
LINE
  8
0
 62
     4
 10
0.578278
 20
165.854034
 11
23.578278
 21
165.854034
  0
LINE
  8
0
 62
     4
 10
22.578274
 20
167.854019
 11
23.578276
 21
165.854019
  0
LINE
  8
0
 62
     4
 10
8.078278
 20
167.854034
 11
8.078278
 21
165.854034
  0
LINE
  8
0
 62
     4
 10
1.328278
 20
166.554031
 11
6.828278
 21
166.554031
  0
LINE
  8
0
 62
     4
 10
6.828278
 20
166.554031
 11
6.828278
 21
165.854034
  0
LINE
  8
0
 62
     4
 10
1.328278
 20
166.554031
 11
1.328278
 21
165.854034
  0
LINE
  8
0
 62
     4
 10
1.578278
 20
167.854034
 11
1.808411
 21
167.854034
  0
LINE
  8
0
 62
     4
 10
3.328278
 20
168.554031
 11
4.828278
 21
168.554031
  0
LINE
  8
0
 62
     4
 10
19.328278
 20
168.554031
 11
20.828278
 21
168.554031
  0
LINE
  8
0
 62
     4
 10
6.348145
 20
167.854034
 11
22.578278
 21
167.854034
  0
LINE
  8
0
 10
-1.921722
 20
60.354034
 11
0.578278
 21
60.354034
  0
LINE
  8
0
 10
-1.921722
 20
139.354034
 11
0.578278
 21
139.354034
  0
LINE
  8
0
 10
0.578278
 20
185.854034
 11
23.578262
 21
185.854034
  0
LINE
  8
0
 10
23.578278
 20
185.854034
 11
23.578278
 21
165.854034
  0
LINE
  8
0
 10
0.578278
 20
185.854034
 11
0.578278
 21
165.854034
  0
LINE
  8
0
 10
0.578278
 20
182.354034
 11
23.578262
 21
182.354034
  0
LINE
  8
0
 10
25.578262
 20
186.854034
 11
26.078278
 21
186.854034
  0
LINE
  8
0
 10
23.878265
 20
185.854034
 11
25.578262
 21
185.854034
  0
LINE
  8
0
 10
25.578278
 20
186.854034
 11
25.578278
 21
185.854034
  0
LINE
  8
0
 10
23.878265
 20
185.854034
 11
23.878265
 21
146.854034
  0
LINE
  8
0
 10
23.578278
 20
146.854034
 11
24.678268
 21
146.854034
  0
LINE
  8
0
 10
23.578278
 20
139.354034
 11
26.078278
 21
139.354034
  0
LINE
  8
0
 10
24.678284
 20
146.854034
 11
24.678284
 21
139.354034
  0
LINE
  8
0
 10
23.878265
 20
182.354034
 11
25.578262
 21
182.354034
  0
LINE
  8
0
 10
25.578278
 20
182.354034
 11
25.578278
 21
139.354034
  0
LINE
  8
0
 10
-1.921722
 20
186.854034
 11
-1.421722
 21
186.854034
  0
LINE
  8
0
 10
-1.421722
 20
186.854034
 11
-1.421722
 21
185.854034
  0
LINE
  8
0
 10
-1.421722
 20
185.854034
 11
0.378265
 21
185.854034
  0
LINE
  8
0
 10
0.378265
 20
185.854034
 11
0.378265
 21
146.854034
  0
LINE
  8
0
 10
-0.421722
 20
146.854034
 11
0.578278
 21
146.854034
  0
LINE
  8
0
 10
-1.421722
 20
182.354034
 11
0.378265
 21
182.354034
  0
LINE
  8
0
 10
-1.421722
 20
182.354034
 11
-1.421722
 21
139.354034
  0
LINE
  8
0
 10
-0.421722
 20
146.854034
 11
-0.421722
 21
139.354034
  0
LINE
  8
0
 10
26.078278
 20
61.354034
 11
23.578278
 21
61.354034
  0
LINE
  8
0
 10
26.078278
 20
60.354034
 11
26.078278
 21
139.354034
  0
LINE
  8
0
 10
0.578278
 20
61.354034
 11
-1.921722
 21
61.354034
  0
LINE
  8
0
 10
23.578278
 20
60.354034
 11
26.078278
 21
60.354034
  0
LINE
  8
0
 62
     4
 10
10.078278
 20
49.854034
 11
3.078278
 21
49.854034
  0
LINE
  8
0
 62
     4
 10
10.078278
 20
45.854034
 11
3.078278
 21
45.854034
  0
LINE
  8
0
 62
     4
 10
3.078278
 20
45.854034
 11
3.078278
 21
49.854034
  0
LINE
  8
0
 62
     4
 10
10.078278
 20
45.854034
 11
10.078278
 21
49.854034
  0
LINE
  8
0
 62
     4
 10
4.078278
 20
150.854034
 11
19.078278
 21
150.854034
  0
LINE
  8
0
 62
     4
 10
4.078278
 20
146.854034
 11
19.078278
 21
146.854034
  0
LINE
  8
0
 62
     4
 10
4.078278
 20
150.854034
 11
4.078278
 21
146.854034
  0
LINE
  8
0
 62
     4
 10
19.078278
 20
150.854034
 11
19.078278
 21
146.854034
  0
LINE
  8
0
 62
     4
 10
-41.921722
 20
151.854034
 11
-34.921722
 21
151.854034
  0
LINE
  8
0
 62
     4
 10
-41.921722
 20
155.854034
 11
-34.921722
 21
155.854034
  0
LINE
  8
0
 62
     4
 10
-34.921722
 20
155.854034
 11
-34.921722
 21
151.854034
  0
LINE
  8
0
 62
     4
 10
14.078278
 20
155.854034
 11
14.078278
 21
151.854034
  0
LINE
  8
0
 62
     4
 10
22.578293
 20
33.854038
 11
23.578304
 21
35.854061
  0
LINE
  8
0
 62
     4
 10
1.578274
 20
167.854034
 11
0.578269
 21
165.854019
  0
LINE
  8
0
 62
     4
 10
0.578278
 20
165.854034
 11
0.578278
 21
144.854034
  0
LINE
  8
0
 62
     4
 10
23.578278
 20
165.854034
 11
23.578278
 21
144.854034
  0
LINE
  8
0
 62
     4
 10
0.578278
 20
56.854034
 11
0.578278
 21
35.854034
  0
LINE
  8
0
 62
     4
 10
23.578278
 20
56.854034
 11
23.578278
 21
35.854050
  0
LINE
  8
0
 62
     4
 10
28.578293
 20
180.854034
 11
28.578293
 21
159.854034
  0
LINE
  8
0
 62
     4
 10
51.578293
 20
180.854034
 11
51.578293
 21
159.854034
  0
LINE
  8
0
  6
CENTER
 62
     2
 10
40.078293
 20
184.222946
 11
40.078293
 21
16.854034
  0
LINE
  8
0
 10
31.078293
 20
90.854034
 11
28.578293
 21
90.854034
  0
LINE
  8
0
 10
31.078293
 20
84.854034
 11
28.578293
 21
84.854034
  0
LINE
  8
0
 10
49.078293
 20
78.354034
 11
51.578293
 21
78.354034
  0
LINE
  8
0
 10
49.078293
 20
83.354034
 11
51.578293
 21
83.354034
  0
LINE
  8
0
 10
49.078293
 20
102.854034
 11
51.578293
 21
102.854034
  0
LINE
  8
0
 10
49.078293
 20
108.854034
 11
51.578293
 21
108.854034
  0
LINE
  8
0
 10
32.078293
 20
123.354034
 11
28.578293
 21
123.354034
  0
LINE
  8
0
 10
32.078293
 20
118.354034
 11
28.578293
 21
118.354034
  0
LINE
  8
0
 10
31.078293
 20
116.854034
 11
28.578293
 21
116.854034
  0
LINE
  8
0
 10
31.078293
 20
110.854034
 11
28.578293
 21
110.854034
  0
LINE
  8
0
 10
30.078293
 20
125.854034
 11
30.078293
 21
123.354034
  0
LINE
  8
0
 10
50.078293
 20
125.854034
 11
50.078293
 21
108.854034
  0
LINE
  8
0
 10
28.578293
 20
74.354034
 11
51.578293
 21
74.354034
  0
LINE
  8
0
 10
28.578293
 20
127.354034
 11
51.578293
 21
127.354034
  0
LINE
  8
0
 10
30.078293
 20
125.854034
 11
50.078293
 21
125.854034
  0
LINE
  8
0
 10
30.078293
 20
75.854034
 11
50.078293
 21
75.854034
  0
LINE
  8
0
 10
30.078293
 20
84.854034
 11
30.078293
 21
75.854034
  0
LINE
  8
0
 10
30.078293
 20
110.854034
 11
30.078293
 21
90.854034
  0
LINE
  8
0
 10
30.078293
 20
118.354034
 11
30.078293
 21
116.854034
  0
LINE
  8
0
 10
50.078293
 20
102.854034
 11
50.078293
 21
83.354034
  0
LINE
  8
0
 10
50.078293
 20
78.354034
 11
50.078293
 21
75.854034
  0
LINE
  8
0
 10
28.578295
 20
74.354042
 11
30.078297
 21
75.854042
  0
LINE
  8
0
 10
50.078381
 20
75.854118
 11
51.578381
 21
74.354111
  0
LINE
  8
0
 10
51.578243
 20
127.354042
 11
50.078262
 21
125.854065
  0
LINE
  8
0
 10
28.578386
 20
127.354164
 11
30.078388
 21
125.854164
  0
LINE
  8
0
 62
     4
 10
51.578278
 20
41.854034
 11
28.578278
 21
41.854034
  0
LINE
  8
0
 62
     4
 10
51.578278
 20
21.854034
 11
28.578278
 21
21.854034
  0
LINE
  8
0
 62
     4
 10
51.578278
 20
20.854034
 11
28.578278
 21
20.854034
  0
LINE
  8
0
 62
     4
 10
29.578279
 20
18.854015
 11
28.578266
 21
20.854044
  0
LINE
  8
0
 62
     4
 10
44.078293
 20
18.854034
 11
44.078293
 21
20.854034
  0
LINE
  8
0
 62
     4
 10
50.828278
 20
20.154037
 11
45.328278
 21
20.154037
  0
LINE
  8
0
 62
     4
 10
45.328293
 20
20.154037
 11
45.328293
 21
20.854034
  0
LINE
  8
0
 62
     4
 10
50.828293
 20
20.154037
 11
50.828293
 21
20.854034
  0
LINE
  8
0
 62
     4
 10
50.578278
 20
18.854034
 11
50.348145
 21
18.854034
  0
LINE
  8
0
 62
     4
 10
48.828278
 20
18.154037
 11
47.328278
 21
18.154037
  0
LINE
  8
0
 62
     4
 10
32.828278
 20
18.154037
 11
31.328278
 21
18.154037
  0
LINE
  8
0
 62
     4
 10
45.808411
 20
18.854034
 11
29.578308
 21
18.854034
  0
LINE
  8
0
 10
29.989674
 20
112.765465
 11
32.045395
 21
114.821182
  0
LINE
  8
0
 10
29.917562
 20
115.014816
 11
32.109253
 21
112.823120
  0
LINE
  8
0
 10
30.989681
 20
119.765457
 11
33.045403
 21
121.821175
  0
LINE
  8
0
 10
30.917585
 20
122.014824
 11
33.109299
 21
119.823112
  0
LINE
  8
0
 10
47.989700
 20
104.765427
 11
50.045418
 21
106.821152
  0
LINE
  8
0
 10
47.917561
 20
107.014847
 11
50.109264
 21
104.823151
  0
LINE
  8
0
 10
29.989700
 20
86.765434
 11
32.045410
 21
88.821144
  0
LINE
  8
0
 10
29.917559
 20
89.014824
 11
32.109261
 21
86.823120
  0
LINE
  8
0
 10
47.989689
 20
79.765434
 11
50.045410
 21
81.821152
  0
LINE
  8
0
 10
47.917564
 20
82.014824
 11
50.109264
 21
79.823120
  0
LINE
  8
0
 62
     4
 10
28.578293
 20
159.854034
 11
51.578293
 21
159.854034
  0
LINE
  8
0
 62
     4
 10
28.578293
 20
179.854034
 11
51.578293
 21
179.854034
  0
LINE
  8
0
 62
     4
 10
48.078278
 20
35.854034
 11
33.078278
 21
35.854034
  0
LINE
  8
0
 62
     4
 10
48.078278
 20
39.854034
 11
33.078278
 21
39.854034
  0
LINE
  8
0
 62
     4
 10
48.078293
 20
35.854034
 11
48.078293
 21
39.854034
  0
LINE
  8
0
 62
     4
 10
33.078293
 20
35.854034
 11
33.078293
 21
39.854034
  0
LINE
  8
0
 62
     4
 10
28.578293
 20
180.854034
 11
51.578293
 21
180.854034
  0
LINE
  8
0
 62
     4
 10
50.578251
 20
182.854019
 11
51.578255
 21
180.854004
  0
LINE
  8
0
 62
     4
 10
36.078293
 20
182.854034
 11
36.078293
 21
180.854034
  0
LINE
  8
0
 62
     4
 10
29.328293
 20
181.554031
 11
34.828293
 21
181.554031
  0
LINE
  8
0
 62
     4
 10
34.828293
 20
181.554031
 11
34.828293
 21
180.854034
  0
LINE
  8
0
 62
     4
 10
29.328293
 20
181.554031
 11
29.328293
 21
180.854034
  0
LINE
  8
0
 62
     4
 10
29.578293
 20
182.854034
 11
29.808426
 21
182.854034
  0
LINE
  8
0
 62
     4
 10
31.328293
 20
183.554031
 11
32.828293
 21
183.554031
  0
LINE
  8
0
 62
     4
 10
47.328293
 20
183.554031
 11
48.828293
 21
183.554031
  0
LINE
  8
0
 62
     4
 10
34.348160
 20
182.854034
 11
50.578293
 21
182.854034
  0
LINE
  8
0
 10
26.078278
 20
60.354034
 11
28.578293
 21
60.354034
  0
LINE
  8
0
 10
26.078293
 20
139.354034
 11
28.578293
 21
139.354034
  0
LINE
  8
0
 10
28.578293
 20
185.854034
 11
51.578278
 21
185.854034
  0
LINE
  8
0
 10
51.578293
 20
185.854034
 11
51.578293
 21
180.854034
  0
LINE
  8
0
 10
28.578278
 20
185.854034
 11
28.578278
 21
180.854034
  0
LINE
  8
0
 10
28.578293
 20
182.354034
 11
29.328293
 21
182.354034
  0
LINE
  8
0
 10
53.578278
 20
186.854034
 11
54.078293
 21
186.854034
  0
LINE
  8
0
 10
51.878281
 20
185.854034
 11
53.578278
 21
185.854034
  0
LINE
  8
0
 10
53.578293
 20
186.854034
 11
53.578293
 21
185.854034
  0
LINE
  8
0
 10
51.878281
 20
185.854034
 11
51.878281
 21
146.854034
  0
LINE
  8
0
 10
51.578293
 20
146.854034
 11
52.678284
 21
146.854034
  0
LINE
  8
0
 10
51.578293
 20
139.354034
 11
54.078293
 21
139.354034
  0
LINE
  8
0
 10
52.678299
 20
146.854034
 11
52.678299
 21
139.354034
  0
LINE
  8
0
 10
51.878281
 20
182.354034
 11
53.578278
 21
182.354034
  0
LINE
  8
0
 10
53.578293
 20
182.354034
 11
53.578293
 21
139.354034
  0
LINE
  8
0
 10
26.078278
 20
186.854034
 11
26.578278
 21
186.854034
  0
LINE
  8
0
 10
26.578308
 20
186.854034
 11
26.578308
 21
185.854034
  0
LINE
  8
0
 10
26.578278
 20
185.854034
 11
28.378281
 21
185.854034
  0
LINE
  8
0
 10
28.378281
 20
185.854034
 11
28.378281
 21
146.854034
  0
LINE
  8
0
 10
27.578278
 20
146.854034
 11
28.578293
 21
146.854034
  0
LINE
  8
0
 10
26.578278
 20
182.354034
 11
28.378281
 21
182.354034
  0
LINE
  8
0
 10
26.578308
 20
182.354034
 11
26.578308
 21
139.354034
  0
LINE
  8
0
 10
27.578293
 20
146.854034
 11
27.578293
 21
139.354034
  0
LINE
  8
0
 10
54.078293
 20
61.354034
 11
51.578293
 21
61.354034
  0
LINE
  8
0
 10
54.078293
 20
60.354034
 11
54.078293
 21
139.354034
  0
LINE
  8
0
 10
28.578293
 20
61.354034
 11
26.078278
 21
61.354034
  0
LINE
  8
0
 10
51.578293
 20
60.354034
 11
54.078293
 21
60.354034
  0
LINE
  8
0
 62
     4
 10
38.078278
 20
34.854034
 11
31.078278
 21
34.854034
  0
LINE
  8
0
 62
     4
 10
38.078278
 20
30.854034
 11
31.078278
 21
30.854034
  0
LINE
  8
0
 62
     4
 10
31.078293
 20
30.854034
 11
31.078293
 21
34.854034
  0
LINE
  8
0
 62
     4
 10
38.078293
 20
30.854034
 11
38.078293
 21
34.854034
  0
LINE
  8
0
 62
     4
 10
32.078293
 20
165.854034
 11
47.078293
 21
165.854034
  0
LINE
  8
0
 62
     4
 10
32.078293
 20
161.854034
 11
47.078293
 21
161.854034
  0
LINE
  8
0
 62
     4
 10
32.078293
 20
165.854034
 11
32.078293
 21
161.854034
  0
LINE
  8
0
 62
     4
 10
47.078293
 20
165.854034
 11
47.078293
 21
161.854034
  0
LINE
  8
0
 62
     4
 10
42.078293
 20
166.854034
 11
49.078293
 21
166.854034
  0
LINE
  8
0
 62
     4
 10
42.078293
 20
170.854034
 11
49.078293
 21
170.854034
  0
LINE
  8
0
 62
     4
 10
49.078293
 20
170.854034
 11
49.078293
 21
166.854034
  0
LINE
  8
0
 62
     4
 10
42.078293
 20
170.854034
 11
42.078293
 21
166.854034
  0
LINE
  8
0
 62
     4
 10
29.578289
 20
182.854019
 11
28.578283
 21
180.854004
  0
LINE
  8
0
 10
50.828293
 20
182.354034
 11
51.578278
 21
182.354034
  0
LINE
  8
0
 62
     4
 10
50.578239
 20
18.854052
 11
51.578251
 21
20.854065
  0
LINE
  8
0
 62
     4
 10
28.578293
 20
41.854034
 11
28.578293
 21
20.854034
  0
LINE
  8
0
 62
     4
 10
51.578293
 20
41.854034
 11
51.578293
 21
20.854073
  0
LINE
  8
0
 10
28.578278
 20
159.854034
 11
28.578278
 21
41.854034
  0
LINE
  8
0
 10
51.578293
 20
159.854034
 11
51.578293
 21
41.854034
  0
LINE
  8
0
 62
     4
 10
56.578278
 20
127.354034
 11
56.578278
 21
74.354050
  0
LINE
  8
0
 62
     4
 10
79.578278
 20
127.354034
 11
79.578278
 21
74.354050
  0
LINE
  8
0
  6
CENTER
 62
     2
 10
68.078278
 20
133.520691
 11
68.078278
 21
67.854034
  0
LINE
  8
0
 62
     4
 10
56.578278
 20
74.354050
 11
79.578278
 21
74.354050
  0
LINE
  8
0
 62
     4
 10
56.578278
 20
127.354034
 11
79.578278
 21
127.354034
  0
LINE
  8
0
 62
     4
 10
57.989677
 20
112.765450
 11
60.045403
 21
114.821175
  0
LINE
  8
0
 62
     4
 10
57.917561
 20
115.014847
 11
60.109264
 21
112.823143
  0
LINE
  8
0
 62
     4
 10
75.989677
 20
104.765427
 11
78.045403
 21
106.821144
  0
LINE
  8
0
 62
     4
 10
75.917580
 20
107.014885
 11
78.109283
 21
104.823181
  0
LINE
  8
0
 62
     4
 10
57.989677
 20
86.765419
 11
60.045395
 21
88.821144
  0
LINE
  8
0
 62
     4
 10
57.917545
 20
89.014847
 11
60.109249
 21
86.823143
  0
LINE
  8
0
 10
54.078278
 20
60.354034
 11
82.078278
 21
60.354034
  0
LINE
  8
0
 10
56.578278
 20
185.854034
 11
79.578262
 21
185.854034
  0
LINE
  8
0
 10
79.578278
 20
185.854034
 11
79.578278
 21
139.354034
  0
LINE
  8
0
 10
56.578278
 20
185.854034
 11
56.578278
 21
139.354034
  0
LINE
  8
0
 10
56.578278
 20
182.354034
 11
79.578262
 21
182.354034
  0
LINE
  8
0
 10
81.578262
 20
186.854034
 11
82.078278
 21
186.854034
  0
LINE
  8
0
 10
79.878265
 20
185.854034
 11
81.578262
 21
185.854034
  0
LINE
  8
0
 10
81.578278
 20
186.854034
 11
81.578278
 21
185.854034
  0
LINE
  8
0
 10
79.878265
 20
185.854034
 11
79.878265
 21
139.354034
  0
LINE
  8
0
 10
54.078278
 20
139.354034
 11
82.078278
 21
139.354034
  0
LINE
  8
0
 10
79.878265
 20
182.354034
 11
81.578262
 21
182.354034
  0
LINE
  8
0
 10
81.578278
 20
182.354034
 11
81.578278
 21
139.354034
  0
LINE
  8
0
 10
54.078278
 20
186.854034
 11
54.578278
 21
186.854034
  0
LINE
  8
0
 10
54.578278
 20
186.854034
 11
54.578278
 21
185.854034
  0
LINE
  8
0
 10
54.578278
 20
185.854034
 11
56.378265
 21
185.854034
  0
LINE
  8
0
 10
56.378265
 20
185.854034
 11
56.378265
 21
139.354034
  0
LINE
  8
0
 10
54.578278
 20
182.354034
 11
56.378265
 21
182.354034
  0
LINE
  8
0
 10
54.578278
 20
182.354034
 11
54.578278
 21
139.354034
  0
LINE
  8
0
 10
82.078278
 20
61.354034
 11
54.078278
 21
61.354034
  0
LINE
  8
0
 10
82.078278
 20
60.354034
 11
82.078278
 21
139.354034
  0
LINE
  8
0
 10
73.578278
 20
57.654037
 11
73.578278
 21
59.354034
  0
LINE
  8
0
 10
73.578239
 20
57.653988
 11
74.097855
 21
57.353985
  0
LINE
  8
0
 10
74.097900
 20
57.354034
 11
80.058655
 21
57.354034
  0
LINE
  8
0
 10
73.578278
 20
57.654037
 11
80.578278
 21
57.654037
  0
LINE
  8
0
 10
80.578300
 20
57.654015
 11
80.058678
 21
57.354012
  0
LINE
  8
0
 10
80.578278
 20
57.654037
 11
80.578278
 21
59.354034
  0
LINE
  8
0
 10
74.578278
 20
58.354034
 11
79.578278
 21
58.354034
  0
LINE
  8
0
 10
79.578285
 20
58.354046
 11
81.578293
 21
60.354050
  0
LINE
  8
0
 10
74.578255
 20
58.354023
 11
72.578255
 21
60.354023
  0
LINE
  8
0
 10
-57.921738
 20
61.354034
 11
-59.055710
 21
61.354034
  0
LINE
  8
0
 10
-57.921738
 20
60.354034
 11
-59.921707
 21
60.354034
  0
LINE
  8
0
 62
     4
 10
14.078278
 20
151.854034
 11
21.078278
 21
151.854034
  0
LINE
  8
0
 62
     4
 10
14.078278
 20
155.854034
 11
21.078278
 21
155.854034
  0
LINE
  8
0
 62
     4
 10
21.078278
 20
155.854034
 11
21.078278
 21
151.854034
  0
LINE
  8
0
 62
     4
 10
-13.921722
 20
151.854034
 11
-6.921722
 21
151.854034
  0
LINE
  8
0
 62
     4
 10
-13.921722
 20
155.854034
 11
-6.921722
 21
155.854034
  0
LINE
  8
0
 62
     4
 10
-6.921722
 20
155.854034
 11
-6.921722
 21
151.854034
  0
LINE
  8
0
 10
-352.386047
 20
139.354019
 11
-352.386047
 21
60.354012
  0
LINE
  8
0
 10
-305.385986
 20
185.854004
 11
-345.385986
 21
185.854004
  0
LINE
  8
0
 10
-305.385986
 20
185.854004
 11
-305.385986
 21
60.354004
  0
LINE
  8
0
  6
CENTER
 62
     2
 10
-315.385986
 20
82.337868
 11
-315.385986
 21
69.125763
  0
LINE
  8
0
  6
CENTER
 62
     2
 10
-320.385986
 20
111.461365
 11
-320.385986
 21
91.288025
  0
LINE
  8
0
  6
CENTER
 62
     2
 10
-335.385986
 20
124.673492
 11
-335.385986
 21
108.620049
  0
LINE
  8
0
  6
CENTER
 62
     2
 10
-311.829498
 20
101.854012
 11
-328.167084
 21
101.854012
  0
LINE
  8
0
  6
CENTER
 62
     2
 10
-308.704041
 20
75.853996
 11
-321.489960
 21
75.853996
  0
LINE
  8
0
  6
CENTER
 62
     2
 10
-335.385986
 20
94.129341
 11
-335.385986
 21
78.360039
  0
LINE
  8
0
  6
CENTER
 62
     2
 10
-327.882965
 20
116.854012
 11
-343.936371
 21
116.854012
  0
LINE
  8
0
  6
CENTER
 62
     2
 10
-327.598785
 20
85.853996
 11
-342.941895
 21
85.853996
  0
LINE
  8
0
 10
-347.386047
 20
65.354012
 11
-352.386047
 21
65.354012
  0
LINE
  8
0
 10
-347.386047
 20
70.354012
 11
-352.386047
 21
70.354012
  0
LINE
  8
0
 10
-347.386047
 20
75.354012
 11
-352.386047
 21
75.354012
  0
LINE
  8
0
 10
-347.386047
 20
75.354012
 11
-347.386047
 21
60.354004
  0
LINE
  8
0
 10
-347.386047
 20
139.354019
 11
-347.386047
 21
124.354012
  0
LINE
  8
0
 10
-347.386047
 20
129.354019
 11
-352.386047
 21
129.354019
  0
LINE
  8
0
 10
-347.386047
 20
134.354019
 11
-352.386047
 21
134.354019
  0
LINE
  8
0
 10
-347.386047
 20
124.354012
 11
-352.386047
 21
124.354012
  0
LINE
  8
0
 10
-346.886017
 20
139.354019
 11
-352.386047
 21
139.354019
  0
LINE
  8
0
  6
CENTER
 62
     2
 10
-330.886017
 20
184.973770
 11
-330.886017
 21
156.785721
  0
LINE
  8
0
  6
CENTER
 62
     2
 10
-316.753204
 20
170.854004
 11
-343.828125
 21
170.854004
  0
LINE
  8
0
 10
-345.385986
 20
185.854004
 11
-345.385986
 21
140.854004
  0
LINE
  8
0
 10
-305.385986
 20
60.354004
 11
-352.386047
 21
60.354004
  0
LINE
  8
0
 10
-304.885986
 20
127.354004
 11
-304.885986
 21
74.354012
  0
LINE
  8
0
 62
     4
 10
-303.886017
 20
180.854019
 11
-303.886017
 21
159.854034
  0
LINE
  8
0
 62
     4
 10
-272.386047
 20
179.854019
 11
-303.886017
 21
179.854019
  0
LINE
  8
0
 62
     4
 10
-272.386017
 20
179.854019
 11
-272.386017
 21
172.853989
  0
LINE
  8
0
 62
     4
 10
-263.386047
 20
178.854034
 11
-272.386047
 21
178.854034
  0
LINE
  8
0
 62
     4
 10
-272.886047
 20
180.854019
 11
-303.886017
 21
180.854019
  0
LINE
  8
0
 62
     4
 10
-273.885925
 20
182.853989
 11
-274.116150
 21
182.853989
  0
LINE
  8
0
 62
     4
 10
-272.886047
 20
180.854019
 11
-272.886047
 21
179.854019
  0
LINE
  8
0
 62
     4
 10
-272.885895
 20
180.854095
 11
-273.885834
 21
182.853973
  0
LINE
  8
0
 62
     4
 10
-280.385986
 20
182.853989
 11
-280.385986
 21
180.854019
  0
LINE
  8
0
 62
     4
 10
-302.886139
 20
182.854004
 11
-303.886139
 21
180.854004
  0
LINE
  8
0
 62
     4
 10
-279.136047
 20
181.554001
 11
-273.636047
 21
181.554001
  0
LINE
  8
0
 62
     4
 10
-273.636017
 20
181.554001
 11
-273.636017
 21
180.854019
  0
LINE
  8
0
 62
     4
 10
-279.135986
 20
181.554001
 11
-279.135986
 21
180.854019
  0
LINE
  8
0
 62
     4
 10
-277.136017
 20
183.554016
 11
-275.636047
 21
183.554016
  0
LINE
  8
0
 62
     4
 10
-297.136017
 20
183.554016
 11
-295.636017
 21
183.554016
  0
LINE
  8
0
 62
     4
 10
-278.655945
 20
182.853989
 11
-302.886108
 21
182.853989
  0
LINE
  8
0
 62
     4
 10
-295.815063
 20
21.854012
 11
-303.886017
 21
21.854012
  0
LINE
  8
0
 62
     4
 10
-302.885742
 20
18.854078
 11
-303.885773
 21
20.854120
  0
LINE
  8
0
 62
     4
 10
-297.136017
 20
18.154022
 11
-295.636017
 21
18.154022
  0
LINE
  8
0
 62
     4
 10
-293.917450
 20
18.854027
 11
-302.885925
 21
18.854027
  0
LINE
  8
0
 10
-265.085999
 20
172.853989
 11
-265.085999
 21
60.853996
  0
LINE
  8
0
 10
-303.086029
 20
172.853989
 11
-265.085999
 21
172.853989
  0
LINE
  8
0
 10
-303.086029
 20
60.853996
 11
-265.085999
 21
60.853996
  0
LINE
  8
0
 10
-303.086029
 20
172.853989
 11
-303.086029
 21
60.853996
  0
LINE
  8
0
 10
-298.586029
 20
52.853989
 11
-296.585999
 21
52.853989
  0
LINE
  8
0
 10
-298.586029
 20
60.853996
 11
-298.586029
 21
52.853989
  0
LINE
  8
0
 10
-268.586029
 20
60.853996
 11
-268.586029
 21
52.853989
  0
LINE
  8
0
 10
-190.585999
 20
171.853943
 11
-190.585999
 21
61.853973
  0
LINE
  8
0
 10
-263.085999
 20
172.853882
 11
-190.585968
 21
171.853882
  0
LINE
  8
0
 10
-190.585953
 20
61.853954
 11
-263.085968
 21
60.853954
  0
LINE
  8
0
 10
-193.585999
 20
171.599503
 11
-193.585999
 21
162.154007
  0
LINE
  8
0
 10
-193.286011
 20
161.853989
 11
-190.886017
 21
161.853989
  0
LINE
  8
0
 10
-193.585999
 20
71.853989
 11
-190.585999
 21
71.853989
  0
LINE
  8
0
 10
-193.585999
 20
71.853989
 11
-193.585999
 21
61.812592
  0
LINE
  8
0
 10
-191.885986
 20
162.704041
 11
-191.885986
 21
171.004013
  0
LINE
  8
0
 10
-191.886017
 20
162.703995
 11
-193.586014
 21
162.703995
  0
LINE
  8
0
 10
-191.886017
 20
171.003998
 11
-193.586014
 21
171.003998
  0
LINE
  8
0
 10
-191.885986
 20
62.704041
 11
-191.885986
 21
71.004036
  0
LINE
  8
0
 10
-191.885986
 20
62.703995
 11
-193.585968
 21
62.703995
  0
LINE
  8
0
 10
-191.885986
 20
71.003990
 11
-193.585968
 21
71.003990
  0
LINE
  8
0
 10
-296.585999
 20
36.354004
 11
-270.585999
 21
36.354004
  0
LINE
  8
0
 10
-297.085999
 20
50.353989
 11
-270.085968
 21
50.353989
  0
LINE
  8
0
 10
-297.086060
 20
51.853989
 11
-297.086060
 21
45.353989
  0
LINE
  8
0
 10
-270.086060
 20
51.853989
 11
-270.086060
 21
45.353989
  0
LINE
  8
0
 10
-297.085999
 20
45.353989
 11
-270.085968
 21
45.353989
  0
LINE
  8
0
 10
-273.108521
 20
45.353989
 11
-273.108521
 21
36.354004
  0
LINE
  8
0
 10
-294.063538
 20
45.353989
 11
-294.063538
 21
36.353989
  0
LINE
  8
0
 62
     2
 10
-274.270538
 20
45.353989
 11
-274.270538
 21
36.354004
  0
LINE
  8
0
 62
     2
 10
-292.901520
 20
45.353989
 11
-292.901520
 21
36.353989
  0
LINE
  8
0
 10
-296.585999
 20
34.553986
 11
-270.585999
 21
34.553986
  0
LINE
  8
0
 10
-296.586029
 20
36.353989
 11
-296.586029
 21
34.553986
  0
LINE
  8
0
 10
-270.585999
 20
36.354004
 11
-270.585999
 21
34.553986
  0
LINE
  8
0
 10
-270.585999
 20
52.853989
 11
-268.586029
 21
52.853989
  0
LINE
  8
0
 10
-289.770691
 20
50.353989
 11
-289.770691
 21
45.353989
  0
LINE
  8
0
 10
-290.886017
 20
50.353989
 11
-290.886017
 21
45.353989
  0
LINE
  8
0
 10
-277.401367
 20
50.353989
 11
-277.401367
 21
45.353989
  0
LINE
  8
0
 10
-276.286072
 20
50.353989
 11
-276.286072
 21
45.353989
  0
LINE
  8
0
 10
-288.586060
 20
34.553986
 11
-288.586060
 21
25.553963
  0
LINE
  8
0
 10
-291.478363
 20
34.553986
 11
-291.478363
 21
25.553940
  0
LINE
  8
0
 10
-296.574127
 20
34.553986
 11
-296.574127
 21
23.053848
  0
LINE
  8
0
 10
-278.586029
 20
34.553986
 11
-278.586029
 21
25.553986
  0
LINE
  8
0
 10
-275.693726
 20
34.553986
 11
-275.693726
 21
25.553986
  0
LINE
  8
0
 10
-270.597992
 20
34.553986
 11
-270.597992
 21
23.054008
  0
LINE
  8
0
 10
-292.336121
 20
16.354004
 11
-274.835999
 21
16.354004
  0
LINE
  8
0
 10
-296.574188
 20
23.053770
 11
-292.336212
 21
16.353930
  0
LINE
  8
0
 10
-270.598022
 20
23.054037
 11
-274.836060
 21
16.354027
  0
LINE
  8
0
 10
-262.710541
 20
163.703995
 11
-263.086029
 21
163.703995
  0
LINE
  8
0
 10
-262.710541
 20
170.003998
 11
-263.086029
 21
170.003998
  0
LINE
  8
0
 10
-262.710510
 20
170.003998
 11
-262.710510
 21
163.703995
  0
LINE
  8
0
 10
-262.710510
 20
63.704010
 11
-263.085999
 21
63.704010
  0
LINE
  8
0
 10
-262.710510
 20
70.003998
 11
-263.085999
 21
70.003998
  0
LINE
  8
0
 10
-262.710510
 20
70.004021
 11
-262.710510
 21
63.704010
  0
LINE
  8
0
 10
-263.086029
 20
172.853989
 11
-263.086029
 21
60.853996
  0
LINE
  8
0
 10
-265.086029
 20
172.853989
 11
-263.086029
 21
172.853989
  0
LINE
  8
0
 10
-263.085999
 20
60.853996
 11
-265.085999
 21
60.853996
  0
LINE
  8
0
 10
-296.585999
 20
52.854004
 11
-270.585999
 21
52.854004
  0
LINE
  8
0
 10
-297.085999
 20
51.854019
 11
-270.085968
 21
51.854019
  0
LINE
  8
0
 10
-296.585999
 20
52.853989
 11
-296.585999
 21
51.853989
  0
LINE
  8
0
 10
-270.585999
 20
52.853989
 11
-270.585999
 21
51.853989
  0
LINE
  8
0
 10
-305.385986
 20
127.354004
 11
-303.086029
 21
127.354004
  0
LINE
  8
0
 10
-305.385986
 20
74.354012
 11
-303.086029
 21
74.354012
  0
LINE
  8
0
 62
     4
 10
-303.886017
 20
35.854080
 11
-303.886017
 21
20.854019
  0
LINE
  8
0
 10
-318.408539
 20
171.603989
 11
-343.363525
 21
171.603989
  0
LINE
  8
0
 10
-318.408539
 20
170.103989
 11
-343.363525
 21
170.103989
  0
LINE
  8
0
 62
     4
 10
-262.886017
 20
37.854050
 11
-262.886017
 21
22.854012
  0
LINE
  8
0
 62
     4
 10
-263.386047
 20
22.354012
 11
-271.040741
 21
22.354012
  0
LINE
  8
0
 62
     4
 10
-262.386017
 20
34.854004
 11
-262.886017
 21
34.854004
  0
LINE
  8
0
 62
     4
 10
-262.386017
 20
30.853996
 11
-262.886017
 21
30.853996
  0
LINE
  8
0
 62
     4
 10
-262.386017
 20
34.854004
 11
-262.386017
 21
30.853996
  0
LINE
  8
0
 62
     4
 10
-262.886017
 20
178.354050
 11
-262.886017
 21
172.853989
  0
LINE
  8
0
 62
     4
 10
-272.386017
 20
45.353989
 11
-272.386017
 21
36.354004
  0
LINE
  8
0
 10
-291.478363
 20
25.553940
 11
-288.586060
 21
25.553940
  0
LINE
  8
0
 10
-278.586029
 20
25.553986
 11
-275.693726
 21
25.553986
  0
LINE
  8
0
 10
-303.885986
 20
127.354004
 11
-303.885986
 21
74.354012
  0
LINE
  8
0
 10
-303.886017
 20
56.854034
 11
-303.886017
 21
74.354012
  0
LINE
  8
0
 10
-303.886017
 20
159.854034
 11
-303.886017
 21
127.354004
  0
LINE
  8
0
 62
     4
 10
-303.886017
 20
20.854034
 11
-295.182617
 21
20.854034
  0
LINE
  8
0
 62
     4
 10
-262.886017
 20
56.854034
 11
-268.586029
 21
56.854034
  0
LINE
  8
0
 62
     4
 10
-294.063538
 20
36.854050
 11
-303.886017
 21
36.854050
  0
LINE
  8
0
 62
     4
 10
-302.885742
 20
33.854156
 11
-303.885773
 21
35.854198
  0
LINE
  8
0
 62
     4
 10
-297.136017
 20
33.154060
 11
-296.574127
 21
33.154060
  0
LINE
  8
0
 62
     4
 10
-296.574127
 20
33.854065
 11
-302.885925
 21
33.854065
  0
LINE
  8
0
 62
     4
 10
-303.886017
 20
56.854034
 11
-303.886017
 21
35.854065
  0
LINE
  8
0
 62
     4
 10
-298.586029
 20
56.854034
 11
-303.886017
 21
56.854034
  0
LINE
  8
0
 62
     4
 10
-262.886017
 20
56.854034
 11
-262.886017
 21
37.854050
  0
LINE
  8
0
 62
     4
 10
-263.386047
 20
37.354050
 11
-272.386017
 21
37.354050
  0
LINE
  8
0
 62
     4
 10
-262.386017
 20
49.854042
 11
-262.886017
 21
49.854042
  0
LINE
  8
0
 62
     4
 10
-262.386017
 20
45.854034
 11
-262.886017
 21
45.854034
  0
LINE
  8
0
 62
     4
 10
-262.386017
 20
49.854042
 11
-262.386017
 21
45.854034
  0
LINE
  8
0
 62
     4
 10
-303.886017
 20
35.854080
 11
-296.574127
 21
35.854080
  0
LINE
  8
0
  6
CENTER
 62
     2
 10
-355.886047
 20
131.854034
 11
-343.886047
 21
131.854034
  0
LINE
  8
0
  6
CENTER
 62
     2
 10
-355.886047
 20
67.854034
 11
-343.886047
 21
67.854034
  0
LINE
  8
0
 10
340.302979
 20
139.354019
 11
340.302979
 21
60.354012
  0
LINE
  8
0
 10
293.302917
 20
185.854004
 11
333.302917
 21
185.854004
  0
LINE
  8
0
 10
293.302917
 20
185.854004
 11
293.302917
 21
60.354004
  0
LINE
  8
0
  6
CENTER
 62
     2
 10
303.302917
 20
82.337868
 11
303.302917
 21
69.125763
  0
LINE
  8
0
  6
CENTER
 62
     2
 10
308.302917
 20
111.461365
 11
308.302917
 21
91.288025
  0
LINE
  8
0
  6
CENTER
 62
     2
 10
323.302917
 20
124.673492
 11
323.302917
 21
108.620049
  0
LINE
  8
0
  6
CENTER
 62
     2
 10
299.746429
 20
101.854012
 11
316.084015
 21
101.854012
  0
LINE
  8
0
  6
CENTER
 62
     2
 10
296.620972
 20
75.853996
 11
309.406891
 21
75.853996
  0
LINE
  8
0
  6
CENTER
 62
     2
 10
323.302917
 20
94.129341
 11
323.302917
 21
78.360039
  0
LINE
  8
0
  6
CENTER
 62
     2
 10
315.799896
 20
116.854012
 11
331.853302
 21
116.854012
  0
LINE
  8
0
  6
CENTER
 62
     2
 10
315.515717
 20
85.853996
 11
330.858826
 21
85.853996
  0
LINE
  8
0
 10
335.302979
 20
65.354012
 11
340.302979
 21
65.354012
  0
LINE
  8
0
 10
335.302979
 20
70.354012
 11
340.302979
 21
70.354012
  0
LINE
  8
0
 10
335.302979
 20
75.354012
 11
340.302979
 21
75.354012
  0
LINE
  8
0
 10
335.302979
 20
75.354012
 11
335.302979
 21
60.354004
  0
LINE
  8
0
 10
335.302979
 20
139.354019
 11
335.302979
 21
124.354012
  0
LINE
  8
0
 10
335.302979
 20
129.354019
 11
340.302979
 21
129.354019
  0
LINE
  8
0
 10
335.302979
 20
134.354019
 11
340.302979
 21
134.354019
  0
LINE
  8
0
 10
335.302979
 20
124.354012
 11
340.302979
 21
124.354012
  0
LINE
  8
0
 10
334.802948
 20
139.354019
 11
340.302979
 21
139.354019
  0
LINE
  8
0
  6
CENTER
 62
     2
 10
318.802948
 20
184.973770
 11
318.802948
 21
156.785721
  0
LINE
  8
0
  6
CENTER
 62
     2
 10
304.670135
 20
170.854004
 11
331.745056
 21
170.854004
  0
LINE
  8
0
 10
333.302917
 20
185.854004
 11
333.302917
 21
140.854004
  0
LINE
  8
0
 10
293.302917
 20
60.354004
 11
340.302979
 21
60.354004
  0
LINE
  8
0
 10
292.802917
 20
127.354004
 11
292.802917
 21
74.354012
  0
LINE
  8
0
 10
253.002899
 20
144.854034
 11
253.002899
 21
60.853996
  0
LINE
  8
0
 10
256.802948
 20
60.853996
 11
253.002899
 21
60.853996
  0
LINE
  8
0
 10
256.502960
 20
60.853996
 11
256.502960
 21
56.854034
  0
LINE
  8
0
 10
178.502899
 20
171.853943
 11
178.502899
 21
61.853973
  0
LINE
  8
0
 10
250.802933
 20
172.851135
 11
178.502899
 21
171.853882
  0
LINE
  8
0
 10
178.502884
 20
61.853954
 11
251.002914
 21
60.853954
  0
LINE
  8
0
 10
181.502899
 20
171.599503
 11
181.502899
 21
162.154007
  0
LINE
  8
0
 10
181.202911
 20
161.853989
 11
178.802917
 21
161.853989
  0
LINE
  8
0
 10
181.502899
 20
71.853989
 11
178.502899
 21
71.853989
  0
LINE
  8
0
 10
181.502899
 20
71.853989
 11
181.502899
 21
61.812592
  0
LINE
  8
0
 10
179.802887
 20
162.704041
 11
179.802887
 21
171.004013
  0
LINE
  8
0
 10
179.802917
 20
162.703995
 11
181.502914
 21
162.703995
  0
LINE
  8
0
 10
179.802917
 20
171.003998
 11
181.502914
 21
171.003998
  0
LINE
  8
0
 10
179.802887
 20
62.704041
 11
179.802887
 21
71.004036
  0
LINE
  8
0
 10
179.802887
 20
62.703995
 11
181.502869
 21
62.703995
  0
LINE
  8
0
 10
179.802887
 20
71.003990
 11
181.502869
 21
71.003990
  0
LINE
  8
0
 10
280.253052
 20
16.354004
 11
262.752930
 21
16.354004
  0
LINE
  8
0
 10
281.834381
 20
18.854057
 11
280.252991
 21
16.354029
  0
LINE
  8
0
 10
258.641449
 20
22.854050
 11
262.753021
 21
16.354023
  0
LINE
  8
0
 10
251.002930
 20
144.854034
 11
251.002930
 21
60.853996
  0
LINE
  8
0
 10
251.002884
 20
60.853996
 11
253.002899
 21
60.853996
  0
LINE
  8
0
 10
293.302917
 20
127.354004
 11
291.002960
 21
127.354004
  0
LINE
  8
0
 10
293.302917
 20
74.354012
 11
291.002960
 21
74.354012
  0
LINE
  8
0
 10
306.325470
 20
171.603989
 11
331.280457
 21
171.603989
  0
LINE
  8
0
 10
306.325470
 20
170.103989
 11
331.280457
 21
170.103989
  0
LINE
  8
0
 10
291.802917
 20
127.354004
 11
291.802917
 21
74.354012
  0
LINE
  8
0
 10
254.802948
 20
127.354202
 11
254.802948
 21
108.854019
  0
LINE
  8
0
 10
254.802979
 20
74.354034
 11
291.802948
 21
74.354034
  0
LINE
  8
0
 10
254.802979
 20
127.354034
 11
291.802948
 21
127.354034
  0
LINE
  8
0
 10
254.802979
 20
127.354134
 11
253.302979
 21
125.854141
  0
LINE
  8
0
 10
253.302612
 20
75.853844
 11
254.802597
 21
74.353859
  0
LINE
  8
0
 10
253.302948
 20
102.854019
 11
256.302979
 21
102.854019
  0
LINE
  8
0
 10
253.302948
 20
108.854019
 11
256.302979
 21
108.854019
  0
LINE
  8
0
 10
254.802948
 20
102.854019
 11
254.802948
 21
74.353745
  0
LINE
  8
0
 10
253.302948
 20
83.354034
 11
254.802979
 21
83.354034
  0
LINE
  8
0
 10
253.302948
 20
78.354034
 11
254.802979
 21
78.354034
  0
LINE
  8
0
 10
256.302979
 20
127.354034
 11
256.302979
 21
74.354034
  0
LINE
  8
0
 10
256.802948
 20
159.854050
 11
256.802948
 21
41.854034
  0
LINE
  8
0
 10
253.915527
 20
83.104034
 11
254.802948
 21
83.104034
  0
LINE
  8
0
 10
253.915527
 20
78.604034
 11
254.802948
 21
78.604034
  0
LINE
  8
0
 10
253.302948
 20
125.854202
 11
253.302948
 21
82.454025
  0
LINE
  8
0
 10
254.634705
 20
103.103760
 11
256.302979
 21
103.103760
  0
LINE
  8
0
 10
254.634705
 20
108.604019
 11
256.302979
 21
108.604019
  0
LINE
  8
0
 10
255.602966
 20
108.604019
 11
255.602966
 21
103.104034
  0
LINE
  8
0
 10
253.602966
 20
106.854034
 11
253.602966
 21
104.854019
  0
LINE
  8
0
 10
253.102966
 20
81.654037
 11
253.102966
 21
80.054031
  0
LINE
  8
0
 10
291.802948
 20
159.854034
 11
291.802948
 21
41.854034
  0
LINE
  8
0
 62
     4
 10
287.802948
 20
127.354019
 11
291.802948
 21
127.354019
  0
LINE
  8
0
 62
     4
 10
287.802948
 20
74.354034
 11
291.802948
 21
74.354034
  0
LINE
  8
0
 62
     4
 10
287.802948
 20
127.354019
 11
287.802948
 21
74.354034
  0
LINE
  8
0
 62
     4
 10
285.931122
 20
116.654022
 11
287.102966
 21
116.654022
  0
LINE
  8
0
 62
     4
 10
285.931122
 20
111.054016
 11
287.102966
 21
111.054016
  0
LINE
  8
0
 62
     4
 10
287.102966
 20
116.654022
 11
287.102966
 21
111.054016
  0
LINE
  8
0
 62
     4
 10
287.802948
 20
110.904022
 11
287.102966
 21
110.904022
  0
LINE
  8
0
 62
     4
 10
287.102966
 20
110.904022
 11
287.102966
 21
116.804016
  0
LINE
  8
0
 62
     4
 10
287.802948
 20
116.804016
 11
287.102966
 21
116.804016
  0
LINE
  8
0
 62
     4
 10
285.931122
 20
108.654022
 11
287.102966
 21
108.654022
  0
LINE
  8
0
 62
     4
 10
285.931122
 20
103.054016
 11
287.102966
 21
103.054016
  0
LINE
  8
0
 62
     4
 10
287.102966
 20
108.654022
 11
287.102966
 21
103.054016
  0
LINE
  8
0
 62
     4
 10
287.802948
 20
102.904022
 11
287.102966
 21
102.904022
  0
LINE
  8
0
 62
     4
 10
287.102966
 20
102.904022
 11
287.102966
 21
108.804016
  0
LINE
  8
0
 62
     4
 10
287.802948
 20
108.804016
 11
287.102966
 21
108.804016
  0
LINE
  8
0
 62
     4
 10
285.931122
 20
90.654022
 11
287.102966
 21
90.654022
  0
LINE
  8
0
 62
     4
 10
285.931122
 20
85.054016
 11
287.102966
 21
85.054016
  0
LINE
  8
0
 62
     4
 10
287.102966
 20
90.654022
 11
287.102966
 21
85.054016
  0
LINE
  8
0
 62
     4
 10
287.802948
 20
84.904022
 11
287.102966
 21
84.904022
  0
LINE
  8
0
 62
     4
 10
287.102966
 20
84.904022
 11
287.102966
 21
90.804016
  0
LINE
  8
0
 62
     4
 10
287.802948
 20
90.804016
 11
287.102966
 21
90.804016
  0
LINE
  8
0
 10
253.302948
 20
79.254044
 11
253.302948
 21
75.854034
  0
LINE
  8
0
 62
     4
 10
291.802948
 20
20.854019
 11
291.802948
 21
41.854034
  0
LINE
  8
0
 62
     4
 10
250.802948
 20
56.854034
 11
256.802948
 21
56.854034
  0
LINE
  8
0
 62
     4
 10
260.802948
 20
21.854034
 11
291.802979
 21
21.854034
  0
LINE
  8
0
 62
     4
 10
251.302979
 20
22.854050
 11
260.802948
 21
22.854050
  0
LINE
  8
0
 62
     4
 10
260.802979
 20
20.854050
 11
291.802979
 21
20.854050
  0
LINE
  8
0
 62
     4
 10
260.802948
 20
20.854004
 11
260.802948
 21
41.854034
  0
LINE
  8
0
 62
     4
 10
260.802887
 20
20.854010
 11
261.802917
 21
18.853994
  0
LINE
  8
0
 62
     4
 10
268.302856
 20
18.854034
 11
268.302856
 21
20.854050
  0
LINE
  8
0
 62
     4
 10
290.802856
 20
18.854019
 11
291.802887
 21
20.854088
  0
LINE
  8
0
 62
     4
 10
267.052917
 20
20.154022
 11
261.552917
 21
20.154022
  0
LINE
  8
0
 62
     4
 10
261.552887
 20
20.154007
 11
261.552887
 21
20.854050
  0
LINE
  8
0
 62
     4
 10
267.052856
 20
20.154007
 11
267.052856
 21
20.854050
  0
LINE
  8
0
 62
     4
 10
265.052917
 20
18.154037
 11
263.552917
 21
18.154037
  0
LINE
  8
0
 62
     4
 10
285.052917
 20
18.154037
 11
283.552917
 21
18.154037
  0
LINE
  8
0
 62
     4
 10
266.572754
 20
18.854034
 11
290.802856
 21
18.854034
  0
LINE
  8
0
 62
     4
 10
250.802948
 20
41.854034
 11
250.802948
 21
56.854034
  0
LINE
  8
0
 62
     4
 10
262.033020
 20
18.854034
 11
261.802917
 21
18.854034
  0
LINE
  8
0
 62
     4
 10
282.033051
 20
182.854034
 11
261.802948
 21
182.854034
  0
LINE
  8
0
 62
     4
 10
250.802948
 20
144.854034
 11
256.802948
 21
144.854034
  0
LINE
  8
0
 62
     4
 10
260.802948
 20
179.854034
 11
291.802979
 21
179.854034
  0
LINE
  8
0
 62
     4
 10
251.302979
 20
178.854034
 11
260.802948
 21
178.854034
  0
LINE
  8
0
 62
     4
 10
260.802979
 20
180.854034
 11
291.802979
 21
180.854034
  0
LINE
  8
0
 62
     4
 10
260.802979
 20
180.854050
 11
261.802948
 21
182.854019
  0
LINE
  8
0
 62
     4
 10
280.302979
 20
182.854034
 11
280.302979
 21
180.854019
  0
LINE
  8
0
 62
     4
 10
290.802765
 20
182.854019
 11
291.802795
 21
180.853943
  0
LINE
  8
0
 62
     4
 10
281.552917
 20
181.554047
 11
287.052917
 21
181.554047
  0
LINE
  8
0
 62
     4
 10
287.052948
 20
181.554062
 11
287.052948
 21
180.854019
  0
LINE
  8
0
 62
     4
 10
281.552979
 20
181.554062
 11
281.552979
 21
180.854019
  0
LINE
  8
0
 62
     4
 10
283.552917
 20
183.554047
 11
285.052917
 21
183.554047
  0
LINE
  8
0
 62
     4
 10
263.552917
 20
183.554047
 11
265.052917
 21
183.554047
  0
LINE
  8
0
 62
     4
 10
290.802826
 20
182.854034
 11
286.572815
 21
182.854034
  0
LINE
  8
0
 62
     4
 10
250.802948
 20
159.854034
 11
250.802948
 21
144.854034
  0
LINE
  8
0
 62
     4
 10
288.302979
 20
182.854034
 11
288.302979
 21
180.854019
  0
LINE
  8
0
 62
     4
 10
250.802948
 20
159.854034
 11
291.802948
 21
159.854034
  0
LINE
  8
0
 62
     4
 10
250.802948
 20
178.354050
 11
250.802948
 21
159.854034
  0
LINE
  8
0
 62
     4
 10
250.302948
 20
155.854034
 11
250.302948
 21
151.854034
  0
LINE
  8
0
 62
     4
 10
260.802948
 20
180.854065
 11
260.802948
 21
159.854034
  0
LINE
  8
0
 62
     4
 10
291.802948
 20
180.854065
 11
291.802948
 21
159.854034
  0
LINE
  8
0
 62
     4
 10
250.802948
 20
23.354019
 11
250.802948
 21
41.854034
  0
LINE
  8
0
 62
     4
 10
250.802948
 20
41.854034
 11
291.802948
 21
41.854034
  0
LINE
  8
0
 62
     4
 10
250.302948
 20
45.854034
 11
250.302948
 21
49.854034
  0
LINE
  8
0
 62
     4
 10
250.302948
 20
155.854034
 11
250.802948
 21
155.854034
  0
LINE
  8
0
 62
     4
 10
250.302948
 20
151.854034
 11
250.802948
 21
151.854034
  0
LINE
  8
0
 62
     4
 10
250.302948
 20
49.854034
 11
250.802948
 21
49.854034
  0
LINE
  8
0
 62
     4
 10
250.302948
 20
45.854034
 11
250.802948
 21
45.854034
  0
LINE
  8
0
 62
     4
 10
250.302948
 20
170.854034
 11
250.302948
 21
166.854034
  0
LINE
  8
0
 62
     4
 10
250.302948
 20
170.854034
 11
250.802948
 21
170.854034
  0
LINE
  8
0
 62
     4
 10
250.302948
 20
166.854034
 11
250.802948
 21
166.854034
  0
LINE
  8
0
 62
     4
 10
250.302948
 20
30.853996
 11
250.802948
 21
30.853996
  0
LINE
  8
0
 62
     4
 10
250.302948
 20
30.853996
 11
250.302948
 21
34.854004
  0
LINE
  8
0
 62
     4
 10
250.302948
 20
34.854004
 11
250.802948
 21
34.854004
  0
LINE
  8
0
  6
CENTER
 62
     2
 10
331.802979
 20
131.854034
 11
343.802979
 21
131.854034
  0
LINE
  8
0
  6
CENTER
 62
     2
 10
331.802979
 20
67.854034
 11
343.802979
 21
67.854034
  0
LINE
  8
0
 10
-113.921700
 20
-134.145966
 11
-85.921700
 21
-134.145966
  0
LINE
  8
0
 10
-113.921700
 20
-135.145966
 11
-85.921700
 21
-135.145966
  0
LINE
  8
0
 10
-85.921684
 20
-134.145966
 11
-85.921684
 21
-149.745972
  0
LINE
  8
0
  6
CENTER
 62
     2
 10
-111.535713
 20
-142.645966
 11
-94.904427
 21
-142.645966
  0
LINE
  8
0
  6
CENTER
 62
     2
 10
-103.921684
 20
-135.170105
 11
-103.921684
 21
-151.336838
  0
LINE
  8
0
  6
CENTER
 62
     2
 10
-108.457832
 20
-168.645966
 11
-93.231987
 21
-168.645966
  0
LINE
  8
0
  6
CENTER
 62
     2
 10
-100.921684
 20
-160.535156
 11
-100.921684
 21
-176.423126
  0
LINE
  8
0
 10
-113.921700
 20
-180.145966
 11
-85.921700
 21
-180.145966
  0
LINE
  8
0
 10
-113.921700
 20
-179.645966
 11
-85.921700
 21
-179.645966
  0
LINE
  8
0
 10
-82.521690
 20
-149.745972
 11
-82.521690
 21
-160.545959
  0
LINE
  8
0
 10
-95.421669
 20
-160.045959
 11
-86.421684
 21
-160.045959
  0
LINE
  8
0
 10
-95.421669
 20
-150.245972
 11
-86.421684
 21
-150.245972
  0
LINE
  8
0
 10
-99.321693
 20
-149.745972
 11
-99.321693
 21
-160.545959
  0
LINE
  8
0
 10
-95.421700
 20
-158.945969
 11
-86.421684
 21
-158.945969
  0
LINE
  8
0
 10
-95.421700
 20
-151.345963
 11
-86.421684
 21
-151.345963
  0
LINE
  8
0
 10
-88.421684
 20
-150.245972
 11
-88.421684
 21
-151.345963
  0
LINE
  8
0
 10
-93.421684
 20
-158.945969
 11
-93.421684
 21
-160.045959
  0
LINE
  8
0
 10
-93.421684
 20
-150.245972
 11
-93.421684
 21
-151.345963
  0
LINE
  8
0
 10
-88.421684
 20
-158.945969
 11
-88.421684
 21
-160.045959
  0
LINE
  8
0
 10
-86.421684
 20
-150.245972
 11
-86.421684
 21
-151.345963
  0
LINE
  8
0
 10
-95.421669
 20
-150.245972
 11
-95.421669
 21
-151.345963
  0
LINE
  8
0
 10
-95.421669
 20
-158.945969
 11
-95.421669
 21
-160.045959
  0
LINE
  8
0
 10
-86.421684
 20
-158.945969
 11
-86.421684
 21
-160.045959
  0
LINE
  8
0
 10
-89.381706
 20
-154.214081
 11
-89.381706
 21
-156.077850
  0
LINE
  8
0
 10
-92.461693
 20
-154.214081
 11
-92.461693
 21
-156.077850
  0
LINE
  8
0
 10
-92.461670
 20
-154.214127
 11
-90.921677
 21
-153.325012
  0
LINE
  8
0
 10
-90.921692
 20
-156.967026
 11
-89.381676
 21
-156.077896
  0
LINE
  8
0
 10
-92.461708
 20
-156.077896
 11
-90.921715
 21
-156.967010
  0
LINE
  8
0
 10
-90.921722
 20
-153.324997
 11
-89.381729
 21
-154.214111
  0
LINE
  8
0
 10
-82.314529
 20
-160.545990
 11
-80.421669
 21
-158.653137
  0
LINE
  8
0
 10
-80.421684
 20
-151.638855
 11
-80.421684
 21
-158.653076
  0
LINE
  8
0
 10
-82.314598
 20
-149.746017
 11
-80.421715
 21
-151.638885
  0
LINE
  8
0
 10
-101.421700
 20
-151.638855
 11
-101.421700
 21
-158.653076
  0
LINE
  8
0
 10
-101.421677
 20
-151.638916
 11
-99.528770
 21
-149.746017
  0
LINE
  8
0
 10
-99.528816
 20
-149.745972
 11
-82.314560
 21
-149.745972
  0
LINE
  8
0
 10
-99.528816
 20
-160.545959
 11
-82.314537
 21
-160.545959
  0
LINE
  8
0
 10
-101.421707
 20
-158.653107
 11
-99.528816
 21
-160.546005
  0
LINE
  8
0
 10
-99.921684
 20
-162.275757
 11
-99.921684
 21
-174.333282
  0
LINE
  8
0
 10
-85.921684
 20
-160.545959
 11
-85.921684
 21
-180.145966
  0
LINE
  8
0
  6
CENTER
 62
     2
 10
-99.921700
 20
-131.145966
 11
-99.921700
 21
-183.145966
  0
LINE
  8
0
 10
-111.921700
 20
-133.645966
 11
-87.921700
 21
-133.645966
  0
LINE
  8
0
 10
-111.921700
 20
-133.645966
 11
-111.921700
 21
-134.145966
  0
LINE
  8
0
 10
-87.921700
 20
-133.645966
 11
-87.921700
 21
-134.145966
  0
LINE
  8
0
 10
-57.921722
 20
-134.145966
 11
-29.921722
 21
-134.145966
  0
LINE
  8
0
 10
-57.921722
 20
-135.145966
 11
-29.921722
 21
-135.145966
  0
LINE
  8
0
 10
-29.921707
 20
-134.145966
 11
-29.921707
 21
-149.745972
  0
LINE
  8
0
  6
CENTER
 62
     2
 10
-55.535736
 20
-142.645966
 11
-38.904449
 21
-142.645966
  0
LINE
  8
0
  6
CENTER
 62
     2
 10
-47.921707
 20
-135.170105
 11
-47.921707
 21
-151.336838
  0
LINE
  8
0
  6
CENTER
 62
     2
 10
-52.457855
 20
-168.645966
 11
-37.232010
 21
-168.645966
  0
LINE
  8
0
  6
CENTER
 62
     2
 10
-44.921707
 20
-160.535156
 11
-44.921707
 21
-176.423126
  0
LINE
  8
0
 10
-57.921722
 20
-180.145966
 11
-29.921722
 21
-180.145966
  0
LINE
  8
0
 10
-57.921722
 20
-179.645966
 11
-29.921722
 21
-179.645966
  0
LINE
  8
0
 10
-26.521713
 20
-149.745972
 11
-26.521713
 21
-160.545959
  0
LINE
  8
0
 10
-39.421692
 20
-160.045959
 11
-30.421707
 21
-160.045959
  0
LINE
  8
0
 10
-39.421692
 20
-150.245972
 11
-30.421707
 21
-150.245972
  0
LINE
  8
0
 10
-43.321716
 20
-149.745972
 11
-43.321716
 21
-160.545959
  0
LINE
  8
0
 10
-39.421722
 20
-158.945969
 11
-30.421707
 21
-158.945969
  0
LINE
  8
0
 10
-39.421722
 20
-151.345963
 11
-30.421707
 21
-151.345963
  0
LINE
  8
0
 10
-32.421707
 20
-150.245972
 11
-32.421707
 21
-151.345963
  0
LINE
  8
0
 10
-37.421707
 20
-158.945969
 11
-37.421707
 21
-160.045959
  0
LINE
  8
0
 10
-37.421707
 20
-150.245972
 11
-37.421707
 21
-151.345963
  0
LINE
  8
0
 10
-32.421707
 20
-158.945969
 11
-32.421707
 21
-160.045959
  0
LINE
  8
0
 10
-30.421707
 20
-150.245972
 11
-30.421707
 21
-151.345963
  0
LINE
  8
0
 10
-39.421692
 20
-150.245972
 11
-39.421692
 21
-151.345963
  0
LINE
  8
0
 10
-39.421692
 20
-158.945969
 11
-39.421692
 21
-160.045959
  0
LINE
  8
0
 10
-30.421707
 20
-158.945969
 11
-30.421707
 21
-160.045959
  0
LINE
  8
0
 10
-33.381729
 20
-154.214081
 11
-33.381729
 21
-156.077850
  0
LINE
  8
0
 10
-36.461716
 20
-154.214081
 11
-36.461716
 21
-156.077850
  0
LINE
  8
0
 10
-36.461723
 20
-154.214127
 11
-34.921730
 21
-153.325012
  0
LINE
  8
0
 10
-34.921703
 20
-156.967041
 11
-33.381699
 21
-156.077927
  0
LINE
  8
0
 10
-36.461712
 20
-156.077866
 11
-34.921722
 21
-156.966980
  0
LINE
  8
0
 10
-34.921738
 20
-153.324982
 11
-33.381744
 21
-154.214096
  0
LINE
  8
0
 10
-26.314552
 20
-160.546021
 11
-24.421669
 21
-158.653137
  0
LINE
  8
0
 10
-24.421707
 20
-151.638855
 11
-24.421707
 21
-158.653076
  0
LINE
  8
0
 10
-26.314592
 20
-149.746002
 11
-24.421709
 21
-151.638885
  0
LINE
  8
0
 10
-45.421722
 20
-151.638855
 11
-45.421722
 21
-158.653076
  0
LINE
  8
0
 10
-45.421688
 20
-151.638931
 11
-43.528793
 21
-149.746048
  0
LINE
  8
0
 10
-43.528839
 20
-149.745972
 11
-26.314583
 21
-149.745972
  0
LINE
  8
0
 10
-43.528839
 20
-160.545959
 11
-26.314560
 21
-160.545959
  0
LINE
  8
0
 10
-45.421715
 20
-158.653122
 11
-43.528824
 21
-160.546021
  0
LINE
  8
0
 10
-43.921707
 20
-162.275757
 11
-43.921707
 21
-174.333282
  0
LINE
  8
0
 10
-29.921707
 20
-160.545959
 11
-29.921707
 21
-180.145966
  0
LINE
  8
0
  6
CENTER
 62
     2
 10
-43.921722
 20
-131.145966
 11
-43.921722
 21
-183.145966
  0
LINE
  8
0
 10
-55.921722
 20
-133.645966
 11
-31.921722
 21
-133.645966
  0
LINE
  8
0
 10
-55.921722
 20
-133.645966
 11
-55.921722
 21
-134.145966
  0
LINE
  8
0
 10
-31.921722
 20
-133.645966
 11
-31.921722
 21
-134.145966
  0
LINE
  8
0
 10
-85.921707
 20
-134.145966
 11
-57.921707
 21
-134.145966
  0
LINE
  8
0
 10
-85.921707
 20
-135.145966
 11
-57.921707
 21
-135.145966
  0
LINE
  8
0
 10
-57.921692
 20
-134.145966
 11
-57.921692
 21
-149.745972
  0
LINE
  8
0
  6
CENTER
 62
     2
 10
-83.535721
 20
-142.645966
 11
-66.904434
 21
-142.645966
  0
LINE
  8
0
  6
CENTER
 62
     2
 10
-75.921692
 20
-135.170105
 11
-75.921692
 21
-151.336838
  0
LINE
  8
0
  6
CENTER
 62
     2
 10
-80.457840
 20
-168.645966
 11
-65.231995
 21
-168.645966
  0
LINE
  8
0
  6
CENTER
 62
     2
 10
-72.921692
 20
-160.535156
 11
-72.921692
 21
-176.423126
  0
LINE
  8
0
 10
-85.921707
 20
-180.145966
 11
-57.921707
 21
-180.145966
  0
LINE
  8
0
 10
-85.921707
 20
-179.645966
 11
-57.921707
 21
-179.645966
  0
LINE
  8
0
 10
-54.521698
 20
-149.745972
 11
-54.521698
 21
-160.545959
  0
LINE
  8
0
 10
-67.421677
 20
-160.045959
 11
-58.421692
 21
-160.045959
  0
LINE
  8
0
 10
-67.421677
 20
-150.245972
 11
-58.421692
 21
-150.245972
  0
LINE
  8
0
 10
-71.321701
 20
-149.745972
 11
-71.321701
 21
-160.545959
  0
LINE
  8
0
 10
-67.421707
 20
-158.945969
 11
-58.421692
 21
-158.945969
  0
LINE
  8
0
 10
-67.421707
 20
-151.345963
 11
-58.421692
 21
-151.345963
  0
LINE
  8
0
 10
-60.421692
 20
-150.245972
 11
-60.421692
 21
-151.345963
  0
LINE
  8
0
 10
-65.421692
 20
-158.945969
 11
-65.421692
 21
-160.045959
  0
LINE
  8
0
 10
-65.421692
 20
-150.245972
 11
-65.421692
 21
-151.345963
  0
LINE
  8
0
 10
-60.421692
 20
-158.945969
 11
-60.421692
 21
-160.045959
  0
LINE
  8
0
 10
-58.421692
 20
-150.245972
 11
-58.421692
 21
-151.345963
  0
LINE
  8
0
 10
-67.421677
 20
-150.245972
 11
-67.421677
 21
-151.345963
  0
LINE
  8
0
 10
-67.421677
 20
-158.945969
 11
-67.421677
 21
-160.045959
  0
LINE
  8
0
 10
-58.421692
 20
-158.945969
 11
-58.421692
 21
-160.045959
  0
LINE
  8
0
 10
-61.381714
 20
-154.214081
 11
-61.381714
 21
-156.077850
  0
LINE
  8
0
 10
-64.461700
 20
-154.214081
 11
-64.461700
 21
-156.077850
  0
LINE
  8
0
 10
-64.461693
 20
-154.214142
 11
-62.921677
 21
-153.325012
  0
LINE
  8
0
 10
-62.921692
 20
-156.967010
 11
-61.381672
 21
-156.077881
  0
LINE
  8
0
 10
-64.461693
 20
-156.077881
 11
-62.921703
 21
-156.966995
  0
LINE
  8
0
 10
-62.921715
 20
-153.324966
 11
-61.381725
 21
-154.214081
  0
LINE
  8
0
 10
-54.314529
 20
-160.545990
 11
-52.421669
 21
-158.653122
  0
LINE
  8
0
 10
-52.421692
 20
-151.638855
 11
-52.421692
 21
-158.653076
  0
LINE
  8
0
 10
-54.314587
 20
-149.745987
 11
-52.421703
 21
-151.638870
  0
LINE
  8
0
 10
-73.421707
 20
-151.638855
 11
-73.421707
 21
-158.653076
  0
LINE
  8
0
 10
-73.421669
 20
-151.638947
 11
-71.528778
 21
-149.746048
  0
LINE
  8
0
 10
-71.528824
 20
-149.745972
 11
-54.314560
 21
-149.745972
  0
LINE
  8
0
 10
-71.528824
 20
-160.545959
 11
-54.314545
 21
-160.545959
  0
LINE
  8
0
 10
-73.421707
 20
-158.653122
 11
-71.528824
 21
-160.546005
  0
LINE
  8
0
 10
-71.921692
 20
-162.275757
 11
-71.921692
 21
-174.333282
  0
LINE
  8
0
 10
-57.921692
 20
-160.545959
 11
-57.921692
 21
-180.145966
  0
LINE
  8
0
  6
CENTER
 62
     2
 10
-71.921707
 20
-131.145966
 11
-71.921707
 21
-183.145966
  0
LINE
  8
0
 10
-83.921707
 20
-133.645966
 11
-59.921707
 21
-133.645966
  0
LINE
  8
0
 10
-83.921707
 20
-133.645966
 11
-83.921707
 21
-134.145966
  0
LINE
  8
0
 10
-59.921707
 20
-133.645966
 11
-59.921707
 21
-134.145966
  0
LINE
  8
0
 10
-29.921722
 20
-134.145966
 11
-1.921722
 21
-134.145966
  0
LINE
  8
0
 10
-29.921722
 20
-135.145966
 11
-1.921722
 21
-135.145966
  0
LINE
  8
0
 10
-1.921707
 20
-134.145966
 11
-1.921707
 21
-149.745972
  0
LINE
  8
0
  6
CENTER
 62
     2
 10
-27.535736
 20
-142.645966
 11
-10.904449
 21
-142.645966
  0
LINE
  8
0
  6
CENTER
 62
     2
 10
-19.921707
 20
-135.170105
 11
-19.921707
 21
-151.336838
  0
LINE
  8
0
  6
CENTER
 62
     2
 10
-24.457855
 20
-168.645966
 11
-9.232010
 21
-168.645966
  0
LINE
  8
0
  6
CENTER
 62
     2
 10
-16.921707
 20
-160.535156
 11
-16.921707
 21
-176.423126
  0
LINE
  8
0
 10
-29.921722
 20
-180.145966
 11
-1.921722
 21
-180.145966
  0
LINE
  8
0
 10
-29.921722
 20
-179.645966
 11
-1.921722
 21
-179.645966
  0
LINE
  8
0
 10
1.478287
 20
-149.745972
 11
1.478287
 21
-160.545959
  0
LINE
  8
0
 10
-11.421692
 20
-160.045959
 11
-2.421707
 21
-160.045959
  0
LINE
  8
0
 10
-11.421692
 20
-150.245972
 11
-2.421707
 21
-150.245972
  0
LINE
  8
0
 10
-15.321716
 20
-149.745972
 11
-15.321716
 21
-160.545959
  0
LINE
  8
0
 10
-11.421722
 20
-158.945969
 11
-2.421707
 21
-158.945969
  0
LINE
  8
0
 10
-11.421722
 20
-151.345963
 11
-2.421707
 21
-151.345963
  0
LINE
  8
0
 10
-4.421707
 20
-150.245972
 11
-4.421707
 21
-151.345963
  0
LINE
  8
0
 10
-9.421707
 20
-158.945969
 11
-9.421707
 21
-160.045959
  0
LINE
  8
0
 10
-9.421707
 20
-150.245972
 11
-9.421707
 21
-151.345963
  0
LINE
  8
0
 10
-4.421707
 20
-158.945969
 11
-4.421707
 21
-160.045959
  0
LINE
  8
0
 10
-2.421707
 20
-150.245972
 11
-2.421707
 21
-151.345963
  0
LINE
  8
0
 10
-11.421692
 20
-150.245972
 11
-11.421692
 21
-151.345963
  0
LINE
  8
0
 10
-11.421692
 20
-158.945969
 11
-11.421692
 21
-160.045959
  0
LINE
  8
0
 10
-2.421707
 20
-158.945969
 11
-2.421707
 21
-160.045959
  0
LINE
  8
0
 10
-5.381729
 20
-154.214081
 11
-5.381729
 21
-156.077850
  0
LINE
  8
0
 10
-8.461716
 20
-154.214081
 11
-8.461716
 21
-156.077850
  0
LINE
  8
0
 10
-8.461710
 20
-154.214111
 11
-6.921718
 21
-153.324997
  0
LINE
  8
0
 10
-6.921708
 20
-156.967026
 11
-5.381704
 21
-156.077896
  0
LINE
  8
0
 10
-8.461679
 20
-156.077866
 11
-6.921688
 21
-156.966980
  0
LINE
  8
0
 10
-6.921721
 20
-153.324997
 11
-5.381730
 21
-154.214111
  0
LINE
  8
0
 10
1.685495
 20
-160.546005
 11
3.578362
 21
-158.653137
  0
LINE
  8
0
 10
3.578293
 20
-151.638855
 11
3.578293
 21
-158.653076
  0
LINE
  8
0
 10
1.685433
 20
-149.745987
 11
3.578316
 21
-151.638870
  0
LINE
  8
0
 10
-17.421722
 20
-151.638855
 11
-17.421722
 21
-158.653076
  0
LINE
  8
0
 10
-17.421677
 20
-151.638947
 11
-15.528783
 21
-149.746048
  0
LINE
  8
0
 10
-15.528839
 20
-149.745972
 11
1.685425
 21
-149.745972
  0
LINE
  8
0
 10
-15.528839
 20
-160.545959
 11
1.685440
 21
-160.545959
  0
LINE
  8
0
 10
-17.421719
 20
-158.653107
 11
-15.528824
 21
-160.546005
  0
LINE
  8
0
 10
-15.921707
 20
-162.275757
 11
-15.921707
 21
-174.333282
  0
LINE
  8
0
 10
-1.921707
 20
-160.545959
 11
-1.921707
 21
-180.145966
  0
LINE
  8
0
  6
CENTER
 62
     2
 10
-15.921722
 20
-131.145966
 11
-15.921722
 21
-183.145966
  0
LINE
  8
0
 10
-27.921722
 20
-133.645966
 11
-3.921722
 21
-133.645966
  0
LINE
  8
0
 10
-27.921722
 20
-133.645966
 11
-27.921722
 21
-134.145966
  0
LINE
  8
0
 10
-3.921722
 20
-133.645966
 11
-3.921722
 21
-134.145966
  0
LINE
  8
0
 10
-1.921722
 20
-134.145966
 11
26.078278
 21
-134.145966
  0
LINE
  8
0
 10
-1.921722
 20
-135.145966
 11
26.078278
 21
-135.145966
  0
LINE
  8
0
 10
26.078293
 20
-134.145966
 11
26.078293
 21
-149.745972
  0
LINE
  8
0
  6
CENTER
 62
     2
 10
0.464264
 20
-142.645966
 11
17.095551
 21
-142.645966
  0
LINE
  8
0
  6
CENTER
 62
     2
 10
8.078293
 20
-135.170105
 11
8.078293
 21
-151.336838
  0
LINE
  8
0
  6
CENTER
 62
     2
 10
3.542145
 20
-168.645966
 11
18.767990
 21
-168.645966
  0
LINE
  8
0
  6
CENTER
 62
     2
 10
11.078293
 20
-160.535156
 11
11.078293
 21
-176.423126
  0
LINE
  8
0
 10
-1.921722
 20
-180.145966
 11
26.078278
 21
-180.145966
  0
LINE
  8
0
 10
-1.921722
 20
-179.645966
 11
26.078278
 21
-179.645966
  0
LINE
  8
0
 10
29.478287
 20
-149.745972
 11
29.478287
 21
-160.545959
  0
LINE
  8
0
 10
16.578308
 20
-160.045959
 11
25.578293
 21
-160.045959
  0
LINE
  8
0
 10
16.578308
 20
-150.245972
 11
25.578293
 21
-150.245972
  0
LINE
  8
0
 10
12.678284
 20
-149.745972
 11
12.678284
 21
-160.545959
  0
LINE
  8
0
 10
16.578278
 20
-158.945969
 11
25.578293
 21
-158.945969
  0
LINE
  8
0
 10
16.578278
 20
-151.345963
 11
25.578293
 21
-151.345963
  0
LINE
  8
0
 10
23.578293
 20
-150.245972
 11
23.578293
 21
-151.345963
  0
LINE
  8
0
 10
18.578293
 20
-158.945969
 11
18.578293
 21
-160.045959
  0
LINE
  8
0
 10
18.578293
 20
-150.245972
 11
18.578293
 21
-151.345963
  0
LINE
  8
0
 10
23.578293
 20
-158.945969
 11
23.578293
 21
-160.045959
  0
LINE
  8
0
 10
25.578293
 20
-150.245972
 11
25.578293
 21
-151.345963
  0
LINE
  8
0
 10
16.578308
 20
-150.245972
 11
16.578308
 21
-151.345963
  0
LINE
  8
0
 10
16.578308
 20
-158.945969
 11
16.578308
 21
-160.045959
  0
LINE
  8
0
 10
25.578293
 20
-158.945969
 11
25.578293
 21
-160.045959
  0
LINE
  8
0
 10
22.618271
 20
-154.214081
 11
22.618271
 21
-156.077850
  0
LINE
  8
0
 10
19.538284
 20
-154.214081
 11
19.538284
 21
-156.077850
  0
LINE
  8
0
 10
19.538305
 20
-154.214127
 11
21.078297
 21
-153.325012
  0
LINE
  8
0
 10
21.078300
 20
-156.967056
 11
22.618305
 21
-156.077927
  0
LINE
  8
0
 10
19.538292
 20
-156.077881
 11
21.078283
 21
-156.966995
  0
LINE
  8
0
 10
21.078287
 20
-153.324982
 11
22.618277
 21
-154.214096
  0
LINE
  8
0
 10
29.685488
 20
-160.545975
 11
31.578350
 21
-158.653122
  0
LINE
  8
0
 10
31.578293
 20
-151.638855
 11
31.578293
 21
-158.653076
  0
LINE
  8
0
 10
29.685431
 20
-149.745987
 11
31.578314
 21
-151.638870
  0
LINE
  8
0
 10
10.578278
 20
-151.638855
 11
10.578278
 21
-158.653076
  0
LINE
  8
0
 10
10.578327
 20
-151.638962
 11
12.471221
 21
-149.746063
  0
LINE
  8
0
 10
12.471161
 20
-149.745972
 11
29.685425
 21
-149.745972
  0
LINE
  8
0
 10
12.471161
 20
-160.545959
 11
29.685440
 21
-160.545959
  0
LINE
  8
0
 10
10.578313
 20
-158.653091
 11
12.471212
 21
-160.545990
  0
LINE
  8
0
 10
12.078293
 20
-162.275757
 11
12.078293
 21
-174.333282
  0
LINE
  8
0
 10
26.078293
 20
-160.545959
 11
26.078293
 21
-180.145966
  0
LINE
  8
0
  6
CENTER
 62
     2
 10
12.078278
 20
-131.145966
 11
12.078278
 21
-183.145966
  0
LINE
  8
0
 10
0.078278
 20
-133.645966
 11
24.078278
 21
-133.645966
  0
LINE
  8
0
 10
0.078278
 20
-133.645966
 11
0.078278
 21
-134.145966
  0
LINE
  8
0
 10
24.078278
 20
-133.645966
 11
24.078278
 21
-134.145966
  0
LINE
  8
0
 10
54.078278
 20
-134.145966
 11
82.078278
 21
-134.145966
  0
LINE
  8
0
 10
54.078278
 20
-135.145966
 11
82.078278
 21
-135.145966
  0
LINE
  8
0
 10
82.078293
 20
-134.145966
 11
82.078293
 21
-149.745972
  0
LINE
  8
0
  6
CENTER
 62
     2
 10
56.464264
 20
-142.645966
 11
73.095551
 21
-142.645966
  0
LINE
  8
0
  6
CENTER
 62
     2
 10
64.078293
 20
-135.170105
 11
64.078293
 21
-151.336838
  0
LINE
  8
0
  6
CENTER
 62
     2
 10
59.542145
 20
-168.645966
 11
74.767990
 21
-168.645966
  0
LINE
  8
0
  6
CENTER
 62
     2
 10
67.078293
 20
-160.535156
 11
67.078293
 21
-176.423126
  0
LINE
  8
0
 10
54.078278
 20
-180.145966
 11
82.078278
 21
-180.145966
  0
LINE
  8
0
 10
54.078278
 20
-179.645966
 11
82.078278
 21
-179.645966
  0
LINE
  8
0
 10
85.478287
 20
-149.745972
 11
85.478287
 21
-160.545959
  0
LINE
  8
0
 10
72.578308
 20
-160.045959
 11
81.578293
 21
-160.045959
  0
LINE
  8
0
 10
72.578308
 20
-150.245972
 11
81.578293
 21
-150.245972
  0
LINE
  8
0
 10
68.678284
 20
-149.745972
 11
68.678284
 21
-160.545959
  0
LINE
  8
0
 10
72.578278
 20
-158.945969
 11
81.578293
 21
-158.945969
  0
LINE
  8
0
 10
72.578278
 20
-151.345963
 11
81.578293
 21
-151.345963
  0
LINE
  8
0
 10
79.578293
 20
-150.245972
 11
79.578293
 21
-151.345963
  0
LINE
  8
0
 10
74.578293
 20
-158.945969
 11
74.578293
 21
-160.045959
  0
LINE
  8
0
 10
74.578293
 20
-150.245972
 11
74.578293
 21
-151.345963
  0
LINE
  8
0
 10
79.578293
 20
-158.945969
 11
79.578293
 21
-160.045959
  0
LINE
  8
0
 10
81.578293
 20
-150.245972
 11
81.578293
 21
-151.345963
  0
LINE
  8
0
 10
72.578308
 20
-150.245972
 11
72.578308
 21
-151.345963
  0
LINE
  8
0
 10
72.578308
 20
-158.945969
 11
72.578308
 21
-160.045959
  0
LINE
  8
0
 10
81.578293
 20
-158.945969
 11
81.578293
 21
-160.045959
  0
LINE
  8
0
 10
78.618271
 20
-154.214081
 11
78.618271
 21
-156.077850
  0
LINE
  8
0
 10
75.538284
 20
-154.214081
 11
75.538284
 21
-156.077850
  0
LINE
  8
0
 10
75.538300
 20
-154.214157
 11
77.078300
 21
-153.325027
  0
LINE
  8
0
 10
77.078300
 20
-156.967056
 11
78.618301
 21
-156.077942
  0
LINE
  8
0
 10
75.538269
 20
-156.077866
 11
77.078262
 21
-156.966980
  0
LINE
  8
0
 10
77.078278
 20
-153.324982
 11
78.618271
 21
-154.214096
  0
LINE
  8
0
 10
85.685486
 20
-160.546021
 11
87.578354
 21
-158.653152
  0
LINE
  8
0
 10
87.578293
 20
-151.638855
 11
87.578293
 21
-158.653076
  0
LINE
  8
0
 10
85.685440
 20
-149.746002
 11
87.578323
 21
-151.638885
  0
LINE
  8
0
 10
66.578278
 20
-151.638855
 11
66.578278
 21
-158.653076
  0
LINE
  8
0
 10
66.578354
 20
-151.638962
 11
68.471237
 21
-149.746078
  0
LINE
  8
0
 10
68.471161
 20
-149.745972
 11
85.685425
 21
-149.745972
  0
LINE
  8
0
 10
68.471161
 20
-160.545959
 11
85.685440
 21
-160.545959
  0
LINE
  8
0
 10
66.578308
 20
-158.653091
 11
68.471191
 21
-160.545975
  0
LINE
  8
0
 10
68.078293
 20
-162.275757
 11
68.078293
 21
-174.333282
  0
LINE
  8
0
 10
82.078293
 20
-160.545959
 11
82.078293
 21
-180.145966
  0
LINE
  8
0
  6
CENTER
 62
     2
 10
68.078278
 20
-131.145966
 11
68.078278
 21
-183.145966
  0
LINE
  8
0
 10
56.078278
 20
-133.645966
 11
80.078278
 21
-133.645966
  0
LINE
  8
0
 10
56.078278
 20
-133.645966
 11
56.078278
 21
-134.145966
  0
LINE
  8
0
 10
80.078278
 20
-133.645966
 11
80.078278
 21
-134.145966
  0
LINE
  8
0
 10
26.078293
 20
-134.145966
 11
54.078293
 21
-134.145966
  0
LINE
  8
0
 10
26.078293
 20
-135.145966
 11
54.078293
 21
-135.145966
  0
LINE
  8
0
 10
54.078308
 20
-134.145966
 11
54.078308
 21
-149.745972
  0
LINE
  8
0
  6
CENTER
 62
     2
 10
28.464279
 20
-142.645966
 11
45.095566
 21
-142.645966
  0
LINE
  8
0
  6
CENTER
 62
     2
 10
36.078308
 20
-135.170105
 11
36.078308
 21
-151.336838
  0
LINE
  8
0
  6
CENTER
 62
     2
 10
31.542160
 20
-168.645966
 11
46.768005
 21
-168.645966
  0
LINE
  8
0
  6
CENTER
 62
     2
 10
39.078308
 20
-160.535156
 11
39.078308
 21
-176.423126
  0
LINE
  8
0
 10
26.078293
 20
-180.145966
 11
54.078293
 21
-180.145966
  0
LINE
  8
0
 10
26.078293
 20
-179.645966
 11
54.078293
 21
-179.645966
  0
LINE
  8
0
 10
57.478302
 20
-149.745972
 11
57.478302
 21
-160.545959
  0
LINE
  8
0
 10
44.578323
 20
-160.045959
 11
53.578308
 21
-160.045959
  0
LINE
  8
0
 10
44.578323
 20
-150.245972
 11
53.578308
 21
-150.245972
  0
LINE
  8
0
 10
40.678299
 20
-149.745972
 11
40.678299
 21
-160.545959
  0
LINE
  8
0
 10
44.578293
 20
-158.945969
 11
53.578308
 21
-158.945969
  0
LINE
  8
0
 10
44.578293
 20
-151.345963
 11
53.578308
 21
-151.345963
  0
LINE
  8
0
 10
51.578308
 20
-150.245972
 11
51.578308
 21
-151.345963
  0
LINE
  8
0
 10
46.578308
 20
-158.945969
 11
46.578308
 21
-160.045959
  0
LINE
  8
0
 10
46.578308
 20
-150.245972
 11
46.578308
 21
-151.345963
  0
LINE
  8
0
 10
51.578308
 20
-158.945969
 11
51.578308
 21
-160.045959
  0
LINE
  8
0
 10
53.578308
 20
-150.245972
 11
53.578308
 21
-151.345963
  0
LINE
  8
0
 10
44.578323
 20
-150.245972
 11
44.578323
 21
-151.345963
  0
LINE
  8
0
 10
44.578323
 20
-158.945969
 11
44.578323
 21
-160.045959
  0
LINE
  8
0
 10
53.578308
 20
-158.945969
 11
53.578308
 21
-160.045959
  0
LINE
  8
0
 10
50.618286
 20
-154.214081
 11
50.618286
 21
-156.077850
  0
LINE
  8
0
 10
47.538300
 20
-154.214081
 11
47.538300
 21
-156.077850
  0
LINE
  8
0
 10
47.538326
 20
-154.214157
 11
49.078316
 21
-153.325043
  0
LINE
  8
0
 10
49.078308
 20
-156.967056
 11
50.618309
 21
-156.077927
  0
LINE
  8
0
 10
47.538330
 20
-156.077881
 11
49.078320
 21
-156.966995
  0
LINE
  8
0
 10
49.078274
 20
-153.324966
 11
50.618279
 21
-154.214081
  0
LINE
  8
0
 10
57.685520
 20
-160.546021
 11
59.578381
 21
-158.653168
  0
LINE
  8
0
 10
59.578308
 20
-151.638855
 11
59.578308
 21
-158.653076
  0
LINE
  8
0
 10
57.685429
 20
-149.746002
 11
59.578312
 21
-151.638885
  0
LINE
  8
0
 10
38.578293
 20
-151.638855
 11
38.578293
 21
-158.653076
  0
LINE
  8
0
 10
38.578369
 20
-151.638962
 11
40.471252
 21
-149.746078
  0
LINE
  8
0
 10
40.471176
 20
-149.745972
 11
57.685440
 21
-149.745972
  0
LINE
  8
0
 10
40.471176
 20
-160.545959
 11
57.685455
 21
-160.545959
  0
LINE
  8
0
 10
38.578300
 20
-158.653076
 11
40.471195
 21
-160.545975
  0
LINE
  8
0
 10
40.078308
 20
-162.275757
 11
40.078308
 21
-174.333282
  0
LINE
  8
0
 10
54.078308
 20
-160.545959
 11
54.078308
 21
-180.145966
  0
LINE
  8
0
  6
CENTER
 62
     2
 10
40.078293
 20
-131.145966
 11
40.078293
 21
-183.145966
  0
LINE
  8
0
 10
28.078293
 20
-133.645966
 11
52.078293
 21
-133.645966
  0
LINE
  8
0
 10
28.078293
 20
-133.645966
 11
28.078293
 21
-134.145966
  0
LINE
  8
0
 10
52.078293
 20
-133.645966
 11
52.078293
 21
-134.145966
  0
LINE
  8
0
 10
-113.921707
 20
-134.145966
 11
-113.921707
 21
-149.745972
  0
LINE
  8
0
 10
-129.921707
 20
-134.145966
 11
-113.921707
 21
-134.145966
  0
LINE
  8
0
 10
-131.921692
 20
-135.145966
 11
-113.921707
 21
-135.145966
  0
LINE
  8
0
 10
-115.921692
 20
-180.145966
 11
-113.921707
 21
-180.145966
  0
LINE
  8
0
 10
-131.921692
 20
-136.145966
 11
-131.921692
 21
-173.145966
  0
LINE
  8
0
 10
-115.921692
 20
-180.145966
 11
-115.921692
 21
-181.145966
  0
LINE
  8
0
 10
-144.421707
 20
-181.145966
 11
-115.921692
 21
-181.145966
  0
LINE
  8
0
 10
-144.421707
 20
-178.145966
 11
-144.421707
 21
-181.145966
  0
LINE
  8
0
 10
-142.421707
 20
-176.145966
 11
-134.921707
 21
-176.145966
  0
LINE
  8
0
 10
-123.421707
 20
-160.045959
 11
-114.421700
 21
-160.045959
  0
LINE
  8
0
 10
-123.421707
 20
-150.245972
 11
-114.421700
 21
-150.245972
  0
LINE
  8
0
 10
-127.321701
 20
-149.745972
 11
-127.321701
 21
-160.545959
  0
LINE
  8
0
 10
-123.421707
 20
-158.945969
 11
-114.421700
 21
-158.945969
  0
LINE
  8
0
 10
-123.421707
 20
-151.345963
 11
-114.421700
 21
-151.345963
  0
LINE
  8
0
 10
-116.421707
 20
-150.245972
 11
-116.421707
 21
-151.345963
  0
LINE
  8
0
 10
-121.421707
 20
-158.945969
 11
-121.421707
 21
-160.045959
  0
LINE
  8
0
 10
-121.421707
 20
-150.245972
 11
-121.421707
 21
-151.345963
  0
LINE
  8
0
 10
-116.421707
 20
-158.945969
 11
-116.421707
 21
-160.045959
  0
LINE
  8
0
 10
-114.421700
 20
-150.245972
 11
-114.421700
 21
-151.345963
  0
LINE
  8
0
 10
-123.421707
 20
-150.245972
 11
-123.421707
 21
-151.345963
  0
LINE
  8
0
 10
-123.421707
 20
-158.945969
 11
-123.421707
 21
-160.045959
  0
LINE
  8
0
 10
-114.421700
 20
-158.945969
 11
-114.421700
 21
-160.045959
  0
LINE
  8
0
 10
-117.381691
 20
-154.214081
 11
-117.381691
 21
-156.077850
  0
LINE
  8
0
 10
-120.461716
 20
-154.214081
 11
-120.461716
 21
-156.077850
  0
LINE
  8
0
 10
-120.461693
 20
-154.214096
 11
-118.921677
 21
-153.324966
  0
LINE
  8
0
 10
-118.921738
 20
-156.967026
 11
-117.381721
 21
-156.077896
  0
LINE
  8
0
 10
-120.461731
 20
-156.077896
 11
-118.921730
 21
-156.967010
  0
LINE
  8
0
 10
-118.921761
 20
-153.325012
 11
-117.381775
 21
-154.214127
  0
LINE
  8
0
 10
-129.421692
 20
-149.745972
 11
-129.421692
 21
-160.545959
  0
LINE
  8
0
 10
-129.421692
 20
-160.545959
 11
-113.921707
 21
-160.545959
  0
LINE
  8
0
 10
-129.421692
 20
-149.745972
 11
-113.921707
 21
-149.745972
  0
LINE
  8
0
 10
-113.921707
 20
-160.545959
 11
-113.921707
 21
-180.145966
  0
LINE
  8
0
 10
-122.921722
 20
-131.845963
 11
-58.921669
 21
-131.845963
  0
LINE
  8
0
 10
-122.921707
 20
-93.845963
 11
-58.921707
 21
-93.845963
  0
LINE
  8
0
  6
CENTER
 62
     2
 10
-122.921707
 20
-111.845963
 11
-58.921707
 21
-111.845963
  0
LINE
  8
0
 10
-106.921707
 20
-126.845963
 11
-74.921707
 21
-126.845963
  0
LINE
  8
0
 10
-106.921707
 20
-96.845963
 11
-74.921707
 21
-96.845963
  0
LINE
  8
0
  6
CENTER
 62
     2
 10
-74.921707
 20
-127.845963
 11
-74.921707
 21
-95.845963
  0
LINE
  8
0
  6
CENTER
 62
     2
 10
-106.921707
 20
-127.845963
 11
-106.921707
 21
-95.845963
  0
LINE
  8
0
 10
-122.921707
 20
-91.845963
 11
-58.921707
 21
-91.845963
  0
LINE
  8
0
 10
-122.921707
 20
-93.845963
 11
-122.921707
 21
-91.845963
  0
LINE
  8
0
 10
-58.921707
 20
-93.845963
 11
-58.921707
 21
-91.845963
  0
LINE
  8
0
 10
-111.921707
 20
-19.345963
 11
-59.921745
 21
-19.345963
  0
LINE
  8
0
 10
-111.963089
 20
-22.345963
 11
-101.921707
 21
-22.345963
  0
LINE
  8
0
 10
-69.921707
 20
-22.345963
 11
-59.880356
 21
-22.345963
  0
LINE
  8
0
 10
-122.921776
 20
-131.845963
 11
-123.421776
 21
-111.845978
  0
LINE
  8
0
 10
-123.421707
 20
-111.845978
 11
-122.921707
 21
-93.845947
  0
LINE
  8
0
 10
-58.921688
 20
-131.845978
 11
-58.421688
 21
-111.846001
  0
LINE
  8
0
 10
-58.421700
 20
-111.846001
 11
-58.921700
 21
-93.845985
  0
LINE
  8
0
 10
-102.771713
 20
-20.645966
 11
-111.071709
 21
-20.645966
  0
LINE
  8
0
 10
-102.771713
 20
-20.645966
 11
-102.771713
 21
-22.345963
  0
LINE
  8
0
 10
-111.071709
 20
-20.645966
 11
-111.071709
 21
-22.345963
  0
LINE
  8
0
 10
-60.771713
 20
-20.645966
 11
-69.071716
 21
-20.645966
  0
LINE
  8
0
 10
-60.771713
 20
-20.645966
 11
-60.771713
 21
-22.345963
  0
LINE
  8
0
 10
-69.071716
 20
-20.645966
 11
-69.071716
 21
-22.345963
  0
LINE
  8
0
 10
-112.921684
 20
-91.845985
 11
-111.921684
 21
-19.345964
  0
LINE
  8
0
 10
-59.921734
 20
-19.345953
 11
-58.921734
 21
-91.845940
  0
LINE
  8
0
 10
-101.921707
 20
-19.345963
 11
-101.921707
 21
-22.345963
  0
LINE
  8
0
 10
-69.921707
 20
-19.345963
 11
-69.921707
 21
-22.345963
  0
LINE
  8
0
 10
-76.591537
 20
-98.953674
 11
-85.251793
 21
-103.953674
  0
LINE
  8
0
 10
-64.591537
 20
-119.738327
 11
-73.251808
 21
-124.738335
  0
LINE
  8
0
 10
-86.921707
 20
-116.845963
 11
-86.921707
 21
-106.845963
  0
LINE
  8
0
 10
-62.921707
 20
-116.845963
 11
-62.921707
 21
-106.845963
  0
LINE
  8
0
 10
-76.591591
 20
-124.738274
 11
-85.251846
 21
-119.738274
  0
LINE
  8
0
 10
-64.591583
 20
-103.953682
 11
-73.251839
 21
-98.953682
  0
LINE
  8
0
 10
-108.591621
 20
-98.953674
 11
-117.251877
 21
-103.953667
  0
LINE
  8
0
 10
-96.591583
 20
-119.738312
 11
-105.251831
 21
-124.738304
  0
LINE
  8
0
 10
-118.921707
 20
-116.845963
 11
-118.921707
 21
-106.845963
  0
LINE
  8
0
 10
-94.921707
 20
-116.845963
 11
-94.921707
 21
-106.845963
  0
LINE
  8
0
 10
-108.591591
 20
-124.738312
 11
-117.251846
 21
-119.738312
  0
LINE
  8
0
 10
-96.591599
 20
-103.953682
 11
-105.251854
 21
-98.953682
  0
LINE
  8
0
 10
-113.771706
 20
-91.470444
 11
-113.771706
 21
-91.845963
  0
LINE
  8
0
 10
-120.071716
 20
-91.470444
 11
-120.071716
 21
-91.845963
  0
LINE
  8
0
 10
-120.071716
 20
-91.470444
 11
-113.771706
 21
-91.470444
  0
LINE
  8
0
 10
-111.921707
 20
-131.845963
 11
-111.921707
 21
-133.645966
  0
LINE
  8
0
 10
-87.921707
 20
-132.645966
 11
-87.921707
 21
-133.645966
  0
LINE
  8
0
 10
-83.921707
 20
-132.645966
 11
-83.921707
 21
-133.645966
  0
LINE
  8
0
 10
-59.897018
 20
-131.845963
 11
-59.897018
 21
-133.645966
  0
LINE
  8
0
 10
-111.921707
 20
-132.645966
 11
-59.897018
 21
-132.645966
  0
LINE
  8
0
  6
CENTER
 62
     2
 10
-137.809601
 20
-159.645966
 11
-130.045593
 21
-159.645966
  0
LINE
  8
0
 10
-135.921692
 20
-172.145966
 11
-131.921692
 21
-172.145966
  0
LINE
  8
0
 10
-135.921692
 20
-147.145966
 11
-131.921692
 21
-147.145966
  0
LINE
  8
0
 10
-135.921692
 20
-147.145966
 11
-135.921692
 21
-172.145966
  0
LINE
  8
0
 10
-117.251854
 20
-119.738312
 11
-118.921738
 21
-116.845993
  0
LINE
  8
0
 10
-118.921684
 20
-106.845963
 11
-117.251785
 21
-103.953629
  0
LINE
  8
0
 10
-108.591621
 20
-98.953659
 11
-105.251846
 21
-98.953659
  0
LINE
  8
0
 10
-96.591599
 20
-103.953697
 11
-94.921738
 21
-106.845978
  0
LINE
  8
0
 10
-94.921722
 20
-116.845993
 11
-96.591621
 21
-119.738327
  0
LINE
  8
0
 10
-85.251846
 20
-103.953682
 11
-86.921700
 21
-106.845963
  0
LINE
  8
0
 10
-86.921677
 20
-116.845924
 11
-85.251793
 21
-119.738251
  0
LINE
  8
0
 10
-76.591599
 20
-124.738266
 11
-73.251785
 21
-124.738266
  0
LINE
  8
0
 10
-64.591591
 20
-119.738319
 11
-62.921684
 21
-116.845955
  0
LINE
  8
0
 10
-64.591576
 20
-103.953621
 11
-62.921688
 21
-106.845940
  0
LINE
  8
0
 10
-76.591530
 20
-98.953476
 11
-73.251816
 21
-98.953476
  0
LINE
  8
0
 10
-129.421707
 20
-151.846008
 11
-127.321686
 21
-149.745987
  0
LINE
  8
0
 10
-129.421783
 20
-158.446014
 11
-127.321777
 21
-160.546021
  0
LINE
  8
0
 10
82.078308
 20
-134.145966
 11
82.078308
 21
-149.745972
  0
LINE
  8
0
 10
98.078308
 20
-134.145966
 11
82.078308
 21
-134.145966
  0
LINE
  8
0
 10
100.078293
 20
-135.145966
 11
82.078308
 21
-135.145966
  0
LINE
  8
0
 10
84.078293
 20
-180.145966
 11
82.078308
 21
-180.145966
  0
LINE
  8
0
 10
100.078293
 20
-136.145966
 11
100.078293
 21
-173.145966
  0
LINE
  8
0
 10
84.078293
 20
-180.145966
 11
84.078293
 21
-181.145966
  0
LINE
  8
0
 10
112.578308
 20
-181.145966
 11
84.078293
 21
-181.145966
  0
LINE
  8
0
 10
112.578308
 20
-178.145966
 11
112.578308
 21
-181.145966
  0
LINE
  8
0
 10
110.578308
 20
-176.145966
 11
103.078308
 21
-176.145966
  0
LINE
  8
0
 10
82.078308
 20
-160.545959
 11
82.078308
 21
-180.145966
  0
LINE
  8
0
  6
CENTER
 62
     2
 10
106.736115
 20
-159.645966
 11
97.532593
 21
-159.645966
  0
LINE
  8
0
 10
104.078293
 20
-147.145966
 11
100.078293
 21
-147.145966
  0
LINE
  8
0
 10
104.078293
 20
-172.145966
 11
100.078293
 21
-172.145966
  0
LINE
  8
0
 10
104.078293
 20
-147.145966
 11
104.078293
 21
-172.145966
  0
LINE
  8
0
 10
-32.421722
 20
-95.645966
 11
-32.421722
 21
-133.645966
  0
LINE
  8
0
 10
-55.421722
 20
-97.645966
 11
-32.421722
 21
-97.645966
  0
LINE
  8
0
 10
-55.421722
 20
-132.645966
 11
-32.421722
 21
-132.645966
  0
LINE
  8
0
 10
-55.421722
 20
-95.645966
 11
-55.421722
 21
-133.645966
  0
LINE
  8
0
 10
-35.921722
 20
-102.145966
 11
-32.421722
 21
-102.145966
  0
LINE
  8
0
 10
-35.921722
 20
-108.145966
 11
-32.421722
 21
-108.145966
  0
LINE
  8
0
 10
-55.421722
 20
-122.145966
 11
-51.921722
 21
-122.145966
  0
LINE
  8
0
 10
-55.421722
 20
-128.145966
 11
-51.921722
 21
-128.145966
  0
LINE
  8
0
 10
-55.421722
 20
-95.645966
 11
-32.421700
 21
-95.645966
  0
LINE
  8
0
 10
-33.921707
 20
-94.145973
 11
-32.421715
 21
-95.645966
  0
LINE
  8
0
 10
-55.421734
 20
-95.646034
 11
-53.921688
 21
-94.145988
  0
LINE
  8
0
 10
-53.010284
 20
-126.234634
 11
-50.954563
 21
-124.178917
  0
LINE
  8
0
 10
-53.082489
 20
-123.985214
 11
-50.890778
 21
-126.176926
  0
LINE
  8
0
 10
-37.010292
 20
-106.234650
 11
-34.954556
 21
-104.178917
  0
LINE
  8
0
 10
-37.082500
 20
-103.985207
 11
-34.890800
 21
-106.176903
  0
LINE
  8
0
  6
CENTER
 62
     2
 10
-55.921722
 20
-103.645966
 11
-45.921722
 21
-103.645966
  0
LINE
  8
0
  6
CENTER
 62
     2
 10
-41.921722
 20
-126.645966
 11
-31.921722
 21
-126.645966
  0
LINE
  8
0
  6
CENTER
 62
     2
 10
-36.921722
 20
-121.645966
 11
-36.921722
 21
-131.645966
  0
LINE
  8
0
  6
CENTER
 62
     2
 10
-50.921722
 20
-98.645966
 11
-50.921722
 21
-108.645966
  0
LINE
  8
0
 10
-54.921722
 20
-92.145966
 11
-54.921722
 21
-95.146011
  0
LINE
  8
0
 10
-54.421722
 20
-91.645966
 11
-33.421722
 21
-91.645966
  0
LINE
  8
0
 10
-52.921722
 20
-91.645966
 11
-52.921722
 21
-91.145966
  0
LINE
  8
0
 10
-52.921722
 20
-91.145966
 11
-45.921722
 21
-91.145966
  0
LINE
  8
0
 10
-45.921722
 20
-91.645966
 11
-45.921722
 21
-91.145966
  0
LINE
  8
0
 10
-32.921722
 20
-92.145966
 11
-32.921722
 21
-95.145935
  0
LINE
  8
0
  6
CENTER
 62
     2
 10
-43.921722
 20
-89.890213
 11
-43.921722
 21
-136.163910
  0
LINE
  8
0
 10
-53.921677
 20
-94.145966
 11
-33.921700
 21
-94.145966
  0
LINE
  8
0
 10
-4.421722
 20
-95.645966
 11
-4.421722
 21
-133.645966
  0
LINE
  8
0
 10
-27.421722
 20
-97.645966
 11
-4.421722
 21
-97.645966
  0
LINE
  8
0
 10
-27.421722
 20
-132.645966
 11
-4.421722
 21
-132.645966
  0
LINE
  8
0
 10
-27.421722
 20
-95.645966
 11
-27.421722
 21
-133.645966
  0
LINE
  8
0
 10
-7.921722
 20
-102.145966
 11
-4.421722
 21
-102.145966
  0
LINE
  8
0
 10
-7.921722
 20
-108.145966
 11
-4.421722
 21
-108.145966
  0
LINE
  8
0
 10
-27.421722
 20
-122.145966
 11
-23.921722
 21
-122.145966
  0
LINE
  8
0
 10
-27.421722
 20
-128.145966
 11
-23.921722
 21
-128.145966
  0
LINE
  8
0
 10
-27.421722
 20
-95.645966
 11
-4.421692
 21
-95.645966
  0
LINE
  8
0
 10
-5.921678
 20
-94.145958
 11
-4.421685
 21
-95.645950
  0
LINE
  8
0
 10
-27.421719
 20
-95.646049
 11
-25.921663
 21
-94.145996
  0
LINE
  8
0
 10
-25.010277
 20
-126.234642
 11
-22.954557
 21
-124.178925
  0
LINE
  8
0
 10
-25.082508
 20
-123.985229
 11
-22.890797
 21
-126.176941
  0
LINE
  8
0
 10
-9.010281
 20
-106.234665
 11
-6.954550
 21
-104.178932
  0
LINE
  8
0
 10
-9.082486
 20
-103.985207
 11
-6.890786
 21
-106.176910
  0
LINE
  8
0
  6
CENTER
 62
     2
 10
-27.921722
 20
-103.645966
 11
-17.921722
 21
-103.645966
  0
LINE
  8
0
  6
CENTER
 62
     2
 10
-13.921722
 20
-126.645966
 11
-3.921722
 21
-126.645966
  0
LINE
  8
0
  6
CENTER
 62
     2
 10
-8.921722
 20
-121.645966
 11
-8.921722
 21
-131.645966
  0
LINE
  8
0
  6
CENTER
 62
     2
 10
-22.921722
 20
-98.645966
 11
-22.921722
 21
-108.645966
  0
LINE
  8
0
 10
-26.921722
 20
-92.145966
 11
-26.921722
 21
-95.146011
  0
LINE
  8
0
 10
-26.421722
 20
-91.645966
 11
-5.421722
 21
-91.645966
  0
LINE
  8
0
 10
-24.921722
 20
-91.645966
 11
-24.921722
 21
-91.145966
  0
LINE
  8
0
 10
-24.921722
 20
-91.145966
 11
-17.921722
 21
-91.145966
  0
LINE
  8
0
 10
-17.921722
 20
-91.645966
 11
-17.921722
 21
-91.145966
  0
LINE
  8
0
 10
-4.921722
 20
-92.145966
 11
-4.921722
 21
-95.145935
  0
LINE
  8
0
  6
CENTER
 62
     2
 10
-15.921722
 20
-89.890213
 11
-15.921722
 21
-136.163910
  0
LINE
  8
0
 10
-25.921677
 20
-94.145966
 11
-5.921692
 21
-94.145966
  0
LINE
  8
0
 10
23.578278
 20
-95.645966
 11
23.578278
 21
-98.145966
  0
LINE
  8
0
 10
0.578278
 20
-97.645966
 11
1.078278
 21
-97.645966
  0
LINE
  8
0
 62
     4
 10
0.578278
 20
-132.645966
 11
23.578278
 21
-132.645966
  0
LINE
  8
0
 10
0.578278
 20
-95.645966
 11
0.578278
 21
-98.145966
  0
LINE
  8
0
  6
CENTER
 62
     2
 10
12.078278
 20
-89.890213
 11
12.078278
 21
-136.163910
  0
LINE
  8
0
 62
     4
 10
20.078278
 20
-108.145966
 11
23.578278
 21
-108.145966
  0
LINE
  8
0
 62
     4
 10
0.578278
 20
-122.145966
 11
4.078278
 21
-122.145966
  0
LINE
  8
0
 62
     4
 10
0.578278
 20
-128.145966
 11
4.078278
 21
-128.145966
  0
LINE
  8
0
 10
0.578278
 20
-95.645966
 11
1.078278
 21
-95.645966
  0
LINE
  8
0
 10
23.078283
 20
-95.145950
 11
23.578283
 21
-95.645950
  0
LINE
  8
0
 10
0.578318
 20
-95.646011
 11
1.078265
 21
-95.146065
  0
LINE
  8
0
 62
     4
 10
2.989753
 20
-126.234642
 11
5.045473
 21
-124.178925
  0
LINE
  8
0
 62
     4
 10
2.917495
 20
-123.985245
 11
5.109218
 21
-126.176964
  0
LINE
  8
0
 62
     4
 10
18.989767
 20
-106.234665
 11
21.045496
 21
-104.178932
  0
LINE
  8
0
 62
     4
 10
18.917515
 20
-103.985191
 11
21.109238
 21
-106.176918
  0
LINE
  8
0
 62
     4
 10
0.578278
 20
-132.645966
 11
23.578278
 21
-132.645966
  0
LINE
  8
0
 62
     4
 10
1.578278
 20
-131.645966
 11
22.578278
 21
-131.645966
  0
LINE
  8
0
 62
     4
 10
0.578278
 20
-101.645966
 11
23.578278
 21
-101.645966
  0
LINE
  8
0
 62
     4
 10
1.578278
 20
-102.645966
 11
17.078278
 21
-102.645966
  0
LINE
  8
0
 62
     4
 10
0.578278
 20
-101.645966
 11
0.578278
 21
-132.645966
  0
LINE
  8
0
 62
     4
 10
23.578278
 20
-132.645966
 11
23.578278
 21
-101.645966
  0
LINE
  8
0
 62
     4
 10
22.578278
 20
-131.645966
 11
22.578278
 21
-108.145966
  0
LINE
  8
0
 62
     4
 10
1.578278
 20
-102.645966
 11
1.578278
 21
-122.145966
  0
LINE
  8
0
 62
     4
 10
0.578223
 20
-132.645950
 11
1.578222
 21
-131.645950
  0
LINE
  8
0
 62
     4
 10
23.578274
 20
-132.645981
 11
22.578274
 21
-131.645966
  0
LINE
  8
0
 62
     4
 10
0.578279
 20
-101.645958
 11
1.578280
 21
-102.645966
  0
LINE
  8
0
 62
     4
 10
17.078278
 20
-105.145966
 11
17.078278
 21
-101.645966
  0
LINE
  8
0
 62
     4
 10
1.578278
 20
-128.145966
 11
1.578278
 21
-131.645966
  0
LINE
  8
0
 62
     4
 10
1.578278
 20
-91.645966
 11
22.578278
 21
-91.645966
  0
LINE
  8
0
 62
     4
 10
1.078278
 20
-92.145966
 11
1.078278
 21
-101.145966
  0
LINE
  8
0
 62
     4
 10
23.078278
 20
-92.145966
 11
23.078278
 21
-101.145966
  0
LINE
  8
0
 10
23.078278
 20
-95.645966
 11
23.578278
 21
-95.645966
  0
LINE
  8
0
 10
23.078278
 20
-97.645966
 11
23.578278
 21
-97.645966
  0
LINE
  8
0
 62
     4
 10
3.078278
 20
-91.145966
 11
10.078278
 21
-91.145966
  0
LINE
  8
0
 62
     4
 10
3.078278
 20
-91.645966
 11
3.078278
 21
-91.145966
  0
LINE
  8
0
 62
     4
 10
10.078278
 20
-91.645966
 11
10.078278
 21
-91.145966
  0
LINE
  8
0
 62
     4
 10
0.578278
 20
-101.145966
 11
23.578278
 21
-101.145966
  0
LINE
  8
0
 62
     4
 10
0.578278
 20
-98.145966
 11
0.578278
 21
-132.645966
  0
LINE
  8
0
 62
     4
 10
23.578278
 20
-98.145966
 11
23.578278
 21
-132.645966
  0
LINE
  8
0
 10
51.578293
 20
-95.645966
 11
51.578293
 21
-98.145966
  0
LINE
  8
0
 10
28.578293
 20
-97.645966
 11
29.078293
 21
-97.645966
  0
LINE
  8
0
 62
     4
 10
28.578293
 20
-132.645966
 11
51.578293
 21
-132.645966
  0
LINE
  8
0
 10
28.578293
 20
-95.645966
 11
28.578293
 21
-98.145966
  0
LINE
  8
0
  6
CENTER
 62
     2
 10
40.078293
 20
-89.890213
 11
40.078293
 21
-136.163910
  0
LINE
  8
0
 62
     4
 10
48.078293
 20
-108.145966
 11
51.578293
 21
-108.145966
  0
LINE
  8
0
 62
     4
 10
28.578293
 20
-122.145966
 11
32.078293
 21
-122.145966
  0
LINE
  8
0
 62
     4
 10
28.578293
 20
-128.145966
 11
32.078293
 21
-128.145966
  0
LINE
  8
0
 10
28.578293
 20
-95.645966
 11
29.078293
 21
-95.645966
  0
LINE
  8
0
 10
51.078289
 20
-95.145943
 11
51.578289
 21
-95.645943
  0
LINE
  8
0
 10
28.578377
 20
-95.646019
 11
29.078323
 21
-95.146072
  0
LINE
  8
0
 62
     4
 10
30.989784
 20
-126.234650
 11
33.045506
 21
-124.178925
  0
LINE
  8
0
 62
     4
 10
30.917538
 20
-123.985229
 11
33.109261
 21
-126.176949
  0
LINE
  8
0
 62
     4
 10
46.989742
 20
-106.234650
 11
49.045475
 21
-104.178925
  0
LINE
  8
0
 62
     4
 10
46.917534
 20
-103.985207
 11
49.109257
 21
-106.176926
  0
LINE
  8
0
 62
     4
 10
29.578293
 20
-131.645966
 11
50.578293
 21
-131.645966
  0
LINE
  8
0
 62
     4
 10
28.578293
 20
-101.645966
 11
51.578293
 21
-101.645966
  0
LINE
  8
0
 62
     4
 10
29.578293
 20
-102.645966
 11
45.078293
 21
-102.645966
  0
LINE
  8
0
 62
     4
 10
28.578293
 20
-101.645966
 11
28.578293
 21
-132.645966
  0
LINE
  8
0
 62
     4
 10
51.578293
 20
-132.645966
 11
51.578293
 21
-101.645966
  0
LINE
  8
0
 62
     4
 10
50.578293
 20
-131.645966
 11
50.578293
 21
-108.145966
  0
LINE
  8
0
 62
     4
 10
29.578293
 20
-102.645966
 11
29.578293
 21
-122.145966
  0
LINE
  8
0
 62
     4
 10
28.578209
 20
-132.645935
 11
29.578209
 21
-131.645935
  0
LINE
  8
0
 62
     4
 10
51.578304
 20
-132.645981
 11
50.578304
 21
-131.645981
  0
LINE
  8
0
 62
     4
 10
28.578304
 20
-101.645958
 11
29.578304
 21
-102.645958
  0
LINE
  8
0
 62
     4
 10
45.078293
 20
-105.145966
 11
45.078293
 21
-101.645966
  0
LINE
  8
0
 62
     4
 10
29.578293
 20
-128.145966
 11
29.578293
 21
-131.645966
  0
LINE
  8
0
 62
     4
 10
29.578293
 20
-91.645966
 11
50.578293
 21
-91.645966
  0
LINE
  8
0
 62
     4
 10
29.078293
 20
-92.145966
 11
29.078293
 21
-101.145966
  0
LINE
  8
0
 62
     4
 10
51.078293
 20
-92.145966
 11
51.078293
 21
-101.145966
  0
LINE
  8
0
 10
51.078293
 20
-95.645966
 11
51.578293
 21
-95.645966
  0
LINE
  8
0
 10
51.078293
 20
-97.645966
 11
51.578293
 21
-97.645966
  0
LINE
  8
0
 62
     4
 10
31.078293
 20
-91.145966
 11
38.078293
 21
-91.145966
  0
LINE
  8
0
 62
     4
 10
31.078293
 20
-91.645966
 11
31.078293
 21
-91.145966
  0
LINE
  8
0
 62
     4
 10
38.078293
 20
-91.645966
 11
38.078293
 21
-91.145966
  0
LINE
  8
0
 62
     4
 10
28.578293
 20
-101.145966
 11
51.578293
 21
-101.145966
  0
LINE
  8
0
 62
     4
 10
28.578293
 20
-98.145966
 11
28.578293
 21
-132.645966
  0
LINE
  8
0
 62
     4
 10
51.578293
 20
-98.145966
 11
51.578293
 21
-132.645966
  0
LINE
  8
0
 62
     4
 10
79.578278
 20
-128.645966
 11
79.578278
 21
-132.645966
  0
LINE
  8
0
 62
     4
 10
56.578278
 20
-132.645966
 11
79.578278
 21
-132.645966
  0
LINE
  8
0
 62
     4
 10
56.578278
 20
-128.645966
 11
56.578278
 21
-132.645966
  0
LINE
  8
0
  6
CENTER
 62
     2
 10
68.078278
 20
-126.083847
 11
68.078278
 21
-136.163910
  0
LINE
  8
0
 62
     4
 10
56.278275
 20
-128.645966
 11
79.878281
 21
-128.645966
  0
LINE
  8
0
 62
     4
 10
79.878281
 20
-126.403503
 11
79.878281
 21
-128.645966
  0
LINE
  8
0
 62
     4
 10
74.278275
 20
-126.403503
 11
74.278275
 21
-128.645966
  0
LINE
  8
0
 62
     4
 10
79.878281
 20
-127.945969
 11
74.278275
 21
-127.945969
  0
LINE
  8
0
 62
     4
 10
74.278275
 20
-127.945969
 11
79.878281
 21
-127.945969
  0
LINE
  8
0
 62
     4
 10
56.278275
 20
-126.403503
 11
56.278275
 21
-128.645966
  0
LINE
  8
0
 62
     4
 10
61.878281
 20
-126.403503
 11
61.878281
 21
-128.645966
  0
LINE
  8
0
 62
     4
 10
56.278275
 20
-127.945969
 11
61.878281
 21
-127.945969
  0
LINE
  8
0
 62
     4
 10
61.878281
 20
-127.945969
 11
56.278275
 21
-127.945969
  0
LINE
  8
0
 10
56.578278
 20
-132.645966
 11
56.578278
 21
-133.645966
  0
LINE
  8
0
 10
79.578278
 20
-132.645966
 11
79.578278
 21
-133.645966
  0
LINE
  8
0
 10
0.578278
 20
-132.645966
 11
0.578278
 21
-133.645966
  0
LINE
  8
0
 10
23.578278
 20
-132.645966
 11
23.578278
 21
-133.645966
  0
LINE
  8
0
 10
28.578293
 20
-132.645966
 11
28.578293
 21
-133.645966
  0
LINE
  8
0
 10
51.578293
 20
-132.645966
 11
51.578293
 21
-133.645966
  0
LINE
  8
0
 62
     4
 10
21.078278
 20
-91.145966
 11
14.078278
 21
-91.145966
  0
LINE
  8
0
 62
     4
 10
21.078278
 20
-91.645966
 11
21.078278
 21
-91.145966
  0
LINE
  8
0
 62
     4
 10
14.078278
 20
-91.645966
 11
14.078278
 21
-91.145966
  0
LINE
  8
0
 62
     4
 10
49.078293
 20
-91.145966
 11
42.078293
 21
-91.145966
  0
LINE
  8
0
 62
     4
 10
49.078293
 20
-91.645966
 11
49.078293
 21
-91.145966
  0
LINE
  8
0
 62
     4
 10
42.078293
 20
-91.645966
 11
42.078293
 21
-91.145966
  0
LINE
  8
0
  6
CENTER
 62
     2
 10
107.578308
 20
-172.645966
 11
107.578308
 21
-184.645966
  0
LINE
  8
0
  6
CENTER
 62
     2
 10
-139.421707
 20
-172.645966
 11
-139.421707
 21
-184.645966
  0
LINE
  8
0
 10
357.521667
 20
-94.145966
 11
341.021667
 21
-94.145966
  0
LINE
  8
0
 10
358.521667
 20
-95.145966
 11
358.521667
 21
-219.645966
  0
LINE
  8
0
 10
358.521667
 20
-219.645966
 11
340.521667
 21
-219.645966
  0
LINE
  8
0
  6
CENTER
 62
     2
 10
371.013062
 20
-148.145966
 11
360.237732
 21
-148.145966
  0
LINE
  8
0
 10
371.021667
 20
-145.645966
 11
371.021667
 21
-142.645966
  0
LINE
  8
0
 10
371.021667
 20
-153.045959
 11
371.021667
 21
-150.645966
  0
LINE
  8
0
  6
CENTER
 62
     2
 10
366.021667
 20
-153.893768
 11
366.021667
 21
-142.274277
  0
LINE
  8
0
 10
358.521790
 20
-219.645889
 11
357.944458
 21
-218.645874
  0
LINE
  8
0
 10
371.021667
 20
-150.645966
 11
366.021667
 21
-150.645966
  0
LINE
  8
0
 10
371.021667
 20
-145.645966
 11
366.021667
 21
-145.645966
  0
LINE
  8
0
  6
CENTER
 62
     2
 10
371.013062
 20
-212.145966
 11
360.237732
 21
-212.145966
  0
LINE
  8
0
 10
371.021667
 20
-209.645966
 11
371.021667
 21
-207.245972
  0
LINE
  8
0
 10
371.021667
 20
-217.645966
 11
371.021667
 21
-214.645966
  0
LINE
  8
0
  6
CENTER
 62
     2
 10
366.021667
 20
-217.893753
 11
366.021667
 21
-206.274277
  0
LINE
  8
0
 10
371.021667
 20
-214.645966
 11
366.021667
 21
-214.645966
  0
LINE
  8
0
 10
371.021667
 20
-209.645966
 11
366.021667
 21
-209.645966
  0
LINE
  8
0
 10
369.021667
 20
-219.645966
 11
358.521667
 21
-219.645966
  0
LINE
  8
0
 10
369.021667
 20
-205.245972
 11
360.521667
 21
-205.245972
  0
LINE
  8
0
 10
369.021667
 20
-140.645966
 11
340.521667
 21
-140.645966
  0
LINE
  8
0
 10
369.021667
 20
-155.045959
 11
360.521667
 21
-155.045959
  0
LINE
  8
0
 10
340.521667
 20
-218.645966
 11
358.521667
 21
-218.645966
  0
LINE
  8
0
  6
CENTER
 62
     2
 10
363.363892
 20
-109.145966
 11
354.856506
 21
-109.145966
  0
LINE
  8
0
 10
362.521667
 20
-121.645966
 11
358.521667
 21
-121.645966
  0
LINE
  8
0
 10
362.521667
 20
-96.645966
 11
358.521667
 21
-96.645966
  0
LINE
  8
0
 10
362.521667
 20
-96.645966
 11
362.521667
 21
-121.645966
  0
LINE
  8
0
 10
141.821655
 20
-140.645966
 11
144.521667
 21
-140.645966
  0
LINE
  8
0
 10
144.521667
 20
-219.645966
 11
144.521667
 21
-140.645966
  0
LINE
  8
0
 10
144.021667
 20
-93.145966
 11
144.521667
 21
-93.145966
  0
LINE
  8
0
 10
144.021667
 20
-93.145966
 11
144.021667
 21
-140.645966
  0
LINE
  8
0
 10
141.821655
 20
-94.145966
 11
141.821655
 21
-140.645966
  0
LINE
  8
0
 10
127.521667
 20
-94.145966
 11
144.021667
 21
-94.145966
  0
LINE
  8
0
 10
126.521667
 20
-95.145966
 11
126.521667
 21
-219.645966
  0
LINE
  8
0
 10
126.521667
 20
-219.645966
 11
144.521667
 21
-219.645966
  0
LINE
  8
0
  6
CENTER
 62
     2
 10
114.030273
 20
-148.145966
 11
124.805603
 21
-148.145966
  0
LINE
  8
0
 10
114.021667
 20
-145.645966
 11
114.021667
 21
-142.645966
  0
LINE
  8
0
 10
114.021667
 20
-153.045959
 11
114.021667
 21
-150.645966
  0
LINE
  8
0
  6
CENTER
 62
     2
 10
119.021667
 20
-153.893768
 11
119.021667
 21
-142.274277
  0
LINE
  8
0
 10
126.521759
 20
-219.646027
 11
127.099129
 21
-218.646011
  0
LINE
  8
0
 10
114.021667
 20
-150.645966
 11
119.021667
 21
-150.645966
  0
LINE
  8
0
 10
114.021667
 20
-145.645966
 11
119.021667
 21
-145.645966
  0
LINE
  8
0
  6
CENTER
 62
     2
 10
114.030273
 20
-212.145966
 11
124.805603
 21
-212.145966
  0
LINE
  8
0
 10
114.021667
 20
-209.645966
 11
114.021667
 21
-207.245972
  0
LINE
  8
0
 10
114.021667
 20
-217.645966
 11
114.021667
 21
-214.645966
  0
LINE
  8
0
  6
CENTER
 62
     2
 10
119.021667
 20
-217.893753
 11
119.021667
 21
-206.274277
  0
LINE
  8
0
 10
114.021667
 20
-214.645966
 11
119.021667
 21
-214.645966
  0
LINE
  8
0
 10
114.021667
 20
-209.645966
 11
119.021667
 21
-209.645966
  0
LINE
  8
0
 10
116.021667
 20
-219.645966
 11
126.521667
 21
-219.645966
  0
LINE
  8
0
 10
116.021667
 20
-205.245972
 11
144.521698
 21
-205.245972
  0
LINE
  8
0
 10
116.021667
 20
-140.645966
 11
144.521698
 21
-140.645966
  0
LINE
  8
0
 10
116.021667
 20
-155.045959
 11
144.521698
 21
-155.045959
  0
LINE
  8
0
 10
144.521667
 20
-218.645966
 11
126.521667
 21
-218.645966
  0
LINE
  8
0
  6
CENTER
 62
     2
 10
120.553925
 20
-109.145966
 11
129.593353
 21
-109.145966
  0
LINE
  8
0
 10
122.521667
 20
-121.645966
 11
126.521667
 21
-121.645966
  0
LINE
  8
0
 10
122.521667
 20
-96.645966
 11
126.521667
 21
-96.645966
  0
LINE
  8
0
 10
122.521667
 20
-96.645966
 11
122.521667
 21
-121.645966
  0
LINE
  8
0
 10
173.021698
 20
-93.145966
 11
172.521667
 21
-93.145966
  0
LINE
  8
0
 10
172.521667
 20
-219.645966
 11
172.521667
 21
-140.645966
  0
LINE
  8
0
 10
172.521698
 20
-219.645966
 11
144.521698
 21
-219.645966
  0
LINE
  8
0
 10
170.021698
 20
-94.145966
 11
147.021729
 21
-94.145966
  0
LINE
  8
0
 10
147.021698
 20
-94.145966
 11
147.021698
 21
-133.145996
  0
LINE
  8
0
 10
170.021698
 20
-94.145966
 11
170.021698
 21
-133.145996
  0
LINE
  8
0
 10
170.021698
 20
-97.645966
 11
147.021729
 21
-97.645966
  0
LINE
  8
0
 10
145.021729
 20
-93.145966
 11
144.521698
 21
-93.145966
  0
LINE
  8
0
 10
146.721710
 20
-94.145966
 11
145.021729
 21
-94.145966
  0
LINE
  8
0
 10
145.021698
 20
-93.145966
 11
145.021698
 21
-94.145966
  0
LINE
  8
0
 10
146.721710
 20
-94.145966
 11
146.721710
 21
-133.145996
  0
LINE
  8
0
 10
172.521667
 20
-140.645966
 11
144.521698
 21
-140.645966
  0
LINE
  8
0
 10
146.721710
 20
-97.645966
 11
145.021729
 21
-97.645966
  0
LINE
  8
0
 10
145.021698
 20
-97.645966
 11
145.021698
 21
-140.645966
  0
LINE
  8
0
 10
172.521698
 20
-93.145966
 11
172.021698
 21
-93.145966
  0
LINE
  8
0
 10
172.021698
 20
-93.145966
 11
172.021698
 21
-94.145966
  0
LINE
  8
0
 10
172.021698
 20
-94.145966
 11
170.221710
 21
-94.145966
  0
LINE
  8
0
 10
170.221710
 20
-94.145966
 11
170.221710
 21
-133.145996
  0
LINE
  8
0
 10
172.021698
 20
-97.645966
 11
170.221710
 21
-97.645966
  0
LINE
  8
0
 10
172.021698
 20
-97.645966
 11
172.021698
 21
-140.645966
  0
LINE
  8
0
 10
144.521698
 20
-218.645966
 11
172.521698
 21
-218.645966
  0
LINE
  8
0
 10
144.521698
 20
-219.645966
 11
144.521698
 21
-140.645966
  0
LINE
  8
0
 10
321.021698
 20
-222.645966
 11
321.021698
 21
-220.645966
  0
LINE
  8
0
 10
321.021698
 20
-222.645966
 11
314.021698
 21
-222.645966
  0
LINE
  8
0
 10
314.021698
 20
-222.645966
 11
314.021698
 21
-220.645966
  0
LINE
  8
0
 10
320.021698
 20
-221.645966
 11
315.021698
 21
-221.645966
  0
LINE
  8
0
 10
315.021606
 20
-221.646149
 11
313.021606
 21
-219.646149
  0
LINE
  8
0
 10
320.021545
 20
-221.645889
 11
322.021545
 21
-219.645889
  0
LINE
  8
0
 10
172.521667
 20
-219.645981
 11
200.521637
 21
-219.645981
  0
LINE
  8
0
 10
340.521667
 20
-219.645981
 11
340.521667
 21
-140.645966
  0
LINE
  8
0
 10
287.021667
 20
-94.145996
 11
338.021667
 21
-94.145996
  0
LINE
  8
0
 10
341.021729
 20
-93.145996
 11
340.021729
 21
-93.145996
  0
LINE
  8
0
 10
340.021667
 20
-93.145996
 11
340.021667
 21
-94.145996
  0
LINE
  8
0
 10
340.021729
 20
-94.145996
 11
338.221619
 21
-94.145996
  0
LINE
  8
0
 10
338.221680
 20
-94.145996
 11
338.221680
 21
-133.145966
  0
LINE
  8
0
 10
340.021729
 20
-97.645996
 11
338.221619
 21
-97.645996
  0
LINE
  8
0
 10
340.021667
 20
-97.645996
 11
340.021667
 21
-140.645966
  0
LINE
  8
0
 10
339.021667
 20
-133.145966
 11
339.021667
 21
-140.645966
  0
LINE
  8
0
 10
340.521667
 20
-218.645996
 11
312.521637
 21
-218.645996
  0
LINE
  8
0
 10
172.521667
 20
-140.645966
 11
200.521637
 21
-140.645966
  0
LINE
  8
0
 10
175.021667
 20
-94.145996
 11
198.021637
 21
-94.145996
  0
LINE
  8
0
 10
175.021667
 20
-97.645996
 11
198.021637
 21
-97.645996
  0
LINE
  8
0
 10
172.521667
 20
-140.645966
 11
175.021667
 21
-140.645966
  0
LINE
  8
0
 10
172.521667
 20
-219.645981
 11
172.521667
 21
-140.645966
  0
LINE
  8
0
 10
172.021667
 20
-93.145996
 11
173.021637
 21
-93.145996
  0
LINE
  8
0
  6
CENTER
 62
     2
 10
317.521698
 20
-217.609619
 11
317.521698
 21
-223.500381
  0
LINE
  8
0
 10
200.021637
 20
-93.145996
 11
200.021637
 21
-94.145996
  0
LINE
  8
0
 10
200.021637
 20
-94.145996
 11
198.221649
 21
-94.145996
  0
LINE
  8
0
 10
198.221649
 20
-94.145996
 11
198.221649
 21
-133.145966
  0
LINE
  8
0
 10
200.021637
 20
-97.645996
 11
200.021637
 21
-140.645966
  0
LINE
  8
0
 10
200.021637
 20
-97.645996
 11
198.221649
 21
-97.645996
  0
LINE
  8
0
 10
171.021637
 20
-133.145966
 11
171.021637
 21
-140.645966
  0
LINE
  8
0
 10
173.021637
 20
-93.145996
 11
173.021637
 21
-94.145996
  0
LINE
  8
0
 10
173.021637
 20
-94.145996
 11
174.821655
 21
-94.145996
  0
LINE
  8
0
 10
173.021637
 20
-97.645996
 11
174.821655
 21
-97.645996
  0
LINE
  8
0
 10
174.821655
 20
-94.145996
 11
174.821655
 21
-133.145966
  0
LINE
  8
0
 10
173.021637
 20
-97.645996
 11
173.021637
 21
-140.645966
  0
LINE
  8
0
 10
146.021698
 20
-133.145996
 11
171.021637
 21
-133.145996
  0
LINE
  8
0
 10
146.021698
 20
-133.145996
 11
146.021698
 21
-140.645966
  0
LINE
  8
0
 10
200.521637
 20
-219.645981
 11
200.521637
 21
-140.645966
  0
LINE
  8
0
  6
CENTER
 62
     2
 10
156.891907
 20
-203.645981
 11
172.521698
 21
-203.645981
  0
LINE
  8
0
  6
CENTER
 62
     2
 10
157.347473
 20
-178.645966
 11
172.521698
 21
-178.645966
  0
LINE
  8
0
  6
CENTER
 62
     2
 10
156.891907
 20
-156.645981
 11
172.521698
 21
-156.645981
  0
LINE
  8
0
  6
CENTER
 62
     2
 10
165.021698
 20
-211.125839
 11
165.021698
 21
-194.952454
  0
LINE
  8
0
  6
CENTER
 62
     2
 10
151.021698
 20
-197.458176
 11
151.021698
 21
-181.968201
  0
LINE
  8
0
  6
CENTER
 62
     2
 10
144.135406
 20
-189.645981
 11
157.803070
 21
-189.645981
  0
LINE
  8
0
  6
CENTER
 62
     2
 10
145.502167
 20
-167.645996
 11
157.575256
 21
-167.645996
  0
LINE
  8
0
  6
CENTER
 62
     2
 10
151.021698
 20
-175.589951
 11
151.021698
 21
-160.327728
  0
LINE
  8
0
  6
CENTER
 62
     2
 10
165.021698
 20
-163.516861
 11
165.021698
 21
-148.938034
  0
LINE
  8
0
  6
CENTER
 62
     2
 10
165.021698
 20
-186.068481
 11
165.021698
 21
-170.806259
  0
LINE
  8
0
  6
CENTER
 62
     2
 10
324.891876
 20
-203.645981
 11
340.521667
 21
-203.645981
  0
LINE
  8
0
  6
CENTER
 62
     2
 10
325.347443
 20
-178.645966
 11
340.521667
 21
-178.645966
  0
LINE
  8
0
  6
CENTER
 62
     2
 10
324.891876
 20
-156.645981
 11
340.521667
 21
-156.645981
  0
LINE
  8
0
  6
CENTER
 62
     2
 10
333.021667
 20
-211.125839
 11
333.021667
 21
-194.952454
  0
LINE
  8
0
  6
CENTER
 62
     2
 10
319.021667
 20
-197.458176
 11
319.021667
 21
-181.968201
  0
LINE
  8
0
  6
CENTER
 62
     2
 10
312.135406
 20
-189.645981
 11
325.803009
 21
-189.645981
  0
LINE
  8
0
  6
CENTER
 62
     2
 10
313.502136
 20
-167.645996
 11
325.575226
 21
-167.645996
  0
LINE
  8
0
  6
CENTER
 62
     2
 10
319.021667
 20
-175.589951
 11
319.021667
 21
-160.327728
  0
LINE
  8
0
  6
CENTER
 62
     2
 10
333.021667
 20
-163.516861
 11
333.021667
 21
-148.938034
  0
LINE
  8
0
  6
CENTER
 62
     2
 10
333.021667
 20
-186.068481
 11
333.021667
 21
-170.806259
  0
LINE
  8
0
 10
174.746765
 20
-133.145996
 11
174.821655
 21
-133.145996
  0
LINE
  8
0
 10
175.021667
 20
-94.145996
 11
175.021667
 21
-133.145996
  0
LINE
  8
0
 10
198.021637
 20
-94.145996
 11
198.021637
 21
-133.145996
  0
LINE
  8
0
 10
174.021667
 20
-133.145996
 11
199.021606
 21
-133.145996
  0
LINE
  8
0
 10
174.021667
 20
-133.145996
 11
174.021667
 21
-140.645966
  0
LINE
  8
0
 10
199.021606
 20
-133.145966
 11
199.021606
 21
-140.645966
  0
LINE
  8
0
 10
338.021667
 20
-94.145996
 11
338.021667
 21
-133.145996
  0
LINE
  8
0
 10
312.521637
 20
-140.645966
 11
340.521667
 21
-140.645966
  0
LINE
  8
0
  6
CENTER
 62
     2
 10
184.891876
 20
-203.645981
 11
200.521667
 21
-203.645981
  0
LINE
  8
0
  6
CENTER
 62
     2
 10
185.347443
 20
-178.645966
 11
200.521667
 21
-178.645966
  0
LINE
  8
0
  6
CENTER
 62
     2
 10
184.891876
 20
-156.645981
 11
200.521667
 21
-156.645981
  0
LINE
  8
0
  6
CENTER
 62
     2
 10
193.021667
 20
-211.125839
 11
193.021667
 21
-194.952454
  0
LINE
  8
0
  6
CENTER
 62
     2
 10
179.021667
 20
-197.458176
 11
179.021667
 21
-181.968201
  0
LINE
  8
0
  6
CENTER
 62
     2
 10
172.135376
 20
-189.645981
 11
185.803040
 21
-189.645981
  0
LINE
  8
0
  6
CENTER
 62
     2
 10
173.502136
 20
-167.645996
 11
185.575226
 21
-167.645996
  0
LINE
  8
0
  6
CENTER
 62
     2
 10
179.021667
 20
-175.589951
 11
179.021667
 21
-160.327728
  0
LINE
  8
0
  6
CENTER
 62
     2
 10
193.021667
 20
-163.516861
 11
193.021667
 21
-148.938034
  0
LINE
  8
0
  6
CENTER
 62
     2
 10
193.021667
 20
-186.068481
 11
193.021667
 21
-170.806259
  0
LINE
  8
0
 10
153.021698
 20
-222.645966
 11
153.021698
 21
-220.645966
  0
LINE
  8
0
 10
153.021698
 20
-222.645966
 11
146.021698
 21
-222.645966
  0
LINE
  8
0
 10
146.021698
 20
-222.645966
 11
146.021698
 21
-220.645966
  0
LINE
  8
0
 10
152.021698
 20
-221.645966
 11
147.021698
 21
-221.645966
  0
LINE
  8
0
 10
147.021667
 20
-221.646042
 11
145.021667
 21
-219.646042
  0
LINE
  8
0
 10
152.021606
 20
-221.645905
 11
154.021606
 21
-219.645905
  0
LINE
  8
0
  6
CENTER
 62
     2
 10
149.521698
 20
-217.609619
 11
149.521698
 21
-223.500381
  0
LINE
  8
0
 10
181.021698
 20
-222.645966
 11
181.021698
 21
-220.645966
  0
LINE
  8
0
 10
181.021698
 20
-222.645966
 11
174.021698
 21
-222.645966
  0
LINE
  8
0
 10
174.021698
 20
-222.645966
 11
174.021698
 21
-220.645966
  0
LINE
  8
0
 10
180.021698
 20
-221.645966
 11
175.021698
 21
-221.645966
  0
LINE
  8
0
 10
175.021652
 20
-221.645996
 11
173.021637
 21
-219.645996
  0
LINE
  8
0
 10
180.021667
 20
-221.645844
 11
182.021667
 21
-219.645844
  0
LINE
  8
0
  6
CENTER
 62
     2
 10
177.521698
 20
-217.609619
 11
177.521698
 21
-223.500381
  0
LINE
  8
0
 10
200.521637
 20
-218.645996
 11
172.521667
 21
-218.645996
  0
LINE
  8
0
 10
312.521637
 20
-219.645981
 11
340.521667
 21
-219.645981
  0
LINE
  8
0
 10
209.021698
 20
-222.645966
 11
209.021698
 21
-220.645966
  0
LINE
  8
0
 10
209.021698
 20
-222.645966
 11
202.021698
 21
-222.645966
  0
LINE
  8
0
 10
202.021698
 20
-222.645966
 11
202.021698
 21
-220.645966
  0
LINE
  8
0
 10
208.021698
 20
-221.645966
 11
203.021698
 21
-221.645966
  0
LINE
  8
0
 10
203.021652
 20
-221.646027
 11
201.021652
 21
-219.646027
  0
LINE
  8
0
 10
208.021591
 20
-221.645813
 11
210.021591
 21
-219.645813
  0
LINE
  8
0
 10
228.521667
 20
-219.645981
 11
228.521667
 21
-140.645966
  0
LINE
  8
0
 10
203.021667
 20
-94.145996
 11
226.021667
 21
-94.145996
  0
LINE
  8
0
 10
203.021667
 20
-97.645996
 11
226.021667
 21
-97.645996
  0
LINE
  8
0
 10
229.021698
 20
-93.145996
 11
228.021698
 21
-93.145996
  0
LINE
  8
0
 10
228.021667
 20
-93.145996
 11
228.021667
 21
-94.145996
  0
LINE
  8
0
 10
228.021698
 20
-94.145996
 11
226.221619
 21
-94.145996
  0
LINE
  8
0
 10
226.221649
 20
-94.145996
 11
226.221649
 21
-133.145966
  0
LINE
  8
0
 10
228.021698
 20
-97.645996
 11
226.221619
 21
-97.645996
  0
LINE
  8
0
 10
228.021667
 20
-97.645996
 11
228.021667
 21
-140.645966
  0
LINE
  8
0
 10
227.021667
 20
-133.145966
 11
227.021667
 21
-140.645966
  0
LINE
  8
0
 10
228.521667
 20
-218.645996
 11
200.521637
 21
-218.645996
  0
LINE
  8
0
 10
201.021637
 20
-94.145996
 11
202.821655
 21
-94.145996
  0
LINE
  8
0
 10
202.021637
 20
-133.145996
 11
227.021667
 21
-133.145996
  0
LINE
  8
0
 10
201.021637
 20
-97.645996
 11
202.821655
 21
-97.645996
  0
LINE
  8
0
 10
202.021637
 20
-133.145966
 11
202.021637
 21
-140.645966
  0
LINE
  8
0
 10
202.821655
 20
-94.145996
 11
202.821655
 21
-133.145966
  0
LINE
  8
0
  6
CENTER
 62
     2
 10
205.521698
 20
-217.609619
 11
205.521698
 21
-223.500381
  0
LINE
  8
0
 10
201.021637
 20
-93.145996
 11
200.021637
 21
-93.145996
  0
LINE
  8
0
 10
201.021637
 20
-93.145996
 11
201.021637
 21
-94.145996
  0
LINE
  8
0
 10
201.021637
 20
-97.645996
 11
201.021637
 21
-140.645966
  0
LINE
  8
0
  6
CENTER
 62
     2
 10
212.891876
 20
-203.645981
 11
228.521667
 21
-203.645981
  0
LINE
  8
0
  6
CENTER
 62
     2
 10
213.347443
 20
-178.645966
 11
228.521667
 21
-178.645966
  0
LINE
  8
0
  6
CENTER
 62
     2
 10
212.891876
 20
-156.645981
 11
228.521667
 21
-156.645981
  0
LINE
  8
0
  6
CENTER
 62
     2
 10
221.021667
 20
-211.125839
 11
221.021667
 21
-194.952454
  0
LINE
  8
0
  6
CENTER
 62
     2
 10
207.021667
 20
-197.458176
 11
207.021667
 21
-181.968201
  0
LINE
  8
0
  6
CENTER
 62
     2
 10
200.135406
 20
-189.645981
 11
213.803009
 21
-189.645981
  0
LINE
  8
0
  6
CENTER
 62
     2
 10
201.502136
 20
-167.645996
 11
213.575226
 21
-167.645996
  0
LINE
  8
0
  6
CENTER
 62
     2
 10
207.021667
 20
-175.589951
 11
207.021667
 21
-160.327728
  0
LINE
  8
0
  6
CENTER
 62
     2
 10
221.021667
 20
-163.516861
 11
221.021667
 21
-148.938034
  0
LINE
  8
0
  6
CENTER
 62
     2
 10
221.021667
 20
-186.068481
 11
221.021667
 21
-170.806259
  0
LINE
  8
0
 10
203.021667
 20
-94.145996
 11
203.021667
 21
-133.145996
  0
LINE
  8
0
 10
226.021667
 20
-94.145996
 11
226.021667
 21
-133.145996
  0
LINE
  8
0
 10
200.521637
 20
-140.645966
 11
228.521667
 21
-140.645966
  0
LINE
  8
0
 10
200.521637
 20
-219.645981
 11
228.521667
 21
-219.645981
  0
LINE
  8
0
 10
237.021698
 20
-222.645966
 11
237.021698
 21
-220.645966
  0
LINE
  8
0
 10
237.021698
 20
-222.645966
 11
230.021698
 21
-222.645966
  0
LINE
  8
0
 10
230.021698
 20
-222.645966
 11
230.021698
 21
-220.645966
  0
LINE
  8
0
 10
236.021698
 20
-221.645966
 11
231.021698
 21
-221.645966
  0
LINE
  8
0
 10
231.021637
 20
-221.646072
 11
229.021637
 21
-219.646072
  0
LINE
  8
0
 10
236.021576
 20
-221.645859
 11
238.021591
 21
-219.645844
  0
LINE
  8
0
 10
256.521667
 20
-219.645981
 11
256.521667
 21
-140.645966
  0
LINE
  8
0
 10
231.021667
 20
-94.145996
 11
254.021667
 21
-94.145996
  0
LINE
  8
0
 10
231.021667
 20
-97.645996
 11
254.021667
 21
-97.645996
  0
LINE
  8
0
 10
257.021698
 20
-93.145996
 11
256.021698
 21
-93.145996
  0
LINE
  8
0
 10
256.021667
 20
-93.145996
 11
256.021667
 21
-94.145996
  0
LINE
  8
0
 10
256.021698
 20
-94.145996
 11
254.221619
 21
-94.145996
  0
LINE
  8
0
 10
254.221649
 20
-94.145996
 11
254.221649
 21
-133.145966
  0
LINE
  8
0
 10
256.021698
 20
-97.645996
 11
254.221619
 21
-97.645996
  0
LINE
  8
0
 10
256.021667
 20
-97.645996
 11
256.021667
 21
-140.645966
  0
LINE
  8
0
 10
255.021667
 20
-133.145966
 11
255.021667
 21
-140.645966
  0
LINE
  8
0
 10
256.521667
 20
-218.645996
 11
228.521637
 21
-218.645996
  0
LINE
  8
0
 10
229.021637
 20
-94.145996
 11
230.821655
 21
-94.145996
  0
LINE
  8
0
 10
230.021637
 20
-133.145996
 11
255.021667
 21
-133.145996
  0
LINE
  8
0
 10
229.021637
 20
-97.645996
 11
230.821655
 21
-97.645996
  0
LINE
  8
0
 10
230.021637
 20
-133.145966
 11
230.021637
 21
-140.645966
  0
LINE
  8
0
 10
230.821655
 20
-94.145996
 11
230.821655
 21
-133.145966
  0
LINE
  8
0
  6
CENTER
 62
     2
 10
233.521698
 20
-217.609619
 11
233.521698
 21
-223.500381
  0
LINE
  8
0
 10
229.021637
 20
-93.145996
 11
229.021637
 21
-94.145996
  0
LINE
  8
0
 10
229.021637
 20
-97.645996
 11
229.021637
 21
-140.645966
  0
LINE
  8
0
  6
CENTER
 62
     2
 10
240.891876
 20
-203.645981
 11
256.521667
 21
-203.645981
  0
LINE
  8
0
  6
CENTER
 62
     2
 10
241.347443
 20
-178.645966
 11
256.521667
 21
-178.645966
  0
LINE
  8
0
  6
CENTER
 62
     2
 10
240.891876
 20
-156.645981
 11
256.521667
 21
-156.645981
  0
LINE
  8
0
  6
CENTER
 62
     2
 10
249.021667
 20
-211.125839
 11
249.021667
 21
-194.952454
  0
LINE
  8
0
  6
CENTER
 62
     2
 10
235.021667
 20
-197.458176
 11
235.021667
 21
-181.968201
  0
LINE
  8
0
  6
CENTER
 62
     2
 10
228.135406
 20
-189.645981
 11
241.803009
 21
-189.645981
  0
LINE
  8
0
  6
CENTER
 62
     2
 10
229.502136
 20
-167.645996
 11
241.575226
 21
-167.645996
  0
LINE
  8
0
  6
CENTER
 62
     2
 10
235.021667
 20
-175.589951
 11
235.021667
 21
-160.327728
  0
LINE
  8
0
  6
CENTER
 62
     2
 10
249.021667
 20
-163.516861
 11
249.021667
 21
-148.938034
  0
LINE
  8
0
  6
CENTER
 62
     2
 10
249.021667
 20
-186.068481
 11
249.021667
 21
-170.806259
  0
LINE
  8
0
 10
231.021667
 20
-94.145996
 11
231.021667
 21
-133.145996
  0
LINE
  8
0
 10
254.021667
 20
-94.145996
 11
254.021667
 21
-133.145996
  0
LINE
  8
0
 10
228.521637
 20
-140.645966
 11
256.521667
 21
-140.645966
  0
LINE
  8
0
 10
228.521637
 20
-219.645981
 11
256.521667
 21
-219.645981
  0
LINE
  8
0
 10
265.021698
 20
-222.645966
 11
265.021698
 21
-220.645966
  0
LINE
  8
0
 10
265.021698
 20
-222.645966
 11
258.021698
 21
-222.645966
  0
LINE
  8
0
 10
258.021698
 20
-222.645966
 11
258.021698
 21
-220.645966
  0
LINE
  8
0
 10
264.021698
 20
-221.645966
 11
259.021698
 21
-221.645966
  0
LINE
  8
0
 10
259.021637
 20
-221.646011
 11
257.021637
 21
-219.646011
  0
LINE
  8
0
 10
264.021545
 20
-221.645889
 11
266.021545
 21
-219.645889
  0
LINE
  8
0
 10
284.521667
 20
-219.645981
 11
284.521667
 21
-140.645966
  0
LINE
  8
0
 10
259.021667
 20
-94.145996
 11
282.021667
 21
-94.145996
  0
LINE
  8
0
 10
259.021667
 20
-97.645996
 11
282.021667
 21
-97.645996
  0
LINE
  8
0
 10
285.021698
 20
-93.145996
 11
284.021698
 21
-93.145996
  0
LINE
  8
0
 10
284.021667
 20
-93.145996
 11
284.021667
 21
-94.145996
  0
LINE
  8
0
 10
284.021698
 20
-94.145996
 11
282.221619
 21
-94.145996
  0
LINE
  8
0
 10
282.221649
 20
-94.145996
 11
282.221649
 21
-133.145966
  0
LINE
  8
0
 10
284.021698
 20
-97.645996
 11
282.221619
 21
-97.645996
  0
LINE
  8
0
 10
284.021667
 20
-97.645996
 11
284.021667
 21
-140.645966
  0
LINE
  8
0
 10
283.021667
 20
-133.145966
 11
283.021667
 21
-140.645966
  0
LINE
  8
0
 10
284.521667
 20
-218.645996
 11
256.521637
 21
-218.645996
  0
LINE
  8
0
 10
257.021637
 20
-94.145996
 11
258.821655
 21
-94.145996
  0
LINE
  8
0
 10
258.021637
 20
-133.145996
 11
283.021667
 21
-133.145996
  0
LINE
  8
0
 10
257.021637
 20
-97.645996
 11
258.821655
 21
-97.645996
  0
LINE
  8
0
 10
258.021637
 20
-133.145966
 11
258.021637
 21
-140.645966
  0
LINE
  8
0
 10
258.821655
 20
-94.145996
 11
258.821655
 21
-133.145966
  0
LINE
  8
0
  6
CENTER
 62
     2
 10
261.521698
 20
-217.609619
 11
261.521698
 21
-223.500381
  0
LINE
  8
0
 10
257.021637
 20
-93.145996
 11
257.021637
 21
-94.145996
  0
LINE
  8
0
 10
257.021637
 20
-97.645996
 11
257.021637
 21
-140.645966
  0
LINE
  8
0
  6
CENTER
 62
     2
 10
268.891876
 20
-203.645981
 11
284.521667
 21
-203.645981
  0
LINE
  8
0
  6
CENTER
 62
     2
 10
269.347443
 20
-178.645966
 11
284.521667
 21
-178.645966
  0
LINE
  8
0
  6
CENTER
 62
     2
 10
268.891876
 20
-156.645981
 11
284.521667
 21
-156.645981
  0
LINE
  8
0
  6
CENTER
 62
     2
 10
277.021667
 20
-211.125839
 11
277.021667
 21
-194.952454
  0
LINE
  8
0
  6
CENTER
 62
     2
 10
263.021667
 20
-197.458176
 11
263.021667
 21
-181.968201
  0
LINE
  8
0
  6
CENTER
 62
     2
 10
256.135406
 20
-189.645981
 11
269.803009
 21
-189.645981
  0
LINE
  8
0
  6
CENTER
 62
     2
 10
257.502136
 20
-167.645996
 11
269.575226
 21
-167.645996
  0
LINE
  8
0
  6
CENTER
 62
     2
 10
263.021667
 20
-175.589951
 11
263.021667
 21
-160.327728
  0
LINE
  8
0
  6
CENTER
 62
     2
 10
277.021667
 20
-163.516861
 11
277.021667
 21
-148.938034
  0
LINE
  8
0
  6
CENTER
 62
     2
 10
277.021667
 20
-186.068481
 11
277.021667
 21
-170.806259
  0
LINE
  8
0
 10
259.021667
 20
-94.145996
 11
259.021667
 21
-133.145996
  0
LINE
  8
0
 10
282.021667
 20
-94.145996
 11
282.021667
 21
-133.145996
  0
LINE
  8
0
 10
256.521637
 20
-140.645966
 11
284.521667
 21
-140.645966
  0
LINE
  8
0
 10
256.521637
 20
-219.645981
 11
284.521667
 21
-219.645981
  0
LINE
  8
0
 10
293.021698
 20
-222.645966
 11
293.021698
 21
-220.645966
  0
LINE
  8
0
 10
293.021698
 20
-222.645966
 11
286.021698
 21
-222.645966
  0
LINE
  8
0
 10
286.021698
 20
-222.645966
 11
286.021698
 21
-220.645966
  0
LINE
  8
0
 10
292.021698
 20
-221.645966
 11
287.021698
 21
-221.645966
  0
LINE
  8
0
 10
287.021667
 20
-221.646057
 11
285.021667
 21
-219.646057
  0
LINE
  8
0
 10
292.021606
 20
-221.645874
 11
294.021606
 21
-219.645874
  0
LINE
  8
0
 10
312.521667
 20
-219.645981
 11
312.521667
 21
-140.645966
  0
LINE
  8
0
 10
287.021667
 20
-97.645996
 11
338.021667
 21
-97.645996
  0
LINE
  8
0
 10
312.521667
 20
-218.645996
 11
284.521637
 21
-218.645996
  0
LINE
  8
0
 10
285.021637
 20
-94.145996
 11
286.821655
 21
-94.145996
  0
LINE
  8
0
 10
286.021637
 20
-133.145996
 11
339.021667
 21
-133.145996
  0
LINE
  8
0
 10
285.021637
 20
-97.645996
 11
286.821655
 21
-97.645996
  0
LINE
  8
0
 10
286.021637
 20
-133.145966
 11
286.021637
 21
-140.645966
  0
LINE
  8
0
 10
286.821655
 20
-94.145996
 11
286.821655
 21
-133.145966
  0
LINE
  8
0
  6
CENTER
 62
     2
 10
289.521698
 20
-217.609619
 11
289.521698
 21
-223.500381
  0
LINE
  8
0
 10
285.021637
 20
-93.145996
 11
285.021637
 21
-94.145996
  0
LINE
  8
0
 10
285.021637
 20
-97.645996
 11
285.021637
 21
-140.645966
  0
LINE
  8
0
  6
CENTER
 62
     2
 10
296.891876
 20
-203.645981
 11
312.521667
 21
-203.645981
  0
LINE
  8
0
  6
CENTER
 62
     2
 10
297.347443
 20
-178.645966
 11
312.521667
 21
-178.645966
  0
LINE
  8
0
  6
CENTER
 62
     2
 10
296.891876
 20
-156.645981
 11
312.521667
 21
-156.645981
  0
LINE
  8
0
  6
CENTER
 62
     2
 10
305.021667
 20
-211.125839
 11
305.021667
 21
-194.952454
  0
LINE
  8
0
  6
CENTER
 62
     2
 10
291.021667
 20
-197.458176
 11
291.021667
 21
-181.968201
  0
LINE
  8
0
  6
CENTER
 62
     2
 10
284.135406
 20
-189.645981
 11
297.803009
 21
-189.645981
  0
LINE
  8
0
  6
CENTER
 62
     2
 10
285.502136
 20
-167.645996
 11
297.575226
 21
-167.645996
  0
LINE
  8
0
  6
CENTER
 62
     2
 10
291.021667
 20
-175.589951
 11
291.021667
 21
-160.327728
  0
LINE
  8
0
  6
CENTER
 62
     2
 10
305.021667
 20
-163.516861
 11
305.021667
 21
-148.938034
  0
LINE
  8
0
  6
CENTER
 62
     2
 10
305.021667
 20
-186.068481
 11
305.021667
 21
-170.806259
  0
LINE
  8
0
 10
287.021667
 20
-94.145996
 11
287.021667
 21
-133.145996
  0
LINE
  8
0
 10
284.521637
 20
-140.645966
 11
312.521667
 21
-140.645966
  0
LINE
  8
0
 10
284.521637
 20
-219.645981
 11
312.521667
 21
-219.645981
  0
LINE
  8
0
 10
341.021729
 20
-93.145996
 11
341.021729
 21
-140.645966
  0
LINE
  8
0
 10
343.221741
 20
-94.145966
 11
343.221741
 21
-140.645966
  0
ARC
  8
0
 10
-130.921692
 20
184.854034
 40
1.000000
 50
90.000000
 51
180.000000
  0
ARC
  8
0
 10
-139.421692
 20
131.854034
 40
2.500000
 50
270.000000
 51
90.000000
  0
ARC
  8
0
 10
-142.421692
 20
72.754028
 40
2.000000
 50
90.000000
 51
180.000000
  0
ARC
  8
0
 10
-139.421692
 20
67.854034
 40
2.500000
 50
270.000000
 51
90.000000
  0
ARC
  8
0
 10
-142.421692
 20
62.354034
 40
2.000000
 50
180.000000
 51
270.000000
  0
ARC
  8
0
 10
-133.921707
 20
76.754028
 40
2.000000
 50
270.000000
 51
0.000000
  0
ARC
  8
0
 10
-142.421692
 20
137.354019
 40
2.000000
 50
90.000000
 51
180.000000
  0
ARC
  8
0
 10
-142.421692
 20
126.954041
 40
2.000000
 50
180.000000
 51
270.000000
  0
ARC
  8
0
 10
-133.921707
 20
122.954041
 40
2.000000
 50
0.000000
 51
90.000000
  0
ARC
  8
0
 10
-59.921753
 20
171.854050
 40
1.000000
 50
0.000000
 51
90.000000
  0
ARC
  8
0
 10
-121.921753
 20
171.854034
 40
1.000000
 50
90.000000
 51
180.000000
  0
ARC
  8
0
 10
-121.921722
 20
61.854034
 40
1.000000
 50
180.000000
 51
270.000000
  0
ARC
  8
0
 10
-59.921722
 20
61.854050
 40
1.000000
 50
270.000000
 51
0.000000
  0
ARC
  8
0
 10
-60.121719
 20
53.054047
 40
0.200001
 50
270.000000
 51
0.000000
  0
ARC
  8
0
 10
-122.921722
 20
60.121994
 40
1.000000
 50
0.000000
 51
59.999962
  0
ARC
  8
0
 10
-58.921722
 20
60.122009
 40
1.000002
 50
119.999931
 51
180.000000
  0
ARC
  8
0
 10
-111.921722
 20
61.854034
 40
1.000000
 50
180.000000
 51
270.000000
  0
ARC
  8
0
 10
-111.921745
 20
171.854034
 40
1.000000
 50
90.000000
 51
180.000000
  0
CIRCLE
  8
0
 10
-106.921745
 20
166.854034
 40
4.150000
  0
CIRCLE
  8
0
 10
-106.921722
 20
66.854034
 40
4.150000
  0
ARC
  8
0
 10
-106.921745
 20
166.854034
 40
5.000000
 50
270.000000
 51
0.000000
  0
ARC
  8
0
 10
-64.921753
 20
166.854050
 40
5.000000
 50
180.000000
 51
270.000000
  0
ARC
  8
0
 10
-64.921722
 20
66.854050
 40
5.000000
 50
90.000000
 51
180.000000
  0
ARC
  8
0
 10
-106.921722
 20
66.854034
 40
5.000000
 50
0.000000
 51
90.000000
  0
ARC
  8
0
 10
-112.921707
 20
28.054031
 40
4.999992
 50
209.999924
 51
330.000061
  0
ARC
  8
0
 10
-100.921722
 20
28.054031
 40
5.000003
 50
209.999954
 51
330.000031
  0
ARC
  8
0
 10
-80.921722
 20
28.054047
 40
4.999992
 50
209.999924
 51
330.000061
  0
ARC
  8
0
 10
-68.921722
 20
28.054047
 40
5.000003
 50
209.999954
 51
330.000031
  0
CIRCLE
  8
0
 10
-116.921738
 20
166.854034
 40
3.150000
  0
CIRCLE
  8
0
 10
-85.921722
 20
68.804062
 40
2.799999
  0
CIRCLE
  8
0
 10
-64.921722
 20
66.854050
 40
4.150000
  0
CIRCLE
  8
0
 10
-64.921753
 20
166.854050
 40
4.150000
  0
CIRCLE
  8
0
 10
-116.921722
 20
66.854034
 40
3.150000
  0
ARC
  8
0
 10
99.078293
 20
184.854034
 40
1.000000
 50
0.000000
 51
90.000000
  0
ARC
  8
0
 10
107.578293
 20
131.854034
 40
2.500000
 50
90.000000
 51
180.000000
  0
ARC
  8
0
 10
107.578293
 20
131.854034
 40
2.500000
 50
180.000000
 51
270.000000
  0
ARC
  8
0
 10
110.578293
 20
72.754028
 40
2.000000
 50
0.000000
 51
90.000000
  0
ARC
  8
0
 10
107.578293
 20
67.854034
 40
2.500000
 50
90.000000
 51
180.000000
  0
ARC
  8
0
 10
107.578293
 20
67.854034
 40
2.500000
 50
180.000000
 51
270.000000
  0
ARC
  8
0
 10
110.578293
 20
62.354034
 40
2.000000
 50
270.000000
 51
0.000000
  0
ARC
  8
0
 10
102.078308
 20
76.754028
 40
2.000000
 50
180.000000
 51
270.000000
  0
ARC
  8
0
 10
110.578293
 20
137.354019
 40
2.000000
 50
0.000000
 51
90.000000
  0
ARC
  8
0
 10
110.578293
 20
126.954041
 40
2.000000
 50
270.000000
 51
0.000000
  0
ARC
  8
0
 10
102.078308
 20
122.954041
 40
2.000000
 50
90.000000
 51
180.000000
  0
ARC
  8
0
 10
-34.921722
 20
106.354034
 40
3.000000
 50
0.000000
 51
0.399688
  0
ARC
  8
0
 10
-34.921722
 20
106.854042
 40
3.000000
 50
0.000000
 51
2.505128
  0
ARC
  8
0
 10
-52.921722
 20
113.854042
 40
3.000000
 50
0.000000
 51
90.000000
  0
ARC
  8
0
 10
-52.921722
 20
87.854042
 40
3.000000
 50
0.000000
 51
90.000000
  0
ARC
  8
0
 10
-34.921722
 20
80.854050
 40
2.500000
 50
90.000000
 51
270.000000
  0
ARC
  8
0
 10
-51.921722
 20
120.854034
 40
2.500000
 50
0.000000
 51
90.000000
  0
ARC
  8
0
 10
-52.921722
 20
87.854042
 40
3.000000
 50
270.000000
 51
0.000000
  0
ARC
  8
0
 10
-52.921722
 20
113.854042
 40
3.000000
 50
270.000000
 51
0.000000
  0
ARC
  8
0
 10
-34.921722
 20
105.854042
 40
3.000000
 50
90.000000
 51
270.000000
  0
ARC
  8
0
 10
-51.921722
 20
120.854034
 40
2.500000
 50
270.000000
 51
0.000000
  0
CIRCLE
  8
0
 10
-52.921722
 20
87.854042
 40
2.500000
  0
CIRCLE
  8
0
 10
-52.921722
 20
113.854042
 40
2.500000
  0
CIRCLE
  8
0
 10
-34.921722
 20
105.854042
 40
2.500000
  0
CIRCLE
  8
0
 10
-34.921722
 20
80.854050
 40
2.250000
  0
CIRCLE
  8
0
 10
-51.921722
 20
120.854034
 40
2.250000
  0
CIRCLE
  8
0
 10
-43.921722
 20
141.354034
 40
2.299999
  0
CIRCLE
  8
0
 10
-43.921722
 20
141.354034
 40
2.200000
  0
CIRCLE
  8
0
 10
-43.921722
 20
141.354034
 40
1.500000
  0
ARC
  8
0
 62
     4
 10
-52.671722
 20
166.554047
 40
2.000000
 50
90.000000
 51
180.000000
  0
ARC
  8
0
 62
     4
 10
-51.171722
 20
166.554047
 40
2.000000
 50
0.000000
 51
90.000000
  0
ARC
  8
0
 62
     4
 10
-36.671722
 20
166.554047
 40
2.000000
 50
90.000000
 51
139.458374
  0
ARC
  8
0
 62
     4
 10
-35.171722
 20
166.554047
 40
2.000000
 50
90.000000
 51
95.183693
  0
ARC
  8
0
 62
     4
 10
-35.171722
 20
166.554047
 40
2.000001
 50
40.541695
 51
90.000000
  0
ARC
  8
0
 10
-34.921722
 20
105.354034
 40
3.000000
 50
0.000000
 51
0.399688
  0
ARC
  8
0
 10
-34.921722
 20
105.854034
 40
3.000000
 50
0.000000
 51
2.505128
  0
ARC
  8
0
 10
-34.921722
 20
105.854034
 40
3.000000
 50
0.000000
 51
2.440371
  0
ARC
  8
0
 10
-6.921722
 20
106.354034
 40
3.000000
 50
0.000000
 51
0.399688
  0
ARC
  8
0
 10
-6.921722
 20
106.854042
 40
3.000000
 50
0.000000
 51
2.505128
  0
ARC
  8
0
 10
-24.921722
 20
113.854042
 40
3.000000
 50
0.000000
 51
90.000000
  0
ARC
  8
0
 10
-24.921722
 20
87.854042
 40
3.000000
 50
0.000000
 51
90.000000
  0
ARC
  8
0
 10
-6.921722
 20
80.854050
 40
2.500000
 50
89.999977
 51
270.000000
  0
ARC
  8
0
 10
-23.921722
 20
120.854034
 40
2.500000
 50
0.000000
 51
90.000000
  0
ARC
  8
0
 10
-24.921722
 20
87.854042
 40
3.000000
 50
270.000000
 51
0.000000
  0
ARC
  8
0
 10
-24.921722
 20
113.854042
 40
3.000000
 50
270.000000
 51
0.000000
  0
ARC
  8
0
 10
-6.921722
 20
105.854042
 40
3.000000
 50
89.999985
 51
270.000000
  0
ARC
  8
0
 10
-23.921722
 20
120.854034
 40
2.500000
 50
270.000000
 51
0.000000
  0
CIRCLE
  8
0
 10
-24.921722
 20
87.854042
 40
2.500000
  0
CIRCLE
  8
0
 10
-24.921722
 20
113.854042
 40
2.500000
  0
CIRCLE
  8
0
 10
-6.921722
 20
105.854042
 40
2.500000
  0
CIRCLE
  8
0
 10
-6.921722
 20
80.854050
 40
2.250000
  0
CIRCLE
  8
0
 10
-23.921722
 20
120.854034
 40
2.250000
  0
CIRCLE
  8
0
 10
-15.921722
 20
141.354034
 40
2.299999
  0
CIRCLE
  8
0
 10
-15.921722
 20
141.354034
 40
2.200000
  0
CIRCLE
  8
0
 10
-15.921722
 20
141.354034
 40
1.500000
  0
ARC
  8
0
 62
     4
 10
-24.671722
 20
166.554047
 40
2.000000
 50
90.000000
 51
180.000000
  0
ARC
  8
0
 62
     4
 10
-23.171722
 20
166.554047
 40
2.000000
 50
0.000000
 51
90.000000
  0
ARC
  8
0
 62
     4
 10
-8.671722
 20
166.554047
 40
2.000000
 50
89.999969
 51
139.458344
  0
ARC
  8
0
 62
     4
 10
-7.171722
 20
166.554047
 40
2.000000
 50
89.999985
 51
95.183655
  0
ARC
  8
0
 62
     4
 10
-7.171722
 20
166.554047
 40
2.000002
 50
40.541660
 51
89.999985
  0
ARC
  8
0
 10
-6.921722
 20
105.354034
 40
3.000000
 50
0.000000
 51
0.399688
  0
ARC
  8
0
 10
-6.921722
 20
105.854034
 40
3.000000
 50
0.000000
 51
2.505128
  0
ARC
  8
0
 10
-6.921722
 20
105.854034
 40
3.000000
 50
0.000000
 51
2.440372
  0
ARC
  8
0
 10
21.078278
 20
106.354034
 40
3.000000
 50
0.000000
 51
0.399688
  0
ARC
  8
0
 10
21.078278
 20
106.854034
 40
3.000000
 50
0.000000
 51
2.505128
  0
ARC
  8
0
 10
3.078278
 20
113.854034
 40
3.000000
 50
0.000000
 51
89.999985
  0
ARC
  8
0
 10
3.078278
 20
87.854034
 40
3.000000
 50
0.000000
 51
89.999985
  0
ARC
  8
0
 10
21.078278
 20
80.854034
 40
2.500000
 50
90.000000
 51
270.000000
  0
ARC
  8
0
 10
4.078278
 20
120.854034
 40
2.500000
 50
0.000000
 51
89.999977
  0
ARC
  8
0
 10
3.078278
 20
87.854034
 40
3.000000
 50
270.000031
 51
0.000000
  0
ARC
  8
0
 10
3.078278
 20
113.854034
 40
3.000000
 50
270.000031
 51
0.000000
  0
ARC
  8
0
 10
21.078278
 20
105.854034
 40
3.000000
 50
90.000000
 51
270.000000
  0
ARC
  8
0
 10
4.078278
 20
120.854034
 40
2.500000
 50
270.000031
 51
0.000000
  0
CIRCLE
  8
0
 10
3.078278
 20
87.854034
 40
2.500000
  0
CIRCLE
  8
0
 10
3.078278
 20
113.854034
 40
2.500000
  0
CIRCLE
  8
0
 10
21.078278
 20
105.854034
 40
2.500000
  0
CIRCLE
  8
0
 10
21.078278
 20
80.854034
 40
2.250000
  0
CIRCLE
  8
0
 10
4.078278
 20
120.854034
 40
2.250000
  0
CIRCLE
  8
0
 10
12.078278
 20
60.354034
 40
2.299999
  0
CIRCLE
  8
0
 10
12.078278
 20
60.354034
 40
2.200000
  0
CIRCLE
  8
0
 10
12.078278
 20
60.354034
 40
1.500000
  0
ARC
  8
0
 62
     4
 10
20.828278
 20
35.154037
 40
2.000000
 50
270.000000
 51
0.000000
  0
ARC
  8
0
 62
     4
 10
19.328278
 20
35.154037
 40
2.000000
 50
180.000000
 51
270.000000
  0
ARC
  8
0
 62
     4
 10
4.828278
 20
35.154037
 40
2.000000
 50
270.000000
 51
319.458435
  0
ARC
  8
0
 62
     4
 10
3.328278
 20
35.154037
 40
2.000000
 50
270.000031
 51
275.183685
  0
ARC
  8
0
 62
     4
 10
3.328278
 20
35.154037
 40
1.999999
 50
220.541595
 51
270.000031
  0
CIRCLE
  8
0
 10
12.078278
 20
141.354034
 40
2.299999
  0
CIRCLE
  8
0
 10
12.078278
 20
141.354034
 40
2.200000
  0
CIRCLE
  8
0
 10
12.078278
 20
141.354034
 40
1.500000
  0
ARC
  8
0
 62
     4
 10
3.328278
 20
166.554031
 40
2.000000
 50
89.999977
 51
180.000000
  0
ARC
  8
0
 62
     4
 10
4.828278
 20
166.554031
 40
2.000000
 50
0.000000
 51
89.999985
  0
ARC
  8
0
 62
     4
 10
19.328278
 20
166.554031
 40
2.000000
 50
90.000000
 51
139.458344
  0
ARC
  8
0
 62
     4
 10
20.828278
 20
166.554031
 40
2.000000
 50
90.000000
 51
95.183640
  0
ARC
  8
0
 62
     4
 10
20.828278
 20
166.554031
 40
2.000002
 50
40.541660
 51
90.000000
  0
ARC
  8
0
 10
21.078278
 20
105.354034
 40
3.000000
 50
0.000000
 51
0.399688
  0
ARC
  8
0
 10
21.078278
 20
105.854034
 40
3.000000
 50
0.000000
 51
2.505128
  0
ARC
  8
0
 10
21.078278
 20
105.854034
 40
3.000000
 50
0.000000
 51
2.440371
  0
ARC
  8
0
 10
49.078293
 20
106.354034
 40
3.000000
 50
0.000000
 51
0.399688
  0
ARC
  8
0
 10
49.078293
 20
106.854034
 40
3.000000
 50
0.000000
 51
2.505129
  0
ARC
  8
0
 10
31.078293
 20
113.854034
 40
3.000000
 50
0.000000
 51
90.000000
  0
ARC
  8
0
 10
31.078293
 20
87.854034
 40
3.000000
 50
0.000000
 51
90.000000
  0
ARC
  8
0
 10
49.078293
 20
80.854034
 40
2.500000
 50
90.000000
 51
270.000000
  0
ARC
  8
0
 10
32.078293
 20
120.854034
 40
2.500000
 50
0.000000
 51
90.000000
  0
ARC
  8
0
 10
31.078293
 20
87.854034
 40
3.000000
 50
270.000000
 51
0.000000
  0
ARC
  8
0
 10
31.078293
 20
113.854034
 40
3.000000
 50
270.000000
 51
0.000000
  0
ARC
  8
0
 10
49.078293
 20
105.854034
 40
3.000000
 50
90.000000
 51
270.000000
  0
ARC
  8
0
 10
32.078293
 20
120.854034
 40
2.500000
 50
270.000000
 51
0.000000
  0
CIRCLE
  8
0
 10
31.078293
 20
87.854034
 40
2.500000
  0
CIRCLE
  8
0
 10
31.078293
 20
113.854034
 40
2.500000
  0
CIRCLE
  8
0
 10
49.078293
 20
105.854034
 40
2.500000
  0
CIRCLE
  8
0
 10
49.078293
 20
80.854034
 40
2.250000
  0
CIRCLE
  8
0
 10
32.078293
 20
120.854034
 40
2.250000
  0
CIRCLE
  8
0
 10
40.078278
 20
45.354034
 40
2.299999
  0
CIRCLE
  8
0
 10
40.078278
 20
45.354034
 40
2.200000
  0
CIRCLE
  8
0
 10
40.078278
 20
45.354034
 40
1.500000
  0
ARC
  8
0
 62
     4
 10
48.828278
 20
20.154037
 40
2.000000
 50
270.000000
 51
0.000000
  0
ARC
  8
0
 62
     4
 10
47.328278
 20
20.154037
 40
2.000000
 50
179.999939
 51
270.000000
  0
ARC
  8
0
 62
     4
 10
32.828278
 20
20.154037
 40
2.000000
 50
270.000000
 51
319.458466
  0
ARC
  8
0
 62
     4
 10
31.328278
 20
20.154037
 40
2.000000
 50
270.000000
 51
275.183685
  0
ARC
  8
0
 62
     4
 10
31.328278
 20
20.154037
 40
2.000000
 50
220.541656
 51
270.000000
  0
CIRCLE
  8
0
 10
40.078293
 20
156.354034
 40
2.299999
  0
CIRCLE
  8
0
 10
40.078293
 20
156.354034
 40
2.200000
  0
CIRCLE
  8
0
 10
40.078293
 20
156.354034
 40
1.500000
  0
ARC
  8
0
 62
     4
 10
31.328293
 20
181.554031
 40
2.000000
 50
90.000000
 51
180.000000
  0
ARC
  8
0
 62
     4
 10
32.828293
 20
181.554031
 40
2.000000
 50
0.000000
 51
90.000000
  0
ARC
  8
0
 62
     4
 10
47.328293
 20
181.554031
 40
2.000000
 50
90.000000
 51
139.458374
  0
ARC
  8
0
 62
     4
 10
48.828293
 20
181.554031
 40
2.000000
 50
90.000000
 51
95.183693
  0
ARC
  8
0
 62
     4
 10
48.828293
 20
181.554031
 40
2.000001
 50
40.541695
 51
90.000000
  0
ARC
  8
0
 10
49.078293
 20
105.354034
 40
3.000000
 50
0.000000
 51
0.399688
  0
ARC
  8
0
 10
49.078293
 20
105.854034
 40
3.000000
 50
0.000000
 51
2.505129
  0
ARC
  8
0
 10
49.078293
 20
105.854034
 40
3.000000
 50
0.000000
 51
2.440371
  0
CIRCLE
  8
0
 62
     4
 10
59.078278
 20
87.854042
 40
2.500000
  0
CIRCLE
  8
0
 62
     4
 10
59.078278
 20
113.854042
 40
2.500000
  0
CIRCLE
  8
0
 62
     4
 10
77.078278
 20
105.854042
 40
2.500000
  0
ARC
  8
0
 62
     4
 10
77.078278
 20
105.354034
 40
3.000000
 50
0.000000
 51
0.399688
  0
ARC
  8
0
 62
     4
 10
77.078278
 20
105.854034
 40
3.000000
 50
0.000000
 51
2.505129
  0
ARC
  8
0
 62
     4
 10
77.078278
 20
105.854034
 40
3.000000
 50
0.000000
 51
2.440374
  0
CIRCLE
  8
0
 62
     2
 10
-315.385986
 20
75.854019
 40
4.899999
  0
CIRCLE
  8
0
 10
-315.385986
 20
75.854019
 40
4.299999
  0
CIRCLE
  8
0
 62
     2
 10
-335.386047
 20
116.854012
 40
6.600000
  0
CIRCLE
  8
0
 62
     2
 10
-320.386047
 20
101.854012
 40
6.600000
  0
CIRCLE
  8
0
 62
     2
 10
-335.386047
 20
85.853996
 40
6.600000
  0
CIRCLE
  8
0
 10
-335.386047
 20
116.854012
 40
5.750000
  0
CIRCLE
  8
0
 10
-320.386047
 20
101.854012
 40
5.750000
  0
CIRCLE
  8
0
 10
-335.386047
 20
85.853996
 40
5.750000
  0
ARC
  8
0
 10
-346.886017
 20
140.854004
 40
1.500000
 50
270.000000
 51
0.000000
  0
ARC
  8
0
 62
     4
 10
-277.136047
 20
181.554001
 40
2.000000
 50
90.000000
 51
180.000000
  0
ARC
  8
0
 62
     4
 10
-275.636047
 20
181.554001
 40
2.000000
 50
0.000000
 51
90.000000
  0
ARC
  8
0
 62
     4
 10
-297.136047
 20
181.554001
 40
2.000000
 50
90.000000
 51
139.458298
  0
ARC
  8
0
 62
     4
 10
-295.636017
 20
181.554001
 40
1.999997
 50
40.788437
 51
90.000000
  0
ARC
  8
0
 62
     4
 10
-297.136047
 20
181.554001
 40
1.999985
 50
175.902740
 51
180.000000
  0
ARC
  8
0
 62
     4
 10
-295.636017
 20
20.154022
 40
2.000000
 50
270.000000
 51
319.211639
  0
ARC
  8
0
 62
     4
 10
-297.136017
 20
20.154022
 40
2.000001
 50
220.541702
 51
270.000000
  0
ARC
  8
0
 10
-201.004074
 20
66.854034
 40
10.018056
 50
335.527802
 51
24.472187
  0
ARC
  8
0
 10
-201.004089
 20
166.854019
 40
10.018055
 50
335.527802
 51
24.472187
  0
ARC
  8
0
 10
-193.286026
 20
162.154007
 40
0.300003
 50
180.000000
 51
270.000000
  0
ARC
  8
0
 10
-193.886017
 20
171.599503
 40
0.300003
 50
0.000000
 51
89.210228
  0
ARC
  8
0
 10
-190.885986
 20
161.554031
 40
0.300003
 50
0.000000
 51
90.000000
  0
ARC
  8
0
 10
-191.586029
 20
170.867737
 40
1.000000
 50
0.000000
 51
89.209641
  0
ARC
  8
0
 10
-283.585999
 20
29.304077
 40
6.250085
 50
216.870468
 51
323.129517
  0
ARC
  8
0
 10
-296.478302
 20
29.303986
 40
6.250022
 50
269.514618
 51
323.129791
  0
ARC
  8
0
 10
-270.693726
 20
29.304008
 40
6.250024
 50
216.870193
 51
270.485382
  0
ARC
  8
0
 10
-265.786072
 20
166.853989
 40
4.599999
 50
320.484406
 51
39.515602
  0
ARC
  8
0
 10
-262.710510
 20
164.317322
 40
0.613327
 50
270.000000
 51
320.483521
  0
ARC
  8
0
 10
-262.710510
 20
169.390656
 40
0.613325
 50
39.516472
 51
90.000000
  0
ARC
  8
0
 10
-265.786011
 20
66.853989
 40
4.599997
 50
320.484436
 51
39.515602
  0
ARC
  8
0
 10
-262.710510
 20
64.317322
 40
0.613335
 50
270.000000
 51
320.483795
  0
ARC
  8
0
 10
-262.710510
 20
69.390656
 40
0.613325
 50
39.516472
 51
90.000000
  0
CIRCLE
  8
0
 10
-330.886017
 20
170.854004
 40
12.500000
  0
ARC
  8
0
 62
     4
 10
-263.386047
 20
22.854012
 40
0.500000
 50
270.000000
 51
0.000000
  0
ARC
  8
0
 62
     4
 10
-263.386047
 20
178.354034
 40
0.500000
 50
0.000000
 51
90.000000
  0
ARC
  8
0
 62
     4
 10
-297.136017
 20
35.154068
 40
2.000001
 50
220.541702
 51
270.000000
  0
ARC
  8
0
 62
     4
 10
-263.386047
 20
37.854050
 40
0.500000
 50
270.000000
 51
0.000000
  0
CIRCLE
  8
0
 62
     2
 10
303.302917
 20
75.854019
 40
4.899999
  0
CIRCLE
  8
0
 10
303.302917
 20
75.854019
 40
4.299999
  0
CIRCLE
  8
0
 62
     2
 10
323.302979
 20
116.854012
 40
6.600000
  0
CIRCLE
  8
0
 62
     2
 10
308.302979
 20
101.854012
 40
6.600000
  0
CIRCLE
  8
0
 62
     2
 10
323.302979
 20
85.853996
 40
6.600000
  0
CIRCLE
  8
0
 10
323.302979
 20
116.854012
 40
5.750000
  0
CIRCLE
  8
0
 10
308.302979
 20
101.854012
 40
5.750000
  0
CIRCLE
  8
0
 10
323.302979
 20
85.853996
 40
5.750000
  0
ARC
  8
0
 10
334.802948
 20
140.854004
 40
1.500000
 50
180.000000
 51
270.000000
  0
ARC
  8
0
 10
188.920975
 20
66.854034
 40
10.018058
 50
155.527771
 51
204.472183
  0
ARC
  8
0
 10
188.920990
 20
166.854019
 40
10.018055
 50
155.527817
 51
204.472183
  0
ARC
  8
0
 10
181.202927
 20
162.154007
 40
0.300003
 50
270.000000
 51
0.000000
  0
ARC
  8
0
 10
181.802917
 20
171.599503
 40
0.300001
 50
90.789772
 51
180.000000
  0
ARC
  8
0
 10
178.802887
 20
161.554031
 40
0.300003
 50
90.000000
 51
180.000000
  0
ARC
  8
0
 10
179.502930
 20
170.867737
 40
1.000004
 50
90.790359
 51
180.000000
  0
CIRCLE
  8
0
 10
318.802948
 20
170.854004
 40
12.500000
  0
ARC
  8
0
 10
254.802948
 20
81.654022
 40
1.700001
 50
121.466705
 51
180.000000
  0
ARC
  8
0
 10
254.802948
 20
80.054031
 40
1.699997
 50
180.000000
 51
238.532715
  0
ARC
  8
0
 10
255.602966
 20
106.854034
 40
2.000002
 50
118.956017
 51
180.000000
  0
ARC
  8
0
 10
255.602966
 20
104.854019
 40
2.000000
 50
180.000000
 51
241.043976
  0
ARC
  8
0
 62
     4
 10
289.702942
 20
113.854019
 40
5.000006
 50
150.507645
 51
209.492279
  0
ARC
  8
0
 62
     4
 10
285.931122
 20
115.987350
 40
0.666664
 50
90.000000
 51
150.508377
  0
ARC
  8
0
 62
     4
 10
285.931122
 20
111.720688
 40
0.666678
 50
209.492187
 51
270.000000
  0
ARC
  8
0
 62
     4
 10
289.702942
 20
105.854019
 40
5.000006
 50
150.507645
 51
209.492279
  0
ARC
  8
0
 62
     4
 10
285.931122
 20
107.987350
 40
0.666664
 50
90.000000
 51
150.508377
  0
ARC
  8
0
 62
     4
 10
285.931122
 20
103.720688
 40
0.666678
 50
209.492187
 51
270.000000
  0
ARC
  8
0
 62
     4
 10
289.702942
 20
87.854019
 40
5.000006
 50
150.507645
 51
209.492279
  0
ARC
  8
0
 62
     4
 10
285.931122
 20
89.987350
 40
0.666664
 50
90.000000
 51
150.508377
  0
ARC
  8
0
 62
     4
 10
285.931122
 20
85.720688
 40
0.666678
 50
209.492187
 51
270.000000
  0
ARC
  8
0
 62
     4
 10
251.302948
 20
23.354019
 40
0.500000
 50
180.000000
 51
270.000000
  0
ARC
  8
0
 62
     4
 10
265.052887
 20
20.154022
 40
2.000000
 50
270.000000
 51
0.000000
  0
ARC
  8
0
 62
     4
 10
263.552917
 20
20.154007
 40
2.000000
 50
180.000000
 51
270.000000
  0
ARC
  8
0
 62
     4
 10
285.052917
 20
20.154022
 40
2.000000
 50
270.000000
 51
319.458313
  0
ARC
  8
0
 62
     4
 10
283.552917
 20
20.154022
 40
1.999995
 50
220.788361
 51
270.000000
  0
ARC
  8
0
 62
     4
 10
265.052917
 20
181.554047
 40
1.999997
 50
40.788437
 51
90.000000
  0
ARC
  8
0
 62
     4
 10
263.552917
 20
181.554047
 40
2.000000
 50
90.000000
 51
139.458298
  0
ARC
  8
0
 62
     4
 10
285.052917
 20
181.554062
 40
2.000000
 50
0.000000
 51
90.000000
  0
ARC
  8
0
 62
     4
 10
283.552948
 20
181.554047
 40
2.000000
 50
90.000000
 51
180.000000
  0
ARC
  8
0
 62
     4
 10
251.302948
 20
178.354050
 40
0.500000
 50
90.000000
 51
180.000000
  0
CIRCLE
  8
0
 10
-90.921684
 20
-155.145966
 40
3.500000
  0
CIRCLE
  8
0
 10
-90.921684
 20
-155.145966
 40
1.799999
  0
CIRCLE
  8
0
 62
     2
 10
-103.921684
 20
-142.645966
 40
6.499999
  0
CIRCLE
  8
0
 62
     2
 10
-100.921684
 20
-168.645966
 40
6.499999
  0
CIRCLE
  8
0
 10
-103.921684
 20
-142.645966
 40
6.000000
  0
CIRCLE
  8
0
 10
-100.921684
 20
-168.645966
 40
6.000000
  0
CIRCLE
  8
0
 10
-34.921707
 20
-155.145966
 40
3.500000
  0
CIRCLE
  8
0
 10
-34.921707
 20
-155.145966
 40
1.799999
  0
CIRCLE
  8
0
 62
     2
 10
-47.921707
 20
-142.645966
 40
6.499999
  0
CIRCLE
  8
0
 62
     2
 10
-44.921707
 20
-168.645966
 40
6.499999
  0
CIRCLE
  8
0
 10
-47.921707
 20
-142.645966
 40
6.000000
  0
CIRCLE
  8
0
 10
-44.921707
 20
-168.645966
 40
6.000000
  0
CIRCLE
  8
0
 10
-62.921692
 20
-155.145966
 40
3.500000
  0
CIRCLE
  8
0
 10
-62.921692
 20
-155.145966
 40
1.799999
  0
CIRCLE
  8
0
 62
     2
 10
-75.921692
 20
-142.645966
 40
6.499999
  0
CIRCLE
  8
0
 62
     2
 10
-72.921692
 20
-168.645966
 40
6.499999
  0
CIRCLE
  8
0
 10
-75.921692
 20
-142.645966
 40
6.000000
  0
CIRCLE
  8
0
 10
-72.921692
 20
-168.645966
 40
6.000000
  0
CIRCLE
  8
0
 10
-6.921707
 20
-155.145966
 40
3.500000
  0
CIRCLE
  8
0
 10
-6.921707
 20
-155.145966
 40
1.799999
  0
CIRCLE
  8
0
 62
     2
 10
-19.921707
 20
-142.645966
 40
6.499999
  0
CIRCLE
  8
0
 62
     2
 10
-16.921707
 20
-168.645966
 40
6.499999
  0
CIRCLE
  8
0
 10
-19.921707
 20
-142.645966
 40
6.000000
  0
CIRCLE
  8
0
 10
-16.921707
 20
-168.645966
 40
6.000000
  0
CIRCLE
  8
0
 10
21.078293
 20
-155.145966
 40
3.500000
  0
CIRCLE
  8
0
 10
21.078293
 20
-155.145966
 40
1.799999
  0
CIRCLE
  8
0
 62
     2
 10
8.078293
 20
-142.645966
 40
6.499999
  0
CIRCLE
  8
0
 62
     2
 10
11.078293
 20
-168.645966
 40
6.499999
  0
CIRCLE
  8
0
 10
8.078293
 20
-142.645966
 40
6.000000
  0
CIRCLE
  8
0
 10
11.078293
 20
-168.645966
 40
6.000000
  0
CIRCLE
  8
0
 10
77.078293
 20
-155.145966
 40
3.500000
  0
CIRCLE
  8
0
 10
77.078293
 20
-155.145966
 40
1.799999
  0
CIRCLE
  8
0
 62
     2
 10
64.078293
 20
-142.645966
 40
6.499999
  0
CIRCLE
  8
0
 62
     2
 10
67.078293
 20
-168.645966
 40
6.499999
  0
CIRCLE
  8
0
 10
64.078293
 20
-142.645966
 40
6.000000
  0
CIRCLE
  8
0
 10
67.078293
 20
-168.645966
 40
6.000000
  0
CIRCLE
  8
0
 10
49.078308
 20
-155.145966
 40
3.500000
  0
CIRCLE
  8
0
 10
49.078308
 20
-155.145966
 40
1.799999
  0
CIRCLE
  8
0
 62
     2
 10
36.078308
 20
-142.645966
 40
6.499999
  0
CIRCLE
  8
0
 62
     2
 10
39.078308
 20
-168.645966
 40
6.499999
  0
CIRCLE
  8
0
 10
36.078308
 20
-142.645966
 40
6.000000
  0
CIRCLE
  8
0
 10
39.078308
 20
-168.645966
 40
6.000000
  0
ARC
  8
0
 10
-134.921707
 20
-173.145966
 40
3.000000
 50
270.000000
 51
0.000000
  0
ARC
  8
0
 10
-142.421707
 20
-178.145966
 40
2.000000
 50
90.000000
 51
180.000000
  0
ARC
  8
0
 10
-129.921707
 20
-136.145966
 40
2.000000
 50
90.000000
 51
180.000000
  0
CIRCLE
  8
0
 10
-118.921707
 20
-155.145966
 40
3.500000
  0
CIRCLE
  8
0
 10
-118.921707
 20
-155.145966
 40
1.799999
  0
ARC
  8
0
 10
-106.921707
 20
-111.845963
 40
15.000000
 50
89.999939
 51
269.999939
  0
ARC
  8
0
 10
-74.921707
 20
-111.845963
 40
15.000000
 50
269.999969
 51
89.999939
  0
ARC
  8
0
 10
-106.921707
 20
-29.764023
 40
10.018062
 50
65.527779
 51
114.472176
  0
ARC
  8
0
 10
-64.921707
 20
-29.764023
 40
10.018060
 50
65.527802
 51
114.472176
  0
CIRCLE
  8
0
 10
-74.921707
 20
-111.845963
 40
13.000000
  0
CIRCLE
  8
0
 10
-74.921707
 20
-111.845963
 40
6.500000
  0
CIRCLE
  8
0
 10
-74.921707
 20
-111.845963
 40
7.500000
  0
CIRCLE
  8
0
 10
-106.921707
 20
-111.845963
 40
13.000000
  0
CIRCLE
  8
0
 10
-106.921707
 20
-111.845963
 40
6.500000
  0
CIRCLE
  8
0
 10
-106.921707
 20
-111.845963
 40
7.500000
  0
ARC
  8
0
 10
-116.921707
 20
-94.545959
 40
4.599994
 50
50.484470
 51
129.515472
  0
ARC
  8
0
 10
-114.385040
 20
-91.470444
 40
0.613335
 50
0.000000
 51
50.484432
  0
ARC
  8
0
 10
-119.458374
 20
-91.470444
 40
0.613337
 50
129.515564
 51
180.000000
  0
ARC
  8
0
 10
103.078308
 20
-173.145966
 40
3.000000
 50
180.000000
 51
270.000000
  0
ARC
  8
0
 10
110.578308
 20
-178.145966
 40
2.000000
 50
0.000000
 51
90.000000
  0
ARC
  8
0
 10
98.078308
 20
-136.145966
 40
2.000000
 50
0.000000
 51
90.000000
  0
ARC
  8
0
 10
-54.921722
 20
-132.145966
 40
0.500000
 50
180.000000
 51
270.000000
  0
ARC
  8
0
 10
-32.921722
 20
-132.145966
 40
0.500000
 50
270.000000
 51
0.000000
  0
ARC
  8
0
 10
-51.921722
 20
-125.145966
 40
3.000000
 50
0.000000
 51
90.000000
  0
ARC
  8
0
 10
-35.921722
 20
-105.145966
 40
3.000000
 50
0.000000
 51
2.873163
  0
ARC
  8
0
 10
-35.921722
 20
-105.145966
 40
3.000000
 50
90.000000
 51
270.000000
  0
ARC
  8
0
 10
-51.921722
 20
-125.145966
 40
3.000000
 50
270.000000
 51
0.000000
  0
CIRCLE
  8
0
 10
-35.921722
 20
-105.145966
 40
2.750000
  0
CIRCLE
  8
0
 10
-51.921722
 20
-125.145966
 40
2.750000
  0
CIRCLE
  8
0
 10
-50.921722
 20
-103.645966
 40
2.299999
  0
CIRCLE
  8
0
 10
-36.921722
 20
-126.645966
 40
2.299999
  0
CIRCLE
  8
0
 62
     2
 10
-50.921722
 20
-103.645966
 40
1.500000
  0
CIRCLE
  8
0
 62
     2
 10
-36.921722
 20
-126.645966
 40
1.500000
  0
CIRCLE
  8
0
 10
-50.921722
 20
-103.645966
 40
1.200000
  0
CIRCLE
  8
0
 10
-36.921722
 20
-126.645966
 40
1.200000
  0
ARC
  8
0
 10
-54.421722
 20
-92.145966
 40
0.500000
 50
90.000000
 51
180.000000
  0
ARC
  8
0
 10
-33.421722
 20
-92.145966
 40
0.500000
 50
0.000000
 51
90.000000
  0
ARC
  8
0
 10
-26.921722
 20
-132.145966
 40
0.500000
 50
180.000000
 51
270.000000
  0
ARC
  8
0
 10
-4.921722
 20
-132.145966
 40
0.500000
 50
270.000000
 51
0.000000
  0
ARC
  8
0
 10
-23.921722
 20
-125.145966
 40
3.000000
 50
0.000000
 51
90.000000
  0
ARC
  8
0
 10
-7.921722
 20
-105.145966
 40
3.000000
 50
0.000000
 51
2.873162
  0
ARC
  8
0
 10
-7.921722
 20
-105.145966
 40
3.000000
 50
89.999985
 51
270.000000
  0
ARC
  8
0
 10
-23.921722
 20
-125.145966
 40
3.000000
 50
270.000000
 51
0.000000
  0
CIRCLE
  8
0
 10
-7.921722
 20
-105.145966
 40
2.750000
  0
CIRCLE
  8
0
 10
-23.921722
 20
-125.145966
 40
2.750000
  0
CIRCLE
  8
0
 10
-22.921722
 20
-103.645966
 40
2.299999
  0
CIRCLE
  8
0
 10
-8.921722
 20
-126.645966
 40
2.299999
  0
CIRCLE
  8
0
 62
     2
 10
-22.921722
 20
-103.645966
 40
1.500000
  0
CIRCLE
  8
0
 62
     2
 10
-8.921722
 20
-126.645966
 40
1.500000
  0
CIRCLE
  8
0
 10
-22.921722
 20
-103.645966
 40
1.200000
  0
CIRCLE
  8
0
 10
-8.921722
 20
-126.645966
 40
1.200000
  0
ARC
  8
0
 10
-26.421722
 20
-92.145966
 40
0.500000
 50
90.000000
 51
180.000000
  0
ARC
  8
0
 10
-5.421722
 20
-92.145966
 40
0.500000
 50
0.000000
 51
90.000000
  0
ARC
  8
0
 62
     4
 10
1.078278
 20
-98.145966
 40
0.500000
 50
89.999985
 51
180.000000
  0
ARC
  8
0
 62
     4
 10
23.078278
 20
-98.145966
 40
0.500000
 50
0.000000
 51
90.000000
  0
ARC
  8
0
 62
     4
 10
4.078278
 20
-125.145966
 40
3.000000
 50
0.000000
 51
89.999985
  0
ARC
  8
0
 62
     4
 10
20.078278
 20
-105.145966
 40
3.000000
 50
180.000000
 51
270.000000
  0
ARC
  8
0
 62
     4
 10
4.078278
 20
-125.145966
 40
3.000000
 50
270.000031
 51
0.000000
  0
CIRCLE
  8
0
 62
     4
 10
20.078278
 20
-105.145966
 40
2.750000
  0
CIRCLE
  8
0
 62
     4
 10
4.078278
 20
-125.145966
 40
2.750000
  0
ARC
  8
0
 62
     4
 10
1.578278
 20
-92.145966
 40
0.500000
 50
89.999985
 51
180.000000
  0
ARC
  8
0
 62
     4
 10
22.578278
 20
-92.145966
 40
0.500000
 50
0.000000
 51
90.000000
  0
ARC
  8
0
 62
     4
 10
29.078293
 20
-98.145966
 40
0.500000
 50
90.000000
 51
180.000000
  0
ARC
  8
0
 62
     4
 10
51.078293
 20
-98.145966
 40
0.500000
 50
0.000000
 51
90.000000
  0
ARC
  8
0
 62
     4
 10
32.078293
 20
-125.145966
 40
3.000000
 50
0.000000
 51
90.000000
  0
ARC
  8
0
 62
     4
 10
48.078293
 20
-105.145966
 40
3.000000
 50
180.000000
 51
270.000000
  0
ARC
  8
0
 62
     4
 10
32.078293
 20
-125.145966
 40
3.000000
 50
270.000000
 51
0.000000
  0
CIRCLE
  8
0
 62
     4
 10
48.078293
 20
-105.145966
 40
2.750000
  0
CIRCLE
  8
0
 62
     4
 10
32.078293
 20
-125.145966
 40
2.750000
  0
ARC
  8
0
 62
     4
 10
29.578293
 20
-92.145966
 40
0.500000
 50
90.000000
 51
180.000000
  0
ARC
  8
0
 62
     4
 10
50.578293
 20
-92.145966
 40
0.500000
 50
0.000000
 51
90.000000
  0
ARC
  8
0
 10
76.078278
 20
-105.145966
 40
3.000000
 50
0.000000
 51
2.873160
  0
ARC
  8
0
 62
     4
 10
77.078278
 20
-130.545959
 40
5.000002
 50
55.944176
 51
124.055870
  0
ARC
  8
0
 62
     4
 10
59.078278
 20
-130.545959
 40
4.999998
 50
55.944092
 51
124.055786
  0
ARC
  8
0
 10
357.521667
 20
-95.145966
 40
1.000000
 50
0.000000
 51
90.000000
  0
ARC
  8
0
 10
366.021667
 20
-148.145966
 40
2.500000
 50
90.000000
 51
270.000000
  0
ARC
  8
0
 10
369.021667
 20
-207.245972
 40
2.000000
 50
0.000000
 51
90.000000
  0
ARC
  8
0
 10
366.021667
 20
-212.145966
 40
2.500000
 50
90.000000
 51
270.000000
  0
ARC
  8
0
 10
369.021667
 20
-217.645966
 40
2.000000
 50
270.000000
 51
0.000000
  0
ARC
  8
0
 10
360.521667
 20
-203.245972
 40
2.000000
 50
180.000000
 51
270.000000
  0
ARC
  8
0
 10
369.021667
 20
-142.645981
 40
2.000000
 50
0.000000
 51
90.000000
  0
ARC
  8
0
 10
369.021667
 20
-153.045959
 40
2.000000
 50
270.000000
 51
0.000000
  0
ARC
  8
0
 10
360.521667
 20
-157.045959
 40
2.000000
 50
90.000000
 51
180.000000
  0
ARC
  8
0
 10
127.521667
 20
-95.145966
 40
1.000000
 50
90.000000
 51
180.000000
  0
ARC
  8
0
 10
119.021667
 20
-148.145966
 40
2.500000
 50
0.000000
 51
90.000000
  0
ARC
  8
0
 10
119.021667
 20
-148.145966
 40
2.500000
 50
270.000000
 51
0.000000
  0
ARC
  8
0
 10
116.021667
 20
-207.245972
 40
2.000000
 50
90.000000
 51
180.000000
  0
ARC
  8
0
 10
119.021667
 20
-212.145966
 40
2.500000
 50
0.000000
 51
90.000000
  0
ARC
  8
0
 10
119.021667
 20
-212.145966
 40
2.500000
 50
270.000000
 51
0.000000
  0
ARC
  8
0
 10
116.021667
 20
-217.645966
 40
2.000000
 50
180.000000
 51
270.000000
  0
ARC
  8
0
 10
124.521667
 20
-203.245972
 40
2.000000
 50
270.000000
 51
0.000000
  0
ARC
  8
0
 10
116.021667
 20
-142.645981
 40
2.000000
 50
90.000000
 51
180.000000
  0
ARC
  8
0
 10
116.021667
 20
-153.045959
 40
2.000000
 50
180.000000
 51
270.000000
  0
ARC
  8
0
 10
124.521667
 20
-157.045959
 40
2.000000
 50
0.000000
 51
90.000000
  0
CIRCLE
  8
0
 10
165.021698
 20
-156.645981
 40
4.300000
  0
CIRCLE
  8
0
 10
165.021698
 20
-178.645966
 40
4.300000
  0
CIRCLE
  8
0
 10
165.021698
 20
-203.645981
 40
4.300000
  0
CIRCLE
  8
0
 10
151.021698
 20
-189.645981
 40
4.300000
  0
CIRCLE
  8
0
 10
151.021698
 20
-167.645996
 40
4.300000
  0
CIRCLE
  8
0
 62
     2
 10
165.021698
 20
-156.645981
 40
4.899999
  0
CIRCLE
  8
0
 62
     2
 10
165.021698
 20
-178.645966
 40
4.899999
  0
CIRCLE
  8
0
 62
     2
 10
165.021698
 20
-203.645981
 40
4.899999
  0
CIRCLE
  8
0
 62
     2
 10
151.021698
 20
-167.645996
 40
4.899999
  0
CIRCLE
  8
0
 62
     2
 10
151.021698
 20
-189.645981
 40
4.899999
  0
CIRCLE
  8
0
 10
333.021667
 20
-156.645981
 40
4.300000
  0
CIRCLE
  8
0
 10
333.021667
 20
-178.645966
 40
4.300000
  0
CIRCLE
  8
0
 10
333.021667
 20
-203.645981
 40
4.300000
  0
CIRCLE
  8
0
 10
319.021667
 20
-189.645981
 40
4.300000
  0
CIRCLE
  8
0
 10
319.021667
 20
-167.645996
 40
4.300000
  0
CIRCLE
  8
0
 62
     2
 10
333.021667
 20
-156.645981
 40
4.899999
  0
CIRCLE
  8
0
 62
     2
 10
333.021667
 20
-178.645966
 40
4.899999
  0
CIRCLE
  8
0
 62
     2
 10
333.021667
 20
-203.645981
 40
4.899999
  0
CIRCLE
  8
0
 62
     2
 10
319.021667
 20
-167.645996
 40
4.899999
  0
CIRCLE
  8
0
 62
     2
 10
319.021667
 20
-189.645981
 40
4.899999
  0
CIRCLE
  8
0
 10
193.021667
 20
-156.645981
 40
4.300000
  0
CIRCLE
  8
0
 10
193.021667
 20
-178.645966
 40
4.300000
  0
CIRCLE
  8
0
 10
193.021667
 20
-203.645981
 40
4.300000
  0
CIRCLE
  8
0
 10
179.021667
 20
-189.645981
 40
4.300000
  0
CIRCLE
  8
0
 10
179.021667
 20
-167.645996
 40
4.300000
  0
CIRCLE
  8
0
 62
     2
 10
193.021667
 20
-156.645981
 40
4.899999
  0
CIRCLE
  8
0
 62
     2
 10
193.021667
 20
-178.645966
 40
4.899999
  0
CIRCLE
  8
0
 62
     2
 10
193.021667
 20
-203.645981
 40
4.899999
  0
CIRCLE
  8
0
 62
     2
 10
179.021667
 20
-167.645996
 40
4.899999
  0
CIRCLE
  8
0
 62
     2
 10
179.021667
 20
-189.645981
 40
4.899999
  0
CIRCLE
  8
0
 10
221.021667
 20
-156.645981
 40
4.300000
  0
CIRCLE
  8
0
 10
221.021667
 20
-178.645966
 40
4.300000
  0
CIRCLE
  8
0
 10
221.021667
 20
-203.645981
 40
4.300000
  0
CIRCLE
  8
0
 10
207.021667
 20
-189.645981
 40
4.300000
  0
CIRCLE
  8
0
 10
207.021667
 20
-167.645996
 40
4.300000
  0
CIRCLE
  8
0
 62
     2
 10
221.021667
 20
-156.645981
 40
4.899999
  0
CIRCLE
  8
0
 62
     2
 10
221.021667
 20
-178.645966
 40
4.899999
  0
CIRCLE
  8
0
 62
     2
 10
221.021667
 20
-203.645981
 40
4.899999
  0
CIRCLE
  8
0
 62
     2
 10
207.021667
 20
-167.645996
 40
4.899999
  0
CIRCLE
  8
0
 62
     2
 10
207.021667
 20
-189.645981
 40
4.899999
  0
CIRCLE
  8
0
 10
249.021667
 20
-156.645981
 40
4.300000
  0
CIRCLE
  8
0
 10
249.021667
 20
-178.645966
 40
4.300000
  0
CIRCLE
  8
0
 10
249.021667
 20
-203.645981
 40
4.300000
  0
CIRCLE
  8
0
 10
235.021667
 20
-189.645981
 40
4.300000
  0
CIRCLE
  8
0
 10
235.021667
 20
-167.645996
 40
4.300000
  0
CIRCLE
  8
0
 62
     2
 10
249.021667
 20
-156.645981
 40
4.899999
  0
CIRCLE
  8
0
 62
     2
 10
249.021667
 20
-178.645966
 40
4.899999
  0
CIRCLE
  8
0
 62
     2
 10
249.021667
 20
-203.645981
 40
4.899999
  0
CIRCLE
  8
0
 62
     2
 10
235.021667
 20
-167.645996
 40
4.899999
  0
CIRCLE
  8
0
 62
     2
 10
235.021667
 20
-189.645981
 40
4.899999
  0
CIRCLE
  8
0
 10
277.021667
 20
-156.645981
 40
4.300000
  0
CIRCLE
  8
0
 10
277.021667
 20
-178.645966
 40
4.300000
  0
CIRCLE
  8
0
 10
277.021667
 20
-203.645981
 40
4.300000
  0
CIRCLE
  8
0
 10
263.021667
 20
-189.645981
 40
4.300000
  0
CIRCLE
  8
0
 10
263.021667
 20
-167.645996
 40
4.300000
  0
CIRCLE
  8
0
 62
     2
 10
277.021667
 20
-156.645981
 40
4.899999
  0
CIRCLE
  8
0
 62
     2
 10
277.021667
 20
-178.645966
 40
4.899999
  0
CIRCLE
  8
0
 62
     2
 10
277.021667
 20
-203.645981
 40
4.899999
  0
CIRCLE
  8
0
 62
     2
 10
263.021667
 20
-167.645996
 40
4.899999
  0
CIRCLE
  8
0
 62
     2
 10
263.021667
 20
-189.645981
 40
4.899999
  0
CIRCLE
  8
0
 10
305.021667
 20
-156.645981
 40
4.300000
  0
CIRCLE
  8
0
 10
305.021667
 20
-178.645966
 40
4.300000
  0
CIRCLE
  8
0
 10
305.021667
 20
-203.645981
 40
4.300000
  0
CIRCLE
  8
0
 10
291.021667
 20
-189.645981
 40
4.300000
  0
CIRCLE
  8
0
 10
291.021667
 20
-167.645996
 40
4.300000
  0
CIRCLE
  8
0
 62
     2
 10
305.021667
 20
-156.645981
 40
4.899999
  0
CIRCLE
  8
0
 62
     2
 10
305.021667
 20
-178.645966
 40
4.899999
  0
CIRCLE
  8
0
 62
     2
 10
305.021667
 20
-203.645981
 40
4.899999
  0
CIRCLE
  8
0
 62
     2
 10
291.021667
 20
-167.645996
 40
4.899999
  0
CIRCLE
  8
0
 62
     2
 10
291.021667
 20
-189.645981
 40
4.899999
  0
TEXT
  8
0
 10
-356.285309
 20
256.649994
 40
9.000000
  1
240M5ASL
 50
0.000000
 41
1.052632
 51
0.000000
  7
STANDARD
  0
TEXT
  8
0
 10
242.014816
 20
-274.500000
 40
12.500000
  1
KOGANEI CORP.
 50
0.000000
 41
1.052632
 51
0.000000
  7
STANDARD
  0
TEXT
  8
0
 10
251.264664
 20
256.649994
 40
9.000000
  1
DATE: NOV ,1993
 50
0.000000
 41
1.052632
 51
0.000000
  7
STANDARD
  0
TEXT
  8
0
 10
-384.785309
 20
209.149994
 40
9.000000
  1
MODEL:240M5BSL
 50
0.000000
 41
1.052632
 51
0.000000
  7
STANDARD
  0
TEXT
  8
0
 10
-336.549713
 20
-123.919998
 40
6.300000
  1
TYPE
 50
0.000000
 41
1.052632
 51
0.000000
  7
STANDARD
  0
TEXT
  8
0
 10
-375.249451
 20
-138.919998
 40
6.300000
  1
240M2ASL/240M2BSL
 50
0.000000
 41
1.052632
 51
0.000000
  7
STANDARD
  0
TEXT
  8
0
 10
-375.249451
 20
-153.919998
 40
6.300000
  1
240M3ASL/240M3BSL
 50
0.000000
 41
1.052632
 51
0.000000
  7
STANDARD
  0
TEXT
  8
0
 10
-375.249451
 20
-168.919998
 40
6.300000
  1
240M4ASL/240M4BSL
 50
0.000000
 41
1.052632
 51
0.000000
  7
STANDARD
  0
TEXT
  8
0
 10
-375.249451
 20
-183.919998
 40
6.300000
  1
240M5ASL/240M5BSL
 50
0.000000
 41
1.052632
 51
0.000000
  7
STANDARD
  0
TEXT
  8
0
 10
-375.249451
 20
-198.919998
 40
6.300000
  1
240M6ASL/240M6BSL
 50
0.000000
 41
1.052632
 51
0.000000
  7
STANDARD
  0
TEXT
  8
0
 10
-375.249451
 20
-213.919998
 40
6.300000
  1
240M7ASL/240M7BSL
 50
0.000000
 41
1.052632
 51
0.000000
  7
STANDARD
  0
TEXT
  8
0
 10
-375.249451
 20
-228.919998
 40
6.300000
  1
240M8ASL/240M8BSL
 50
0.000000
 41
1.052632
 51
0.000000
  7
STANDARD
  0
TEXT
  8
0
 10
-375.249451
 20
-243.919998
 40
6.300000
  1
240M9ASL/240M9BSL
 50
0.000000
 41
1.052632
 51
0.000000
  7
STANDARD
  0
TEXT
  8
0
 10
-387.849457
 20
-258.920013
 40
6.300000
  1
240M10ASL/240M10BSL
 50
0.000000
 41
1.052632
 51
0.000000
  7
STANDARD
  0
TEXT
  8
0
 10
-198.649719
 20
-123.919998
 40
6.300000
  1
L
 50
0.000000
 41
1.052632
 51
0.000000
  7
STANDARD
  0
TEXT
  8
0
 10
-243.649719
 20
-123.919998
 40
6.300000
  1
P
 50
0.000000
 41
1.052632
 51
0.000000
  7
STANDARD
  0
TEXT
  8
0
 10
-323.049713
 20
-108.919998
 40
6.300000
  1
DIMENSION LIST
 50
0.000000
 41
1.052632
 51
0.000000
  7
STANDARD
  0
TEXT
  8
0
 10
-204.949722
 20
-138.919998
 40
6.300000
  1
173
 50
0.000000
 41
1.052632
 51
0.000000
  7
STANDARD
  0
TEXT
  8
0
 10
-204.949722
 20
-153.919998
 40
6.300000
  1
201
 50
0.000000
 41
1.052632
 51
0.000000
  7
STANDARD
  0
TEXT
  8
0
 10
-204.949722
 20
-168.919998
 40
6.300000
  1
229
 50
0.000000
 41
1.052632
 51
0.000000
  7
STANDARD
  0
TEXT
  8
0
 10
-204.949722
 20
-183.919998
 40
6.300000
  1
257
 50
0.000000
 41
1.052632
 51
0.000000
  7
STANDARD
  0
TEXT
  8
0
 10
-204.949722
 20
-198.919998
 40
6.300000
  1
285
 50
0.000000
 41
1.052632
 51
0.000000
  7
STANDARD
  0
TEXT
  8
0
 10
-204.949722
 20
-213.919998
 40
6.300000
  1
313
 50
0.000000
 41
1.052632
 51
0.000000
  7
STANDARD
  0
TEXT
  8
0
 10
-204.949722
 20
-228.919998
 40
6.300000
  1
341
 50
0.000000
 41
1.052632
 51
0.000000
  7
STANDARD
  0
TEXT
  8
0
 10
-204.949722
 20
-243.919998
 40
6.300000
  1
369
 50
0.000000
 41
1.052632
 51
0.000000
  7
STANDARD
  0
TEXT
  8
0
 10
-204.949722
 20
-258.920013
 40
6.300000
  1
397
 50
0.000000
 41
1.052632
 51
0.000000
  7
STANDARD
  0
TEXT
  8
0
 10
-249.949722
 20
-138.919998
 40
6.300000
  1
163
 50
0.000000
 41
1.052632
 51
0.000000
  7
STANDARD
  0
TEXT
  8
0
 10
-249.949722
 20
-153.919998
 40
6.300000
  1
191
 50
0.000000
 41
1.052632
 51
0.000000
  7
STANDARD
  0
TEXT
  8
0
 10
-249.949722
 20
-168.919998
 40
6.300000
  1
219
 50
0.000000
 41
1.052632
 51
0.000000
  7
STANDARD
  0
TEXT
  8
0
 10
-249.949722
 20
-183.919998
 40
6.300000
  1
247
 50
0.000000
 41
1.052632
 51
0.000000
  7
STANDARD
  0
TEXT
  8
0
 10
-249.949722
 20
-198.919998
 40
6.300000
  1
275
 50
0.000000
 41
1.052632
 51
0.000000
  7
STANDARD
  0
TEXT
  8
0
 10
-249.949722
 20
-213.919998
 40
6.300000
  1
303
 50
0.000000
 41
1.052632
 51
0.000000
  7
STANDARD
  0
TEXT
  8
0
 10
-249.949722
 20
-228.919998
 40
6.300000
  1
331
 50
0.000000
 41
1.052632
 51
0.000000
  7
STANDARD
  0
TEXT
  8
0
 10
-249.949722
 20
-243.919998
 40
6.300000
  1
359
 50
0.000000
 41
1.052632
 51
0.000000
  7
STANDARD
  0
TEXT
  8
0
 10
-249.949722
 20
-258.920013
 40
6.300000
  1
387
 50
0.000000
 41
1.052632
 51
0.000000
  7
STANDARD
  0
TEXT
  8
0
 10
-384.785309
 20
224.149994
 40
9.000000
  1
MODEL:240M5ASL
 50
0.000000
 41
1.052632
 51
0.000000
  7
STANDARD
  0
TEXT
  8
0
 10
-327.486053
 20
80.175270
 40
4.000000
  1
PR
 50
-90.000000
 41
1.052632
 51
0.000000
  7
STANDARD
  0
TEXT
  8
0
 10
-348.766022
 20
120.261009
 40
3.200000
  1
R1
 50
-90.000000
 41
1.052632
 51
0.000000
  7
STANDARD
  0
TEXT
  8
0
 10
-348.766022
 20
89.260994
 40
3.200000
  1
R2
 50
-90.000000
 41
1.052632
 51
0.000000
  7
STANDARD
  0
TEXT
  8
0
 10
-333.766022
 20
103.661011
 40
3.200000
  1
P
 50
-90.000000
 41
1.052632
 51
0.000000
  7
STANDARD
  0
TEXT
  8
0
 10
315.402985
 20
71.532768
 40
4.000000
  1
PR
 50
90.000000
 41
1.052632
 51
0.000000
  7
STANDARD
  0
TEXT
  8
0
 10
336.682953
 20
113.447014
 40
3.200000
  1
R1
 50
90.000000
 41
1.052632
 51
0.000000
  7
STANDARD
  0
TEXT
  8
0
 10
336.682953
 20
82.446999
 40
3.200000
  1
R2
 50
90.000000
 41
1.052632
 51
0.000000
  7
STANDARD
  0
TEXT
  8
0
 10
321.682953
 20
100.047012
 40
3.200000
  1
P
 50
90.000000
 41
1.052632
 51
0.000000
  7
STANDARD
  0
TEXT
  8
0
 10
-109.822342
 20
-174.775238
 40
3.200000
  1
A
 50
0.000000
 41
1.052632
 51
0.000000
  7
STANDARD
  0
TEXT
  8
0
 10
-98.428543
 20
-146.235413
 40
3.200000
  1
B
 50
0.000000
 41
1.052632
 51
0.000000
  7
STANDARD
  0
TEXT
  8
0
 10
-53.822365
 20
-174.775238
 40
3.200000
  1
A
 50
0.000000
 41
1.052632
 51
0.000000
  7
STANDARD
  0
TEXT
  8
0
 10
-42.428566
 20
-146.235413
 40
3.200000
  1
B
 50
0.000000
 41
1.052632
 51
0.000000
  7
STANDARD
  0
TEXT
  8
0
 10
-81.822350
 20
-174.775238
 40
3.200000
  1
A
 50
0.000000
 41
1.052632
 51
0.000000
  7
STANDARD
  0
TEXT
  8
0
 10
-70.428551
 20
-146.235413
 40
3.200000
  1
B
 50
0.000000
 41
1.052632
 51
0.000000
  7
STANDARD
  0
TEXT
  8
0
 10
-25.822365
 20
-174.775238
 40
3.200000
  1
A
 50
0.000000
 41
1.052632
 51
0.000000
  7
STANDARD
  0
TEXT
  8
0
 10
-14.428567
 20
-146.235413
 40
3.200000
  1
B
 50
0.000000
 41
1.052632
 51
0.000000
  7
STANDARD
  0
TEXT
  8
0
 10
2.177634
 20
-174.775238
 40
3.200000
  1
A
 50
0.000000
 41
1.052632
 51
0.000000
  7
STANDARD
  0
TEXT
  8
0
 10
13.571433
 20
-146.235413
 40
3.200000
  1
B
 50
0.000000
 41
1.052632
 51
0.000000
  7
STANDARD
  0
TEXT
  8
0
 10
58.177635
 20
-174.775238
 40
3.200000
  1
A
 50
0.000000
 41
1.052632
 51
0.000000
  7
STANDARD
  0
TEXT
  8
0
 10
69.571434
 20
-146.235413
 40
3.200000
  1
B
 50
0.000000
 41
1.052632
 51
0.000000
  7
STANDARD
  0
TEXT
  8
0
 10
30.177650
 20
-174.775238
 40
3.200000
  1
A
 50
0.000000
 41
1.052632
 51
0.000000
  7
STANDARD
  0
TEXT
  8
0
 10
41.571449
 20
-146.235413
 40
3.200000
  1
B
 50
0.000000
 41
1.052632
 51
0.000000
  7
STANDARD
  0
TEXT
  8
0
 10
170.497070
 20
-150.279037
 40
1.599999
  1
R1
 50
90.000000
 41
1.052631
 51
0.000000
  7
STANDARD
  0
TEXT
  8
0
 10
170.801666
 20
-188.116211
 40
1.599999
  1
P
 50
90.000000
 41
1.052631
 51
0.000000
  7
STANDARD
  0
TEXT
  8
0
 10
170.497070
 20
-196.411194
 40
1.599999
  1
B
 50
90.000000
 41
1.052631
 51
0.000000
  7
STANDARD
  0
TEXT
  8
0
 10
147.358459
 20
-159.520355
 40
1.599999
  1
A
 50
90.000000
 41
1.052631
 51
0.000000
  7
STANDARD
  0
TEXT
  8
0
 10
147.358459
 20
-200.048981
 40
1.599999
  1
R2
 50
90.000000
 41
1.052631
 51
0.000000
  7
STANDARD
  0
TEXT
  8
0
 10
315.358429
 20
-159.520355
 40
1.599999
  1
A
 50
90.000000
 41
1.052631
 51
0.000000
  7
STANDARD
  0
TEXT
  8
0
 10
315.358429
 20
-200.048965
 40
1.599999
  1
R2
 50
90.000000
 41
1.052631
 51
0.000000
  7
STANDARD
  0
TEXT
  8
0
 10
338.497070
 20
-150.279037
 40
1.599999
  1
R1
 50
90.000000
 41
1.052631
 51
0.000000
  7
STANDARD
  0
TEXT
  8
0
 10
338.801636
 20
-188.116211
 40
1.599999
  1
P
 50
90.000000
 41
1.052631
 51
0.000000
  7
STANDARD
  0
TEXT
  8
0
 10
338.497070
 20
-196.411194
 40
1.599999
  1
B
 50
90.000000
 41
1.052631
 51
0.000000
  7
STANDARD
  0
TEXT
  8
0
 10
198.497040
 20
-150.279037
 40
1.599999
  1
R1
 50
90.000000
 41
1.052631
 51
0.000000
  7
STANDARD
  0
TEXT
  8
0
 10
198.801636
 20
-188.116211
 40
1.599999
  1
P
 50
90.000000
 41
1.052631
 51
0.000000
  7
STANDARD
  0
TEXT
  8
0
 10
198.497040
 20
-196.411194
 40
1.599999
  1
B
 50
90.000000
 41
1.052631
 51
0.000000
  7
STANDARD
  0
TEXT
  8
0
 10
175.358429
 20
-159.520355
 40
1.599999
  1
A
 50
90.000000
 41
1.052631
 51
0.000000
  7
STANDARD
  0
TEXT
  8
0
 10
175.358429
 20
-200.048981
 40
1.599999
  1
R2
 50
90.000000
 41
1.052631
 51
0.000000
  7
STANDARD
  0
TEXT
  8
0
 10
203.358429
 20
-159.520355
 40
1.599999
  1
A
 50
90.000000
 41
1.052631
 51
0.000000
  7
STANDARD
  0
TEXT
  8
0
 10
203.358429
 20
-200.048965
 40
1.599999
  1
R2
 50
90.000000
 41
1.052631
 51
0.000000
  7
STANDARD
  0
TEXT
  8
0
 10
226.497070
 20
-150.279037
 40
1.599999
  1
R1
 50
90.000000
 41
1.052631
 51
0.000000
  7
STANDARD
  0
TEXT
  8
0
 10
226.801636
 20
-188.116211
 40
1.599999
  1
P
 50
90.000000
 41
1.052631
 51
0.000000
  7
STANDARD
  0
TEXT
  8
0
 10
226.497070
 20
-196.411194
 40
1.599999
  1
B
 50
90.000000
 41
1.052631
 51
0.000000
  7
STANDARD
  0
TEXT
  8
0
 10
231.358429
 20
-159.520355
 40
1.599999
  1
A
 50
90.000000
 41
1.052631
 51
0.000000
  7
STANDARD
  0
TEXT
  8
0
 10
231.358429
 20
-200.048965
 40
1.599999
  1
R2
 50
90.000000
 41
1.052631
 51
0.000000
  7
STANDARD
  0
TEXT
  8
0
 10
254.497070
 20
-150.279037
 40
1.599999
  1
R1
 50
90.000000
 41
1.052631
 51
0.000000
  7
STANDARD
  0
TEXT
  8
0
 10
254.801636
 20
-188.116211
 40
1.599999
  1
P
 50
90.000000
 41
1.052631
 51
0.000000
  7
STANDARD
  0
TEXT
  8
0
 10
254.497070
 20
-196.411194
 40
1.599999
  1
B
 50
90.000000
 41
1.052631
 51
0.000000
  7
STANDARD
  0
TEXT
  8
0
 10
259.358429
 20
-159.520355
 40
1.599999
  1
A
 50
90.000000
 41
1.052631
 51
0.000000
  7
STANDARD
  0
TEXT
  8
0
 10
259.358429
 20
-200.048965
 40
1.599999
  1
R2
 50
90.000000
 41
1.052631
 51
0.000000
  7
STANDARD
  0
TEXT
  8
0
 10
282.497070
 20
-150.279037
 40
1.599999
  1
R1
 50
90.000000
 41
1.052631
 51
0.000000
  7
STANDARD
  0
TEXT
  8
0
 10
282.801636
 20
-188.116211
 40
1.599999
  1
P
 50
90.000000
 41
1.052631
 51
0.000000
  7
STANDARD
  0
TEXT
  8
0
 10
282.497070
 20
-196.411194
 40
1.599999
  1
B
 50
90.000000
 41
1.052631
 51
0.000000
  7
STANDARD
  0
TEXT
  8
0
 10
287.358429
 20
-159.520355
 40
1.599999
  1
A
 50
90.000000
 41
1.052631
 51
0.000000
  7
STANDARD
  0
TEXT
  8
0
 10
287.358429
 20
-200.048965
 40
1.599999
  1
R2
 50
90.000000
 41
1.052631
 51
0.000000
  7
STANDARD
  0
TEXT
  8
0
 10
310.497070
 20
-150.279037
 40
1.599999
  1
R1
 50
90.000000
 41
1.052631
 51
0.000000
  7
STANDARD
  0
TEXT
  8
0
 10
310.801636
 20
-188.116211
 40
1.599999
  1
P
 50
90.000000
 41
1.052631
 51
0.000000
  7
STANDARD
  0
TEXT
  8
0
 10
310.497070
 20
-196.411194
 40
1.599999
  1
B
 50
90.000000
 41
1.052631
 51
0.000000
  7
STANDARD
  0
TEXT
  8
0
 62
     2
 10
-19.721699
 20
216.854034
 40
6.300000
  1
P
 50
0.000000
 41
1.052632
 51
0.000000
  7
STANDARD
  0
LINE
  8
0
 62
     2
 10
-139.421692
 20
215.854034
 11
107.578293
 21
215.854034
  0
LINE
  8
0
 62
     2
 10
-139.421692
 20
215.854034
 11
-136.523911
 21
216.630493
  0
LINE
  8
0
 62
     2
 10
-139.421692
 20
215.854034
 11
-136.523911
 21
215.077576
  0
LINE
  8
0
 62
     2
 10
107.578293
 20
215.854034
 11
104.680519
 21
215.077576
  0
LINE
  8
0
 62
     2
 10
107.578293
 20
215.854034
 11
104.680519
 21
216.630493
  0
LINE
  8
0
 62
     2
 10
-139.421692
 20
137.725723
 11
-139.421692
 21
217.354034
  0
LINE
  8
0
 62
     2
 10
107.578293
 20
137.725723
 11
107.578293
 21
217.354034
  0
TEXT
  8
0
 62
     2
 10
-19.721699
 20
236.854034
 40
6.300000
  1
L
 50
0.000000
 41
1.052632
 51
0.000000
  7
STANDARD
  0
LINE
  8
0
 62
     2
 10
112.578293
 20
235.854034
 11
-144.421692
 21
235.854034
  0
LINE
  8
0
 62
     2
 10
112.578293
 20
235.854034
 11
109.680519
 21
235.077576
  0
LINE
  8
0
 62
     2
 10
112.578293
 20
235.854034
 11
109.680519
 21
236.630493
  0
LINE
  8
0
 62
     2
 10
-144.421692
 20
235.854034
 11
-141.523911
 21
236.630493
  0
LINE
  8
0
 62
     2
 10
-144.421692
 20
235.854034
 11
-141.523911
 21
235.077576
  0
LINE
  8
0
 62
     2
 10
112.578293
 20
137.354034
 11
112.578293
 21
237.354034
  0
LINE
  8
0
 62
     2
 10
-144.421692
 20
137.354034
 11
-144.421692
 21
237.354034
  0
LINE
  8
0
 62
     2
 10
40.078297
 20
-91.645973
 11
47.578297
 21
-78.655594
  0
LINE
  8
0
 62
     2
 10
47.578297
 20
-78.655594
 11
113.316154
 21
-78.655586
  0
LINE
  8
0
 62
     2
 10
40.078297
 20
-91.645973
 11
42.199615
 21
-89.524651
  0
LINE
  8
0
 62
     2
 10
40.078297
 20
-91.645973
 11
40.854755
 21
-88.748199
  0
TEXT
  8
0
 62
     2
 10
48.766716
 20
-77.655586
 40
6.300000
  1
W243-4E2-L
 50
0.000000
 41
1.052632
 51
0.000000
  7
STANDARD
  0
LINE
  8
0
 62
     2
 10
12.078272
 20
-91.645981
 11
29.578281
 21
-61.335087
  0
LINE
  8
0
 62
     2
 10
29.578281
 20
-61.335087
 11
94.699547
 21
-61.335083
  0
LINE
  8
0
 62
     2
 10
12.078272
 20
-91.645981
 11
14.199593
 21
-89.524658
  0
LINE
  8
0
 62
     2
 10
12.078272
 20
-91.645981
 11
12.854730
 21
-88.748207
  0
TEXT
  8
0
 62
     2
 10
30.150106
 20
-60.335083
 40
6.300000
  1
W240-4E2-L
 50
0.000000
 41
1.052632
 51
0.000000
  7
STANDARD
  0
LINE
  8
0
 62
     2
 10
-43.921719
 20
-91.645950
 11
-16.421717
 21
-44.014561
  0
LINE
  8
0
 62
     2
 10
-16.421717
 20
-44.014561
 11
49.259010
 21
-44.014565
  0
LINE
  8
0
 62
     2
 10
-43.921719
 20
-91.645950
 11
-41.800400
 21
-89.524628
  0
LINE
  8
0
 62
     2
 10
-43.921719
 20
-91.645950
 11
-43.145260
 21
-88.748177
  0
TEXT
  8
0
 62
     2
 10
-15.290428
 20
-43.014565
 40
6.300000
  1
W240-4E1-L
 50
0.000000
 41
1.052632
 51
0.000000
  7
STANDARD
  0
LINE
  8
0
 62
     2
 10
-15.921721
 20
-91.645981
 11
-16.421724
 21
-44.014572
  0
LINE
  8
0
 62
     2
 10
-15.921721
 20
-91.645981
 11
-15.175724
 21
-88.740211
  0
LINE
  8
0
 62
     2
 10
-15.921721
 20
-91.645981
 11
-16.728552
 21
-88.756516
  0
TEXT
  8
0
 62
     2
 10
-155.338898
 20
216.854034
 40
6.300000
  1
5
 50
0.000000
 41
1.052632
 51
0.000000
  7
STANDARD
  0
LINE
  8
0
 62
     2
 10
-144.421692
 20
215.854034
 11
-153.788895
 21
215.854034
  0
LINE
  8
0
 62
     2
 10
-139.421692
 20
215.854034
 11
-144.421692
 21
215.854034
  0
LINE
  8
0
 62
     2
 10
-144.421692
 20
215.854034
 11
-147.319473
 21
215.077576
  0
LINE
  8
0
 62
     2
 10
-144.421692
 20
215.854034
 11
-147.319473
 21
216.630493
  0
LINE
  8
0
 62
     2
 10
-144.421692
 20
215.854034
 11
-150.421692
 21
215.854034
  0
LINE
  8
0
 62
     2
 10
-139.421692
 20
137.725723
 11
-139.421692
 21
217.354034
  0
LINE
  8
0
 62
     2
 10
-144.421692
 20
137.354034
 11
-144.421692
 21
217.354034
  0
TEXT
  8
0
 62
     2
 10
116.825180
 20
216.860657
 40
6.300000
  1
5
 50
359.899994
 41
1.052632
 51
0.000000
  7
STANDARD
  0
LINE
  8
0
 62
     2
 10
112.578293
 20
215.854034
 11
122.873428
 21
215.854034
  0
LINE
  8
0
 62
     2
 10
107.578293
 20
215.854034
 11
112.578293
 21
215.854034
  0
LINE
  8
0
 62
     2
 10
112.578293
 20
215.854034
 11
115.476067
 21
216.630493
  0
LINE
  8
0
 62
     2
 10
112.578293
 20
215.854034
 11
115.476067
 21
215.077576
  0
LINE
  8
0
 62
     2
 10
112.578293
 20
215.854034
 11
118.578293
 21
215.854034
  0
LINE
  8
0
 62
     2
 10
107.578293
 20
137.725723
 11
107.578293
 21
217.354034
  0
LINE
  8
0
 62
     2
 10
112.578293
 20
137.354034
 11
112.578293
 21
217.354034
  0
ENDSEC
  0
EOF
