  0
SECTION
  2
HEADER
  0
ENDSEC
  0
SECTION
  2
TABLES
  0
TABLE
  2
LTYPE
 70
     4
  0
LTYPE
  2
CONTINUOUS
 70
    64
  3
Solid line
 72
    65
 73
     0
 40
0.000000
  0
LTYPE
  2
DASHED
 70
    64
  3
__ __ __ __ __ __ __ __ __ __ __ __ __ __ __
 72
    65
 73
     2
 40
3.500000
 49
2.000000
 49
-1.500000
  0
LTYPE
  2
CENTER
 70
    64
  3
____ _ ____ _ ____ _ ____ _ ____ _ ____ _ ____
 72
    65
 73
     4
 40
17.500000
 49
13.000000
 49
-1.500000
 49
1.500000
 49
-1.500000
  0
LTYPE
  2
PHANTOM
 70
    64
  3
_____ _ _ _____ _ _ _____ _ _ _____ _ _ ____  
 72
    65
 73
     6
 40
15.500000
 49
8.000000
 49
-1.500000
 49
1.500000
 49
-1.500000
 49
1.500000
 49
-1.500000
  0
LTYPE
  2
DASHED1
 70
    64
  3
__ __ __ __ __ __ __ __ __ __ __ __ __ __ __
 72
    65
 73
     2
 40
1.500000
 49
1.000000
 49
-0.500000
  0
LTYPE
  2
DASHED2
 70
    64
  3
__ __ __ __ __ __ __ __ __ __ __ __ __ __ __
 72
    65
 73
     2
 40
3.500000
 49
2.500000
 49
-1.000000
  0
LTYPE
  2
DASHED3
 70
    64
  3
__ __ __ __ __ __ __ __ __ __ __ __ __ __ __
 72
    65
 73
     2
 40
6.000000
 49
4.000000
 49
-2.000000
  0
LTYPE
  2
DASHED4
 70
    64
  3
__ __ __ __ __ __ __ __ __ __ __ __ __ __ __
 72
    65
 73
     2
 40
12.000000
 49
10.000000
 49
-2.000000
  0
LTYPE
  2
DASHED5
 70
    64
  3
__ __ __ __ __ __ __ __ __ __ __ __ __ __ __
 72
    65
 73
     2
 40
17.000000
 49
15.000000
 49
-2.000000
  0
LTYPE
  2
DASHED6
 70
    64
  3
__ __ __ __ __ __ __ __ __ __ __ __ __ __ __
 72
    65
 73
     2
 40
29.000000
 49
27.000000
 49
-2.000000
  0
LTYPE
  2
PHANTOM1
 70
    64
  3
_____ _ _ _____ _ _ _____ _ _ _____ _ _ ____  
 72
    65
 73
     6
 40
31.000000
 49
25.000000
 49
-1.500000
 49
1.000000
 49
-1.000000
 49
1.000000
 49
-1.500000
  0
LTYPE
  2
PHANTOM2
 70
    64
  3
_____ _ _ _____ _ _ _____ _ _ _____ _ _ ____  
 72
    65
 73
     6
 40
36.000000
 49
27.000000
 49
-1.500000
 49
2.500000
 49
-1.000000
 49
2.500000
 49
-1.500000
  0
LTYPE
  2
PHANTOM3
 70
    64
  3
_____ _ _ _____ _ _ _____ _ _ _____ _ _ ____  
 72
    65
 73
     6
 40
78.000000
 49
64.000000
 49
-2.000000
 49
4.000000
 49
-2.000000
 49
4.000000
 49
-2.000000
  0
LTYPE
  2
CENTER1
 70
    64
  3
____ _ ____ _ ____ _ ____ _ ____ _ ____ _ ____
 72
    65
 73
     4
 40
19.000000
 49
14.000000
 49
-1.000000
 49
3.000000
 49
-1.000000
  0
LTYPE
  2
CENTER2
 70
    64
  3
____ _ ____ _ ____ _ ____ _ ____ _ ____ _ ____
 72
    65
 73
     4
 40
28.500000
 49
25.000000
 49
-1.000000
 49
1.500000
 49
-1.000000
  0
LTYPE
  2
CENTER3
 70
    64
  3
____ _ ____ _ ____ _ ____ _ ____ _ ____ _ ____
 72
    65
 73
     4
 40
31.500000
 49
27.000000
 49
-1.000000
 49
2.500000
 49
-1.000000
  0
LTYPE
  2
CENTER4
 70
    64
  3
____ _ ____ _ ____ _ ____ _ ____ _ ____ _ ____
 72
    65
 73
     4
 40
50.000000
 49
45.000000
 49
-1.000000
 49
3.000000
 49
-1.000000
  0
LTYPE
  2
CENTER5
 70
    64
  3
____ _ ____ _ ____ _ ____ _ ____ _ ____ _ ____
 72
    65
 73
     4
 40
100.000000
 49
92.000000
 49
-2.000000
 49
4.000000
 49
-2.000000
  0
LTYPE
  2
SBK1
 70
    64
  3
______ _ _ _ ______ _ _ _ ______ _ _ _ _____  
 72
    65
 73
     8
 40
60.500000
 49
45.000000
 49
-2.000000
 49
2.500000
 49
-2.000000
 49
2.500000
 49
-2.000000
 49
2.500000
 49
-2.000000
  0
LTYPE
  2
SBK2
 70
    64
  3
______ _ _ _ ______ _ _ _ ______ _ _ _ _____  
 72
    65
 73
     8
 40
84.000000
 49
64.000000
 49
-2.000000
 49
4.000000
 49
-2.000000
 49
4.000000
 49
-2.000000
 49
4.000000
 49
-2.000000
  0
LTYPE
  2
STCH
 70
    64
  3
__ __ __ __ __ __ __ __ __ __ __ __ __ __ __
 72
    65
 73
     2
 40
3.000000
 49
1.000000
 49
-2.000000
  0
LTYPE
  2
MTCH
 70
    64
  3
_____ _ _ _____ _ _ _____ _ _ _____ _ _ ____  
 72
    65
 73
     6
 40
80.000000
 49
66.000000
 49
-2.000000
 49
4.000000
 49
-2.000000
 49
4.000000
 49
-2.000000
  0
ENDTAB
  0
TABLE
  2
LAYER
 70
     1
  0
LAYER
  2
0
 70
     0
 62
     7
  6
CONTINUOUS
  0
ENDTAB
  0
TABLE
  2
STYLE
 70
     1
  0
STYLE
  2
STANDARD
 70
     0
 40
0.000000
 41
1.000000
 50
0.000000
 71
     0
 42
0.200000
  3
txt
  4
BIGFONT
  0
ENDTAB
  0
TABLE
  2
VIEW
 70
     0
  0
ENDTAB
  0
ENDSEC
  0
SECTION
  2
BLOCKS
  0
ENDSEC
  0
SECTION
  2
ENTITIES
  0
LINE
  8
0
 10
399.799988
 20
276.250000
 11
399.799988
 21
-276.750000
  0
LINE
  8
0
 10
-399.250000
 20
276.250000
 11
-399.250000
 21
-276.750000
  0
LINE
  8
0
 10
-399.250000
 20
276.250000
 11
399.799988
 21
276.250000
  0
LINE
  8
0
 10
-399.250000
 20
-276.750000
 11
399.799988
 21
-276.750000
  0
LINE
  8
0
 10
239.799988
 20
-251.750000
 11
399.799988
 21
-251.750000
  0
LINE
  8
0
 10
239.799988
 20
251.250000
 11
399.799988
 21
251.250000
  0
LINE
  8
0
 10
-399.250000
 20
251.250000
 11
-239.250000
 21
251.250000
  0
LINE
  8
0
 10
239.799988
 20
-251.750000
 11
239.799988
 21
-276.750000
  0
LINE
  8
0
 10
239.799988
 20
251.250000
 11
239.799988
 21
276.250000
  0
LINE
  8
0
 10
-239.250000
 20
276.250000
 11
-239.250000
 21
251.250000
  0
LINE
  8
0
 10
-384.250000
 20
-261.750000
 11
-184.949982
 21
-261.750000
  0
LINE
  8
0
 10
-384.250000
 20
-246.750000
 11
-184.949982
 21
-246.750000
  0
LINE
  8
0
 10
-384.250000
 20
-231.750000
 11
-184.949982
 21
-231.750000
  0
LINE
  8
0
 10
-384.250000
 20
-216.750000
 11
-184.949982
 21
-216.750000
  0
LINE
  8
0
 10
-384.250000
 20
-201.750000
 11
-184.949982
 21
-201.750000
  0
LINE
  8
0
 10
-384.250000
 20
-186.750000
 11
-184.949982
 21
-186.750000
  0
LINE
  8
0
 10
-384.250000
 20
-171.750000
 11
-184.949982
 21
-171.750000
  0
LINE
  8
0
 10
-384.250000
 20
-156.750000
 11
-184.949982
 21
-156.750000
  0
LINE
  8
0
 10
-384.250000
 20
-141.750000
 11
-184.949982
 21
-141.750000
  0
LINE
  8
0
 10
-384.250000
 20
-126.750000
 11
-184.949982
 21
-126.750000
  0
LINE
  8
0
 10
-384.250000
 20
-111.750000
 11
-184.949982
 21
-111.750000
  0
LINE
  8
0
 10
-384.250000
 20
-111.750000
 11
-384.250000
 21
-261.750000
  0
LINE
  8
0
 10
-274.949982
 20
-111.750000
 11
-274.949982
 21
-261.750000
  0
LINE
  8
0
 10
-229.949982
 20
-111.750000
 11
-229.949982
 21
-261.750000
  0
LINE
  8
0
 10
-184.949982
 20
-111.750000
 11
-184.949982
 21
-261.750000
  0
LINE
  8
0
 10
20.578308
 20
57.353981
 11
20.578308
 21
59.354019
  0
LINE
  8
0
 10
20.578308
 20
57.353981
 11
13.578323
 21
57.353981
  0
LINE
  8
0
 10
13.578323
 20
57.353981
 11
13.578323
 21
59.354019
  0
LINE
  8
0
 10
19.578308
 20
58.353989
 11
14.578308
 21
58.353989
  0
LINE
  8
0
 10
14.578256
 20
58.354012
 11
12.578253
 21
60.354012
  0
LINE
  8
0
 10
19.578299
 20
58.354023
 11
21.578314
 21
60.354038
  0
LINE
  8
0
 10
-70.421692
 20
57.353996
 11
-70.421692
 21
59.354012
  0
LINE
  8
0
 10
-70.421692
 20
57.353996
 11
-63.421692
 21
57.353996
  0
LINE
  8
0
 10
-63.421692
 20
57.353996
 11
-63.421692
 21
59.354012
  0
LINE
  8
0
 10
-69.421692
 20
58.354019
 11
-64.421692
 21
58.354019
  0
LINE
  8
0
 10
-64.421692
 20
58.354008
 11
-62.421684
 21
60.354012
  0
LINE
  8
0
 10
-69.421669
 20
58.354019
 11
-71.421669
 21
60.354019
  0
LINE
  8
0
 10
-135.921661
 20
60.354027
 11
-117.921661
 21
60.354027
  0
LINE
  8
0
  6
CENTER
 62
     2
 10
-148.413055
 20
131.854034
 11
-137.637726
 21
131.854034
  0
LINE
  8
0
 10
-148.421661
 20
134.354034
 11
-148.421661
 21
137.354050
  0
LINE
  8
0
 10
-148.421661
 20
126.354027
 11
-148.421661
 21
129.354034
  0
LINE
  8
0
  6
CENTER
 62
     2
 10
-143.421661
 20
126.106247
 11
-143.421661
 21
137.725723
  0
LINE
  8
0
 10
-148.421661
 20
129.354034
 11
-143.421661
 21
129.354034
  0
LINE
  8
0
 10
-148.421661
 20
134.354034
 11
-143.421661
 21
134.354034
  0
LINE
  8
0
  6
CENTER
 62
     2
 10
-148.413055
 20
67.854027
 11
-137.637726
 21
67.854027
  0
LINE
  8
0
 10
-148.421661
 20
70.354027
 11
-148.421661
 21
73.354034
  0
LINE
  8
0
 10
-148.421661
 20
62.354042
 11
-148.421661
 21
65.354027
  0
LINE
  8
0
  6
CENTER
 62
     2
 10
-143.421661
 20
62.106262
 11
-143.421661
 21
73.725716
  0
LINE
  8
0
 10
-148.421661
 20
65.354027
 11
-143.421661
 21
65.354027
  0
LINE
  8
0
 10
-148.421661
 20
70.354027
 11
-143.421661
 21
70.354027
  0
LINE
  8
0
 10
-146.421661
 20
60.354027
 11
-135.921661
 21
60.354027
  0
LINE
  8
0
 10
-146.421661
 20
75.354027
 11
-137.921661
 21
75.354027
  0
LINE
  8
0
 10
-146.421661
 20
124.354034
 11
-137.921661
 21
124.354034
  0
LINE
  8
0
 10
-117.921661
 20
139.354034
 11
-117.921661
 21
60.354027
  0
LINE
  8
0
 10
-135.921677
 20
184.854034
 11
-135.921677
 21
60.354027
  0
LINE
  8
0
 10
40.078278
 20
139.354034
 11
22.078293
 21
139.354034
  0
LINE
  8
0
 10
22.078293
 20
60.354027
 11
22.078293
 21
139.354034
  0
LINE
  8
0
 10
40.078278
 20
184.854065
 11
40.078278
 21
60.354027
  0
LINE
  8
0
 10
40.078278
 20
60.354027
 11
22.078293
 21
60.354027
  0
LINE
  8
0
 10
52.578278
 20
134.354034
 11
52.578278
 21
137.354050
  0
LINE
  8
0
 10
52.578278
 20
126.354027
 11
52.578278
 21
129.354034
  0
LINE
  8
0
  6
CENTER
 62
     2
 10
47.578278
 20
126.106247
 11
47.578278
 21
137.725723
  0
LINE
  8
0
 10
52.578278
 20
129.354034
 11
47.578308
 21
129.354034
  0
LINE
  8
0
 10
52.578308
 20
134.354034
 11
47.578308
 21
134.354034
  0
LINE
  8
0
 10
52.578278
 20
70.354027
 11
52.578278
 21
73.354034
  0
LINE
  8
0
 10
52.578278
 20
62.354042
 11
52.578278
 21
65.354027
  0
LINE
  8
0
  6
CENTER
 62
     2
 10
47.578278
 20
62.106262
 11
47.578278
 21
73.725716
  0
LINE
  8
0
 10
52.578308
 20
65.354027
 11
47.578308
 21
65.354027
  0
LINE
  8
0
 10
52.578278
 20
70.354027
 11
47.578308
 21
70.354027
  0
LINE
  8
0
 10
50.578308
 20
60.354027
 11
40.078278
 21
60.354027
  0
LINE
  8
0
 10
50.578308
 20
75.354027
 11
42.078308
 21
75.354027
  0
LINE
  8
0
 10
50.578308
 20
139.354034
 11
40.078278
 21
139.354034
  0
LINE
  8
0
 10
50.578308
 20
124.354034
 11
42.078308
 21
124.354034
  0
LINE
  8
0
 10
22.078293
 20
61.354050
 11
40.078278
 21
61.354050
  0
LINE
  8
0
 10
-5.921692
 20
60.354034
 11
22.078323
 21
60.354034
  0
LINE
  8
0
 10
-5.921692
 20
60.354034
 11
-5.921692
 21
139.354034
  0
LINE
  8
0
 10
22.078323
 20
60.354034
 11
22.078323
 21
139.354034
  0
LINE
  8
0
 10
22.078323
 20
61.354034
 11
-5.921692
 21
61.354034
  0
LINE
  8
0
 62
     4
 10
-3.421677
 20
74.354034
 11
19.578323
 21
74.354034
  0
LINE
  8
0
 62
     4
 10
-3.421677
 20
127.354019
 11
19.578323
 21
127.354019
  0
LINE
  8
0
 62
     4
 10
-1.982410
 20
112.793427
 11
0.138910
 21
114.914749
  0
LINE
  8
0
 62
     4
 10
-1.982366
 20
114.914680
 11
0.138954
 21
112.793365
  0
LINE
  8
0
 62
     4
 10
16.017601
 20
104.793427
 11
18.138922
 21
106.914749
  0
LINE
  8
0
 62
     4
 10
16.017643
 20
106.914711
 11
18.138964
 21
104.793388
  0
LINE
  8
0
 62
     4
 10
-1.982398
 20
86.793427
 11
0.138922
 21
88.914749
  0
LINE
  8
0
 62
     4
 10
-1.982389
 20
88.914650
 11
0.138931
 21
86.793335
  0
LINE
  8
0
 62
     4
 10
-3.421677
 20
127.354019
 11
-3.421677
 21
74.354034
  0
LINE
  8
0
 62
     4
 10
19.578323
 20
74.354034
 11
19.578323
 21
127.354019
  0
LINE
  8
0
 10
-115.421722
 20
144.854034
 11
-115.421722
 21
65.354050
  0
LINE
  8
0
 10
-92.421722
 20
144.854034
 11
-92.421722
 21
65.354050
  0
LINE
  8
0
  6
CENTER
 62
     2
 10
-103.921722
 20
169.222961
 11
-103.921722
 21
57.779999
  0
LINE
  8
0
 10
-115.421722
 20
65.354050
 11
-92.421722
 21
65.354050
  0
LINE
  8
0
 10
-117.921722
 20
139.354034
 11
-115.421722
 21
139.354034
  0
LINE
  8
0
 10
-117.921722
 20
60.354034
 11
-117.921722
 21
139.354034
  0
LINE
  8
0
 10
-89.921722
 20
61.354034
 11
-117.921722
 21
61.354034
  0
LINE
  8
0
 10
-89.921722
 20
60.354034
 11
-89.921722
 21
139.354034
  0
LINE
  8
0
 10
-117.921722
 20
60.354034
 11
-89.921722
 21
60.354034
  0
LINE
  8
0
 10
-112.921722
 20
90.854042
 11
-115.421722
 21
90.854042
  0
LINE
  8
0
 10
-112.921722
 20
84.854042
 11
-115.421722
 21
84.854042
  0
LINE
  8
0
 10
-95.421722
 20
78.354050
 11
-92.421722
 21
78.354050
  0
LINE
  8
0
 10
-95.421722
 20
83.354050
 11
-92.421722
 21
83.354050
  0
LINE
  8
0
 10
-94.921722
 20
102.854042
 11
-92.421722
 21
102.854042
  0
LINE
  8
0
 10
-94.921722
 20
108.854042
 11
-92.421722
 21
108.854042
  0
LINE
  8
0
 10
-112.421722
 20
123.354034
 11
-115.421722
 21
123.354034
  0
LINE
  8
0
 10
-112.421722
 20
118.354034
 11
-115.421722
 21
118.354034
  0
LINE
  8
0
 10
-112.921722
 20
116.854034
 11
-115.421722
 21
116.854034
  0
LINE
  8
0
 10
-112.921722
 20
110.854042
 11
-115.421722
 21
110.854042
  0
LINE
  8
0
 10
-113.921722
 20
125.854034
 11
-113.921722
 21
123.354034
  0
LINE
  8
0
 10
-93.921722
 20
125.854034
 11
-93.921722
 21
108.854042
  0
LINE
  8
0
 10
-115.421722
 20
74.354050
 11
-92.421722
 21
74.354050
  0
LINE
  8
0
 10
-115.421722
 20
127.354034
 11
-92.421722
 21
127.354034
  0
LINE
  8
0
 10
-113.921722
 20
125.854034
 11
-93.921722
 21
125.854034
  0
LINE
  8
0
 10
-113.921722
 20
75.854050
 11
-93.921722
 21
75.854050
  0
LINE
  8
0
 10
-113.921722
 20
84.854042
 11
-113.921722
 21
75.854050
  0
LINE
  8
0
 10
-113.921722
 20
110.854042
 11
-113.921722
 21
90.854042
  0
LINE
  8
0
 10
-113.921722
 20
118.354034
 11
-113.921722
 21
116.854034
  0
LINE
  8
0
 10
-93.921722
 20
102.854042
 11
-93.921722
 21
83.354050
  0
LINE
  8
0
 10
-93.921722
 20
78.354050
 11
-93.921722
 21
75.854050
  0
LINE
  8
0
 10
-115.421730
 20
74.354027
 11
-113.921715
 21
75.854034
  0
LINE
  8
0
 10
-93.921669
 20
75.854111
 11
-92.421661
 21
74.354095
  0
LINE
  8
0
 10
-92.421692
 20
127.354027
 11
-93.921684
 21
125.854034
  0
LINE
  8
0
 10
-115.421654
 20
127.354057
 11
-113.921661
 21
125.854065
  0
LINE
  8
0
 10
-96.482506
 20
79.793495
 11
-94.361183
 21
81.914818
  0
LINE
  8
0
 10
-113.482445
 20
119.793442
 11
-111.361130
 21
121.914757
  0
LINE
  8
0
 10
-113.482430
 20
121.914650
 11
-111.361107
 21
119.793327
  0
LINE
  8
0
 10
-96.482506
 20
81.914703
 11
-94.361191
 21
79.793381
  0
LINE
  8
0
 10
-113.982475
 20
112.793480
 11
-111.861153
 21
114.914803
  0
LINE
  8
0
 10
-113.982452
 20
114.914650
 11
-111.861137
 21
112.793327
  0
LINE
  8
0
 10
-95.982460
 20
104.793449
 11
-93.861137
 21
106.914764
  0
LINE
  8
0
 10
-95.982445
 20
106.914696
 11
-93.861122
 21
104.793381
  0
LINE
  8
0
 10
-113.982460
 20
86.793449
 11
-111.861137
 21
88.914772
  0
LINE
  8
0
 10
-113.982445
 20
88.914658
 11
-111.861122
 21
86.793335
  0
LINE
  8
0
 10
-87.421722
 20
144.854034
 11
-87.421722
 21
65.354050
  0
LINE
  8
0
 10
-64.421722
 20
144.854034
 11
-64.421722
 21
65.354050
  0
LINE
  8
0
  6
CENTER
 62
     2
 10
-75.921722
 20
169.222961
 11
-75.921722
 21
57.779999
  0
LINE
  8
0
 10
-87.421722
 20
65.354050
 11
-64.421722
 21
65.354050
  0
LINE
  8
0
 10
-89.921730
 20
60.354034
 11
-89.921730
 21
139.354034
  0
LINE
  8
0
 10
-61.921722
 20
61.354034
 11
-89.921730
 21
61.354034
  0
LINE
  8
0
 10
-61.921722
 20
60.354034
 11
-61.921722
 21
139.354034
  0
LINE
  8
0
 10
-89.921730
 20
60.354034
 11
-61.921722
 21
60.354034
  0
LINE
  8
0
 10
-84.921722
 20
90.854042
 11
-87.421722
 21
90.854042
  0
LINE
  8
0
 10
-84.921722
 20
84.854042
 11
-87.421722
 21
84.854042
  0
LINE
  8
0
 10
-67.421722
 20
78.354050
 11
-64.421722
 21
78.354050
  0
LINE
  8
0
 10
-67.421722
 20
83.354050
 11
-64.421722
 21
83.354050
  0
LINE
  8
0
 10
-66.921722
 20
102.854042
 11
-64.421722
 21
102.854042
  0
LINE
  8
0
 10
-66.921722
 20
108.854042
 11
-64.421722
 21
108.854042
  0
LINE
  8
0
 10
-84.421722
 20
123.354034
 11
-87.421722
 21
123.354034
  0
LINE
  8
0
 10
-84.421722
 20
118.354034
 11
-87.421722
 21
118.354034
  0
LINE
  8
0
 10
-84.921722
 20
116.854034
 11
-87.421722
 21
116.854034
  0
LINE
  8
0
 10
-84.921722
 20
110.854042
 11
-87.421722
 21
110.854042
  0
LINE
  8
0
 10
-85.921722
 20
125.854034
 11
-85.921722
 21
123.354034
  0
LINE
  8
0
 10
-65.921722
 20
125.854034
 11
-65.921722
 21
108.854042
  0
LINE
  8
0
 10
-87.421722
 20
74.354050
 11
-64.421722
 21
74.354050
  0
LINE
  8
0
 10
-87.421722
 20
127.354034
 11
-64.421722
 21
127.354034
  0
LINE
  8
0
 10
-85.921722
 20
125.854034
 11
-65.921722
 21
125.854034
  0
LINE
  8
0
 10
-85.921722
 20
75.854050
 11
-65.921722
 21
75.854050
  0
LINE
  8
0
 10
-85.921722
 20
84.854042
 11
-85.921722
 21
75.854050
  0
LINE
  8
0
 10
-85.921722
 20
110.854042
 11
-85.921722
 21
90.854042
  0
LINE
  8
0
 10
-85.921722
 20
118.354034
 11
-85.921722
 21
116.854034
  0
LINE
  8
0
 10
-65.921722
 20
102.854042
 11
-65.921722
 21
83.354050
  0
LINE
  8
0
 10
-65.921722
 20
78.354050
 11
-65.921722
 21
75.854050
  0
LINE
  8
0
 10
-87.421730
 20
74.354019
 11
-85.921715
 21
75.854034
  0
LINE
  8
0
 10
-65.921684
 20
75.854118
 11
-64.421669
 21
74.354103
  0
LINE
  8
0
 10
-64.421715
 20
127.354042
 11
-65.921707
 21
125.854050
  0
LINE
  8
0
 10
-87.421669
 20
127.354042
 11
-85.921684
 21
125.854057
  0
LINE
  8
0
 10
-68.482491
 20
79.793480
 11
-66.361168
 21
81.914795
  0
LINE
  8
0
 10
-85.482422
 20
119.793434
 11
-83.361107
 21
121.914749
  0
LINE
  8
0
 10
-85.482414
 20
121.914658
 11
-83.361092
 21
119.793343
  0
LINE
  8
0
 10
-68.482506
 20
81.914696
 11
-66.361183
 21
79.793381
  0
LINE
  8
0
 10
-85.982475
 20
112.793472
 11
-83.861153
 21
114.914795
  0
LINE
  8
0
 10
-85.982437
 20
114.914658
 11
-83.861122
 21
112.793335
  0
LINE
  8
0
 10
-67.982452
 20
104.793457
 11
-65.861130
 21
106.914772
  0
LINE
  8
0
 10
-67.982445
 20
106.914703
 11
-65.861130
 21
104.793388
  0
LINE
  8
0
 10
-85.982452
 20
86.793457
 11
-83.861130
 21
88.914780
  0
LINE
  8
0
 10
-85.982445
 20
88.914665
 11
-83.861122
 21
86.793350
  0
LINE
  8
0
 10
-59.421707
 20
144.854050
 11
-59.421707
 21
56.854065
  0
LINE
  8
0
 10
-36.421707
 20
144.854050
 11
-36.421707
 21
56.854065
  0
LINE
  8
0
  6
CENTER
 62
     2
 10
-47.921707
 20
170.687378
 11
-47.921707
 21
31.354050
  0
LINE
  8
0
 10
-61.921715
 20
60.354050
 11
-61.921715
 21
139.354050
  0
LINE
  8
0
 10
-33.921707
 20
61.354050
 11
-36.421707
 21
61.354050
  0
LINE
  8
0
 10
-33.921707
 20
60.354050
 11
-33.921707
 21
139.354050
  0
LINE
  8
0
 10
-36.421707
 20
57.354050
 11
-35.421707
 21
57.354050
  0
LINE
  8
0
 10
-35.421707
 20
57.354050
 11
-35.421707
 21
59.354050
  0
LINE
  8
0
 10
-36.421711
 20
58.354050
 11
-34.421707
 21
60.354053
  0
LINE
  8
0
 62
     4
 10
-36.421715
 20
56.854065
 11
-59.421715
 21
56.854065
  0
LINE
  8
0
 10
-61.921715
 20
60.354050
 11
-59.421707
 21
60.354050
  0
LINE
  8
0
 10
-56.921707
 20
90.854057
 11
-59.421707
 21
90.854057
  0
LINE
  8
0
 10
-56.921707
 20
84.854057
 11
-59.421707
 21
84.854057
  0
LINE
  8
0
 10
-39.421707
 20
78.354065
 11
-36.421707
 21
78.354065
  0
LINE
  8
0
 10
-39.421707
 20
83.354065
 11
-36.421707
 21
83.354065
  0
LINE
  8
0
 10
-38.921707
 20
102.854057
 11
-36.421707
 21
102.854057
  0
LINE
  8
0
 10
-38.921707
 20
108.854057
 11
-36.421707
 21
108.854057
  0
LINE
  8
0
 10
-56.421707
 20
123.354050
 11
-59.421707
 21
123.354050
  0
LINE
  8
0
 10
-56.421707
 20
118.354050
 11
-59.421707
 21
118.354050
  0
LINE
  8
0
 10
-56.921707
 20
116.854050
 11
-59.421707
 21
116.854050
  0
LINE
  8
0
 10
-56.921707
 20
110.854057
 11
-59.421707
 21
110.854057
  0
LINE
  8
0
 10
-57.921707
 20
125.854050
 11
-57.921707
 21
123.354050
  0
LINE
  8
0
 10
-37.921707
 20
125.854050
 11
-37.921707
 21
108.854057
  0
LINE
  8
0
 10
-59.421707
 20
74.354065
 11
-36.421707
 21
74.354065
  0
LINE
  8
0
 10
-59.421707
 20
127.354050
 11
-36.421707
 21
127.354050
  0
LINE
  8
0
 10
-57.921707
 20
125.854050
 11
-37.921707
 21
125.854050
  0
LINE
  8
0
 10
-57.921707
 20
75.854065
 11
-37.921707
 21
75.854065
  0
LINE
  8
0
 10
-57.921707
 20
84.854057
 11
-57.921707
 21
75.854065
  0
LINE
  8
0
 10
-57.921707
 20
110.854057
 11
-57.921707
 21
90.854057
  0
LINE
  8
0
 10
-57.921707
 20
118.354050
 11
-57.921707
 21
116.854050
  0
LINE
  8
0
 10
-37.921707
 20
102.854057
 11
-37.921707
 21
83.354065
  0
LINE
  8
0
 10
-37.921707
 20
78.354065
 11
-37.921707
 21
75.854065
  0
LINE
  8
0
 10
-59.421715
 20
74.354034
 11
-57.921703
 21
75.854050
  0
LINE
  8
0
 10
-37.921680
 20
75.854111
 11
-36.421669
 21
74.354103
  0
LINE
  8
0
 10
-36.421696
 20
127.354057
 11
-37.921684
 21
125.854065
  0
LINE
  8
0
 10
-59.421665
 20
127.354065
 11
-57.921677
 21
125.854073
  0
LINE
  8
0
 10
-40.482471
 20
79.793495
 11
-38.361149
 21
81.914818
  0
LINE
  8
0
 10
-57.482422
 20
119.793465
 11
-55.361099
 21
121.914787
  0
LINE
  8
0
 10
-57.482399
 20
121.914688
 11
-55.361076
 21
119.793365
  0
LINE
  8
0
 10
-40.482487
 20
81.914711
 11
-38.361164
 21
79.793388
  0
LINE
  8
0
 10
-57.982456
 20
112.793480
 11
-55.861137
 21
114.914803
  0
LINE
  8
0
 10
-57.982414
 20
114.914673
 11
-55.861095
 21
112.793350
  0
LINE
  8
0
 10
-39.982403
 20
104.793457
 11
-37.861084
 21
106.914780
  0
LINE
  8
0
 10
-39.982422
 20
106.914734
 11
-37.861099
 21
104.793419
  0
LINE
  8
0
 10
-57.982403
 20
86.793457
 11
-55.861084
 21
88.914780
  0
LINE
  8
0
 10
-57.982437
 20
88.914688
 11
-55.861115
 21
86.793365
  0
LINE
  8
0
 10
-59.421707
 20
61.354050
 11
-61.921715
 21
61.354050
  0
LINE
  8
0
 10
-36.421707
 20
60.354050
 11
-33.921707
 21
60.354050
  0
LINE
  8
0
 10
-31.421692
 20
159.854034
 11
-31.421692
 21
41.854034
  0
LINE
  8
0
 10
-8.421692
 20
159.854034
 11
-8.421692
 21
41.854034
  0
LINE
  8
0
  6
CENTER
 62
     2
 10
-19.921692
 20
184.222946
 11
-19.921692
 21
16.854034
  0
LINE
  8
0
 62
     4
 10
-8.421692
 20
41.854034
 11
-31.421700
 21
41.854034
  0
LINE
  8
0
 10
-33.921700
 20
60.354034
 11
-31.421692
 21
60.354034
  0
LINE
  8
0
 10
-33.921700
 20
60.354034
 11
-33.921700
 21
139.354034
  0
LINE
  8
0
 10
-5.921692
 20
61.354034
 11
-8.421692
 21
61.354034
  0
LINE
  8
0
 10
-5.921692
 20
60.354034
 11
-5.921692
 21
139.354034
  0
LINE
  8
0
 10
-31.421692
 20
61.354034
 11
-33.921700
 21
61.354034
  0
LINE
  8
0
 10
-8.421692
 20
60.354034
 11
-5.921692
 21
60.354034
  0
LINE
  8
0
 10
-8.421692
 20
57.354034
 11
-7.421692
 21
57.354034
  0
LINE
  8
0
 10
-7.421692
 20
57.354034
 11
-7.421692
 21
59.354034
  0
LINE
  8
0
 10
-8.421682
 20
58.354027
 11
-6.421679
 21
60.354027
  0
LINE
  8
0
 10
-28.921692
 20
90.854027
 11
-31.421692
 21
90.854027
  0
LINE
  8
0
 10
-28.921692
 20
84.854027
 11
-31.421692
 21
84.854027
  0
LINE
  8
0
 10
-11.421692
 20
78.354034
 11
-8.421692
 21
78.354034
  0
LINE
  8
0
 10
-11.421692
 20
83.354034
 11
-8.421692
 21
83.354034
  0
LINE
  8
0
 10
-10.921692
 20
102.854027
 11
-8.421692
 21
102.854027
  0
LINE
  8
0
 10
-10.921692
 20
108.854027
 11
-8.421692
 21
108.854027
  0
LINE
  8
0
 10
-28.421692
 20
123.354019
 11
-31.421692
 21
123.354019
  0
LINE
  8
0
 10
-28.421692
 20
118.354019
 11
-31.421692
 21
118.354019
  0
LINE
  8
0
 10
-28.921692
 20
116.854019
 11
-31.421692
 21
116.854019
  0
LINE
  8
0
 10
-28.921692
 20
110.854027
 11
-31.421692
 21
110.854027
  0
LINE
  8
0
 10
-29.921692
 20
125.854019
 11
-29.921692
 21
123.354019
  0
LINE
  8
0
 10
-9.921692
 20
125.854019
 11
-9.921692
 21
108.854027
  0
LINE
  8
0
 10
-31.421692
 20
74.354034
 11
-8.421692
 21
74.354034
  0
LINE
  8
0
 10
-31.421692
 20
127.354019
 11
-8.421692
 21
127.354019
  0
LINE
  8
0
 10
-29.921692
 20
125.854019
 11
-9.921692
 21
125.854019
  0
LINE
  8
0
 10
-29.921692
 20
75.854034
 11
-9.921692
 21
75.854034
  0
LINE
  8
0
 10
-29.921692
 20
84.854027
 11
-29.921692
 21
75.854034
  0
LINE
  8
0
 10
-29.921692
 20
110.854027
 11
-29.921692
 21
90.854027
  0
LINE
  8
0
 10
-29.921692
 20
118.354019
 11
-29.921692
 21
116.854019
  0
LINE
  8
0
 10
-9.921692
 20
102.854027
 11
-9.921692
 21
83.354034
  0
LINE
  8
0
 10
-9.921692
 20
78.354034
 11
-9.921692
 21
75.854034
  0
LINE
  8
0
 10
-31.421711
 20
74.354012
 11
-29.921700
 21
75.854019
  0
LINE
  8
0
 10
-9.921651
 20
75.854080
 11
-8.421638
 21
74.354073
  0
LINE
  8
0
 10
-8.421687
 20
127.354034
 11
-9.921679
 21
125.854042
  0
LINE
  8
0
 10
-31.421646
 20
127.354042
 11
-29.921656
 21
125.854050
  0
LINE
  8
0
 10
-12.482467
 20
79.793480
 11
-10.361146
 21
81.914803
  0
LINE
  8
0
 10
-29.482403
 20
119.793419
 11
-27.361076
 21
121.914749
  0
LINE
  8
0
 10
-29.482391
 20
121.914673
 11
-27.361065
 21
119.793350
  0
LINE
  8
0
 10
-12.482487
 20
81.914688
 11
-10.361161
 21
79.793365
  0
LINE
  8
0
 10
-29.982426
 20
112.793449
 11
-27.861105
 21
114.914764
  0
LINE
  8
0
 10
-29.982409
 20
114.914658
 11
-27.861088
 21
112.793343
  0
LINE
  8
0
 10
-11.982411
 20
104.793434
 11
-9.861091
 21
106.914749
  0
LINE
  8
0
 10
-11.982393
 20
106.914688
 11
-9.861073
 21
104.793373
  0
LINE
  8
0
 10
-29.982410
 20
86.793434
 11
-27.861090
 21
88.914757
  0
LINE
  8
0
 10
-29.982426
 20
88.914658
 11
-27.861105
 21
86.793335
  0
LINE
  8
0
  6
CENTER
 62
     2
 10
8.078308
 20
56.854065
 11
8.078308
 21
144.854050
  0
LINE
  8
0
 10
-126.421692
 20
57.353996
 11
-126.421692
 21
59.354012
  0
LINE
  8
0
 10
-126.421692
 20
57.353996
 11
-119.421692
 21
57.353996
  0
LINE
  8
0
 10
-119.421692
 20
57.353996
 11
-119.421692
 21
59.354012
  0
LINE
  8
0
 10
-125.421692
 20
58.354019
 11
-120.421692
 21
58.354019
  0
LINE
  8
0
 10
-120.421677
 20
58.353992
 11
-118.421669
 21
60.354000
  0
LINE
  8
0
 10
-125.421669
 20
58.354019
 11
-127.421669
 21
60.354023
  0
LINE
  8
0
 10
-98.421692
 20
57.353996
 11
-98.421692
 21
59.354012
  0
LINE
  8
0
 10
-98.421692
 20
57.353996
 11
-91.421692
 21
57.353996
  0
LINE
  8
0
 10
-91.421692
 20
57.353996
 11
-91.421692
 21
59.354012
  0
LINE
  8
0
 10
-97.421692
 20
58.354019
 11
-92.421692
 21
58.354019
  0
LINE
  8
0
 10
-92.421677
 20
58.353992
 11
-90.421669
 21
60.353996
  0
LINE
  8
0
 10
-97.421669
 20
58.354015
 11
-99.421677
 21
60.354019
  0
LINE
  8
0
 10
-3.421677
 20
185.854065
 11
19.578308
 21
185.854065
  0
LINE
  8
0
 10
-3.421677
 20
185.854065
 11
-3.421677
 21
146.854065
  0
LINE
  8
0
 10
-3.421677
 20
182.354034
 11
19.578308
 21
182.354034
  0
LINE
  8
0
 10
19.578339
 20
185.854065
 11
19.578339
 21
146.854065
  0
LINE
  8
0
 10
-118.421677
 20
186.854034
 11
-117.421692
 21
186.854034
  0
LINE
  8
0
 10
-118.421677
 20
186.854034
 11
-118.421677
 21
139.354034
  0
LINE
  8
0
 10
-117.421692
 20
186.854034
 11
-117.421692
 21
185.854065
  0
LINE
  8
0
 10
-120.621689
 20
185.854065
 11
-118.421677
 21
185.854065
  0
LINE
  8
0
 10
-146.421631
 20
139.354034
 11
-117.921677
 21
139.354034
  0
LINE
  8
0
 10
-117.421692
 20
182.354034
 11
-117.421692
 21
139.354034
  0
LINE
  8
0
 10
-120.621689
 20
185.854065
 11
-120.621689
 21
139.354034
  0
LINE
  8
0
 10
22.578308
 20
186.854034
 11
21.578308
 21
186.854034
  0
LINE
  8
0
 10
22.578308
 20
186.854034
 11
22.578308
 21
139.354034
  0
LINE
  8
0
 10
21.578308
 20
186.854034
 11
21.578308
 21
185.854065
  0
LINE
  8
0
 10
24.778320
 20
185.854065
 11
22.578308
 21
185.854065
  0
LINE
  8
0
 10
21.578308
 20
185.854065
 11
19.778320
 21
185.854065
  0
LINE
  8
0
 10
19.778320
 20
185.854065
 11
19.778320
 21
146.854034
  0
LINE
  8
0
 10
21.578308
 20
182.354034
 11
19.778320
 21
182.354034
  0
LINE
  8
0
 10
21.578308
 20
182.354034
 11
21.578308
 21
139.354034
  0
LINE
  8
0
 10
20.578308
 20
146.854034
 11
20.578308
 21
139.354034
  0
LINE
  8
0
 10
24.778320
 20
185.854065
 11
24.778320
 21
139.354034
  0
LINE
  8
0
 10
-134.921692
 20
185.854065
 11
-118.921677
 21
185.854065
  0
LINE
  8
0
 10
39.078278
 20
185.854065
 11
23.078308
 21
185.854065
  0
LINE
  8
0
 10
-31.421677
 20
185.854065
 11
-31.421677
 21
180.854034
  0
LINE
  8
0
 10
-117.421692
 20
185.854065
 11
-115.621689
 21
185.854065
  0
LINE
  8
0
 10
-115.621689
 20
185.854065
 11
-115.621689
 21
146.854034
  0
LINE
  8
0
 10
-116.421677
 20
146.854034
 11
-115.621689
 21
146.854034
  0
LINE
  8
0
 10
-117.421692
 20
182.354034
 11
-115.621689
 21
182.354034
  0
LINE
  8
0
 10
-116.421677
 20
146.854034
 11
-116.421677
 21
139.354034
  0
LINE
  8
0
 10
-92.421646
 20
139.354065
 11
-87.421646
 21
139.354065
  0
LINE
  8
0
 10
-89.421692
 20
186.854034
 11
-90.421677
 21
186.854034
  0
LINE
  8
0
 10
-90.421661
 20
186.854034
 11
-90.421661
 21
185.854065
  0
LINE
  8
0
 10
-89.421661
 20
186.854034
 11
-89.421661
 21
185.854065
  0
LINE
  8
0
 10
-89.421661
 20
185.854065
 11
-87.621658
 21
185.854065
  0
LINE
  8
0
 10
-87.621643
 20
185.854065
 11
-87.621643
 21
146.854034
  0
LINE
  8
0
 10
-90.421677
 20
185.854065
 11
-92.221680
 21
185.854065
  0
LINE
  8
0
 10
-92.221664
 20
185.854065
 11
-92.221664
 21
146.854034
  0
LINE
  8
0
 10
-89.421661
 20
182.354034
 11
-87.621658
 21
182.354034
  0
LINE
  8
0
 10
-90.421677
 20
182.354034
 11
-92.221680
 21
182.354034
  0
LINE
  8
0
 10
-89.421661
 20
182.354034
 11
-89.421661
 21
139.354034
  0
LINE
  8
0
 10
-90.421661
 20
182.354034
 11
-90.421661
 21
139.354034
  0
LINE
  8
0
 10
-91.421677
 20
146.854034
 11
-91.421677
 21
139.354034
  0
LINE
  8
0
 10
-91.421692
 20
146.854034
 11
-92.221680
 21
146.854034
  0
LINE
  8
0
 10
-88.421661
 20
146.854034
 11
-87.621658
 21
146.854034
  0
LINE
  8
0
 10
-88.421661
 20
146.854034
 11
-88.421661
 21
139.354034
  0
LINE
  8
0
 10
-115.421677
 20
185.854065
 11
-92.421692
 21
185.854065
  0
LINE
  8
0
 10
-115.421677
 20
182.354034
 11
-92.421692
 21
182.354034
  0
LINE
  8
0
 10
-92.421661
 20
185.854065
 11
-92.421661
 21
165.854065
  0
LINE
  8
0
 62
     4
 10
-115.421677
 20
144.854065
 11
-92.421661
 21
144.854065
  0
LINE
  8
0
 62
     4
 10
-115.421677
 20
164.854065
 11
-92.421661
 21
164.854065
  0
LINE
  8
0
 62
     4
 10
-111.921661
 20
156.854065
 11
-96.921661
 21
156.854065
  0
LINE
  8
0
 62
     4
 10
-111.921661
 20
152.854065
 11
-96.921661
 21
152.854065
  0
LINE
  8
0
 62
     4
 10
-111.921661
 20
156.854065
 11
-111.921661
 21
152.854065
  0
LINE
  8
0
 62
     4
 10
-96.921661
 20
156.854065
 11
-96.921661
 21
152.854065
  0
LINE
  8
0
 62
     4
 10
-115.421677
 20
165.854065
 11
-92.421661
 21
165.854065
  0
LINE
  8
0
 62
     4
 10
-93.421677
 20
167.854050
 11
-92.421661
 21
165.854019
  0
LINE
  8
0
 62
     4
 10
-107.921677
 20
167.854065
 11
-107.921677
 21
165.854065
  0
LINE
  8
0
 62
     4
 10
-114.671677
 20
166.554047
 11
-109.171677
 21
166.554047
  0
LINE
  8
0
 62
     4
 10
-109.171677
 20
166.554047
 11
-109.171677
 21
165.854065
  0
LINE
  8
0
 62
     4
 10
-114.671677
 20
166.554047
 11
-114.671677
 21
165.854065
  0
LINE
  8
0
 62
     4
 10
-114.421646
 20
167.854065
 11
-114.191559
 21
167.854065
  0
LINE
  8
0
 62
     4
 10
-112.671677
 20
168.554047
 11
-111.171661
 21
168.554047
  0
LINE
  8
0
 62
     4
 10
-96.671677
 20
168.554047
 11
-95.171677
 21
168.554047
  0
LINE
  8
0
 62
     4
 10
-109.651810
 20
167.854065
 11
-93.421677
 21
167.854065
  0
LINE
  8
0
 10
-115.421677
 20
185.854065
 11
-115.421677
 21
165.854065
  0
LINE
  8
0
 10
-5.421661
 20
186.854034
 11
-5.421661
 21
185.854065
  0
LINE
  8
0
 10
-5.421661
 20
185.854065
 11
-3.621658
 21
185.854065
  0
LINE
  8
0
 10
-3.621643
 20
185.854065
 11
-3.621643
 21
146.854034
  0
LINE
  8
0
 10
-6.421677
 20
185.854065
 11
-8.221680
 21
185.854065
  0
LINE
  8
0
 10
-8.221664
 20
185.854065
 11
-8.221664
 21
146.854034
  0
LINE
  8
0
 10
-5.421661
 20
182.354034
 11
-3.621658
 21
182.354034
  0
LINE
  8
0
 10
-6.421677
 20
182.354034
 11
-8.221680
 21
182.354034
  0
LINE
  8
0
 10
-5.421661
 20
182.354034
 11
-5.421661
 21
139.354034
  0
LINE
  8
0
 10
-6.421661
 20
182.354034
 11
-6.421661
 21
139.354034
  0
LINE
  8
0
 10
-7.421677
 20
146.854034
 11
-7.421677
 21
139.354034
  0
LINE
  8
0
 10
-7.421692
 20
146.854034
 11
-8.221680
 21
146.854034
  0
LINE
  8
0
 10
-4.421661
 20
146.854034
 11
20.578308
 21
146.854034
  0
LINE
  8
0
 10
-4.421661
 20
146.854034
 11
-4.421661
 21
139.354034
  0
LINE
  8
0
 10
-31.421677
 20
185.854065
 11
-8.421692
 21
185.854065
  0
LINE
  8
0
 10
-31.421677
 20
182.354034
 11
-30.671661
 21
182.354034
  0
LINE
  8
0
 10
-8.421661
 20
185.854065
 11
-8.421661
 21
180.854034
  0
LINE
  8
0
 62
     4
 10
-31.421677
 20
159.854034
 11
-8.421661
 21
159.854034
  0
LINE
  8
0
 62
     4
 10
-31.421677
 20
179.854034
 11
-8.421661
 21
179.854034
  0
LINE
  8
0
 62
     4
 10
-27.921661
 20
171.854034
 11
-12.921661
 21
171.854034
  0
LINE
  8
0
 62
     4
 10
-27.921661
 20
167.854034
 11
-12.921661
 21
167.854034
  0
LINE
  8
0
 62
     4
 10
-27.921661
 20
171.854034
 11
-27.921661
 21
167.854034
  0
LINE
  8
0
 62
     4
 10
-12.921661
 20
171.854034
 11
-12.921661
 21
167.854034
  0
LINE
  8
0
 62
     4
 10
-31.421677
 20
180.854034
 11
-8.421661
 21
180.854034
  0
LINE
  8
0
 62
     4
 10
-9.421681
 20
182.854034
 11
-8.421667
 21
180.854004
  0
LINE
  8
0
 62
     4
 10
-23.921677
 20
182.854034
 11
-23.921677
 21
180.854034
  0
LINE
  8
0
 62
     4
 10
-30.671677
 20
181.554016
 11
-25.171677
 21
181.554016
  0
LINE
  8
0
 62
     4
 10
-30.671677
 20
181.554016
 11
-30.671677
 21
180.854034
  0
LINE
  8
0
 62
     4
 10
-58.671677
 20
166.554047
 11
-58.671677
 21
165.854065
  0
LINE
  8
0
 62
     4
 10
-30.421661
 20
182.854034
 11
-30.191528
 21
182.854034
  0
LINE
  8
0
 62
     4
 10
-28.671677
 20
183.554016
 11
-27.171661
 21
183.554016
  0
LINE
  8
0
 62
     4
 10
-12.671677
 20
183.554016
 11
-11.171677
 21
183.554016
  0
LINE
  8
0
 10
-64.421646
 20
139.354065
 11
-61.921715
 21
139.354065
  0
LINE
  8
0
 10
-61.421692
 20
186.854034
 11
-62.421677
 21
186.854034
  0
LINE
  8
0
 10
-62.421661
 20
186.854034
 11
-62.421661
 21
185.854065
  0
LINE
  8
0
 10
-61.421661
 20
186.854034
 11
-61.421661
 21
185.854065
  0
LINE
  8
0
 10
-61.421661
 20
185.854065
 11
-59.621658
 21
185.854065
  0
LINE
  8
0
 10
-59.621643
 20
185.854065
 11
-59.621643
 21
146.854034
  0
LINE
  8
0
 10
-62.421677
 20
185.854065
 11
-64.221680
 21
185.854065
  0
LINE
  8
0
 10
-64.221664
 20
185.854065
 11
-64.221664
 21
146.854034
  0
LINE
  8
0
 10
-61.421661
 20
182.354034
 11
-59.621658
 21
182.354034
  0
LINE
  8
0
 10
-62.421677
 20
182.354034
 11
-64.221680
 21
182.354034
  0
LINE
  8
0
 10
-61.421661
 20
182.354034
 11
-61.421661
 21
139.354034
  0
LINE
  8
0
 10
-62.421661
 20
182.354034
 11
-62.421661
 21
139.354034
  0
LINE
  8
0
 10
-63.421677
 20
146.854034
 11
-63.421677
 21
139.354034
  0
LINE
  8
0
 10
-63.421692
 20
146.854034
 11
-64.221680
 21
146.854034
  0
LINE
  8
0
 10
-60.421661
 20
146.854034
 11
-59.621658
 21
146.854034
  0
LINE
  8
0
 10
-60.421661
 20
146.854034
 11
-60.421661
 21
139.354034
  0
LINE
  8
0
 10
-87.421677
 20
185.854065
 11
-64.421692
 21
185.854065
  0
LINE
  8
0
 10
-87.421677
 20
182.354034
 11
-64.421692
 21
182.354034
  0
LINE
  8
0
 10
-64.421661
 20
185.854065
 11
-64.421661
 21
165.854065
  0
LINE
  8
0
 62
     4
 10
-87.421677
 20
144.854065
 11
-64.421661
 21
144.854065
  0
LINE
  8
0
 62
     4
 10
-8.421738
 20
21.854050
 11
-31.421753
 21
21.854050
  0
LINE
  8
0
 62
     4
 10
-11.921753
 20
29.854050
 11
-26.921753
 21
29.854050
  0
LINE
  8
0
 62
     4
 10
-11.921753
 20
33.854050
 11
-26.921753
 21
33.854050
  0
LINE
  8
0
 62
     4
 10
-11.921753
 20
29.854034
 11
-11.921753
 21
33.854034
  0
LINE
  8
0
 62
     4
 10
-26.921745
 20
29.854034
 11
-26.921745
 21
33.854034
  0
LINE
  8
0
 62
     4
 10
-8.421738
 20
20.854050
 11
-31.421753
 21
20.854050
  0
LINE
  8
0
 62
     4
 10
-30.421694
 20
18.854033
 11
-31.421707
 21
20.854061
  0
LINE
  8
0
 62
     4
 10
-15.921730
 20
18.854034
 11
-15.921730
 21
20.854034
  0
LINE
  8
0
 62
     4
 10
-9.171738
 20
20.154068
 11
-14.671738
 21
20.154068
  0
LINE
  8
0
 62
     4
 10
-14.671722
 20
20.154053
 11
-14.671722
 21
20.854034
  0
LINE
  8
0
 62
     4
 10
-9.171722
 20
20.154053
 11
-9.171722
 21
20.854034
  0
LINE
  8
0
 62
     4
 10
-9.421783
 20
18.854050
 11
-9.651855
 21
18.854050
  0
LINE
  8
0
 62
     4
 10
-11.171738
 20
18.154068
 11
-12.671753
 21
18.154068
  0
LINE
  8
0
 62
     4
 10
-27.171738
 20
18.154068
 11
-28.671738
 21
18.154068
  0
LINE
  8
0
 62
     4
 10
-14.191605
 20
18.854050
 11
-30.421722
 21
18.854050
  0
LINE
  8
0
 10
-87.421677
 20
185.854065
 11
-87.421677
 21
165.854065
  0
LINE
  8
0
 10
-8.421646
 20
139.354065
 11
-5.921692
 21
139.354065
  0
LINE
  8
0
 10
-5.421692
 20
186.854034
 11
-6.421677
 21
186.854034
  0
LINE
  8
0
 10
-6.421661
 20
186.854034
 11
-6.421661
 21
185.854065
  0
LINE
  8
0
 10
-33.421661
 20
186.854034
 11
-33.421661
 21
185.854065
  0
LINE
  8
0
 10
-33.421661
 20
185.854065
 11
-31.621658
 21
185.854065
  0
LINE
  8
0
 10
-31.621643
 20
185.854065
 11
-31.621643
 21
146.854034
  0
LINE
  8
0
 10
-34.421677
 20
185.854065
 11
-36.221680
 21
185.854065
  0
LINE
  8
0
 10
-36.221664
 20
185.854065
 11
-36.221664
 21
146.854034
  0
LINE
  8
0
 10
-33.421661
 20
182.354034
 11
-31.621658
 21
182.354034
  0
LINE
  8
0
 10
-34.421677
 20
182.354034
 11
-36.221680
 21
182.354034
  0
LINE
  8
0
 10
-33.421661
 20
182.354034
 11
-33.421661
 21
139.354034
  0
LINE
  8
0
 10
-34.421661
 20
182.354034
 11
-34.421661
 21
139.354034
  0
LINE
  8
0
 10
-35.421677
 20
146.854034
 11
-35.421677
 21
139.354034
  0
LINE
  8
0
 10
-35.421692
 20
146.854034
 11
-36.221680
 21
146.854034
  0
LINE
  8
0
 10
-32.421661
 20
146.854034
 11
-31.621658
 21
146.854034
  0
LINE
  8
0
 10
-32.421661
 20
146.854034
 11
-32.421661
 21
139.354034
  0
LINE
  8
0
 10
-59.421677
 20
185.854065
 11
-36.421692
 21
185.854065
  0
LINE
  8
0
 10
-59.421677
 20
182.354034
 11
-36.421692
 21
182.354034
  0
LINE
  8
0
 10
-36.421661
 20
185.854065
 11
-36.421661
 21
165.854065
  0
LINE
  8
0
 62
     4
 10
-59.421677
 20
144.854065
 11
-36.421661
 21
144.854065
  0
LINE
  8
0
 62
     4
 10
-59.421677
 20
164.854065
 11
-36.421661
 21
164.854065
  0
LINE
  8
0
 62
     4
 10
-55.921661
 20
156.854065
 11
-40.921661
 21
156.854065
  0
LINE
  8
0
 62
     4
 10
-55.921661
 20
152.854065
 11
-40.921661
 21
152.854065
  0
LINE
  8
0
 62
     4
 10
-55.921661
 20
156.854065
 11
-55.921661
 21
152.854065
  0
LINE
  8
0
 62
     4
 10
-40.921661
 20
156.854065
 11
-40.921661
 21
152.854065
  0
LINE
  8
0
 62
     4
 10
-59.421677
 20
165.854065
 11
-36.421661
 21
165.854065
  0
LINE
  8
0
 62
     4
 10
-37.421696
 20
167.854065
 11
-36.421669
 21
165.854004
  0
LINE
  8
0
 62
     4
 10
-51.921677
 20
167.854065
 11
-51.921677
 21
165.854065
  0
LINE
  8
0
 62
     4
 10
-58.671677
 20
166.554047
 11
-53.171677
 21
166.554047
  0
LINE
  8
0
 62
     4
 10
-53.171677
 20
166.554047
 11
-53.171677
 21
165.854065
  0
LINE
  8
0
 62
     4
 10
-58.421638
 20
167.854065
 11
-58.191559
 21
167.854065
  0
LINE
  8
0
 62
     4
 10
-56.671677
 20
168.554047
 11
-55.171661
 21
168.554047
  0
LINE
  8
0
 62
     4
 10
-40.671677
 20
168.554047
 11
-39.171677
 21
168.554047
  0
LINE
  8
0
 62
     4
 10
-53.651810
 20
167.854065
 11
-37.421692
 21
167.854065
  0
LINE
  8
0
 10
-36.421646
 20
139.354065
 11
-33.921700
 21
139.354065
  0
LINE
  8
0
 10
-33.421692
 20
186.854034
 11
-34.421677
 21
186.854034
  0
LINE
  8
0
 10
-34.421661
 20
186.854034
 11
-34.421661
 21
185.854065
  0
LINE
  8
0
 10
-59.421677
 20
185.854065
 11
-59.421677
 21
165.854065
  0
LINE
  8
0
 10
-5.921692
 20
139.354065
 11
22.078323
 21
139.354065
  0
LINE
  8
0
 10
-33.921700
 20
139.354065
 11
-31.421646
 21
139.354065
  0
LINE
  8
0
 10
-61.921715
 20
139.354065
 11
-59.421646
 21
139.354065
  0
LINE
  8
0
 62
     4
 10
-114.421585
 20
167.854019
 11
-115.421608
 21
165.853989
  0
LINE
  8
0
 62
     4
 10
-9.421787
 20
18.854050
 11
-8.421773
 21
20.854078
  0
LINE
  8
0
 62
     4
 10
-58.421631
 20
167.854065
 11
-59.421654
 21
165.854004
  0
LINE
  8
0
 62
     4
 10
-30.421661
 20
182.854034
 11
-31.421675
 21
180.854004
  0
LINE
  8
0
 62
     4
 10
-25.171677
 20
181.554016
 11
-25.171677
 21
180.854034
  0
LINE
  8
0
 62
     4
 10
-25.651810
 20
182.854034
 11
-9.421677
 21
182.854034
  0
LINE
  8
0
 10
-9.171677
 20
182.354034
 11
-8.421692
 21
182.354034
  0
LINE
  8
0
 62
     4
 10
-87.421677
 20
164.854065
 11
-64.421661
 21
164.854065
  0
LINE
  8
0
 62
     4
 10
-83.921661
 20
156.854065
 11
-68.921661
 21
156.854065
  0
LINE
  8
0
 62
     4
 10
-83.921661
 20
152.854065
 11
-68.921661
 21
152.854065
  0
LINE
  8
0
 62
     4
 10
-83.921661
 20
156.854065
 11
-83.921661
 21
152.854065
  0
LINE
  8
0
 62
     4
 10
-68.921661
 20
156.854065
 11
-68.921661
 21
152.854065
  0
LINE
  8
0
 62
     4
 10
-87.421677
 20
165.854065
 11
-64.421661
 21
165.854065
  0
LINE
  8
0
 62
     4
 10
-65.421707
 20
167.854065
 11
-64.421692
 21
165.854034
  0
LINE
  8
0
 62
     4
 10
-79.921677
 20
167.854065
 11
-79.921677
 21
165.854065
  0
LINE
  8
0
 62
     4
 10
-86.671677
 20
166.554047
 11
-81.171677
 21
166.554047
  0
LINE
  8
0
 62
     4
 10
-81.171677
 20
166.554047
 11
-81.171677
 21
165.854065
  0
LINE
  8
0
 62
     4
 10
-86.671677
 20
166.554047
 11
-86.671677
 21
165.854065
  0
LINE
  8
0
 62
     4
 10
-86.421638
 20
167.854065
 11
-86.191559
 21
167.854065
  0
LINE
  8
0
 62
     4
 10
-84.671677
 20
168.554047
 11
-83.171661
 21
168.554047
  0
LINE
  8
0
 62
     4
 10
-68.671677
 20
168.554047
 11
-67.171677
 21
168.554047
  0
LINE
  8
0
 62
     4
 10
-81.651810
 20
167.854065
 11
-65.421700
 21
167.854065
  0
LINE
  8
0
 62
     4
 10
-86.421631
 20
167.854050
 11
-87.421646
 21
165.854019
  0
LINE
  8
0
 62
     4
 10
-36.421753
 20
36.854080
 11
-59.421768
 21
36.854080
  0
LINE
  8
0
 62
     4
 10
-39.921768
 20
44.854080
 11
-54.921768
 21
44.854080
  0
LINE
  8
0
 62
     4
 10
-39.921768
 20
48.854080
 11
-54.921768
 21
48.854080
  0
LINE
  8
0
 62
     4
 10
-39.921761
 20
44.854065
 11
-39.921761
 21
48.854065
  0
LINE
  8
0
 62
     4
 10
-54.921761
 20
44.854065
 11
-54.921761
 21
48.854065
  0
LINE
  8
0
 62
     4
 10
-36.421753
 20
35.854080
 11
-59.421768
 21
35.854080
  0
LINE
  8
0
 62
     4
 10
-58.421722
 20
33.854084
 11
-59.421734
 21
35.854115
  0
LINE
  8
0
 62
     4
 10
-43.921745
 20
33.854065
 11
-43.921745
 21
35.854065
  0
LINE
  8
0
 62
     4
 10
-37.171753
 20
35.154099
 11
-42.671753
 21
35.154099
  0
LINE
  8
0
 62
     4
 10
-42.671745
 20
35.154083
 11
-42.671745
 21
35.854065
  0
LINE
  8
0
 62
     4
 10
-37.171745
 20
35.154083
 11
-37.171745
 21
35.854065
  0
LINE
  8
0
 62
     4
 10
-37.421799
 20
33.854080
 11
-37.651871
 21
33.854080
  0
LINE
  8
0
 62
     4
 10
-39.171753
 20
33.154099
 11
-40.671768
 21
33.154099
  0
LINE
  8
0
 62
     4
 10
-55.171753
 20
33.154099
 11
-56.671753
 21
33.154099
  0
LINE
  8
0
 62
     4
 10
-42.191620
 20
33.854080
 11
-58.421738
 21
33.854080
  0
LINE
  8
0
 62
     4
 10
-37.421799
 20
33.854076
 11
-36.421787
 21
35.854103
  0
LINE
  8
0
 62
     4
 10
-8.421692
 20
41.854034
 11
-8.421692
 21
20.854050
  0
LINE
  8
0
 62
     4
 10
-31.421700
 20
41.854034
 11
-31.421700
 21
20.854050
  0
LINE
  8
0
 62
     4
 10
-36.421715
 20
56.854065
 11
-36.421715
 21
35.854080
  0
LINE
  8
0
 62
     4
 10
-59.421715
 20
56.854065
 11
-59.421715
 21
35.854080
  0
LINE
  8
0
 62
     4
 10
-115.421677
 20
165.854065
 11
-115.421677
 21
144.854065
  0
LINE
  8
0
 62
     4
 10
-92.421661
 20
165.854065
 11
-92.421661
 21
144.854065
  0
LINE
  8
0
 62
     4
 10
-87.421677
 20
165.854065
 11
-87.421677
 21
144.854065
  0
LINE
  8
0
 62
     4
 10
-64.421661
 20
165.854065
 11
-64.421661
 21
144.854065
  0
LINE
  8
0
 62
     4
 10
-59.421677
 20
165.854065
 11
-59.421677
 21
144.854065
  0
LINE
  8
0
 62
     4
 10
-36.421661
 20
165.854065
 11
-36.421661
 21
144.854065
  0
LINE
  8
0
 10
-31.421677
 20
159.854034
 11
-31.421677
 21
144.854065
  0
LINE
  8
0
 10
-8.421661
 20
159.854034
 11
-8.421661
 21
144.854065
  0
LINE
  8
0
 62
     4
 10
-31.421677
 20
180.854034
 11
-31.421677
 21
159.854034
  0
LINE
  8
0
 62
     4
 10
-8.421661
 20
180.854034
 11
-8.421661
 21
159.854034
  0
LINE
  8
0
  6
CENTER
 62
     2
 10
52.569702
 20
67.854027
 11
41.794342
 21
67.854027
  0
LINE
  8
0
  6
CENTER
 62
     2
 10
52.569702
 20
131.854034
 11
41.794342
 21
131.854034
  0
LINE
  8
0
 10
158.685394
 20
127.354210
 11
158.685394
 21
108.854027
  0
LINE
  8
0
 10
158.685425
 20
74.354034
 11
195.685394
 21
74.354034
  0
LINE
  8
0
 10
158.685425
 20
127.354042
 11
195.685394
 21
127.354042
  0
LINE
  8
0
 10
158.685364
 20
127.354179
 11
157.185364
 21
125.854187
  0
LINE
  8
0
 10
157.185135
 20
75.853874
 11
158.685104
 21
74.353889
  0
LINE
  8
0
 10
157.185394
 20
102.854027
 11
160.185425
 21
102.854027
  0
LINE
  8
0
 10
157.185394
 20
108.854027
 11
160.185425
 21
108.854027
  0
LINE
  8
0
 10
158.685394
 20
102.854027
 11
158.685394
 21
74.353745
  0
LINE
  8
0
 10
157.185394
 20
83.354034
 11
158.685425
 21
83.354034
  0
LINE
  8
0
 10
157.185394
 20
78.354034
 11
158.685425
 21
78.354034
  0
LINE
  8
0
 10
160.185425
 20
127.354042
 11
160.185425
 21
74.354034
  0
LINE
  8
0
  6
CENTER
 62
     2
 10
178.185394
 20
187.463074
 11
178.185394
 21
13.467194
  0
LINE
  8
0
 10
160.685394
 20
159.854050
 11
160.685394
 21
41.854034
  0
LINE
  8
0
 10
157.797989
 20
83.104034
 11
158.685394
 21
83.104034
  0
LINE
  8
0
 10
157.797974
 20
78.604042
 11
158.685394
 21
78.604042
  0
LINE
  8
0
 10
157.185394
 20
125.854210
 11
157.185394
 21
82.454025
  0
LINE
  8
0
 10
158.517136
 20
103.103767
 11
160.185425
 21
103.103767
  0
LINE
  8
0
 10
158.517151
 20
108.604019
 11
160.185425
 21
108.604019
  0
LINE
  8
0
 10
159.485413
 20
108.604019
 11
159.485413
 21
103.104034
  0
LINE
  8
0
 10
157.485413
 20
106.854034
 11
157.485413
 21
104.854019
  0
LINE
  8
0
 10
156.985413
 20
81.654037
 11
156.985413
 21
80.054039
  0
LINE
  8
0
  6
CENTER
 62
     2
 10
246.676819
 20
131.854034
 11
235.901459
 21
131.854034
  0
LINE
  8
0
  6
CENTER
 62
     2
 10
246.676819
 20
67.854027
 11
235.901459
 21
67.854027
  0
LINE
  8
0
 10
195.685394
 20
127.354042
 11
197.185364
 21
127.354042
  0
LINE
  8
0
 10
195.685394
 20
74.354042
 11
197.185364
 21
74.354042
  0
LINE
  8
0
 10
195.685394
 20
159.854034
 11
195.685394
 21
41.854034
  0
LINE
  8
0
 62
     4
 10
191.685394
 20
127.354019
 11
195.685394
 21
127.354019
  0
LINE
  8
0
 62
     4
 10
191.685394
 20
74.354034
 11
195.685394
 21
74.354034
  0
LINE
  8
0
 62
     4
 10
191.685394
 20
127.354019
 11
191.685394
 21
74.354034
  0
LINE
  8
0
 62
     4
 10
189.813568
 20
116.654030
 11
190.985397
 21
116.654030
  0
LINE
  8
0
 62
     4
 10
189.813568
 20
111.054024
 11
190.985397
 21
111.054024
  0
LINE
  8
0
 62
     4
 10
190.985397
 20
116.654030
 11
190.985397
 21
111.054024
  0
LINE
  8
0
 62
     4
 10
191.685394
 20
110.904030
 11
190.985397
 21
110.904030
  0
LINE
  8
0
 62
     4
 10
190.985397
 20
110.904030
 11
190.985397
 21
116.804024
  0
LINE
  8
0
 62
     4
 10
191.685394
 20
116.804024
 11
190.985397
 21
116.804024
  0
LINE
  8
0
 62
     4
 10
189.813568
 20
108.654030
 11
190.985397
 21
108.654030
  0
LINE
  8
0
 62
     4
 10
189.813568
 20
103.054024
 11
190.985397
 21
103.054024
  0
LINE
  8
0
 62
     4
 10
190.985397
 20
108.654030
 11
190.985397
 21
103.054024
  0
LINE
  8
0
 62
     4
 10
191.685394
 20
102.904030
 11
190.985397
 21
102.904030
  0
LINE
  8
0
 62
     4
 10
190.985397
 20
102.904030
 11
190.985397
 21
108.804024
  0
LINE
  8
0
 62
     4
 10
191.685394
 20
108.804024
 11
190.985397
 21
108.804024
  0
LINE
  8
0
 62
     4
 10
189.813568
 20
90.654030
 11
190.985397
 21
90.654030
  0
LINE
  8
0
 62
     4
 10
189.813568
 20
85.054024
 11
190.985397
 21
85.054024
  0
LINE
  8
0
 62
     4
 10
190.985397
 20
90.654030
 11
190.985397
 21
85.054024
  0
LINE
  8
0
 62
     4
 10
191.685394
 20
84.904030
 11
190.985397
 21
84.904030
  0
LINE
  8
0
 62
     4
 10
190.985397
 20
84.904030
 11
190.985397
 21
90.804024
  0
LINE
  8
0
 62
     4
 10
191.685394
 20
90.804024
 11
190.985397
 21
90.804024
  0
LINE
  8
0
 10
157.185394
 20
79.254044
 11
157.185394
 21
75.854034
  0
LINE
  8
0
 62
     4
 10
195.685394
 20
180.854050
 11
195.685394
 21
159.854050
  0
LINE
  8
0
 62
     4
 10
164.185394
 20
179.854050
 11
195.685394
 21
179.854050
  0
LINE
  8
0
 62
     4
 10
164.185394
 20
179.854050
 11
164.185394
 21
159.854050
  0
LINE
  8
0
 62
     4
 10
161.185394
 20
178.854050
 11
164.185394
 21
178.854050
  0
LINE
  8
0
 62
     4
 10
164.685394
 20
180.854050
 11
195.685394
 21
180.854050
  0
LINE
  8
0
 62
     4
 10
164.685394
 20
180.854050
 11
164.685394
 21
179.854050
  0
LINE
  8
0
 62
     4
 10
164.685455
 20
180.854080
 11
165.685440
 21
182.854065
  0
LINE
  8
0
 62
     4
 10
194.685287
 20
182.853989
 11
195.685318
 21
180.853958
  0
LINE
  8
0
 62
     4
 10
190.935394
 20
181.554062
 11
185.435394
 21
181.554062
  0
LINE
  8
0
 62
     4
 10
185.435394
 20
181.554062
 11
185.435394
 21
180.854050
  0
LINE
  8
0
 62
     4
 10
190.935394
 20
181.554062
 11
190.935394
 21
180.854050
  0
LINE
  8
0
 62
     4
 10
188.935394
 20
183.554062
 11
187.435394
 21
183.554062
  0
LINE
  8
0
 62
     4
 10
165.685425
 20
182.854050
 11
185.915512
 21
182.854050
  0
LINE
  8
0
 62
     4
 10
160.185394
 20
177.854050
 11
160.185394
 21
160.854050
  0
LINE
  8
0
 62
     4
 10
184.185394
 20
182.854050
 11
184.185394
 21
180.854050
  0
LINE
  8
0
 62
     4
 10
192.185394
 20
182.854050
 11
192.185394
 21
180.854050
  0
LINE
  8
0
 62
     4
 10
168.935394
 20
183.554062
 11
167.435394
 21
183.554062
  0
LINE
  8
0
 62
     4
 10
190.455276
 20
182.854050
 11
194.685303
 21
182.854050
  0
LINE
  8
0
 62
     4
 10
160.685394
 20
159.854050
 11
195.685394
 21
159.854050
  0
LINE
  8
0
 62
     4
 10
160.685394
 20
41.854034
 11
195.685394
 21
41.854034
  0
LINE
  8
0
 62
     4
 10
195.685394
 20
20.854034
 11
195.685394
 21
41.854034
  0
LINE
  8
0
 62
     4
 10
164.185394
 20
21.854034
 11
195.685394
 21
21.854034
  0
LINE
  8
0
 62
     4
 10
164.185394
 20
21.854034
 11
164.185394
 21
41.854034
  0
LINE
  8
0
 62
     4
 10
161.185394
 20
22.854034
 11
164.185394
 21
22.854034
  0
LINE
  8
0
 62
     4
 10
164.685394
 20
20.854034
 11
195.685394
 21
20.854034
  0
LINE
  8
0
 62
     4
 10
164.685394
 20
20.854034
 11
164.685394
 21
21.854034
  0
LINE
  8
0
 62
     4
 10
164.685532
 20
20.854038
 11
165.685516
 21
18.854050
  0
LINE
  8
0
 62
     4
 10
194.685425
 20
18.854038
 11
195.685440
 21
20.854063
  0
LINE
  8
0
 62
     4
 10
165.435394
 20
20.154022
 11
170.935394
 21
20.154022
  0
LINE
  8
0
 62
     4
 10
170.935394
 20
20.154022
 11
170.935394
 21
20.854034
  0
LINE
  8
0
 62
     4
 10
165.435394
 20
20.154022
 11
165.435394
 21
20.854034
  0
LINE
  8
0
 62
     4
 10
167.435394
 20
18.154022
 11
168.935394
 21
18.154022
  0
LINE
  8
0
 62
     4
 10
165.685425
 20
18.854034
 11
165.915512
 21
18.854034
  0
LINE
  8
0
 62
     4
 10
160.185394
 20
23.854034
 11
160.185394
 21
40.854034
  0
LINE
  8
0
 62
     4
 10
172.185394
 20
18.854034
 11
172.185394
 21
20.854034
  0
LINE
  8
0
 62
     4
 10
187.435394
 20
18.154022
 11
188.935394
 21
18.154022
  0
LINE
  8
0
 62
     4
 10
170.455276
 20
18.854034
 11
194.685303
 21
18.854034
  0
LINE
  8
0
 10
244.185394
 20
139.354019
 11
244.185394
 21
60.354004
  0
LINE
  8
0
 10
198.185394
 20
185.854034
 11
237.185394
 21
185.854034
  0
LINE
  8
0
  6
CENTER
 62
     2
 10
207.185364
 20
82.337906
 11
207.185364
 21
69.125778
  0
LINE
  8
0
  6
CENTER
 62
     2
 10
212.185364
 20
111.461388
 11
212.185364
 21
91.288048
  0
LINE
  8
0
  6
CENTER
 62
     2
 10
227.185394
 20
125.673508
 11
227.185394
 21
109.620071
  0
LINE
  8
0
  6
CENTER
 62
     2
 10
203.628845
 20
101.854019
 11
219.966431
 21
101.854019
  0
LINE
  8
0
  6
CENTER
 62
     2
 10
200.503387
 20
75.854012
 11
213.289307
 21
75.854012
  0
LINE
  8
0
  6
CENTER
 62
     2
 10
227.185394
 20
95.129364
 11
227.185394
 21
79.360039
  0
LINE
  8
0
  6
CENTER
 62
     2
 10
219.682312
 20
117.854019
 11
235.735748
 21
117.854019
  0
LINE
  8
0
  6
CENTER
 62
     2
 10
219.398163
 20
86.854012
 11
234.741302
 21
86.854012
  0
LINE
  8
0
 10
239.185394
 20
65.354034
 11
244.185394
 21
65.354034
  0
LINE
  8
0
 10
239.185394
 20
70.354004
 11
244.185394
 21
70.354004
  0
LINE
  8
0
 10
239.185394
 20
75.354034
 11
244.185394
 21
75.354034
  0
LINE
  8
0
 10
239.185394
 20
75.354034
 11
239.185394
 21
60.354004
  0
LINE
  8
0
 10
239.185394
 20
139.354019
 11
239.185394
 21
124.354019
  0
LINE
  8
0
 10
239.185394
 20
129.354019
 11
244.185394
 21
129.354019
  0
LINE
  8
0
 10
239.185394
 20
134.354019
 11
244.185394
 21
134.354019
  0
LINE
  8
0
 10
239.185394
 20
124.354019
 11
244.185394
 21
124.354019
  0
LINE
  8
0
 10
239.185394
 20
139.354019
 11
244.185394
 21
139.354019
  0
LINE
  8
0
  6
CENTER
 62
     2
 10
222.685364
 20
183.095215
 11
222.685364
 21
157.555435
  0
LINE
  8
0
  6
CENTER
 62
     2
 10
208.552551
 20
170.854034
 11
235.627533
 21
170.854034
  0
LINE
  8
0
 10
238.185394
 20
184.854019
 11
238.185394
 21
140.854034
  0
LINE
  8
0
 10
198.185394
 20
60.354004
 11
244.185394
 21
60.354004
  0
LINE
  8
0
 10
221.685394
 20
57.654015
 11
221.685394
 21
59.354019
  0
LINE
  8
0
 10
221.685394
 20
57.653969
 11
221.165771
 21
57.353981
  0
LINE
  8
0
 10
221.165771
 20
57.354027
 11
215.204987
 21
57.354027
  0
LINE
  8
0
 10
221.685394
 20
57.654015
 11
214.685394
 21
57.654015
  0
LINE
  8
0
 10
214.685287
 20
57.653847
 11
215.204926
 21
57.353817
  0
LINE
  8
0
 10
214.685394
 20
57.654015
 11
214.685394
 21
59.354019
  0
LINE
  8
0
 10
213.285370
 20
60.354004
 11
213.285370
 21
59.354019
  0
LINE
  8
0
 10
223.085358
 20
60.354004
 11
223.085358
 21
59.354019
  0
LINE
  8
0
 10
223.085358
 20
59.354019
 11
213.285370
 21
59.354019
  0
LINE
  8
0
 10
197.185394
 20
184.854034
 11
197.185394
 21
61.354004
  0
LINE
  8
0
 10
196.685364
 20
127.354042
 11
196.685364
 21
74.354034
  0
LINE
  8
0
 10
-115.421722
 20
-87.645966
 11
-92.421722
 21
-87.645966
  0
LINE
  8
0
 10
-115.421722
 20
-122.645966
 11
-92.421722
 21
-122.645966
  0
LINE
  8
0
  6
CENTER
 62
     2
 10
-103.921722
 20
-79.786987
 11
-103.921722
 21
-126.163910
  0
LINE
  8
0
 10
-95.921722
 20
-92.145966
 11
-92.421722
 21
-92.145966
  0
LINE
  8
0
 10
-95.921722
 20
-98.145966
 11
-92.421722
 21
-98.145966
  0
LINE
  8
0
 10
-115.421722
 20
-112.145966
 11
-111.921722
 21
-112.145966
  0
LINE
  8
0
 10
-115.421722
 20
-118.145966
 11
-111.921722
 21
-118.145966
  0
LINE
  8
0
 10
-113.921722
 20
-84.145966
 11
-93.921722
 21
-84.145966
  0
LINE
  8
0
 10
-115.421722
 20
-85.645966
 11
-92.421722
 21
-85.645966
  0
LINE
  8
0
 10
-93.921722
 20
-84.145958
 11
-92.421722
 21
-85.645958
  0
LINE
  8
0
 10
-115.421722
 20
-85.646019
 11
-113.921715
 21
-84.146004
  0
LINE
  8
0
 10
-113.010284
 20
-116.234612
 11
-110.954567
 21
-114.178886
  0
LINE
  8
0
 10
-113.082497
 20
-113.985229
 11
-110.890785
 21
-116.176941
  0
LINE
  8
0
 10
-97.010284
 20
-96.234612
 11
-94.954544
 21
-94.178871
  0
LINE
  8
0
 10
-97.082512
 20
-93.985222
 11
-94.890808
 21
-96.176918
  0
LINE
  8
0
  6
CENTER
 62
     2
 10
-115.921722
 20
-93.645966
 11
-105.921722
 21
-93.645966
  0
LINE
  8
0
  6
CENTER
 62
     2
 10
-101.921722
 20
-116.645966
 11
-91.921722
 21
-116.645966
  0
LINE
  8
0
  6
CENTER
 62
     2
 10
-96.921722
 20
-111.645966
 11
-96.921722
 21
-121.645966
  0
LINE
  8
0
  6
CENTER
 62
     2
 10
-110.921722
 20
-88.645966
 11
-110.921722
 21
-98.645966
  0
LINE
  8
0
 10
-115.421722
 20
-85.645966
 11
-115.421722
 21
-122.645966
  0
LINE
  8
0
 10
-92.421722
 20
-85.645966
 11
-92.421722
 21
-122.645966
  0
LINE
  8
0
 10
-115.421722
 20
-122.645966
 11
-115.421722
 21
-123.645966
  0
LINE
  8
0
 10
-92.421722
 20
-122.645966
 11
-92.421722
 21
-123.645966
  0
LINE
  8
0
 10
-87.421722
 20
-87.645966
 11
-64.421722
 21
-87.645966
  0
LINE
  8
0
 10
-87.421722
 20
-122.645966
 11
-64.421722
 21
-122.645966
  0
LINE
  8
0
  6
CENTER
 62
     2
 10
-75.921722
 20
-79.786987
 11
-75.921722
 21
-126.163910
  0
LINE
  8
0
 10
-67.921722
 20
-92.145966
 11
-64.421722
 21
-92.145966
  0
LINE
  8
0
 10
-67.921722
 20
-98.145966
 11
-64.421722
 21
-98.145966
  0
LINE
  8
0
 10
-87.421722
 20
-112.145966
 11
-83.921722
 21
-112.145966
  0
LINE
  8
0
 10
-87.421722
 20
-118.145966
 11
-83.921722
 21
-118.145966
  0
LINE
  8
0
 10
-85.921722
 20
-84.145966
 11
-65.921722
 21
-84.145966
  0
LINE
  8
0
 10
-87.421722
 20
-85.645966
 11
-64.421722
 21
-85.645966
  0
LINE
  8
0
 10
-65.921722
 20
-84.145966
 11
-64.421722
 21
-85.645966
  0
LINE
  8
0
 10
-87.421715
 20
-85.646019
 11
-85.921707
 21
-84.146019
  0
LINE
  8
0
 10
-85.010284
 20
-116.234627
 11
-82.954567
 21
-114.178909
  0
LINE
  8
0
 10
-85.082481
 20
-113.985222
 11
-82.890770
 21
-116.176933
  0
LINE
  8
0
 10
-69.010284
 20
-96.234627
 11
-66.954552
 21
-94.178894
  0
LINE
  8
0
 10
-69.082497
 20
-93.985199
 11
-66.890793
 21
-96.176895
  0
LINE
  8
0
  6
CENTER
 62
     2
 10
-87.921722
 20
-93.645966
 11
-77.921722
 21
-93.645966
  0
LINE
  8
0
  6
CENTER
 62
     2
 10
-73.921722
 20
-116.645966
 11
-63.921722
 21
-116.645966
  0
LINE
  8
0
  6
CENTER
 62
     2
 10
-68.921722
 20
-111.645966
 11
-68.921722
 21
-121.645966
  0
LINE
  8
0
  6
CENTER
 62
     2
 10
-82.921722
 20
-88.645966
 11
-82.921722
 21
-98.645966
  0
LINE
  8
0
 10
-87.421722
 20
-85.645966
 11
-87.421722
 21
-122.645966
  0
LINE
  8
0
 10
-64.421722
 20
-85.645966
 11
-64.421722
 21
-122.645966
  0
LINE
  8
0
 10
-87.421722
 20
-122.645966
 11
-87.421722
 21
-123.645966
  0
LINE
  8
0
 10
-64.421722
 20
-122.645966
 11
-64.421722
 21
-123.645966
  0
LINE
  8
0
  6
CENTER
 62
     2
 10
-47.921707
 20
-78.872437
 11
-47.921707
 21
-126.163895
  0
LINE
  8
0
  6
CENTER
 62
     2
 10
-19.921692
 20
-78.872452
 11
-19.921692
 21
-126.163910
  0
LINE
  8
0
 10
-59.921707
 20
-123.645966
 11
-35.921707
 21
-123.645966
  0
LINE
  8
0
 10
-59.921707
 20
-123.645966
 11
-59.921707
 21
-124.145966
  0
LINE
  8
0
 10
-35.921707
 20
-123.645966
 11
-35.921707
 21
-124.145966
  0
LINE
  8
0
 10
-31.921722
 20
-123.645966
 11
-7.921722
 21
-123.645966
  0
LINE
  8
0
 10
-31.921722
 20
-123.645966
 11
-31.921722
 21
-124.145966
  0
LINE
  8
0
 10
-7.921722
 20
-123.645966
 11
-7.921722
 21
-124.145966
  0
LINE
  8
0
 10
-87.921677
 20
-123.645966
 11
-63.921677
 21
-123.645966
  0
LINE
  8
0
 10
-87.921677
 20
-123.645966
 11
-87.921677
 21
-124.145966
  0
LINE
  8
0
 10
-63.921677
 20
-123.645966
 11
-63.921677
 21
-124.145966
  0
LINE
  8
0
 10
-115.921692
 20
-123.645966
 11
-91.921692
 21
-123.645966
  0
LINE
  8
0
 10
-115.921692
 20
-123.645966
 11
-115.921692
 21
-124.145966
  0
LINE
  8
0
 10
-91.921692
 20
-123.645966
 11
-91.921692
 21
-124.145966
  0
LINE
  8
0
 10
-135.653717
 20
-125.145966
 11
-117.921661
 21
-125.145966
  0
LINE
  8
0
 10
-119.921661
 20
-170.145966
 11
-117.921661
 21
-170.145966
  0
LINE
  8
0
 10
-135.921661
 20
-126.145958
 11
-135.921661
 21
-163.145981
  0
LINE
  8
0
 10
-119.921661
 20
-170.145966
 11
-119.921661
 21
-171.145966
  0
LINE
  8
0
 10
-148.421661
 20
-171.145966
 11
-119.921661
 21
-171.145966
  0
LINE
  8
0
 10
-148.421677
 20
-168.145981
 11
-148.421677
 21
-171.145966
  0
LINE
  8
0
 10
-146.421661
 20
-166.145966
 11
-138.921661
 21
-166.145966
  0
LINE
  8
0
 10
-127.421661
 20
-150.045959
 11
-118.421661
 21
-150.045959
  0
LINE
  8
0
 10
-127.421661
 20
-140.245972
 11
-118.421661
 21
-140.245972
  0
LINE
  8
0
 10
-131.321655
 20
-139.745972
 11
-131.321655
 21
-150.545959
  0
LINE
  8
0
 10
-127.421661
 20
-148.945969
 11
-118.421661
 21
-148.945969
  0
LINE
  8
0
 10
-127.421661
 20
-141.345963
 11
-118.421661
 21
-141.345963
  0
LINE
  8
0
 10
-120.421661
 20
-140.245972
 11
-120.421661
 21
-141.345963
  0
LINE
  8
0
 10
-125.421661
 20
-148.945969
 11
-125.421661
 21
-150.045959
  0
LINE
  8
0
 10
-125.421661
 20
-140.245972
 11
-125.421661
 21
-141.345963
  0
LINE
  8
0
 10
-120.421661
 20
-148.945969
 11
-120.421661
 21
-150.045959
  0
LINE
  8
0
 10
-118.421661
 20
-140.245972
 11
-118.421661
 21
-141.345963
  0
LINE
  8
0
 10
-127.421661
 20
-140.245972
 11
-127.421661
 21
-141.345963
  0
LINE
  8
0
 10
-127.421661
 20
-148.945969
 11
-127.421661
 21
-150.045959
  0
LINE
  8
0
 10
-118.421661
 20
-148.945969
 11
-118.421661
 21
-150.045959
  0
LINE
  8
0
 10
-121.381638
 20
-144.214096
 11
-121.381638
 21
-146.077835
  0
LINE
  8
0
 10
-124.461670
 20
-144.214096
 11
-124.461670
 21
-146.077835
  0
LINE
  8
0
 10
-124.461624
 20
-144.214127
 11
-122.921600
 21
-143.324997
  0
LINE
  8
0
 10
-122.921684
 20
-146.967041
 11
-121.381668
 21
-146.077911
  0
LINE
  8
0
 10
-124.461639
 20
-146.077927
 11
-122.921654
 21
-146.967041
  0
LINE
  8
0
 10
-122.921684
 20
-143.325027
 11
-121.381706
 21
-144.214142
  0
LINE
  8
0
 10
-133.421661
 20
-139.745972
 11
-133.421661
 21
-150.545959
  0
LINE
  8
0
 10
-133.421661
 20
-150.545959
 11
-114.314529
 21
-150.545959
  0
LINE
  8
0
 10
-133.421661
 20
-139.745972
 11
-114.314529
 21
-139.745972
  0
LINE
  8
0
 10
22.078293
 20
-124.145966
 11
22.078293
 21
-139.745972
  0
LINE
  8
0
 10
40.078278
 20
-125.145966
 11
22.078293
 21
-125.145966
  0
LINE
  8
0
 10
24.078293
 20
-170.145966
 11
22.078293
 21
-170.145966
  0
LINE
  8
0
 10
40.078278
 20
-126.145958
 11
40.078278
 21
-163.145981
  0
LINE
  8
0
 10
24.078293
 20
-170.145966
 11
24.078293
 21
-171.145966
  0
LINE
  8
0
 10
52.578308
 20
-171.145966
 11
24.078293
 21
-171.145966
  0
LINE
  8
0
 10
52.578308
 20
-168.145981
 11
52.578308
 21
-171.145966
  0
LINE
  8
0
 10
50.578308
 20
-166.145966
 11
43.078278
 21
-166.145966
  0
LINE
  8
0
 10
22.078293
 20
-150.545959
 11
22.078293
 21
-170.145966
  0
LINE
  8
0
 10
25.478287
 20
-139.745972
 11
25.478287
 21
-150.545959
  0
LINE
  8
0
 10
27.578308
 20
-139.745972
 11
27.578308
 21
-150.545959
  0
LINE
  8
0
  6
CENTER
 62
     2
 10
8.078323
 20
-117.074707
 11
8.078323
 21
-126.163910
  0
LINE
  8
0
 10
-61.921707
 20
-125.145966
 11
-33.921707
 21
-125.145966
  0
LINE
  8
0
  6
CENTER
 62
     2
 10
-59.535721
 20
-132.645966
 11
-42.904434
 21
-132.645966
  0
LINE
  8
0
  6
CENTER
 62
     2
 10
-51.921692
 20
-125.170105
 11
-51.921692
 21
-141.336838
  0
LINE
  8
0
  6
CENTER
 62
     2
 10
-56.457840
 20
-158.645966
 11
-41.231995
 21
-158.645966
  0
LINE
  8
0
  6
CENTER
 62
     2
 10
-48.921692
 20
-150.535156
 11
-48.921692
 21
-166.423126
  0
LINE
  8
0
 10
-61.921707
 20
-170.145966
 11
-33.921707
 21
-170.145966
  0
LINE
  8
0
 10
-61.921707
 20
-169.645966
 11
-33.921707
 21
-169.645966
  0
LINE
  8
0
 10
-33.921722
 20
-125.145966
 11
-5.921722
 21
-125.145966
  0
LINE
  8
0
  6
CENTER
 62
     2
 10
-31.535736
 20
-132.645966
 11
-14.904449
 21
-132.645966
  0
LINE
  8
0
  6
CENTER
 62
     2
 10
-23.921707
 20
-125.170105
 11
-23.921707
 21
-141.336838
  0
LINE
  8
0
  6
CENTER
 62
     2
 10
-28.457855
 20
-158.645966
 11
-13.232010
 21
-158.645966
  0
LINE
  8
0
  6
CENTER
 62
     2
 10
-20.921707
 20
-150.535156
 11
-20.921707
 21
-166.423126
  0
LINE
  8
0
 10
-33.921722
 20
-170.145966
 11
-5.921722
 21
-170.145966
  0
LINE
  8
0
 10
-33.921722
 20
-169.645966
 11
-5.921722
 21
-169.645966
  0
LINE
  8
0
 10
-5.921707
 20
-125.145966
 11
22.078293
 21
-125.145966
  0
LINE
  8
0
  6
CENTER
 62
     2
 10
-3.535721
 20
-132.645966
 11
13.095566
 21
-132.645966
  0
LINE
  8
0
  6
CENTER
 62
     2
 10
4.078308
 20
-125.170105
 11
4.078308
 21
-141.336838
  0
LINE
  8
0
  6
CENTER
 62
     2
 10
-0.457840
 20
-158.645966
 11
14.768005
 21
-158.645966
  0
LINE
  8
0
  6
CENTER
 62
     2
 10
7.078308
 20
-150.535156
 11
7.078308
 21
-166.423126
  0
LINE
  8
0
 10
-5.921707
 20
-170.145966
 11
22.078293
 21
-170.145966
  0
LINE
  8
0
 10
-5.921707
 20
-169.645966
 11
22.078293
 21
-169.645966
  0
LINE
  8
0
 10
12.578323
 20
-150.045959
 11
21.578308
 21
-150.045959
  0
LINE
  8
0
 10
12.578323
 20
-140.245972
 11
21.578308
 21
-140.245972
  0
LINE
  8
0
 10
8.678299
 20
-139.745972
 11
8.678299
 21
-150.545959
  0
LINE
  8
0
 10
12.578293
 20
-148.945969
 11
21.578308
 21
-148.945969
  0
LINE
  8
0
 10
12.578293
 20
-141.345963
 11
21.578308
 21
-141.345963
  0
LINE
  8
0
 10
19.578308
 20
-140.245972
 11
19.578308
 21
-141.345963
  0
LINE
  8
0
 10
14.578308
 20
-148.945969
 11
14.578308
 21
-150.045959
  0
LINE
  8
0
 10
14.578308
 20
-140.245972
 11
14.578308
 21
-141.345963
  0
LINE
  8
0
 10
19.578308
 20
-148.945969
 11
19.578308
 21
-150.045959
  0
LINE
  8
0
 10
21.578308
 20
-140.245972
 11
21.578308
 21
-141.345963
  0
LINE
  8
0
 10
12.578323
 20
-140.245972
 11
12.578323
 21
-141.345963
  0
LINE
  8
0
 10
12.578323
 20
-148.945969
 11
12.578323
 21
-150.045959
  0
LINE
  8
0
 10
21.578308
 20
-148.945969
 11
21.578308
 21
-150.045959
  0
LINE
  8
0
 10
18.618286
 20
-144.214081
 11
18.618286
 21
-146.077850
  0
LINE
  8
0
 10
15.538300
 20
-144.214081
 11
15.538300
 21
-146.077850
  0
LINE
  8
0
 10
15.538298
 20
-144.214111
 11
17.078289
 21
-143.324997
  0
LINE
  8
0
 10
17.078300
 20
-146.967041
 11
18.618319
 21
-146.077911
  0
LINE
  8
0
 10
15.538303
 20
-146.077881
 11
17.078295
 21
-146.966995
  0
LINE
  8
0
 10
17.078295
 20
-143.324966
 11
18.618286
 21
-144.214081
  0
LINE
  8
0
 10
6.578293
 20
-141.638855
 11
6.578293
 21
-148.653076
  0
LINE
  8
0
 10
6.578361
 20
-141.638931
 11
8.471238
 21
-139.746048
  0
LINE
  8
0
 10
8.471176
 20
-139.745972
 11
27.578308
 21
-139.745972
  0
LINE
  8
0
 10
8.471176
 20
-150.545959
 11
27.578308
 21
-150.545959
  0
LINE
  8
0
 10
6.578319
 20
-148.653076
 11
8.471213
 21
-150.545975
  0
LINE
  8
0
  6
CENTER
 62
     2
 10
8.078293
 20
-121.145966
 11
8.078293
 21
-173.145966
  0
LINE
  8
0
 10
-5.921661
 20
-124.145966
 11
-5.921661
 21
-139.745972
  0
LINE
  8
0
 10
-89.921677
 20
-125.145966
 11
-61.921677
 21
-125.145966
  0
LINE
  8
0
  6
CENTER
 62
     2
 10
-87.535690
 20
-132.645966
 11
-70.904404
 21
-132.645966
  0
LINE
  8
0
  6
CENTER
 62
     2
 10
-79.921661
 20
-125.170105
 11
-79.921661
 21
-141.336838
  0
LINE
  8
0
  6
CENTER
 62
     2
 10
-84.457809
 20
-158.645966
 11
-69.231964
 21
-158.645966
  0
LINE
  8
0
  6
CENTER
 62
     2
 10
-76.921661
 20
-150.535156
 11
-76.921661
 21
-166.423126
  0
LINE
  8
0
 10
-89.921677
 20
-170.145966
 11
-61.921677
 21
-170.145966
  0
LINE
  8
0
 10
-89.921677
 20
-169.645966
 11
-61.921677
 21
-169.645966
  0
LINE
  8
0
 10
-5.921661
 20
-150.545959
 11
-5.921661
 21
-170.145966
  0
LINE
  8
0
  6
CENTER
 62
     2
 10
-75.921677
 20
-121.145966
 11
-75.921677
 21
-173.145966
  0
LINE
  8
0
 10
-117.921677
 20
-124.145966
 11
-117.921677
 21
-139.745972
  0
LINE
  8
0
 10
-117.921692
 20
-125.145966
 11
-89.921692
 21
-125.145966
  0
LINE
  8
0
  6
CENTER
 62
     2
 10
-115.535706
 20
-132.645966
 11
-98.904419
 21
-132.645966
  0
LINE
  8
0
  6
CENTER
 62
     2
 10
-107.921677
 20
-125.170105
 11
-107.921677
 21
-141.336838
  0
LINE
  8
0
  6
CENTER
 62
     2
 10
-112.457825
 20
-158.645966
 11
-97.231979
 21
-158.645966
  0
LINE
  8
0
  6
CENTER
 62
     2
 10
-104.921677
 20
-150.535156
 11
-104.921677
 21
-166.423126
  0
LINE
  8
0
 10
-117.921692
 20
-170.145966
 11
-89.921692
 21
-170.145966
  0
LINE
  8
0
 10
-117.921692
 20
-169.645966
 11
-89.921692
 21
-169.645966
  0
LINE
  8
0
 10
-114.521683
 20
-139.745972
 11
-114.521683
 21
-150.545959
  0
LINE
  8
0
 10
-114.314537
 20
-150.545990
 11
-112.421669
 21
-148.653122
  0
LINE
  8
0
 10
-112.421677
 20
-141.638855
 11
-112.421677
 21
-148.653076
  0
LINE
  8
0
 10
-114.314575
 20
-139.746002
 11
-112.421707
 21
-141.638870
  0
LINE
  8
0
 10
-117.921677
 20
-150.545959
 11
-117.921677
 21
-170.145966
  0
LINE
  8
0
  6
CENTER
 62
     2
 10
-103.921692
 20
-121.145966
 11
-103.921692
 21
-173.145966
  0
LINE
  8
0
 10
-21.421669
 20
-148.653152
 11
-19.528774
 21
-150.546051
  0
LINE
  8
0
 10
-19.528809
 20
-150.545959
 11
-2.314484
 21
-150.545959
  0
LINE
  8
0
 10
-15.421661
 20
-140.245972
 11
-6.421677
 21
-140.245972
  0
LINE
  8
0
 10
-19.321686
 20
-139.745972
 11
-19.321686
 21
-150.545959
  0
LINE
  8
0
 10
-15.421692
 20
-148.945969
 11
-6.421677
 21
-148.945969
  0
LINE
  8
0
 10
-15.421692
 20
-141.345963
 11
-6.421677
 21
-141.345963
  0
LINE
  8
0
 10
-8.421677
 20
-140.245972
 11
-8.421677
 21
-141.345963
  0
LINE
  8
0
 10
-13.421677
 20
-148.945969
 11
-13.421677
 21
-150.045959
  0
LINE
  8
0
 10
-13.421677
 20
-140.245972
 11
-13.421677
 21
-141.345963
  0
LINE
  8
0
 10
-8.421677
 20
-148.945969
 11
-8.421677
 21
-150.045959
  0
LINE
  8
0
 10
-6.421677
 20
-140.245972
 11
-6.421677
 21
-141.345963
  0
LINE
  8
0
 10
-15.421661
 20
-140.245972
 11
-15.421661
 21
-141.345963
  0
LINE
  8
0
 10
-15.421661
 20
-148.945969
 11
-15.421661
 21
-150.045959
  0
LINE
  8
0
 10
-6.421677
 20
-148.945969
 11
-6.421677
 21
-150.045959
  0
LINE
  8
0
 10
-9.381699
 20
-144.214081
 11
-9.381699
 21
-146.077850
  0
LINE
  8
0
 10
-12.461685
 20
-144.214081
 11
-12.461685
 21
-146.077850
  0
LINE
  8
0
 10
-12.461663
 20
-144.214127
 11
-10.921685
 21
-143.325012
  0
LINE
  8
0
 10
-10.921663
 20
-146.967056
 11
-9.381646
 21
-146.077927
  0
LINE
  8
0
 10
-12.461682
 20
-146.077866
 11
-10.921687
 21
-146.966980
  0
LINE
  8
0
 10
-10.921695
 20
-143.324982
 11
-9.381703
 21
-144.214096
  0
LINE
  8
0
 10
-21.421692
 20
-141.638855
 11
-21.421692
 21
-148.653076
  0
LINE
  8
0
 10
-21.421627
 20
-141.638916
 11
-19.528738
 21
-139.746033
  0
LINE
  8
0
 10
-19.528809
 20
-139.745972
 11
-2.314545
 21
-139.745972
  0
LINE
  8
0
 10
-0.421661
 20
-141.638855
 11
-0.421661
 21
-148.653076
  0
LINE
  8
0
 10
-2.314572
 20
-139.746002
 11
-0.421689
 21
-141.638885
  0
LINE
  8
0
 10
-2.521667
 20
-139.745972
 11
-2.521667
 21
-150.545959
  0
LINE
  8
0
 10
-2.314482
 20
-150.546051
 11
-0.421577
 21
-148.653152
  0
LINE
  8
0
 10
-15.421661
 20
-150.045959
 11
-6.421677
 21
-150.045959
  0
LINE
  8
0
  6
CENTER
 62
     2
 10
-143.421661
 20
-161.371780
 11
-143.421661
 21
-176.119415
  0
LINE
  8
0
  6
CENTER
 62
     2
 10
47.578278
 20
-161.371780
 11
47.578278
 21
-176.119415
  0
LINE
  8
0
 10
-89.921661
 20
-124.145966
 11
-89.921661
 21
-139.745972
  0
LINE
  8
0
 10
-89.921661
 20
-150.545959
 11
-89.921661
 21
-170.145966
  0
LINE
  8
0
 10
-105.421684
 20
-148.653122
 11
-103.528793
 21
-150.546021
  0
LINE
  8
0
 10
-103.528809
 20
-150.545959
 11
-86.314491
 21
-150.545959
  0
LINE
  8
0
 10
-99.421661
 20
-140.245972
 11
-90.421677
 21
-140.245972
  0
LINE
  8
0
 10
-103.321686
 20
-139.745972
 11
-103.321686
 21
-150.545959
  0
LINE
  8
0
 10
-99.421692
 20
-148.945969
 11
-90.421677
 21
-148.945969
  0
LINE
  8
0
 10
-99.421692
 20
-141.345963
 11
-90.421677
 21
-141.345963
  0
LINE
  8
0
 10
-92.421677
 20
-140.245972
 11
-92.421677
 21
-141.345963
  0
LINE
  8
0
 10
-97.421677
 20
-148.945969
 11
-97.421677
 21
-150.045959
  0
LINE
  8
0
 10
-97.421677
 20
-140.245972
 11
-97.421677
 21
-141.345963
  0
LINE
  8
0
 10
-92.421677
 20
-148.945969
 11
-92.421677
 21
-150.045959
  0
LINE
  8
0
 10
-90.421677
 20
-140.245972
 11
-90.421677
 21
-141.345963
  0
LINE
  8
0
 10
-99.421661
 20
-140.245972
 11
-99.421661
 21
-141.345963
  0
LINE
  8
0
 10
-99.421661
 20
-148.945969
 11
-99.421661
 21
-150.045959
  0
LINE
  8
0
 10
-90.421677
 20
-148.945969
 11
-90.421677
 21
-150.045959
  0
LINE
  8
0
 10
-93.381699
 20
-144.214081
 11
-93.381699
 21
-146.077850
  0
LINE
  8
0
 10
-96.461685
 20
-144.214081
 11
-96.461685
 21
-146.077850
  0
LINE
  8
0
 10
-96.461662
 20
-144.214127
 11
-94.921677
 21
-143.325012
  0
LINE
  8
0
 10
-94.921684
 20
-146.967026
 11
-93.381668
 21
-146.077896
  0
LINE
  8
0
 10
-96.461693
 20
-146.077866
 11
-94.921700
 21
-146.966980
  0
LINE
  8
0
 10
-94.921722
 20
-143.324951
 11
-93.381729
 21
-144.214066
  0
LINE
  8
0
 10
-105.421692
 20
-141.638855
 11
-105.421692
 21
-148.653076
  0
LINE
  8
0
 10
-105.421638
 20
-141.638931
 11
-103.528748
 21
-139.746033
  0
LINE
  8
0
 10
-103.528809
 20
-139.745972
 11
-86.314545
 21
-139.745972
  0
LINE
  8
0
 10
-84.421661
 20
-141.638855
 11
-84.421661
 21
-148.653076
  0
LINE
  8
0
 10
-86.314613
 20
-139.746033
 11
-84.421730
 21
-141.638916
  0
LINE
  8
0
 10
-86.521667
 20
-139.745972
 11
-86.521667
 21
-150.545959
  0
LINE
  8
0
 10
-86.314514
 20
-150.546051
 11
-84.421608
 21
-148.653137
  0
LINE
  8
0
 10
-99.421661
 20
-150.045959
 11
-90.421677
 21
-150.045959
  0
LINE
  8
0
 10
-61.921661
 20
-124.145966
 11
-61.921661
 21
-139.745972
  0
LINE
  8
0
 10
-61.921661
 20
-150.545959
 11
-61.921661
 21
-170.145966
  0
LINE
  8
0
 10
-77.421707
 20
-148.653152
 11
-75.528816
 21
-150.546051
  0
LINE
  8
0
 10
-75.528809
 20
-150.545959
 11
-58.314491
 21
-150.545959
  0
LINE
  8
0
 10
-71.421661
 20
-140.245972
 11
-62.421677
 21
-140.245972
  0
LINE
  8
0
 10
-75.321686
 20
-139.745972
 11
-75.321686
 21
-150.545959
  0
LINE
  8
0
 10
-71.421692
 20
-148.945969
 11
-62.421677
 21
-148.945969
  0
LINE
  8
0
 10
-71.421692
 20
-141.345963
 11
-62.421677
 21
-141.345963
  0
LINE
  8
0
 10
-64.421677
 20
-140.245972
 11
-64.421677
 21
-141.345963
  0
LINE
  8
0
 10
-69.421677
 20
-148.945969
 11
-69.421677
 21
-150.045959
  0
LINE
  8
0
 10
-69.421677
 20
-140.245972
 11
-69.421677
 21
-141.345963
  0
LINE
  8
0
 10
-64.421677
 20
-148.945969
 11
-64.421677
 21
-150.045959
  0
LINE
  8
0
 10
-62.421677
 20
-140.245972
 11
-62.421677
 21
-141.345963
  0
LINE
  8
0
 10
-71.421661
 20
-140.245972
 11
-71.421661
 21
-141.345963
  0
LINE
  8
0
 10
-71.421661
 20
-148.945969
 11
-71.421661
 21
-150.045959
  0
LINE
  8
0
 10
-62.421677
 20
-148.945969
 11
-62.421677
 21
-150.045959
  0
LINE
  8
0
 10
-65.381699
 20
-144.214081
 11
-65.381699
 21
-146.077850
  0
LINE
  8
0
 10
-68.461685
 20
-144.214081
 11
-68.461685
 21
-146.077850
  0
LINE
  8
0
 10
-68.461662
 20
-144.214142
 11
-66.921669
 21
-143.325027
  0
LINE
  8
0
 10
-66.921646
 20
-146.967010
 11
-65.381630
 21
-146.077881
  0
LINE
  8
0
 10
-68.461700
 20
-146.077881
 11
-66.921707
 21
-146.966995
  0
LINE
  8
0
 10
-66.921730
 20
-143.324982
 11
-65.381737
 21
-144.214096
  0
LINE
  8
0
 10
-77.421692
 20
-141.638855
 11
-77.421692
 21
-148.653076
  0
LINE
  8
0
 10
-77.421661
 20
-141.638916
 11
-75.528755
 21
-139.746017
  0
LINE
  8
0
 10
-75.528809
 20
-139.745972
 11
-58.314545
 21
-139.745972
  0
LINE
  8
0
 10
-56.421661
 20
-141.638855
 11
-56.421661
 21
-148.653076
  0
LINE
  8
0
 10
-58.314590
 20
-139.746017
 11
-56.421707
 21
-141.638901
  0
LINE
  8
0
 10
-58.521667
 20
-139.745972
 11
-58.521667
 21
-150.545959
  0
LINE
  8
0
 10
-58.314518
 20
-150.546036
 11
-56.421612
 21
-148.653137
  0
LINE
  8
0
 10
-71.421661
 20
-150.045959
 11
-62.421677
 21
-150.045959
  0
LINE
  8
0
 10
-33.921661
 20
-124.145966
 11
-33.921661
 21
-139.745972
  0
LINE
  8
0
 10
-33.921661
 20
-150.545959
 11
-33.921661
 21
-170.145966
  0
LINE
  8
0
 10
-49.421684
 20
-148.653152
 11
-47.528790
 21
-150.546051
  0
LINE
  8
0
 10
-47.528809
 20
-150.545959
 11
-30.314491
 21
-150.545959
  0
LINE
  8
0
 10
-43.421661
 20
-140.245972
 11
-34.421677
 21
-140.245972
  0
LINE
  8
0
 10
-47.321686
 20
-139.745972
 11
-47.321686
 21
-150.545959
  0
LINE
  8
0
 10
-43.421692
 20
-148.945969
 11
-34.421677
 21
-148.945969
  0
LINE
  8
0
 10
-43.421692
 20
-141.345963
 11
-34.421677
 21
-141.345963
  0
LINE
  8
0
 10
-36.421677
 20
-140.245972
 11
-36.421677
 21
-141.345963
  0
LINE
  8
0
 10
-41.421677
 20
-148.945969
 11
-41.421677
 21
-150.045959
  0
LINE
  8
0
 10
-41.421677
 20
-140.245972
 11
-41.421677
 21
-141.345963
  0
LINE
  8
0
 10
-36.421677
 20
-148.945969
 11
-36.421677
 21
-150.045959
  0
LINE
  8
0
 10
-34.421677
 20
-140.245972
 11
-34.421677
 21
-141.345963
  0
LINE
  8
0
 10
-43.421661
 20
-140.245972
 11
-43.421661
 21
-141.345963
  0
LINE
  8
0
 10
-43.421661
 20
-148.945969
 11
-43.421661
 21
-150.045959
  0
LINE
  8
0
 10
-34.421677
 20
-148.945969
 11
-34.421677
 21
-150.045959
  0
LINE
  8
0
 10
-37.381699
 20
-144.214081
 11
-37.381699
 21
-146.077850
  0
LINE
  8
0
 10
-40.461685
 20
-144.214081
 11
-40.461685
 21
-146.077850
  0
LINE
  8
0
 10
-40.461662
 20
-144.214142
 11
-38.921669
 21
-143.325027
  0
LINE
  8
0
 10
-38.921673
 20
-146.967026
 11
-37.381657
 21
-146.077896
  0
LINE
  8
0
 10
-40.461697
 20
-146.077866
 11
-38.921703
 21
-146.966980
  0
LINE
  8
0
 10
-38.921719
 20
-143.324966
 11
-37.381725
 21
-144.214081
  0
LINE
  8
0
 10
-49.421692
 20
-141.638855
 11
-49.421692
 21
-148.653076
  0
LINE
  8
0
 10
-49.421631
 20
-141.638916
 11
-47.528736
 21
-139.746033
  0
LINE
  8
0
 10
-47.528809
 20
-139.745972
 11
-30.314545
 21
-139.745972
  0
LINE
  8
0
 10
-28.421661
 20
-141.638855
 11
-28.421661
 21
-148.653076
  0
LINE
  8
0
 10
-30.314581
 20
-139.746017
 11
-28.421698
 21
-141.638901
  0
LINE
  8
0
 10
-30.521667
 20
-139.745972
 11
-30.521667
 21
-150.545959
  0
LINE
  8
0
 10
-30.314512
 20
-150.546036
 11
-28.421608
 21
-148.653122
  0
LINE
  8
0
 10
-43.421661
 20
-150.045959
 11
-34.421677
 21
-150.045959
  0
LINE
  8
0
 10
-131.528778
 20
-139.745972
 11
-133.421661
 21
-141.638855
  0
LINE
  8
0
 10
-131.528702
 20
-150.545975
 11
-133.421616
 21
-148.653076
  0
LINE
  8
0
 10
27.578279
 20
-141.638931
 11
25.685389
 21
-139.746048
  0
LINE
  8
0
 10
27.578247
 20
-148.653030
 11
25.685356
 21
-150.545929
  0
LINE
  8
0
 10
38.078278
 20
-124.145966
 11
22.078293
 21
-124.145966
  0
LINE
  8
0
 62
     4
 10
19.578293
 20
-118.645966
 11
19.578293
 21
-122.645966
  0
LINE
  8
0
 10
-3.421707
 20
-122.645966
 11
19.578293
 21
-122.645966
  0
LINE
  8
0
 62
     4
 10
-3.421707
 20
-118.645966
 11
-3.421707
 21
-122.645966
  0
LINE
  8
0
 62
     4
 10
1.878296
 20
-116.403496
 11
1.878296
 21
-118.645966
  0
LINE
  8
0
 62
     4
 10
-3.721710
 20
-116.403496
 11
-3.721710
 21
-118.645966
  0
LINE
  8
0
 62
     4
 10
1.878296
 20
-117.945969
 11
-3.721710
 21
-117.945969
  0
LINE
  8
0
 62
     4
 10
-3.871704
 20
-117.945969
 11
1.878296
 21
-117.945969
  0
LINE
  8
0
 62
     4
 10
19.878296
 20
-116.403496
 11
19.878296
 21
-118.645966
  0
LINE
  8
0
 62
     4
 10
14.278290
 20
-116.403496
 11
14.278290
 21
-118.645966
  0
LINE
  8
0
 62
     4
 10
19.878296
 20
-117.945969
 11
14.278290
 21
-117.945969
  0
LINE
  8
0
 62
     4
 10
-3.721710
 20
-118.645966
 11
19.878296
 21
-118.645966
  0
LINE
  8
0
 62
     4
 10
14.278290
 20
-117.945969
 11
19.878296
 21
-117.945969
  0
LINE
  8
0
 10
-5.921707
 20
-124.145966
 11
22.078293
 21
-124.145966
  0
LINE
  8
0
 10
-3.921707
 20
-123.645966
 11
20.078293
 21
-123.645966
  0
LINE
  8
0
 10
-3.921707
 20
-123.645966
 11
-3.921707
 21
-124.145966
  0
LINE
  8
0
 10
20.078293
 20
-123.645966
 11
20.078293
 21
-124.145966
  0
LINE
  8
0
 10
-3.421707
 20
-122.645966
 11
-3.421707
 21
-123.645966
  0
LINE
  8
0
 10
19.578293
 20
-122.645966
 11
19.578293
 21
-123.645966
  0
LINE
  8
0
 10
-5.921661
 20
-124.145966
 11
-33.921661
 21
-124.145966
  0
LINE
  8
0
 10
-33.921661
 20
-124.145966
 11
-61.921661
 21
-124.145966
  0
LINE
  8
0
 10
-61.921661
 20
-124.145966
 11
-89.921661
 21
-124.145966
  0
LINE
  8
0
 10
-89.921661
 20
-124.145966
 11
-117.921677
 21
-124.145966
  0
LINE
  8
0
 10
-117.921677
 20
-124.145966
 11
-133.921661
 21
-124.145966
  0
LINE
  8
0
 10
-59.421707
 20
-123.645966
 11
-36.421707
 21
-123.645966
  0
LINE
  8
0
 62
     4
 10
-59.421707
 20
-87.645966
 11
-36.421707
 21
-87.645966
  0
LINE
  8
0
 62
     4
 10
-59.421707
 20
-122.645966
 11
-36.421707
 21
-122.645966
  0
LINE
  8
0
 62
     4
 10
-39.921707
 20
-98.145966
 11
-36.421707
 21
-98.145966
  0
LINE
  8
0
 62
     4
 10
-59.421707
 20
-112.145966
 11
-55.921707
 21
-112.145966
  0
LINE
  8
0
 62
     4
 10
-59.421707
 20
-118.145966
 11
-55.921707
 21
-118.145966
  0
LINE
  8
0
 62
     4
 10
-57.921707
 20
-84.145966
 11
-37.921707
 21
-84.145966
  0
LINE
  8
0
 62
     4
 10
-59.421707
 20
-85.645966
 11
-36.421707
 21
-85.645966
  0
LINE
  8
0
 62
     4
 10
-37.921722
 20
-84.145966
 11
-36.421719
 21
-85.645966
  0
LINE
  8
0
 62
     4
 10
-59.421638
 20
-85.646011
 11
-57.921646
 21
-84.146019
  0
LINE
  8
0
 62
     4
 10
-57.010265
 20
-116.234634
 11
-54.954548
 21
-114.178917
  0
LINE
  8
0
 62
     4
 10
-57.082504
 20
-113.985260
 11
-54.890781
 21
-116.176979
  0
LINE
  8
0
 62
     4
 10
-41.010242
 20
-96.234650
 11
-38.954506
 21
-94.178917
  0
LINE
  8
0
 62
     4
 10
-41.082489
 20
-93.985214
 11
-38.890766
 21
-96.176933
  0
LINE
  8
0
 62
     4
 10
-59.421707
 20
-122.645966
 11
-36.421707
 21
-122.645966
  0
LINE
  8
0
 62
     4
 10
-58.421707
 20
-121.645966
 11
-37.421707
 21
-121.645966
  0
LINE
  8
0
 62
     4
 10
-59.421707
 20
-91.645966
 11
-36.421707
 21
-91.645966
  0
LINE
  8
0
 62
     4
 10
-58.421707
 20
-92.645966
 11
-42.921707
 21
-92.645966
  0
LINE
  8
0
 62
     4
 10
-59.421707
 20
-85.645966
 11
-59.421707
 21
-122.645966
  0
LINE
  8
0
 62
     4
 10
-36.421707
 20
-122.645966
 11
-36.421707
 21
-85.645966
  0
LINE
  8
0
 62
     4
 10
-37.421707
 20
-121.645966
 11
-37.421707
 21
-98.145966
  0
LINE
  8
0
 62
     4
 10
-58.421707
 20
-92.645966
 11
-58.421707
 21
-112.145966
  0
LINE
  8
0
 62
     4
 10
-59.421726
 20
-122.645950
 11
-58.421726
 21
-121.645950
  0
LINE
  8
0
 62
     4
 10
-36.421707
 20
-122.645958
 11
-37.421707
 21
-121.645950
  0
LINE
  8
0
 62
     4
 10
-59.421703
 20
-91.645966
 11
-58.421703
 21
-92.645966
  0
LINE
  8
0
 62
     4
 10
-42.921707
 20
-95.145966
 11
-42.921707
 21
-91.645966
  0
LINE
  8
0
 62
     4
 10
-58.421707
 20
-118.145966
 11
-58.421707
 21
-121.645966
  0
LINE
  8
0
 10
-31.421692
 20
-123.645966
 11
-8.421692
 21
-123.645966
  0
LINE
  8
0
 62
     4
 10
-31.421692
 20
-87.645966
 11
-8.421692
 21
-87.645966
  0
LINE
  8
0
 62
     4
 10
-31.421692
 20
-122.645966
 11
-8.421692
 21
-122.645966
  0
LINE
  8
0
 62
     4
 10
-11.921692
 20
-98.145966
 11
-8.421692
 21
-98.145966
  0
LINE
  8
0
 62
     4
 10
-31.421692
 20
-112.145966
 11
-27.921692
 21
-112.145966
  0
LINE
  8
0
 62
     4
 10
-31.421692
 20
-118.145966
 11
-27.921692
 21
-118.145966
  0
LINE
  8
0
 62
     4
 10
-29.921692
 20
-84.145966
 11
-9.921692
 21
-84.145966
  0
LINE
  8
0
 62
     4
 10
-31.421692
 20
-85.645966
 11
-8.421692
 21
-85.645966
  0
LINE
  8
0
 62
     4
 10
-9.921691
 20
-84.145943
 11
-8.421689
 21
-85.645943
  0
LINE
  8
0
 62
     4
 10
-31.421612
 20
-85.646019
 11
-29.921621
 21
-84.146027
  0
LINE
  8
0
 62
     4
 10
-29.010231
 20
-116.234627
 11
-26.954510
 21
-114.178909
  0
LINE
  8
0
 62
     4
 10
-29.082455
 20
-113.985229
 11
-26.890732
 21
-116.176956
  0
LINE
  8
0
 62
     4
 10
-13.010236
 20
-96.234642
 11
-10.954516
 21
-94.178917
  0
LINE
  8
0
 62
     4
 10
-13.082454
 20
-93.985207
 11
-10.890731
 21
-96.176926
  0
LINE
  8
0
 62
     4
 10
-31.421692
 20
-122.645966
 11
-8.421692
 21
-122.645966
  0
LINE
  8
0
 62
     4
 10
-30.421692
 20
-121.645966
 11
-9.421692
 21
-121.645966
  0
LINE
  8
0
 62
     4
 10
-31.421692
 20
-91.645966
 11
-8.421692
 21
-91.645966
  0
LINE
  8
0
 62
     4
 10
-30.421692
 20
-92.645966
 11
-14.921692
 21
-92.645966
  0
LINE
  8
0
 62
     4
 10
-31.421692
 20
-85.645966
 11
-31.421692
 21
-122.645966
  0
LINE
  8
0
 62
     4
 10
-8.421692
 20
-122.645966
 11
-8.421692
 21
-85.645966
  0
LINE
  8
0
 62
     4
 10
-9.421692
 20
-121.645966
 11
-9.421692
 21
-98.145966
  0
LINE
  8
0
 62
     4
 10
-30.421692
 20
-92.645966
 11
-30.421692
 21
-112.145966
  0
LINE
  8
0
 62
     4
 10
-31.421728
 20
-122.645966
 11
-30.421728
 21
-121.645958
  0
LINE
  8
0
 62
     4
 10
-8.421672
 20
-122.645966
 11
-9.421671
 21
-121.645958
  0
LINE
  8
0
 62
     4
 10
-31.421688
 20
-91.645966
 11
-30.421686
 21
-92.645966
  0
LINE
  8
0
 62
     4
 10
-14.921692
 20
-95.145966
 11
-14.921692
 21
-91.645966
  0
LINE
  8
0
 62
     4
 10
-30.421692
 20
-118.145966
 11
-30.421692
 21
-121.645966
  0
LINE
  8
0
 10
-59.421707
 20
-122.645966
 11
-59.421707
 21
-123.645966
  0
LINE
  8
0
 10
-36.421707
 20
-122.645966
 11
-36.421707
 21
-123.645966
  0
LINE
  8
0
 10
-31.421692
 20
-122.645966
 11
-31.421692
 21
-123.645966
  0
LINE
  8
0
 10
-8.421692
 20
-122.645966
 11
-8.421692
 21
-123.645966
  0
LINE
  8
0
 10
167.792480
 20
-192.646027
 11
167.792480
 21
-190.645996
  0
LINE
  8
0
 10
167.792480
 20
-192.646027
 11
174.792480
 21
-192.646027
  0
LINE
  8
0
 10
174.792480
 20
-192.646027
 11
174.792480
 21
-190.645996
  0
LINE
  8
0
 10
168.792480
 20
-191.646027
 11
173.792480
 21
-191.646027
  0
LINE
  8
0
 10
173.792221
 20
-191.645691
 11
175.792221
 21
-189.645676
  0
LINE
  8
0
 10
168.792557
 20
-191.645935
 11
166.792557
 21
-189.645935
  0
LINE
  8
0
 10
314.792480
 20
-192.646027
 11
314.792480
 21
-190.645996
  0
LINE
  8
0
 10
314.792480
 20
-192.646027
 11
307.792480
 21
-192.646027
  0
LINE
  8
0
 10
307.792480
 20
-192.646027
 11
307.792480
 21
-190.645996
  0
LINE
  8
0
 10
313.792480
 20
-191.645996
 11
308.792480
 21
-191.645996
  0
LINE
  8
0
 10
308.792480
 20
-191.646027
 11
306.792450
 21
-189.646042
  0
LINE
  8
0
 10
313.792267
 20
-191.645966
 11
315.792267
 21
-189.645966
  0
LINE
  8
0
 10
324.292450
 20
-189.645996
 11
306.292450
 21
-189.645996
  0
LINE
  8
0
  6
CENTER
 62
     2
 10
336.783844
 20
-118.145981
 11
326.008514
 21
-118.145981
  0
LINE
  8
0
 10
336.792450
 20
-115.645981
 11
336.792450
 21
-112.645966
  0
LINE
  8
0
 10
336.792450
 20
-123.045975
 11
336.792450
 21
-120.645981
  0
LINE
  8
0
  6
CENTER
 62
     2
 10
331.792450
 20
-123.893768
 11
331.792450
 21
-112.274292
  0
LINE
  8
0
 10
336.792450
 20
-120.645981
 11
331.792450
 21
-120.645981
  0
LINE
  8
0
 10
336.792450
 20
-115.645981
 11
331.792450
 21
-115.645981
  0
LINE
  8
0
  6
CENTER
 62
     2
 10
336.783844
 20
-182.145996
 11
326.008514
 21
-182.145996
  0
LINE
  8
0
 10
336.792450
 20
-179.645996
 11
336.792450
 21
-177.245972
  0
LINE
  8
0
 10
336.792450
 20
-187.645966
 11
336.792450
 21
-184.645996
  0
LINE
  8
0
  6
CENTER
 62
     2
 10
331.792450
 20
-187.893753
 11
331.792450
 21
-176.274292
  0
LINE
  8
0
 10
336.792450
 20
-184.645996
 11
331.792450
 21
-184.645996
  0
LINE
  8
0
 10
336.792450
 20
-179.645996
 11
331.792450
 21
-179.645996
  0
LINE
  8
0
 10
334.792450
 20
-189.645996
 11
324.292450
 21
-189.645996
  0
LINE
  8
0
 10
334.792450
 20
-175.245987
 11
326.292450
 21
-175.245987
  0
LINE
  8
0
 10
334.792450
 20
-125.045967
 11
326.292450
 21
-125.045967
  0
LINE
  8
0
 10
324.292450
 20
-65.145935
 11
324.292450
 21
-110.645981
  0
LINE
  8
0
 10
148.292511
 20
-110.645981
 11
166.292480
 21
-110.645981
  0
LINE
  8
0
 10
166.292480
 20
-189.645996
 11
166.292480
 21
-110.645981
  0
LINE
  8
0
 10
148.292511
 20
-65.145935
 11
148.292511
 21
-110.645981
  0
LINE
  8
0
 10
148.292511
 20
-189.645996
 11
166.292480
 21
-189.645996
  0
LINE
  8
0
  6
CENTER
 62
     2
 10
135.801086
 20
-118.145981
 11
146.576447
 21
-118.145981
  0
LINE
  8
0
 10
135.792511
 20
-115.645981
 11
135.792511
 21
-112.645966
  0
LINE
  8
0
 10
135.792511
 20
-123.645988
 11
135.792511
 21
-120.645981
  0
LINE
  8
0
  6
CENTER
 62
     2
 10
140.792511
 20
-123.893768
 11
140.792511
 21
-112.274292
  0
LINE
  8
0
 10
135.792480
 20
-120.645981
 11
140.792480
 21
-120.645981
  0
LINE
  8
0
 10
135.792480
 20
-115.645981
 11
140.792480
 21
-115.645981
  0
LINE
  8
0
  6
CENTER
 62
     2
 10
135.801086
 20
-182.145996
 11
146.576447
 21
-182.145996
  0
LINE
  8
0
 10
135.792511
 20
-179.645996
 11
135.792511
 21
-176.645981
  0
LINE
  8
0
 10
135.792511
 20
-187.645966
 11
135.792511
 21
-184.645996
  0
LINE
  8
0
  6
CENTER
 62
     2
 10
140.792511
 20
-187.893753
 11
140.792511
 21
-176.274292
  0
LINE
  8
0
 10
135.792480
 20
-184.645996
 11
140.792480
 21
-184.645996
  0
LINE
  8
0
 10
135.792511
 20
-179.645996
 11
140.792480
 21
-179.645996
  0
LINE
  8
0
 10
137.792480
 20
-189.645996
 11
148.292511
 21
-189.645996
  0
LINE
  8
0
 10
137.792480
 20
-174.645996
 11
146.292480
 21
-174.645996
  0
LINE
  8
0
 10
137.792480
 20
-110.645981
 11
148.292511
 21
-110.645981
  0
LINE
  8
0
 10
137.792480
 20
-125.645981
 11
146.292480
 21
-125.645981
  0
LINE
  8
0
 10
194.292480
 20
-189.645981
 11
166.292480
 21
-189.645981
  0
LINE
  8
0
 10
306.292480
 20
-110.645981
 11
278.292480
 21
-110.645981
  0
LINE
  8
0
 10
166.292480
 20
-189.645981
 11
166.292480
 21
-110.645981
  0
LINE
  8
0
 10
166.292480
 20
-188.645981
 11
194.292480
 21
-188.645981
  0
LINE
  8
0
 10
194.292480
 20
-189.645981
 11
194.292480
 21
-110.645981
  0
LINE
  8
0
 10
306.292511
 20
-189.645981
 11
306.292511
 21
-110.645981
  0
LINE
  8
0
 10
278.292511
 20
-188.645981
 11
306.292511
 21
-188.645981
  0
LINE
  8
0
 10
286.792511
 20
-192.645981
 11
286.792511
 21
-190.645981
  0
LINE
  8
0
 10
286.792511
 20
-192.645981
 11
279.792511
 21
-192.645981
  0
LINE
  8
0
 10
279.792511
 20
-192.645981
 11
279.792511
 21
-190.645981
  0
LINE
  8
0
 10
285.792511
 20
-191.645981
 11
280.792511
 21
-191.645981
  0
LINE
  8
0
 10
280.792175
 20
-191.646301
 11
278.792114
 21
-189.646286
  0
LINE
  8
0
 10
285.792328
 20
-191.645966
 11
287.792328
 21
-189.645966
  0
LINE
  8
0
 10
306.292511
 20
-189.645981
 11
278.292511
 21
-189.645981
  0
LINE
  8
0
 10
278.292511
 20
-189.645981
 11
278.292511
 21
-110.645981
  0
LINE
  8
0
 10
194.292511
 20
-188.645981
 11
222.292511
 21
-188.645981
  0
LINE
  8
0
 10
202.792511
 20
-192.645981
 11
202.792511
 21
-190.645981
  0
LINE
  8
0
 10
202.792511
 20
-192.645981
 11
195.792511
 21
-192.645981
  0
LINE
  8
0
 10
195.792511
 20
-192.645981
 11
195.792511
 21
-190.645981
  0
LINE
  8
0
 10
201.792511
 20
-191.645981
 11
196.792511
 21
-191.645981
  0
LINE
  8
0
 10
196.792358
 20
-191.645996
 11
194.792389
 21
-189.646027
  0
LINE
  8
0
 10
201.792404
 20
-191.645920
 11
203.792404
 21
-189.645920
  0
LINE
  8
0
 10
222.292511
 20
-189.645981
 11
194.292511
 21
-189.645981
  0
LINE
  8
0
 10
250.292480
 20
-189.645966
 11
250.292480
 21
-110.645966
  0
LINE
  8
0
 10
222.292480
 20
-189.645966
 11
222.292480
 21
-110.645966
  0
LINE
  8
0
 10
250.292511
 20
-188.645981
 11
278.292511
 21
-188.645981
  0
LINE
  8
0
 10
258.792511
 20
-192.645981
 11
258.792511
 21
-190.645981
  0
LINE
  8
0
 10
258.792511
 20
-192.645981
 11
251.792511
 21
-192.645981
  0
LINE
  8
0
 10
251.792511
 20
-192.645981
 11
251.792511
 21
-190.645981
  0
LINE
  8
0
 10
257.792511
 20
-191.645981
 11
252.792511
 21
-191.645981
  0
LINE
  8
0
 10
252.792374
 20
-191.646072
 11
250.792389
 21
-189.646088
  0
LINE
  8
0
 10
257.792389
 20
-191.645920
 11
259.792389
 21
-189.645920
  0
LINE
  8
0
 10
278.292511
 20
-189.645981
 11
250.292511
 21
-189.645981
  0
LINE
  8
0
 10
222.292511
 20
-188.645981
 11
250.292511
 21
-188.645981
  0
LINE
  8
0
 10
230.792511
 20
-192.645981
 11
230.792511
 21
-190.645981
  0
LINE
  8
0
 10
230.792511
 20
-192.645981
 11
223.792511
 21
-192.645981
  0
LINE
  8
0
 10
223.792511
 20
-192.645981
 11
223.792511
 21
-190.645981
  0
LINE
  8
0
 10
229.792511
 20
-191.645981
 11
224.792511
 21
-191.645981
  0
LINE
  8
0
 10
224.792389
 20
-191.646027
 11
222.792389
 21
-189.646027
  0
LINE
  8
0
 10
229.792389
 20
-191.645828
 11
231.792389
 21
-189.645844
  0
LINE
  8
0
 10
250.292511
 20
-189.645981
 11
222.292511
 21
-189.645981
  0
LINE
  8
0
 10
194.292480
 20
-110.645981
 11
166.292480
 21
-110.645981
  0
LINE
  8
0
 10
222.292480
 20
-110.645981
 11
194.292480
 21
-110.645981
  0
LINE
  8
0
 10
250.292480
 20
-110.645981
 11
222.292480
 21
-110.645981
  0
LINE
  8
0
 10
278.292480
 20
-110.645981
 11
250.292480
 21
-110.645981
  0
LINE
  8
0
 10
306.292511
 20
-110.645981
 11
334.792419
 21
-110.645981
  0
LINE
  8
0
  6
CENTER
 62
     2
 10
284.792480
 20
-167.458191
 11
284.792480
 21
-151.968201
  0
LINE
  8
0
  6
CENTER
 62
     2
 10
277.906189
 20
-159.645996
 11
291.573853
 21
-159.645996
  0
LINE
  8
0
  6
CENTER
 62
     2
 10
279.272949
 20
-137.645996
 11
291.346039
 21
-137.645996
  0
LINE
  8
0
  6
CENTER
 62
     2
 10
284.792480
 20
-145.589935
 11
284.792480
 21
-130.327728
  0
LINE
  8
0
  6
CENTER
 62
     2
 10
290.662689
 20
-126.645973
 11
306.292480
 21
-126.645973
  0
LINE
  8
0
  6
CENTER
 62
     2
 10
298.792480
 20
-133.516846
 11
298.792480
 21
-118.938034
  0
LINE
  8
0
  6
CENTER
 62
     2
 10
291.118256
 20
-148.645966
 11
306.292480
 21
-148.645966
  0
LINE
  8
0
  6
CENTER
 62
     2
 10
298.792480
 20
-156.068481
 11
298.792480
 21
-140.806274
  0
LINE
  8
0
  6
CENTER
 62
     2
 10
290.662689
 20
-173.645981
 11
306.292480
 21
-173.645981
  0
LINE
  8
0
  6
CENTER
 62
     2
 10
298.792480
 20
-181.125839
 11
298.792480
 21
-164.952454
  0
LINE
  8
0
  6
CENTER
 62
     2
 10
172.792480
 20
-167.458191
 11
172.792480
 21
-151.968201
  0
LINE
  8
0
  6
CENTER
 62
     2
 10
165.906189
 20
-159.645996
 11
179.573853
 21
-159.645996
  0
LINE
  8
0
  6
CENTER
 62
     2
 10
167.272949
 20
-137.645996
 11
179.346039
 21
-137.645996
  0
LINE
  8
0
  6
CENTER
 62
     2
 10
172.792480
 20
-145.589935
 11
172.792480
 21
-130.327728
  0
LINE
  8
0
  6
CENTER
 62
     2
 10
178.662689
 20
-126.645973
 11
194.292480
 21
-126.645973
  0
LINE
  8
0
  6
CENTER
 62
     2
 10
186.792480
 20
-133.516846
 11
186.792480
 21
-118.938034
  0
LINE
  8
0
  6
CENTER
 62
     2
 10
179.118256
 20
-148.645966
 11
194.292480
 21
-148.645966
  0
LINE
  8
0
  6
CENTER
 62
     2
 10
186.792480
 20
-156.068481
 11
186.792480
 21
-140.806274
  0
LINE
  8
0
  6
CENTER
 62
     2
 10
178.662689
 20
-173.645981
 11
194.292480
 21
-173.645981
  0
LINE
  8
0
  6
CENTER
 62
     2
 10
186.792480
 20
-181.125839
 11
186.792480
 21
-164.952454
  0
LINE
  8
0
  6
CENTER
 62
     2
 10
200.792480
 20
-167.458191
 11
200.792480
 21
-151.968201
  0
LINE
  8
0
  6
CENTER
 62
     2
 10
193.906189
 20
-159.645996
 11
207.573853
 21
-159.645996
  0
LINE
  8
0
  6
CENTER
 62
     2
 10
195.272949
 20
-137.645996
 11
207.346039
 21
-137.645996
  0
LINE
  8
0
  6
CENTER
 62
     2
 10
200.792480
 20
-145.589935
 11
200.792480
 21
-130.327728
  0
LINE
  8
0
  6
CENTER
 62
     2
 10
206.662689
 20
-126.645973
 11
222.292480
 21
-126.645973
  0
LINE
  8
0
  6
CENTER
 62
     2
 10
214.792480
 20
-133.516846
 11
214.792480
 21
-118.938034
  0
LINE
  8
0
  6
CENTER
 62
     2
 10
207.118256
 20
-148.645966
 11
222.292480
 21
-148.645966
  0
LINE
  8
0
  6
CENTER
 62
     2
 10
214.792480
 20
-156.068481
 11
214.792480
 21
-140.806274
  0
LINE
  8
0
  6
CENTER
 62
     2
 10
206.662689
 20
-173.645981
 11
222.292480
 21
-173.645981
  0
LINE
  8
0
  6
CENTER
 62
     2
 10
214.792480
 20
-181.125839
 11
214.792480
 21
-164.952454
  0
LINE
  8
0
  6
CENTER
 62
     2
 10
228.792480
 20
-167.458191
 11
228.792480
 21
-151.968201
  0
LINE
  8
0
  6
CENTER
 62
     2
 10
221.906189
 20
-159.645996
 11
235.573853
 21
-159.645996
  0
LINE
  8
0
  6
CENTER
 62
     2
 10
223.272949
 20
-137.645996
 11
235.346039
 21
-137.645996
  0
LINE
  8
0
  6
CENTER
 62
     2
 10
228.792480
 20
-145.589935
 11
228.792480
 21
-130.327728
  0
LINE
  8
0
  6
CENTER
 62
     2
 10
234.662689
 20
-126.645973
 11
250.292480
 21
-126.645973
  0
LINE
  8
0
  6
CENTER
 62
     2
 10
242.792480
 20
-133.516846
 11
242.792480
 21
-118.938034
  0
LINE
  8
0
  6
CENTER
 62
     2
 10
235.118256
 20
-148.645966
 11
250.292480
 21
-148.645966
  0
LINE
  8
0
  6
CENTER
 62
     2
 10
242.792480
 20
-156.068481
 11
242.792480
 21
-140.806274
  0
LINE
  8
0
  6
CENTER
 62
     2
 10
234.662689
 20
-173.645981
 11
250.292480
 21
-173.645981
  0
LINE
  8
0
  6
CENTER
 62
     2
 10
242.792480
 20
-181.125839
 11
242.792480
 21
-164.952454
  0
LINE
  8
0
  6
CENTER
 62
     2
 10
256.792480
 20
-167.458191
 11
256.792480
 21
-151.968201
  0
LINE
  8
0
  6
CENTER
 62
     2
 10
249.906189
 20
-159.645996
 11
263.573853
 21
-159.645996
  0
LINE
  8
0
  6
CENTER
 62
     2
 10
251.272949
 20
-137.645996
 11
263.346039
 21
-137.645996
  0
LINE
  8
0
  6
CENTER
 62
     2
 10
256.792480
 20
-145.589935
 11
256.792480
 21
-130.327728
  0
LINE
  8
0
  6
CENTER
 62
     2
 10
262.662689
 20
-126.645973
 11
278.292480
 21
-126.645973
  0
LINE
  8
0
  6
CENTER
 62
     2
 10
270.792480
 20
-133.516846
 11
270.792480
 21
-118.938034
  0
LINE
  8
0
  6
CENTER
 62
     2
 10
263.118256
 20
-148.645966
 11
278.292480
 21
-148.645966
  0
LINE
  8
0
  6
CENTER
 62
     2
 10
270.792480
 20
-156.068481
 11
270.792480
 21
-140.806274
  0
LINE
  8
0
  6
CENTER
 62
     2
 10
262.662689
 20
-173.645981
 11
278.292480
 21
-173.645981
  0
LINE
  8
0
  6
CENTER
 62
     2
 10
270.792480
 20
-181.125839
 11
270.792480
 21
-164.952454
  0
LINE
  8
0
 10
219.792480
 20
-67.645966
 11
196.792480
 21
-67.645966
  0
LINE
  8
0
 10
191.792465
 20
-64.145935
 11
168.792480
 21
-64.145935
  0
LINE
  8
0
 10
191.792465
 20
-64.145935
 11
191.792465
 21
-103.145935
  0
LINE
  8
0
 10
191.792465
 20
-67.645966
 11
168.792480
 21
-67.645966
  0
LINE
  8
0
 10
168.792450
 20
-64.145935
 11
168.792450
 21
-103.145935
  0
LINE
  8
0
 10
306.792480
 20
-63.145966
 11
305.792480
 21
-63.145966
  0
LINE
  8
0
 10
306.792480
 20
-63.145966
 11
306.792480
 21
-110.645966
  0
LINE
  8
0
 10
305.792480
 20
-63.145966
 11
305.792480
 21
-64.145935
  0
LINE
  8
0
 10
308.992493
 20
-64.145935
 11
306.792480
 21
-64.145935
  0
LINE
  8
0
 10
305.792480
 20
-67.645966
 11
305.792480
 21
-110.645966
  0
LINE
  8
0
 10
308.992493
 20
-64.145935
 11
308.992493
 21
-110.645966
  0
LINE
  8
0
 10
165.792480
 20
-63.145966
 11
166.792480
 21
-63.145966
  0
LINE
  8
0
 10
165.792480
 20
-63.145966
 11
165.792480
 21
-110.645966
  0
LINE
  8
0
 10
166.792480
 20
-63.145966
 11
166.792480
 21
-64.145935
  0
LINE
  8
0
 10
163.592468
 20
-64.145935
 11
165.792480
 21
-64.145935
  0
LINE
  8
0
 10
166.792480
 20
-64.145935
 11
168.592468
 21
-64.145935
  0
LINE
  8
0
 10
168.592468
 20
-64.145935
 11
168.592468
 21
-103.145966
  0
LINE
  8
0
 10
166.792480
 20
-67.645966
 11
168.592468
 21
-67.645966
  0
LINE
  8
0
 10
166.792480
 20
-67.645966
 11
166.792480
 21
-110.645966
  0
LINE
  8
0
 10
167.792480
 20
-103.145966
 11
167.792480
 21
-110.645966
  0
LINE
  8
0
 10
163.592468
 20
-64.145935
 11
163.592468
 21
-110.645966
  0
LINE
  8
0
 10
323.292450
 20
-64.145935
 11
307.292480
 21
-64.145935
  0
LINE
  8
0
 10
149.292511
 20
-64.145935
 11
165.292480
 21
-64.145935
  0
LINE
  8
0
 10
219.792480
 20
-64.145935
 11
219.792480
 21
-103.145966
  0
LINE
  8
0
 10
305.792480
 20
-64.145935
 11
303.992493
 21
-64.145935
  0
LINE
  8
0
 10
303.992493
 20
-64.145935
 11
303.992493
 21
-103.145966
  0
LINE
  8
0
 10
305.792480
 20
-67.645966
 11
303.992493
 21
-67.645966
  0
LINE
  8
0
 10
304.792480
 20
-103.145966
 11
304.792480
 21
-110.645966
  0
LINE
  8
0
 10
277.792480
 20
-63.145966
 11
278.792480
 21
-63.145966
  0
LINE
  8
0
 10
278.792450
 20
-63.145966
 11
278.792450
 21
-64.145935
  0
LINE
  8
0
 10
277.792450
 20
-63.145966
 11
277.792450
 21
-64.145935
  0
LINE
  8
0
 10
277.792450
 20
-64.145935
 11
275.992432
 21
-64.145935
  0
LINE
  8
0
 10
275.992432
 20
-64.145935
 11
275.992432
 21
-103.145966
  0
LINE
  8
0
 10
278.792480
 20
-64.145935
 11
280.592468
 21
-64.145935
  0
LINE
  8
0
 10
280.592468
 20
-64.145935
 11
280.592468
 21
-103.145966
  0
LINE
  8
0
 10
277.792450
 20
-67.645966
 11
275.992432
 21
-67.645966
  0
LINE
  8
0
 10
278.792480
 20
-67.645966
 11
280.592468
 21
-67.645966
  0
LINE
  8
0
 10
277.792450
 20
-67.645966
 11
277.792450
 21
-110.645966
  0
LINE
  8
0
 10
278.792450
 20
-67.645966
 11
278.792450
 21
-110.645966
  0
LINE
  8
0
 10
279.792480
 20
-103.145966
 11
279.792480
 21
-110.645966
  0
LINE
  8
0
 10
279.792480
 20
-103.145966
 11
304.792480
 21
-103.145966
  0
LINE
  8
0
 10
276.792450
 20
-103.145966
 11
276.792450
 21
-110.645966
  0
LINE
  8
0
 10
303.792480
 20
-64.145935
 11
280.792480
 21
-64.145935
  0
LINE
  8
0
 10
303.792480
 20
-67.645966
 11
280.792480
 21
-67.645966
  0
LINE
  8
0
 10
280.792450
 20
-64.145935
 11
280.792450
 21
-103.145966
  0
LINE
  8
0
 10
303.792480
 20
-64.145935
 11
303.792480
 21
-103.145966
  0
LINE
  8
0
 10
193.792450
 20
-63.145966
 11
193.792450
 21
-64.145935
  0
LINE
  8
0
 10
193.792450
 20
-64.145935
 11
191.992447
 21
-64.145935
  0
LINE
  8
0
 10
191.992432
 20
-64.145935
 11
191.992432
 21
-103.145966
  0
LINE
  8
0
 10
194.792465
 20
-64.145935
 11
196.592468
 21
-64.145935
  0
LINE
  8
0
 10
196.592453
 20
-64.145935
 11
196.592453
 21
-103.145966
  0
LINE
  8
0
 10
193.792450
 20
-67.645966
 11
191.992447
 21
-67.645966
  0
LINE
  8
0
 10
194.792465
 20
-67.645966
 11
196.592468
 21
-67.645966
  0
LINE
  8
0
 10
193.792450
 20
-67.645966
 11
193.792450
 21
-110.645966
  0
LINE
  8
0
 10
194.792450
 20
-67.645966
 11
194.792450
 21
-110.645966
  0
LINE
  8
0
 10
195.792465
 20
-103.145966
 11
195.792465
 21
-110.645966
  0
LINE
  8
0
 10
195.792480
 20
-103.145966
 11
220.792450
 21
-103.145966
  0
LINE
  8
0
 10
192.792450
 20
-103.145966
 11
167.792480
 21
-103.145966
  0
LINE
  8
0
 10
192.792450
 20
-103.145966
 11
192.792450
 21
-110.645966
  0
LINE
  8
0
 10
219.792480
 20
-64.145935
 11
196.792480
 21
-64.145935
  0
LINE
  8
0
 10
196.792450
 20
-64.145935
 11
196.792450
 21
-103.145966
  0
LINE
  8
0
 10
249.792480
 20
-63.145966
 11
250.792480
 21
-63.145966
  0
LINE
  8
0
 10
250.792450
 20
-63.145966
 11
250.792450
 21
-64.145935
  0
LINE
  8
0
 10
249.792450
 20
-63.145966
 11
249.792450
 21
-64.145935
  0
LINE
  8
0
 10
249.792450
 20
-64.145935
 11
247.992432
 21
-64.145935
  0
LINE
  8
0
 10
247.992432
 20
-64.145935
 11
247.992432
 21
-103.145966
  0
LINE
  8
0
 10
250.792480
 20
-64.145935
 11
252.592468
 21
-64.145935
  0
LINE
  8
0
 10
252.592468
 20
-64.145935
 11
252.592468
 21
-103.145966
  0
LINE
  8
0
 10
249.792450
 20
-67.645966
 11
247.992432
 21
-67.645966
  0
LINE
  8
0
 10
250.792480
 20
-67.645966
 11
252.592468
 21
-67.645966
  0
LINE
  8
0
 10
249.792450
 20
-67.645966
 11
249.792450
 21
-110.645966
  0
LINE
  8
0
 10
250.792450
 20
-67.645966
 11
250.792450
 21
-110.645966
  0
LINE
  8
0
 10
251.792480
 20
-103.145966
 11
251.792480
 21
-110.645966
  0
LINE
  8
0
 10
251.792480
 20
-103.145966
 11
276.792450
 21
-103.145966
  0
LINE
  8
0
 10
248.792450
 20
-103.145966
 11
248.792450
 21
-110.645966
  0
LINE
  8
0
 10
275.792480
 20
-64.145935
 11
252.792480
 21
-64.145935
  0
LINE
  8
0
 10
275.792480
 20
-67.645966
 11
252.792480
 21
-67.645966
  0
LINE
  8
0
 10
252.792450
 20
-64.145935
 11
252.792450
 21
-103.145966
  0
LINE
  8
0
 10
275.792480
 20
-64.145935
 11
275.792480
 21
-103.145966
  0
LINE
  8
0
 10
193.792480
 20
-63.145966
 11
194.792465
 21
-63.145966
  0
LINE
  8
0
 10
194.792450
 20
-63.145966
 11
194.792450
 21
-64.145935
  0
LINE
  8
0
 10
221.792450
 20
-63.145966
 11
221.792450
 21
-64.145935
  0
LINE
  8
0
 10
221.792450
 20
-64.145935
 11
219.992432
 21
-64.145935
  0
LINE
  8
0
 10
219.992432
 20
-64.145935
 11
219.992432
 21
-103.145966
  0
LINE
  8
0
 10
222.792480
 20
-64.145935
 11
224.592468
 21
-64.145935
  0
LINE
  8
0
 10
224.592468
 20
-64.145935
 11
224.592468
 21
-103.145966
  0
LINE
  8
0
 10
221.792450
 20
-67.645966
 11
219.992432
 21
-67.645966
  0
LINE
  8
0
 10
222.792480
 20
-67.645966
 11
224.592468
 21
-67.645966
  0
LINE
  8
0
 10
221.792450
 20
-67.645966
 11
221.792450
 21
-110.645966
  0
LINE
  8
0
 10
222.792450
 20
-67.645966
 11
222.792450
 21
-110.645966
  0
LINE
  8
0
 10
223.792480
 20
-103.145966
 11
223.792480
 21
-110.645966
  0
LINE
  8
0
 10
223.792480
 20
-103.145966
 11
248.792450
 21
-103.145966
  0
LINE
  8
0
 10
220.792450
 20
-103.145966
 11
220.792450
 21
-110.645966
  0
LINE
  8
0
 10
247.792480
 20
-64.145935
 11
224.792480
 21
-64.145935
  0
LINE
  8
0
 10
247.792480
 20
-67.645966
 11
224.792480
 21
-67.645966
  0
LINE
  8
0
 10
224.792450
 20
-64.145935
 11
224.792450
 21
-103.145966
  0
LINE
  8
0
 10
221.792480
 20
-63.145966
 11
222.792480
 21
-63.145966
  0
LINE
  8
0
 10
222.792450
 20
-63.145966
 11
222.792450
 21
-64.145935
  0
LINE
  8
0
 10
247.792480
 20
-64.145935
 11
247.792480
 21
-103.145966
  0
LINE
  8
0
 10
148.292511
 20
-127.645988
 11
148.292511
 21
-172.645996
  0
LINE
  8
0
 10
324.292450
 20
-127.045975
 11
324.292450
 21
-173.246002
  0
ARC
  8
0
 10
-143.421661
 20
131.854034
 40
2.500000
 50
0.000000
 51
90.000000
  0
ARC
  8
0
 10
-143.421661
 20
131.854034
 40
2.500000
 50
270.000000
 51
0.000000
  0
ARC
  8
0
 10
-146.421631
 20
73.354034
 40
2.000000
 50
90.000000
 51
180.000000
  0
ARC
  8
0
 10
-143.421661
 20
67.854027
 40
2.500000
 50
0.000000
 51
90.000000
  0
ARC
  8
0
 10
-143.421661
 20
67.854027
 40
2.500000
 50
270.000000
 51
0.000000
  0
ARC
  8
0
 10
-146.421631
 20
62.354034
 40
2.000000
 50
180.000000
 51
270.000000
  0
ARC
  8
0
 10
-137.921661
 20
77.354019
 40
2.000000
 50
270.000000
 51
0.000000
  0
ARC
  8
0
 10
-146.421631
 20
137.354019
 40
2.000000
 50
90.000000
 51
180.000000
  0
ARC
  8
0
 10
-146.421631
 20
126.354027
 40
2.000000
 50
180.000000
 51
270.000000
  0
ARC
  8
0
 10
-137.921661
 20
122.354027
 40
2.000000
 50
0.000000
 51
90.000000
  0
ARC
  8
0
 10
47.578278
 20
131.854034
 40
2.500000
 50
90.000000
 51
180.000000
  0
ARC
  8
0
 10
47.578278
 20
131.854034
 40
2.500000
 50
180.000000
 51
270.000000
  0
ARC
  8
0
 10
50.578278
 20
73.354034
 40
2.000000
 50
0.000000
 51
90.000000
  0
ARC
  8
0
 10
47.578278
 20
67.854027
 40
2.500000
 50
90.000000
 51
180.000000
  0
ARC
  8
0
 10
47.578278
 20
67.854027
 40
2.500000
 50
180.000000
 51
270.000000
  0
ARC
  8
0
 10
50.578278
 20
62.354034
 40
2.000000
 50
270.000000
 51
0.000000
  0
ARC
  8
0
 10
42.078308
 20
77.354019
 40
2.000000
 50
180.000000
 51
270.000000
  0
ARC
  8
0
 10
50.578278
 20
137.354019
 40
2.000000
 50
0.000000
 51
90.000000
  0
ARC
  8
0
 10
50.578278
 20
126.354027
 40
2.000000
 50
270.000000
 51
0.000000
  0
ARC
  8
0
 10
42.078308
 20
122.354027
 40
2.000000
 50
90.000000
 51
180.000000
  0
ARC
  8
0
 62
     4
 10
17.078323
 20
106.354034
 40
3.000000
 50
0.000000
 51
0.399688
  0
ARC
  8
0
 62
     4
 10
17.078323
 20
106.854034
 40
3.000000
 50
0.000000
 51
2.505128
  0
ARC
  8
0
 62
     4
 10
17.078323
 20
105.354034
 40
3.000000
 50
0.000000
 51
0.399688
  0
ARC
  8
0
 62
     4
 10
17.078323
 20
105.854034
 40
3.000000
 50
0.000000
 51
2.505128
  0
ARC
  8
0
 62
     4
 10
17.078323
 20
105.854034
 40
3.000000
 50
0.000000
 51
2.440371
  0
CIRCLE
  8
0
 62
     4
 10
-0.921677
 20
87.854027
 40
2.500000
  0
CIRCLE
  8
0
 62
     4
 10
-0.921677
 20
113.854027
 40
2.500000
  0
CIRCLE
  8
0
 62
     4
 10
17.078323
 20
105.854027
 40
2.500000
  0
ARC
  8
0
 10
-94.921722
 20
106.354034
 40
3.000000
 50
0.000000
 51
0.399688
  0
ARC
  8
0
 10
-94.921722
 20
106.854042
 40
3.000000
 50
0.000000
 51
2.505129
  0
CIRCLE
  8
0
 10
-103.921722
 20
141.354034
 40
2.299999
  0
CIRCLE
  8
0
 10
-103.921722
 20
141.354034
 40
1.500000
  0
ARC
  8
0
 10
-94.921722
 20
105.354034
 40
3.000000
 50
0.000000
 51
0.399688
  0
ARC
  8
0
 10
-94.921722
 20
105.854034
 40
3.000000
 50
0.000000
 51
2.505129
  0
ARC
  8
0
 10
-94.921722
 20
105.854034
 40
3.000000
 50
0.000000
 51
2.440374
  0
ARC
  8
0
 10
-95.421722
 20
80.854050
 40
2.500000
 50
90.000000
 51
270.000000
  0
ARC
  8
0
 10
-112.921722
 20
87.854042
 40
3.000000
 50
270.000000
 51
90.000000
  0
ARC
  8
0
 10
-112.921722
 20
113.854042
 40
3.000000
 50
270.000000
 51
90.000000
  0
ARC
  8
0
 10
-94.921722
 20
105.854042
 40
3.000000
 50
90.000000
 51
270.000000
  0
ARC
  8
0
 10
-112.421722
 20
120.854034
 40
2.500000
 50
270.000000
 51
90.000000
  0
CIRCLE
  8
0
 10
-112.921722
 20
87.854042
 40
2.500000
  0
CIRCLE
  8
0
 10
-112.921722
 20
113.854042
 40
2.500000
  0
CIRCLE
  8
0
 10
-94.921722
 20
105.854042
 40
2.500000
  0
CIRCLE
  8
0
 10
-95.421722
 20
80.854050
 40
2.250000
  0
CIRCLE
  8
0
 10
-112.421722
 20
120.854034
 40
2.250000
  0
ARC
  8
0
 10
-66.921722
 20
106.354034
 40
3.000000
 50
0.000000
 51
0.399688
  0
ARC
  8
0
 10
-66.921722
 20
106.854042
 40
3.000000
 50
0.000000
 51
2.505129
  0
CIRCLE
  8
0
 10
-75.921722
 20
141.354034
 40
2.299999
  0
CIRCLE
  8
0
 10
-75.921722
 20
141.354034
 40
1.500000
  0
ARC
  8
0
 10
-66.921722
 20
105.354034
 40
3.000000
 50
0.000000
 51
0.399688
  0
ARC
  8
0
 10
-66.921722
 20
105.854034
 40
3.000000
 50
0.000000
 51
2.505129
  0
ARC
  8
0
 10
-66.921722
 20
105.854034
 40
3.000000
 50
0.000000
 51
2.440371
  0
ARC
  8
0
 10
-67.421722
 20
80.854050
 40
2.500000
 50
90.000000
 51
270.000000
  0
ARC
  8
0
 10
-84.921722
 20
87.854042
 40
3.000000
 50
270.000000
 51
90.000000
  0
ARC
  8
0
 10
-84.921722
 20
113.854042
 40
3.000000
 50
270.000000
 51
90.000000
  0
ARC
  8
0
 10
-66.921722
 20
105.854042
 40
3.000000
 50
90.000000
 51
270.000000
  0
ARC
  8
0
 10
-84.421722
 20
120.854034
 40
2.500000
 50
270.000000
 51
90.000000
  0
CIRCLE
  8
0
 10
-84.921722
 20
87.854042
 40
2.500000
  0
CIRCLE
  8
0
 10
-84.921722
 20
113.854042
 40
2.500000
  0
CIRCLE
  8
0
 10
-66.921722
 20
105.854042
 40
2.500000
  0
CIRCLE
  8
0
 10
-67.421722
 20
80.854050
 40
2.250000
  0
CIRCLE
  8
0
 10
-84.421722
 20
120.854034
 40
2.250000
  0
ARC
  8
0
 10
-38.921707
 20
106.354050
 40
3.000000
 50
0.000000
 51
0.399688
  0
ARC
  8
0
 10
-38.921707
 20
106.854057
 40
3.000000
 50
0.000000
 51
2.505129
  0
CIRCLE
  8
0
 10
-47.921715
 20
60.354065
 40
2.299999
  0
CIRCLE
  8
0
 10
-47.921715
 20
60.354065
 40
1.500000
  0
ARC
  8
0
 10
-38.921707
 20
105.354050
 40
3.000000
 50
0.000000
 51
0.399688
  0
ARC
  8
0
 10
-38.921707
 20
105.854050
 40
3.000000
 50
0.000000
 51
2.505129
  0
ARC
  8
0
 10
-38.921707
 20
105.854050
 40
3.000000
 50
0.000000
 51
2.440371
  0
ARC
  8
0
 10
-39.421707
 20
80.854065
 40
2.500000
 50
90.000000
 51
270.000000
  0
ARC
  8
0
 10
-56.921707
 20
87.854057
 40
3.000000
 50
270.000000
 51
90.000000
  0
ARC
  8
0
 10
-56.921707
 20
113.854057
 40
3.000000
 50
270.000000
 51
90.000000
  0
ARC
  8
0
 10
-38.921707
 20
105.854057
 40
3.000000
 50
90.000000
 51
270.000000
  0
ARC
  8
0
 10
-56.421707
 20
120.854050
 40
2.500000
 50
270.000000
 51
90.000000
  0
CIRCLE
  8
0
 10
-56.921707
 20
87.854057
 40
2.500000
  0
CIRCLE
  8
0
 10
-56.921707
 20
113.854057
 40
2.500000
  0
CIRCLE
  8
0
 10
-38.921707
 20
105.854057
 40
2.500000
  0
CIRCLE
  8
0
 10
-39.421707
 20
80.854065
 40
2.250000
  0
CIRCLE
  8
0
 10
-56.421707
 20
120.854050
 40
2.250000
  0
CIRCLE
  8
0
 10
-47.921707
 20
141.354050
 40
1.500000
  0
CIRCLE
  8
0
 10
-47.921707
 20
141.354050
 40
2.299999
  0
ARC
  8
0
 10
-10.921692
 20
106.354034
 40
3.000000
 50
0.000000
 51
0.399688
  0
ARC
  8
0
 10
-10.921692
 20
106.854034
 40
3.000000
 50
0.000000
 51
2.505128
  0
CIRCLE
  8
0
 10
-19.921700
 20
45.354034
 40
2.299999
  0
CIRCLE
  8
0
 10
-19.921700
 20
45.354034
 40
1.500000
  0
CIRCLE
  8
0
 10
-19.921692
 20
156.354034
 40
2.299999
  0
CIRCLE
  8
0
 10
-19.921692
 20
156.354034
 40
1.500000
  0
ARC
  8
0
 10
-10.921692
 20
105.354034
 40
3.000000
 50
0.000000
 51
0.399688
  0
ARC
  8
0
 10
-10.921692
 20
105.854034
 40
3.000000
 50
0.000000
 51
2.505128
  0
ARC
  8
0
 10
-10.921692
 20
105.854034
 40
3.000000
 50
0.000000
 51
2.440372
  0
CIRCLE
  8
0
 10
-28.421692
 20
120.854019
 40
2.250000
  0
ARC
  8
0
 10
-11.421692
 20
80.854034
 40
2.500000
 50
89.999977
 51
270.000000
  0
ARC
  8
0
 10
-28.421692
 20
120.854019
 40
2.500000
 50
270.000000
 51
90.000000
  0
ARC
  8
0
 10
-28.921692
 20
87.854027
 40
3.000000
 50
270.000000
 51
90.000000
  0
ARC
  8
0
 10
-28.921692
 20
113.854027
 40
3.000000
 50
270.000000
 51
90.000000
  0
ARC
  8
0
 10
-10.921692
 20
105.854027
 40
3.000000
 50
89.999985
 51
270.000000
  0
CIRCLE
  8
0
 10
-28.921692
 20
87.854027
 40
2.500000
  0
CIRCLE
  8
0
 10
-28.921692
 20
113.854027
 40
2.500000
  0
CIRCLE
  8
0
 10
-10.921692
 20
105.854027
 40
2.500000
  0
CIRCLE
  8
0
 10
-11.421692
 20
80.854034
 40
2.250000
  0
ARC
  8
0
 62
     4
 10
-40.671677
 20
166.554047
 40
2.000000
 50
90.000000
 51
139.458298
  0
ARC
  8
0
 62
     4
 10
-112.671677
 20
166.554047
 40
2.000000
 50
90.000000
 51
180.000000
  0
ARC
  8
0
 62
     4
 10
-39.171677
 20
166.554047
 40
2.000001
 50
40.541695
 51
90.000000
  0
ARC
  8
0
 62
     4
 10
-96.671677
 20
166.554047
 40
2.000000
 50
90.000000
 51
139.458298
  0
ARC
  8
0
 62
     4
 10
-111.171661
 20
166.554047
 40
2.000000
 50
0.000000
 51
90.000000
  0
ARC
  8
0
 62
     4
 10
-55.171661
 20
166.554047
 40
2.000000
 50
0.000000
 51
90.000000
  0
ARC
  8
0
 62
     4
 10
-56.671677
 20
166.554047
 40
2.000000
 50
90.000000
 51
180.000000
  0
ARC
  8
0
 62
     4
 10
-95.171677
 20
166.554047
 40
2.000001
 50
40.541695
 51
90.000000
  0
ARC
  8
0
 62
     4
 10
-28.671738
 20
20.154053
 40
2.000000
 50
220.541580
 51
270.000000
  0
ARC
  8
0
 62
     4
 10
-11.171677
 20
181.554016
 40
2.000002
 50
40.541679
 51
89.999969
  0
ARC
  8
0
 62
     4
 10
-12.671753
 20
20.154053
 40
2.000000
 50
180.000000
 51
270.000000
  0
ARC
  8
0
 62
     4
 10
-11.171738
 20
20.154053
 40
2.000000
 50
270.000031
 51
0.000000
  0
ARC
  8
0
 62
     4
 10
-27.171738
 20
20.154053
 40
2.000000
 50
270.000000
 51
319.458435
  0
ARC
  8
0
 10
-134.921692
 20
184.854034
 40
1.000000
 50
90.000000
 51
180.000000
  0
ARC
  8
0
 62
     4
 10
-28.671677
 20
181.554016
 40
2.000000
 50
90.000000
 51
180.000000
  0
ARC
  8
0
 62
     4
 10
-27.171661
 20
181.554016
 40
2.000000
 50
0.000000
 51
90.000000
  0
ARC
  8
0
 62
     4
 10
-12.671677
 20
181.554016
 40
2.000000
 50
89.999969
 51
139.458344
  0
ARC
  8
0
 10
-11.171677
 20
166.554047
 40
2.000000
 50
89.999969
 51
95.183670
  0
ARC
  8
0
 62
     4
 10
-68.671677
 20
166.554047
 40
2.000000
 50
90.000000
 51
139.458298
  0
ARC
  8
0
 62
     4
 10
-67.171677
 20
166.554047
 40
2.000001
 50
40.541695
 51
90.000000
  0
ARC
  8
0
 62
     4
 10
-83.171661
 20
166.554047
 40
2.000000
 50
0.000000
 51
90.000000
  0
ARC
  8
0
 62
     4
 10
-84.671677
 20
166.554047
 40
2.000000
 50
90.000000
 51
180.000000
  0
ARC
  8
0
 62
     4
 10
-56.671753
 20
35.154083
 40
1.999998
 50
220.541611
 51
270.000000
  0
ARC
  8
0
 62
     4
 10
-40.671768
 20
35.154083
 40
2.000000
 50
180.000000
 51
270.000000
  0
ARC
  8
0
 62
     4
 10
-39.171753
 20
35.154083
 40
2.000000
 50
270.000000
 51
0.000000
  0
ARC
  8
0
 62
     4
 10
-55.171753
 20
35.154083
 40
2.000000
 50
270.000000
 51
319.458466
  0
ARC
  8
0
 10
39.078278
 20
184.854065
 40
1.000000
 50
0.000000
 51
90.000000
  0
ARC
  8
0
 10
158.685394
 20
81.654030
 40
1.700001
 50
121.466705
 51
180.000000
  0
ARC
  8
0
 10
158.685394
 20
80.054039
 40
1.699997
 50
180.000000
 51
238.532715
  0
ARC
  8
0
 10
159.485413
 20
106.854034
 40
2.000002
 50
118.956017
 51
180.000000
  0
ARC
  8
0
 10
159.485413
 20
104.854019
 40
2.000000
 50
180.000000
 51
241.043976
  0
ARC
  8
0
 62
     4
 10
193.585388
 20
113.854027
 40
5.000006
 50
150.507645
 51
209.492279
  0
ARC
  8
0
 62
     4
 10
189.813568
 20
115.987358
 40
0.666664
 50
90.000000
 51
150.507736
  0
ARC
  8
0
 62
     4
 10
189.813568
 20
111.720695
 40
0.666665
 50
209.492844
 51
270.000000
  0
ARC
  8
0
 62
     4
 10
193.585388
 20
105.854027
 40
5.000006
 50
150.507645
 51
209.492279
  0
ARC
  8
0
 62
     4
 10
189.813568
 20
107.987358
 40
0.666664
 50
90.000000
 51
150.507736
  0
ARC
  8
0
 62
     4
 10
189.813568
 20
103.720695
 40
0.666665
 50
209.492844
 51
270.000000
  0
ARC
  8
0
 62
     4
 10
193.585388
 20
87.854027
 40
5.000006
 50
150.507645
 51
209.492279
  0
ARC
  8
0
 62
     4
 10
189.813568
 20
89.987358
 40
0.666664
 50
90.000000
 51
150.507736
  0
ARC
  8
0
 62
     4
 10
189.813568
 20
85.720695
 40
0.666665
 50
209.492844
 51
270.000000
  0
ARC
  8
0
 62
     4
 10
161.185394
 20
177.854050
 40
1.000000
 50
90.000000
 51
180.000000
  0
ARC
  8
0
 62
     4
 10
187.435394
 20
181.554062
 40
2.000000
 50
90.000000
 51
180.000000
  0
ARC
  8
0
 62
     4
 10
188.935394
 20
181.554062
 40
2.000000
 50
0.000000
 51
90.000000
  0
ARC
  8
0
 62
     4
 10
167.435394
 20
181.554062
 40
2.000000
 50
90.000000
 51
139.458923
  0
ARC
  8
0
 62
     4
 10
168.935394
 20
181.554062
 40
2.000003
 50
40.541080
 51
90.000000
  0
ARC
  8
0
 62
     4
 10
161.185394
 20
160.854050
 40
1.000000
 50
180.000000
 51
270.000000
  0
ARC
  8
0
 62
     4
 10
161.185394
 20
40.854034
 40
1.000000
 50
90.000000
 51
180.000000
  0
ARC
  8
0
 62
     4
 10
188.935394
 20
20.154022
 40
2.000000
 50
270.000000
 51
319.459015
  0
ARC
  8
0
 62
     4
 10
187.435394
 20
20.154022
 40
2.000003
 50
220.541077
 51
270.000000
  0
ARC
  8
0
 62
     4
 10
167.435394
 20
20.154022
 40
2.000000
 50
180.000061
 51
270.000000
  0
ARC
  8
0
 62
     4
 10
161.185394
 20
23.854034
 40
1.000000
 50
179.999893
 51
270.000000
  0
ARC
  8
0
 62
     4
 10
168.935394
 20
20.154022
 40
2.000000
 50
270.000000
 51
0.000000
  0
CIRCLE
  8
0
 62
     2
 10
207.185394
 20
75.854034
 40
4.899999
  0
CIRCLE
  8
0
 10
207.185394
 20
75.854034
 40
4.300000
  0
CIRCLE
  8
0
 62
     2
 10
227.185394
 20
117.854019
 40
6.600000
  0
CIRCLE
  8
0
 62
     2
 10
212.185394
 20
101.854050
 40
6.600000
  0
CIRCLE
  8
0
 62
     2
 10
227.185394
 20
86.854034
 40
6.600000
  0
CIRCLE
  8
0
 10
227.185394
 20
117.854019
 40
5.750000
  0
CIRCLE
  8
0
 10
212.185394
 20
101.854050
 40
5.750000
  0
CIRCLE
  8
0
 10
227.185394
 20
86.854034
 40
5.750000
  0
CIRCLE
  8
0
 62
     2
 10
222.685394
 20
170.854034
 40
10.500000
  0
CIRCLE
  8
0
 10
222.685394
 20
170.854034
 40
9.899999
  0
ARC
  8
0
 10
239.685394
 20
140.854034
 40
1.500000
 50
180.000000
 51
270.000000
  0
ARC
  8
0
 10
237.185394
 20
184.854019
 40
1.000000
 50
0.000000
 51
90.000000
  0
ARC
  8
0
 10
198.185394
 20
184.854034
 40
1.000000
 50
90.000000
 51
180.000000
  0
ARC
  8
0
 10
198.185394
 20
61.354004
 40
1.000000
 50
180.000000
 51
270.000000
  0
ARC
  8
0
 10
16.078293
 20
-95.145966
 40
3.000000
 50
0.000000
 51
2.873162
  0
ARC
  8
0
 10
-111.921722
 20
-115.145966
 40
3.000000
 50
0.000000
 51
90.000000
  0
ARC
  8
0
 10
-95.921722
 20
-95.145966
 40
3.000000
 50
0.000000
 51
2.873160
  0
ARC
  8
0
 10
-95.921722
 20
-95.145966
 40
3.000000
 50
90.000000
 51
270.000000
  0
ARC
  8
0
 10
-111.921722
 20
-115.145966
 40
3.000000
 50
270.000000
 51
0.000000
  0
CIRCLE
  8
0
 10
-95.921722
 20
-95.145966
 40
2.750000
  0
CIRCLE
  8
0
 10
-111.921722
 20
-115.145966
 40
2.750000
  0
CIRCLE
  8
0
 10
-110.921722
 20
-93.645966
 40
2.299999
  0
CIRCLE
  8
0
 10
-96.921722
 20
-116.645966
 40
2.299999
  0
CIRCLE
  8
0
 62
     2
 10
-110.921722
 20
-93.645966
 40
1.500000
  0
CIRCLE
  8
0
 62
     2
 10
-96.921722
 20
-116.645966
 40
1.500000
  0
CIRCLE
  8
0
 10
-110.921722
 20
-93.645966
 40
1.200000
  0
CIRCLE
  8
0
 10
-96.921722
 20
-116.645966
 40
1.200000
  0
ARC
  8
0
 10
-83.921722
 20
-115.145966
 40
3.000000
 50
0.000000
 51
90.000000
  0
ARC
  8
0
 10
-67.921722
 20
-95.145966
 40
3.000000
 50
0.000000
 51
2.873160
  0
ARC
  8
0
 10
-67.921722
 20
-95.145966
 40
3.000000
 50
90.000000
 51
270.000000
  0
ARC
  8
0
 10
-83.921722
 20
-115.145966
 40
3.000000
 50
270.000000
 51
0.000000
  0
CIRCLE
  8
0
 10
-67.921722
 20
-95.145966
 40
2.750000
  0
CIRCLE
  8
0
 10
-83.921722
 20
-115.145966
 40
2.750000
  0
CIRCLE
  8
0
 10
-82.921722
 20
-93.645966
 40
2.299999
  0
CIRCLE
  8
0
 10
-68.921722
 20
-116.645966
 40
2.299999
  0
CIRCLE
  8
0
 62
     2
 10
-82.921722
 20
-93.645966
 40
1.500000
  0
CIRCLE
  8
0
 62
     2
 10
-68.921722
 20
-116.645966
 40
1.500000
  0
CIRCLE
  8
0
 10
-82.921722
 20
-93.645966
 40
1.200000
  0
CIRCLE
  8
0
 10
-68.921722
 20
-116.645966
 40
1.200000
  0
ARC
  8
0
 10
-138.921661
 20
-163.145966
 40
3.000000
 50
270.000000
 51
0.000000
  0
ARC
  8
0
 10
-146.421661
 20
-168.145966
 40
2.000000
 50
90.000000
 51
180.000000
  0
ARC
  8
0
 10
-133.921661
 20
-126.145958
 40
2.000000
 50
90.000000
 51
180.000000
  0
CIRCLE
  8
0
 10
-122.921661
 20
-145.145966
 40
3.500000
  0
CIRCLE
  8
0
 10
-122.921661
 20
-145.145966
 40
1.799999
  0
ARC
  8
0
 10
43.078278
 20
-163.145966
 40
3.000000
 50
180.000000
 51
269.999939
  0
ARC
  8
0
 10
50.578278
 20
-168.145966
 40
2.000000
 50
0.000000
 51
90.000000
  0
ARC
  8
0
 10
38.078278
 20
-126.145958
 40
2.000000
 50
0.000000
 51
90.000000
  0
CIRCLE
  8
0
 62
     2
 10
-51.921692
 20
-132.645966
 40
6.499999
  0
CIRCLE
  8
0
 62
     2
 10
-48.921692
 20
-158.645966
 40
6.499999
  0
CIRCLE
  8
0
 10
-51.921692
 20
-132.645966
 40
6.000000
  0
CIRCLE
  8
0
 10
-48.921692
 20
-158.645966
 40
6.000000
  0
CIRCLE
  8
0
 62
     2
 10
-23.921707
 20
-132.645966
 40
6.499999
  0
CIRCLE
  8
0
 62
     2
 10
-20.921707
 20
-158.645966
 40
6.499999
  0
CIRCLE
  8
0
 10
-23.921707
 20
-132.645966
 40
6.000000
  0
CIRCLE
  8
0
 10
-20.921707
 20
-158.645966
 40
6.000000
  0
CIRCLE
  8
0
 10
17.078308
 20
-145.145966
 40
3.500000
  0
CIRCLE
  8
0
 10
17.078308
 20
-145.145966
 40
1.799999
  0
CIRCLE
  8
0
 62
     2
 10
4.078308
 20
-132.645966
 40
6.499999
  0
CIRCLE
  8
0
 62
     2
 10
7.078308
 20
-158.645966
 40
6.499999
  0
CIRCLE
  8
0
 10
4.078308
 20
-132.645966
 40
6.000000
  0
CIRCLE
  8
0
 10
7.078308
 20
-158.645966
 40
6.000000
  0
CIRCLE
  8
0
 62
     2
 10
-79.921661
 20
-132.645966
 40
6.499999
  0
CIRCLE
  8
0
 62
     2
 10
-76.921661
 20
-158.645966
 40
6.499999
  0
CIRCLE
  8
0
 10
-79.921661
 20
-132.645966
 40
6.000000
  0
CIRCLE
  8
0
 10
-76.921661
 20
-158.645966
 40
6.000000
  0
CIRCLE
  8
0
 62
     2
 10
-107.921677
 20
-132.645966
 40
6.499999
  0
CIRCLE
  8
0
 62
     2
 10
-104.921677
 20
-158.645966
 40
6.499999
  0
CIRCLE
  8
0
 10
-107.921677
 20
-132.645966
 40
6.000000
  0
CIRCLE
  8
0
 10
-104.921677
 20
-158.645966
 40
6.000000
  0
CIRCLE
  8
0
 10
-10.921677
 20
-145.145966
 40
3.500000
  0
CIRCLE
  8
0
 10
-10.921677
 20
-145.145966
 40
1.799999
  0
CIRCLE
  8
0
 10
-94.921677
 20
-145.145966
 40
1.799999
  0
CIRCLE
  8
0
 10
-94.921677
 20
-145.145966
 40
3.500000
  0
CIRCLE
  8
0
 10
-66.921677
 20
-145.145966
 40
1.799999
  0
CIRCLE
  8
0
 10
-66.921677
 20
-145.145966
 40
3.500000
  0
CIRCLE
  8
0
 10
-38.921677
 20
-145.145966
 40
1.799999
  0
CIRCLE
  8
0
 10
-38.921677
 20
-145.145966
 40
3.500000
  0
ARC
  8
0
 62
     4
 10
-0.921707
 20
-120.545959
 40
5.000001
 50
55.944187
 51
124.055824
  0
ARC
  8
0
 62
     4
 10
17.078293
 20
-120.545959
 40
5.000001
 50
55.944195
 51
124.055824
  0
ARC
  8
0
 62
     4
 10
-55.921707
 20
-115.145966
 40
3.000000
 50
0.000000
 51
90.000000
  0
ARC
  8
0
 62
     4
 10
-39.921707
 20
-95.145966
 40
3.000000
 50
180.000000
 51
270.000000
  0
ARC
  8
0
 62
     4
 10
-55.921707
 20
-115.145966
 40
3.000000
 50
270.000000
 51
0.000000
  0
CIRCLE
  8
0
 62
     4
 10
-39.921707
 20
-95.145966
 40
2.750000
  0
CIRCLE
  8
0
 62
     4
 10
-55.921707
 20
-115.145966
 40
2.750000
  0
ARC
  8
0
 62
     4
 10
-27.921692
 20
-115.145966
 40
3.000000
 50
0.000000
 51
90.000000
  0
ARC
  8
0
 62
     4
 10
-11.921692
 20
-95.145966
 40
3.000000
 50
180.000000
 51
270.000031
  0
ARC
  8
0
 62
     4
 10
-27.921692
 20
-115.145966
 40
3.000000
 50
270.000000
 51
0.000000
  0
CIRCLE
  8
0
 62
     4
 10
-11.921692
 20
-95.145966
 40
2.750000
  0
CIRCLE
  8
0
 62
     4
 10
-27.921692
 20
-115.145966
 40
2.750000
  0
ARC
  8
0
 10
331.792450
 20
-118.145981
 40
2.500000
 50
90.000000
 51
180.000000
  0
ARC
  8
0
 10
331.792450
 20
-118.145981
 40
2.500000
 50
180.000000
 51
270.000000
  0
ARC
  8
0
 10
334.792419
 20
-177.245972
 40
2.000000
 50
0.000000
 51
90.000000
  0
ARC
  8
0
 10
331.792450
 20
-182.145996
 40
2.500000
 50
90.000000
 51
180.000000
  0
ARC
  8
0
 10
331.792450
 20
-182.145996
 40
2.500000
 50
180.000000
 51
270.000000
  0
ARC
  8
0
 10
334.792419
 20
-187.645981
 40
2.000000
 50
270.000000
 51
0.000000
  0
ARC
  8
0
 10
326.292450
 20
-173.246002
 40
2.000000
 50
180.000000
 51
270.000000
  0
ARC
  8
0
 10
334.792419
 20
-112.645996
 40
2.000000
 50
0.000000
 51
90.000000
  0
ARC
  8
0
 10
334.792419
 20
-123.045975
 40
2.000000
 50
270.000000
 51
0.000000
  0
ARC
  8
0
 10
326.292450
 20
-127.045975
 40
2.000000
 50
90.000000
 51
180.000000
  0
ARC
  8
0
 10
140.792511
 20
-118.145981
 40
2.500000
 50
0.000000
 51
90.000000
  0
ARC
  8
0
 10
140.792511
 20
-118.145981
 40
2.500000
 50
270.000000
 51
0.000000
  0
ARC
  8
0
 10
137.792511
 20
-176.645981
 40
2.000000
 50
90.000000
 51
180.000000
  0
ARC
  8
0
 10
140.792511
 20
-182.145996
 40
2.500000
 50
0.000000
 51
90.000000
  0
ARC
  8
0
 10
140.792511
 20
-182.145996
 40
2.500000
 50
270.000000
 51
0.000000
  0
ARC
  8
0
 10
137.792511
 20
-187.645981
 40
2.000000
 50
180.000000
 51
270.000000
  0
ARC
  8
0
 10
146.292480
 20
-172.645996
 40
2.000000
 50
270.000000
 51
0.000000
  0
ARC
  8
0
 10
137.792511
 20
-112.645996
 40
2.000000
 50
90.000000
 51
180.000000
  0
ARC
  8
0
 10
137.792511
 20
-123.645988
 40
2.000000
 50
180.000000
 51
270.000000
  0
ARC
  8
0
 10
146.292480
 20
-127.645988
 40
2.000000
 50
0.000000
 51
90.000000
  0
CIRCLE
  8
0
 10
284.792480
 20
-159.645996
 40
4.300000
  0
CIRCLE
  8
0
 62
     2
 10
284.792480
 20
-159.645996
 40
4.899999
  0
CIRCLE
  8
0
 10
284.792480
 20
-137.645996
 40
4.300000
  0
CIRCLE
  8
0
 62
     2
 10
284.792480
 20
-137.645996
 40
4.899999
  0
CIRCLE
  8
0
 10
298.792480
 20
-126.645973
 40
4.300000
  0
CIRCLE
  8
0
 62
     2
 10
298.792480
 20
-126.645973
 40
4.899999
  0
CIRCLE
  8
0
 10
298.792480
 20
-148.645966
 40
4.300000
  0
CIRCLE
  8
0
 62
     2
 10
298.792480
 20
-148.645966
 40
4.899999
  0
CIRCLE
  8
0
 10
298.792480
 20
-173.645981
 40
4.300000
  0
CIRCLE
  8
0
 62
     2
 10
298.792480
 20
-173.645981
 40
4.899999
  0
CIRCLE
  8
0
 10
172.792480
 20
-159.645996
 40
4.300000
  0
CIRCLE
  8
0
 62
     2
 10
172.792480
 20
-159.645996
 40
4.899999
  0
CIRCLE
  8
0
 10
172.792480
 20
-137.645996
 40
4.300000
  0
CIRCLE
  8
0
 62
     2
 10
172.792480
 20
-137.645996
 40
4.899999
  0
CIRCLE
  8
0
 10
186.792480
 20
-126.645973
 40
4.300000
  0
CIRCLE
  8
0
 62
     2
 10
186.792480
 20
-126.645973
 40
4.899999
  0
CIRCLE
  8
0
 10
186.792480
 20
-148.645966
 40
4.300000
  0
CIRCLE
  8
0
 62
     2
 10
186.792480
 20
-148.645966
 40
4.899999
  0
CIRCLE
  8
0
 10
186.792480
 20
-173.645981
 40
4.300000
  0
CIRCLE
  8
0
 62
     2
 10
186.792480
 20
-173.645981
 40
4.899999
  0
CIRCLE
  8
0
 10
200.792480
 20
-159.645996
 40
4.300000
  0
CIRCLE
  8
0
 62
     2
 10
200.792480
 20
-159.645996
 40
4.899999
  0
CIRCLE
  8
0
 10
200.792480
 20
-137.645996
 40
4.300000
  0
CIRCLE
  8
0
 62
     2
 10
200.792480
 20
-137.645996
 40
4.899999
  0
CIRCLE
  8
0
 10
214.792480
 20
-126.645973
 40
4.300000
  0
CIRCLE
  8
0
 62
     2
 10
214.792480
 20
-126.645973
 40
4.899999
  0
CIRCLE
  8
0
 10
214.792480
 20
-148.645966
 40
4.300000
  0
CIRCLE
  8
0
 62
     2
 10
214.792480
 20
-148.645966
 40
4.899999
  0
CIRCLE
  8
0
 10
214.792480
 20
-173.645981
 40
4.300000
  0
CIRCLE
  8
0
 62
     2
 10
214.792480
 20
-173.645981
 40
4.899999
  0
CIRCLE
  8
0
 10
228.792480
 20
-159.645996
 40
4.300000
  0
CIRCLE
  8
0
 62
     2
 10
228.792480
 20
-159.645996
 40
4.899999
  0
CIRCLE
  8
0
 10
228.792480
 20
-137.645996
 40
4.300000
  0
CIRCLE
  8
0
 62
     2
 10
228.792480
 20
-137.645996
 40
4.899999
  0
CIRCLE
  8
0
 10
242.792480
 20
-126.645973
 40
4.300000
  0
CIRCLE
  8
0
 62
     2
 10
242.792480
 20
-126.645973
 40
4.899999
  0
CIRCLE
  8
0
 10
242.792480
 20
-148.645966
 40
4.300000
  0
CIRCLE
  8
0
 62
     2
 10
242.792480
 20
-148.645966
 40
4.899999
  0
CIRCLE
  8
0
 10
242.792480
 20
-173.645981
 40
4.300000
  0
CIRCLE
  8
0
 62
     2
 10
242.792480
 20
-173.645981
 40
4.899999
  0
CIRCLE
  8
0
 10
256.792480
 20
-159.645996
 40
4.300000
  0
CIRCLE
  8
0
 62
     2
 10
256.792480
 20
-159.645996
 40
4.899999
  0
CIRCLE
  8
0
 10
256.792480
 20
-137.645996
 40
4.300000
  0
CIRCLE
  8
0
 62
     2
 10
256.792480
 20
-137.645996
 40
4.899999
  0
CIRCLE
  8
0
 10
270.792480
 20
-126.645973
 40
4.300000
  0
CIRCLE
  8
0
 62
     2
 10
270.792480
 20
-126.645973
 40
4.899999
  0
CIRCLE
  8
0
 10
270.792480
 20
-148.645966
 40
4.300000
  0
CIRCLE
  8
0
 62
     2
 10
270.792480
 20
-148.645966
 40
4.899999
  0
CIRCLE
  8
0
 10
270.792480
 20
-173.645981
 40
4.300000
  0
CIRCLE
  8
0
 62
     2
 10
270.792480
 20
-173.645981
 40
4.899999
  0
ARC
  8
0
 10
199.542465
 20
-83.445953
 40
2.000001
 50
84.816414
 51
90.000000
  0
ARC
  8
0
 10
149.292511
 20
-65.145935
 40
1.000000
 50
90.000000
 51
180.000000
  0
ARC
  8
0
 10
323.292450
 20
-65.145935
 40
1.000000
 50
0.000000
 51
90.000000
  0
TEXT
  8
0
 10
-347.285309
 20
256.649994
 40
9.000000
  1
240MAW
 50
0.000000
 41
1.052632
 51
0.000000
  7
STANDARD
  0
TEXT
  8
0
 10
242.014816
 20
-274.500000
 40
12.500000
  1
KOGANEI CORP.
 50
0.000000
 41
1.052632
 51
0.000000
  7
STANDARD
  0
TEXT
  8
0
 10
251.264664
 20
256.649994
 40
9.000000
  1
DATE: NOV ,1993
 50
0.000000
 41
1.052632
 51
0.000000
  7
STANDARD
  0
TEXT
  8
0
 10
-384.785309
 20
209.149994
 40
9.000000
  1
MODEL:240M5BW
 50
0.000000
 41
1.052632
 51
0.000000
  7
STANDARD
  0
TEXT
  8
0
 10
-342.849701
 20
-123.919998
 40
6.300000
  1
TYPE
 50
0.000000
 41
1.052632
 51
0.000000
  7
STANDARD
  0
TEXT
  8
0
 10
-375.249420
 20
-138.919998
 40
6.300000
  1
240M2AW/240M2BW
 50
0.000000
 41
1.052632
 51
0.000000
  7
STANDARD
  0
TEXT
  8
0
 10
-375.249420
 20
-153.919998
 40
6.300000
  1
240M3AW/240M3BW
 50
0.000000
 41
1.052632
 51
0.000000
  7
STANDARD
  0
TEXT
  8
0
 10
-375.249420
 20
-168.919998
 40
6.300000
  1
240M4AW/240M4BW
 50
0.000000
 41
1.052632
 51
0.000000
  7
STANDARD
  0
TEXT
  8
0
 10
-375.249420
 20
-183.919998
 40
6.300000
  1
240M5AW/240M5BW
 50
0.000000
 41
1.052632
 51
0.000000
  7
STANDARD
  0
TEXT
  8
0
 10
-375.249420
 20
-198.919998
 40
6.300000
  1
240M6AW/240M6BW
 50
0.000000
 41
1.052632
 51
0.000000
  7
STANDARD
  0
TEXT
  8
0
 10
-375.249420
 20
-213.919998
 40
6.300000
  1
240M7AW/240M7BW
 50
0.000000
 41
1.052632
 51
0.000000
  7
STANDARD
  0
TEXT
  8
0
 10
-375.249420
 20
-228.919998
 40
6.300000
  1
240M8AW/240M8BW
 50
0.000000
 41
1.052632
 51
0.000000
  7
STANDARD
  0
TEXT
  8
0
 10
-375.249420
 20
-243.919998
 40
6.300000
  1
240M9AW/240M9BW
 50
0.000000
 41
1.052632
 51
0.000000
  7
STANDARD
  0
TEXT
  8
0
 10
-387.849426
 20
-258.920013
 40
6.300000
  1
240M10AW/240M10BW
 50
0.000000
 41
1.052632
 51
0.000000
  7
STANDARD
  0
TEXT
  8
0
 10
-211.249695
 20
-123.919998
 40
6.300000
  1
L
 50
0.000000
 41
1.052632
 51
0.000000
  7
STANDARD
  0
TEXT
  8
0
 10
-256.249695
 20
-123.919998
 40
6.300000
  1
P
 50
0.000000
 41
1.052632
 51
0.000000
  7
STANDARD
  0
TEXT
  8
0
 10
-217.549698
 20
-138.919998
 40
6.300000
  1
117
 50
0.000000
 41
1.052632
 51
0.000000
  7
STANDARD
  0
TEXT
  8
0
 10
-217.549698
 20
-153.919998
 40
6.300000
  1
145
 50
0.000000
 41
1.052632
 51
0.000000
  7
STANDARD
  0
TEXT
  8
0
 10
-217.549698
 20
-168.919998
 40
6.300000
  1
173
 50
0.000000
 41
1.052632
 51
0.000000
  7
STANDARD
  0
TEXT
  8
0
 10
-217.549698
 20
-183.919998
 40
6.300000
  1
201
 50
0.000000
 41
1.052632
 51
0.000000
  7
STANDARD
  0
TEXT
  8
0
 10
-217.549698
 20
-198.919998
 40
6.300000
  1
229
 50
0.000000
 41
1.052632
 51
0.000000
  7
STANDARD
  0
TEXT
  8
0
 10
-217.549698
 20
-213.919998
 40
6.300000
  1
257
 50
0.000000
 41
1.052632
 51
0.000000
  7
STANDARD
  0
TEXT
  8
0
 10
-217.549698
 20
-228.919998
 40
6.300000
  1
285
 50
0.000000
 41
1.052632
 51
0.000000
  7
STANDARD
  0
TEXT
  8
0
 10
-217.549698
 20
-243.919998
 40
6.300000
  1
313
 50
0.000000
 41
1.052632
 51
0.000000
  7
STANDARD
  0
TEXT
  8
0
 10
-217.549698
 20
-258.920013
 40
6.300000
  1
341
 50
0.000000
 41
1.052632
 51
0.000000
  7
STANDARD
  0
TEXT
  8
0
 10
-262.549713
 20
-138.919998
 40
6.300000
  1
107
 50
0.000000
 41
1.052632
 51
0.000000
  7
STANDARD
  0
TEXT
  8
0
 10
-262.549713
 20
-153.919998
 40
6.300000
  1
135
 50
0.000000
 41
1.052632
 51
0.000000
  7
STANDARD
  0
TEXT
  8
0
 10
-262.549713
 20
-168.919998
 40
6.300000
  1
163
 50
0.000000
 41
1.052632
 51
0.000000
  7
STANDARD
  0
TEXT
  8
0
 10
-262.549713
 20
-183.919998
 40
6.300000
  1
191
 50
0.000000
 41
1.052632
 51
0.000000
  7
STANDARD
  0
TEXT
  8
0
 10
-262.549713
 20
-198.919998
 40
6.300000
  1
219
 50
0.000000
 41
1.052632
 51
0.000000
  7
STANDARD
  0
TEXT
  8
0
 10
-262.549713
 20
-213.919998
 40
6.300000
  1
247
 50
0.000000
 41
1.052632
 51
0.000000
  7
STANDARD
  0
TEXT
  8
0
 10
-262.549713
 20
-228.919998
 40
6.300000
  1
275
 50
0.000000
 41
1.052632
 51
0.000000
  7
STANDARD
  0
TEXT
  8
0
 10
-262.549713
 20
-243.919998
 40
6.300000
  1
303
 50
0.000000
 41
1.052632
 51
0.000000
  7
STANDARD
  0
TEXT
  8
0
 10
-262.549713
 20
-258.920013
 40
6.300000
  1
331
 50
0.000000
 41
1.052632
 51
0.000000
  7
STANDARD
  0
TEXT
  8
0
 10
-329.349701
 20
-108.919998
 40
6.300000
  1
DIMENSION LIST
 50
0.000000
 41
1.052632
 51
0.000000
  7
STANDARD
  0
TEXT
  8
0
 10
-384.785309
 20
224.149994
 40
9.000000
  1
MODEL:240M5AW
 50
0.000000
 41
1.052632
 51
0.000000
  7
STANDARD
  0
TEXT
  8
0
 10
265.077423
 20
-210.895508
 40
6.300000
  1
(240M5BW)
 50
0.000000
 41
1.052632
 51
0.000000
  7
STANDARD
  0
TEXT
  8
0
 10
217.935394
 20
73.247002
 40
2.500000
  1
PR
 50
90.000000
 41
1.052632
 51
0.000000
  7
STANDARD
  0
TEXT
  8
0
 10
239.935394
 20
115.246986
 40
2.500000
  1
R1
 50
90.000000
 41
1.052632
 51
0.000000
  7
STANDARD
  0
TEXT
  8
0
 10
239.935394
 20
84.247002
 40
2.500000
  1
R2
 50
90.000000
 41
1.052632
 51
0.000000
  7
STANDARD
  0
TEXT
  8
0
 10
224.935394
 20
100.496986
 40
2.500000
  1
P
 50
90.000000
 41
1.052632
 51
0.000000
  7
STANDARD
  0
TEXT
  8
0
 10
-100.428535
 20
-136.235413
 40
3.200000
  1
B
 50
0.000000
 41
1.052632
 51
0.000000
  7
STANDARD
  0
TEXT
  8
0
 10
-113.822334
 20
-164.775238
 40
3.200000
  1
A
 50
0.000000
 41
1.052632
 51
0.000000
  7
STANDARD
  0
TEXT
  8
0
 10
-72.428520
 20
-136.235413
 40
3.200000
  1
B
 50
0.000000
 41
1.052632
 51
0.000000
  7
STANDARD
  0
TEXT
  8
0
 10
-85.822319
 20
-164.775238
 40
3.200000
  1
A
 50
0.000000
 41
1.052632
 51
0.000000
  7
STANDARD
  0
TEXT
  8
0
 10
-57.822350
 20
-164.775238
 40
3.200000
  1
A
 50
0.000000
 41
1.052632
 51
0.000000
  7
STANDARD
  0
TEXT
  8
0
 10
-44.428551
 20
-136.235413
 40
3.200000
  1
B
 50
0.000000
 41
1.052632
 51
0.000000
  7
STANDARD
  0
TEXT
  8
0
 10
-29.822365
 20
-164.775238
 40
3.200000
  1
A
 50
0.000000
 41
1.052632
 51
0.000000
  7
STANDARD
  0
TEXT
  8
0
 10
-16.428566
 20
-136.235413
 40
3.200000
  1
B
 50
0.000000
 41
1.052632
 51
0.000000
  7
STANDARD
  0
TEXT
  8
0
 10
-1.822351
 20
-164.775238
 40
3.200000
  1
A
 50
0.000000
 41
1.052632
 51
0.000000
  7
STANDARD
  0
TEXT
  8
0
 10
11.571448
 20
-136.235413
 40
3.200000
  1
B
 50
0.000000
 41
1.052632
 51
0.000000
  7
STANDARD
  0
TEXT
  8
0
 10
304.267883
 20
-120.279045
 40
1.599999
  1
R1
 50
90.000000
 41
1.052631
 51
0.000000
  7
STANDARD
  0
TEXT
  8
0
 10
281.129242
 20
-170.048981
 40
1.599999
  1
R2
 50
90.000000
 41
1.052631
 51
0.000000
  7
STANDARD
  0
TEXT
  8
0
 10
281.129242
 20
-129.520355
 40
1.599999
  1
A
 50
90.000000
 41
1.052631
 51
0.000000
  7
STANDARD
  0
TEXT
  8
0
 10
304.267853
 20
-166.411194
 40
1.599999
  1
B
 50
90.000000
 41
1.052631
 51
0.000000
  7
STANDARD
  0
TEXT
  8
0
 10
304.572449
 20
-158.116211
 40
1.599999
  1
P
 50
90.000000
 41
1.052631
 51
0.000000
  7
STANDARD
  0
TEXT
  8
0
 10
169.129242
 20
-170.048981
 40
1.599999
  1
R2
 50
90.000000
 41
1.052631
 51
0.000000
  7
STANDARD
  0
TEXT
  8
0
 10
169.129242
 20
-129.520355
 40
1.599999
  1
A
 50
90.000000
 41
1.052631
 51
0.000000
  7
STANDARD
  0
TEXT
  8
0
 10
192.267883
 20
-120.279045
 40
1.599999
  1
R1
 50
90.000000
 41
1.052631
 51
0.000000
  7
STANDARD
  0
TEXT
  8
0
 10
192.267853
 20
-166.411194
 40
1.599999
  1
B
 50
90.000000
 41
1.052631
 51
0.000000
  7
STANDARD
  0
TEXT
  8
0
 10
192.572449
 20
-158.116211
 40
1.599999
  1
P
 50
90.000000
 41
1.052631
 51
0.000000
  7
STANDARD
  0
TEXT
  8
0
 10
197.129242
 20
-170.048981
 40
1.599999
  1
R2
 50
90.000000
 41
1.052631
 51
0.000000
  7
STANDARD
  0
TEXT
  8
0
 10
197.129242
 20
-129.520355
 40
1.599999
  1
A
 50
90.000000
 41
1.052631
 51
0.000000
  7
STANDARD
  0
TEXT
  8
0
 10
220.267883
 20
-120.279045
 40
1.599999
  1
R1
 50
90.000000
 41
1.052631
 51
0.000000
  7
STANDARD
  0
TEXT
  8
0
 10
220.267853
 20
-166.411194
 40
1.599999
  1
B
 50
90.000000
 41
1.052631
 51
0.000000
  7
STANDARD
  0
TEXT
  8
0
 10
220.572449
 20
-158.116211
 40
1.599999
  1
P
 50
90.000000
 41
1.052631
 51
0.000000
  7
STANDARD
  0
TEXT
  8
0
 10
225.129242
 20
-170.048981
 40
1.599999
  1
R2
 50
90.000000
 41
1.052631
 51
0.000000
  7
STANDARD
  0
TEXT
  8
0
 10
225.129242
 20
-129.520355
 40
1.599999
  1
A
 50
90.000000
 41
1.052631
 51
0.000000
  7
STANDARD
  0
TEXT
  8
0
 10
248.267883
 20
-120.279045
 40
1.599999
  1
R1
 50
90.000000
 41
1.052631
 51
0.000000
  7
STANDARD
  0
TEXT
  8
0
 10
248.267853
 20
-166.411194
 40
1.599999
  1
B
 50
90.000000
 41
1.052631
 51
0.000000
  7
STANDARD
  0
TEXT
  8
0
 10
248.572449
 20
-158.116211
 40
1.599999
  1
P
 50
90.000000
 41
1.052631
 51
0.000000
  7
STANDARD
  0
TEXT
  8
0
 10
253.129242
 20
-170.048981
 40
1.599999
  1
R2
 50
90.000000
 41
1.052631
 51
0.000000
  7
STANDARD
  0
TEXT
  8
0
 10
253.129242
 20
-129.520355
 40
1.599999
  1
A
 50
90.000000
 41
1.052631
 51
0.000000
  7
STANDARD
  0
TEXT
  8
0
 10
276.267883
 20
-120.279045
 40
1.599999
  1
R1
 50
90.000000
 41
1.052631
 51
0.000000
  7
STANDARD
  0
TEXT
  8
0
 10
276.267853
 20
-166.411194
 40
1.599999
  1
B
 50
90.000000
 41
1.052631
 51
0.000000
  7
STANDARD
  0
TEXT
  8
0
 10
276.572449
 20
-158.116211
 40
1.599999
  1
P
 50
90.000000
 41
1.052631
 51
0.000000
  7
STANDARD
  0
TEXT
  8
0
 62
     2
 10
-51.719936
 20
237.550735
 40
6.300000
  1
L
 50
359.899994
 41
1.052632
 51
0.000000
  7
STANDARD
  0
LINE
  8
0
 62
     2
 10
-148.421661
 20
236.544113
 11
52.578278
 21
236.544113
  0
LINE
  8
0
 62
     2
 10
-148.421661
 20
236.544113
 11
-145.523880
 21
237.320572
  0
LINE
  8
0
 62
     2
 10
-148.421661
 20
236.544113
 11
-145.523880
 21
235.767654
  0
LINE
  8
0
 62
     2
 10
52.578278
 20
236.544113
 11
49.680500
 21
235.767654
  0
LINE
  8
0
 62
     2
 10
52.578278
 20
236.544113
 11
49.680500
 21
237.320572
  0
LINE
  8
0
 62
     2
 10
-148.421661
 20
137.354050
 11
-148.421661
 21
238.044113
  0
LINE
  8
0
 62
     2
 10
52.578278
 20
137.354050
 11
52.578278
 21
238.044113
  0
TEXT
  8
0
 62
     2
 10
-51.721691
 20
222.544113
 40
6.300000
  1
P
 50
0.000000
 41
1.052632
 51
0.000000
  7
STANDARD
  0
LINE
  8
0
 62
     2
 10
-143.421661
 20
221.544113
 11
47.578278
 21
221.544113
  0
LINE
  8
0
 62
     2
 10
-143.421661
 20
221.544113
 11
-140.523880
 21
222.320572
  0
LINE
  8
0
 62
     2
 10
-143.421661
 20
221.544113
 11
-140.523880
 21
220.767654
  0
LINE
  8
0
 62
     2
 10
47.578278
 20
221.544113
 11
44.680500
 21
220.767654
  0
LINE
  8
0
 62
     2
 10
47.578278
 20
221.544113
 11
44.680500
 21
222.320572
  0
LINE
  8
0
 62
     2
 10
-143.421661
 20
137.725723
 11
-143.421661
 21
223.044113
  0
LINE
  8
0
 62
     2
 10
47.578278
 20
137.725723
 11
47.578278
 21
223.044113
  0
TEXT
  8
0
 62
     2
 10
-159.094391
 20
222.544113
 40
6.300000
  1
5
 50
0.000000
 41
1.052632
 51
0.000000
  7
STANDARD
  0
LINE
  8
0
 62
     2
 10
-148.421661
 20
221.544113
 11
-157.544388
 21
221.544113
  0
LINE
  8
0
 62
     2
 10
-143.421661
 20
221.544113
 11
-148.421661
 21
221.544113
  0
LINE
  8
0
 62
     2
 10
-148.421661
 20
221.544113
 11
-151.319443
 21
220.767654
  0
LINE
  8
0
 62
     2
 10
-148.421661
 20
221.544113
 11
-151.319443
 21
222.320572
  0
LINE
  8
0
 62
     2
 10
-148.421661
 20
221.544113
 11
-154.421661
 21
221.544113
  0
LINE
  8
0
 62
     2
 10
-143.421661
 20
137.725723
 11
-143.421661
 21
223.044113
  0
LINE
  8
0
 62
     2
 10
-148.421661
 20
137.354050
 11
-148.421661
 21
223.044113
  0
TEXT
  8
0
 62
     2
 10
57.382908
 20
222.550735
 40
6.300000
  1
5
 50
359.899994
 41
1.052632
 51
0.000000
  7
STANDARD
  0
LINE
  8
0
 62
     2
 10
52.578278
 20
221.544113
 11
63.431152
 21
221.544113
  0
LINE
  8
0
 62
     2
 10
47.578278
 20
221.544113
 11
52.578278
 21
221.544113
  0
LINE
  8
0
 62
     2
 10
52.578278
 20
221.544113
 11
55.476055
 21
222.320572
  0
LINE
  8
0
 62
     2
 10
52.578278
 20
221.544113
 11
55.476055
 21
220.767654
  0
LINE
  8
0
 62
     2
 10
52.578278
 20
221.544113
 11
58.578278
 21
221.544113
  0
LINE
  8
0
 62
     2
 10
47.578278
 20
137.725723
 11
47.578278
 21
223.044113
  0
LINE
  8
0
 62
     2
 10
52.578278
 20
137.354050
 11
52.578278
 21
223.044113
  0
LINE
  8
0
 62
     2
 10
-103.921722
 20
-84.145966
 11
-113.921715
 21
-66.825455
  0
LINE
  8
0
 62
     2
 10
-113.921715
 20
-66.825455
 11
-166.940857
 21
-66.825455
  0
LINE
  8
0
 62
     2
 10
-103.921722
 20
-84.145966
 11
-104.698181
 21
-81.248184
  0
LINE
  8
0
 62
     2
 10
-103.921722
 20
-84.145966
 11
-106.043045
 21
-82.024643
  0
TEXT
  8
0
 62
     2
 10
-166.690857
 20
-65.825455
 40
6.300000
  1
W240-4E1
 50
0.000000
 41
1.052632
 51
0.000000
  7
STANDARD
  0
LINE
  8
0
 62
     2
 10
-75.921730
 20
-84.145973
 11
-93.421722
 21
-53.835075
  0
LINE
  8
0
 62
     2
 10
-93.421722
 20
-53.835075
 11
-146.452454
 21
-53.835072
  0
LINE
  8
0
 62
     2
 10
-75.921730
 20
-84.145973
 11
-76.698189
 21
-81.248192
  0
LINE
  8
0
 62
     2
 10
-75.921730
 20
-84.145973
 11
-78.043053
 21
-82.024651
  0
TEXT
  8
0
 62
     2
 10
-146.202454
 20
-52.835072
 40
6.300000
  1
W240-4E1
 50
0.000000
 41
1.052632
 51
0.000000
  7
STANDARD
  0
LINE
  8
0
 62
     2
 10
-19.921692
 20
-84.145966
 11
-9.921690
 21
-66.825455
  0
LINE
  8
0
 62
     2
 10
-9.921690
 20
-66.825455
 11
43.222488
 21
-66.825455
  0
LINE
  8
0
 62
     2
 10
-19.921692
 20
-84.145966
 11
-17.800371
 21
-82.024643
  0
LINE
  8
0
 62
     2
 10
-19.921692
 20
-84.145966
 11
-19.145235
 21
-81.248192
  0
TEXT
  8
0
 62
     2
 10
-8.726952
 20
-65.825455
 40
6.300000
  1
W243-4E2
 50
0.000000
 41
1.052632
 51
0.000000
  7
STANDARD
  0
LINE
  8
0
 62
     2
 10
-47.921707
 20
-84.145966
 11
-30.421703
 21
-53.835079
  0
LINE
  8
0
 62
     2
 10
-30.421703
 20
-53.835079
 11
23.010952
 21
-53.835079
  0
LINE
  8
0
 62
     2
 10
-47.921707
 20
-84.145966
 11
-45.800388
 21
-82.024643
  0
LINE
  8
0
 62
     2
 10
-47.921707
 20
-84.145966
 11
-47.145248
 21
-81.248192
  0
TEXT
  8
0
 62
     2
 10
-28.938486
 20
-52.835079
 40
6.300000
  1
W240-4E2
 50
0.000000
 41
1.052632
 51
0.000000
  7
STANDARD
  0
LINE
  8
0
 62
     2
 10
8.078291
 20
-118.645966
 11
18.078297
 21
-101.325439
  0
LINE
  8
0
 62
     2
 10
18.078297
 20
-101.325439
 11
39.686394
 21
-101.325455
  0
LINE
  8
0
 62
     2
 10
8.078291
 20
-118.645966
 11
10.199611
 21
-116.524643
  0
LINE
  8
0
 62
     2
 10
8.078291
 20
-118.645966
 11
8.854748
 21
-115.748192
  0
TEXT
  8
0
 62
     2
 10
19.236954
 20
-100.325455
 40
6.300000
  1
-BP
 50
0.000000
 41
1.052632
 51
0.000000
  7
STANDARD
  0
ENDSEC
  0
EOF
