  0
SECTION
  2
HEADER
  0
ENDSEC
  0
SECTION
  2
TABLES
  0
TABLE
  2
LTYPE
 70
     4
  0
LTYPE
  2
CONTINUOUS
 70
    64
  3
Solid line
 72
    65
 73
     0
 40
0.000000
  0
LTYPE
  2
DASHED
 70
    64
  3
__ __ __ __ __ __ __ __ __ __ __ __ __ __ __
 72
    65
 73
     2
 40
3.500000
 49
2.000000
 49
-1.500000
  0
LTYPE
  2
CENTER
 70
    64
  3
____ _ ____ _ ____ _ ____ _ ____ _ ____ _ ____
 72
    65
 73
     4
 40
17.500000
 49
13.000000
 49
-1.500000
 49
1.500000
 49
-1.500000
  0
LTYPE
  2
PHANTOM
 70
    64
  3
_____ _ _ _____ _ _ _____ _ _ _____ _ _ ____  
 72
    65
 73
     6
 40
15.500000
 49
8.000000
 49
-1.500000
 49
1.500000
 49
-1.500000
 49
1.500000
 49
-1.500000
  0
LTYPE
  2
DASHED1
 70
    64
  3
__ __ __ __ __ __ __ __ __ __ __ __ __ __ __
 72
    65
 73
     2
 40
1.500000
 49
1.000000
 49
-0.500000
  0
LTYPE
  2
DASHED2
 70
    64
  3
__ __ __ __ __ __ __ __ __ __ __ __ __ __ __
 72
    65
 73
     2
 40
3.500000
 49
2.500000
 49
-1.000000
  0
LTYPE
  2
DASHED3
 70
    64
  3
__ __ __ __ __ __ __ __ __ __ __ __ __ __ __
 72
    65
 73
     2
 40
6.000000
 49
4.000000
 49
-2.000000
  0
LTYPE
  2
DASHED4
 70
    64
  3
__ __ __ __ __ __ __ __ __ __ __ __ __ __ __
 72
    65
 73
     2
 40
12.000000
 49
10.000000
 49
-2.000000
  0
LTYPE
  2
DASHED5
 70
    64
  3
__ __ __ __ __ __ __ __ __ __ __ __ __ __ __
 72
    65
 73
     2
 40
17.000000
 49
15.000000
 49
-2.000000
  0
LTYPE
  2
DASHED6
 70
    64
  3
__ __ __ __ __ __ __ __ __ __ __ __ __ __ __
 72
    65
 73
     2
 40
29.000000
 49
27.000000
 49
-2.000000
  0
LTYPE
  2
PHANTOM1
 70
    64
  3
_____ _ _ _____ _ _ _____ _ _ _____ _ _ ____  
 72
    65
 73
     6
 40
31.000000
 49
25.000000
 49
-1.500000
 49
1.000000
 49
-1.000000
 49
1.000000
 49
-1.500000
  0
LTYPE
  2
PHANTOM2
 70
    64
  3
_____ _ _ _____ _ _ _____ _ _ _____ _ _ ____  
 72
    65
 73
     6
 40
36.000000
 49
27.000000
 49
-1.500000
 49
2.500000
 49
-1.000000
 49
2.500000
 49
-1.500000
  0
LTYPE
  2
PHANTOM3
 70
    64
  3
_____ _ _ _____ _ _ _____ _ _ _____ _ _ ____  
 72
    65
 73
     6
 40
78.000000
 49
64.000000
 49
-2.000000
 49
4.000000
 49
-2.000000
 49
4.000000
 49
-2.000000
  0
LTYPE
  2
CENTER1
 70
    64
  3
____ _ ____ _ ____ _ ____ _ ____ _ ____ _ ____
 72
    65
 73
     4
 40
19.000000
 49
14.000000
 49
-1.000000
 49
3.000000
 49
-1.000000
  0
LTYPE
  2
CENTER2
 70
    64
  3
____ _ ____ _ ____ _ ____ _ ____ _ ____ _ ____
 72
    65
 73
     4
 40
28.500000
 49
25.000000
 49
-1.000000
 49
1.500000
 49
-1.000000
  0
LTYPE
  2
CENTER3
 70
    64
  3
____ _ ____ _ ____ _ ____ _ ____ _ ____ _ ____
 72
    65
 73
     4
 40
31.500000
 49
27.000000
 49
-1.000000
 49
2.500000
 49
-1.000000
  0
LTYPE
  2
CENTER4
 70
    64
  3
____ _ ____ _ ____ _ ____ _ ____ _ ____ _ ____
 72
    65
 73
     4
 40
50.000000
 49
45.000000
 49
-1.000000
 49
3.000000
 49
-1.000000
  0
LTYPE
  2
CENTER5
 70
    64
  3
____ _ ____ _ ____ _ ____ _ ____ _ ____ _ ____
 72
    65
 73
     4
 40
100.000000
 49
92.000000
 49
-2.000000
 49
4.000000
 49
-2.000000
  0
LTYPE
  2
SBK1
 70
    64
  3
______ _ _ _ ______ _ _ _ ______ _ _ _ _____  
 72
    65
 73
     8
 40
60.500000
 49
45.000000
 49
-2.000000
 49
2.500000
 49
-2.000000
 49
2.500000
 49
-2.000000
 49
2.500000
 49
-2.000000
  0
LTYPE
  2
SBK2
 70
    64
  3
______ _ _ _ ______ _ _ _ ______ _ _ _ _____  
 72
    65
 73
     8
 40
84.000000
 49
64.000000
 49
-2.000000
 49
4.000000
 49
-2.000000
 49
4.000000
 49
-2.000000
 49
4.000000
 49
-2.000000
  0
LTYPE
  2
STCH
 70
    64
  3
__ __ __ __ __ __ __ __ __ __ __ __ __ __ __
 72
    65
 73
     2
 40
3.000000
 49
1.000000
 49
-2.000000
  0
LTYPE
  2
MTCH
 70
    64
  3
_____ _ _ _____ _ _ _____ _ _ _____ _ _ ____  
 72
    65
 73
     6
 40
80.000000
 49
66.000000
 49
-2.000000
 49
4.000000
 49
-2.000000
 49
4.000000
 49
-2.000000
  0
ENDTAB
  0
TABLE
  2
LAYER
 70
     1
  0
LAYER
  2
0
 70
     0
 62
     7
  6
CONTINUOUS
  0
ENDTAB
  0
TABLE
  2
STYLE
 70
     1
  0
STYLE
  2
STANDARD
 70
     0
 40
0.000000
 41
1.000000
 50
0.000000
 71
     0
 42
0.200000
  3
txt
  4
BIGFONT
  0
ENDTAB
  0
TABLE
  2
VIEW
 70
     0
  0
ENDTAB
  0
ENDSEC
  0
SECTION
  2
BLOCKS
  0
ENDSEC
  0
SECTION
  2
ENTITIES
  0
LINE
  8
0
 10
-281.250000
 20
195.500000
 11
282.099976
 21
195.500000
  0
LINE
  8
0
 10
-281.250000
 20
195.500000
 11
-281.250000
 21
-195.000000
  0
LINE
  8
0
 10
282.099976
 20
195.500000
 11
282.099976
 21
-195.000000
  0
LINE
  8
0
 10
-281.250000
 20
-195.000000
 11
282.099976
 21
-195.000000
  0
LINE
  8
0
 10
162.099976
 20
-175.000000
 11
162.099976
 21
-195.000000
  0
LINE
  8
0
 10
162.099976
 20
-175.000000
 11
282.099976
 21
-175.000000
  0
LINE
  8
0
 10
162.099976
 20
175.500000
 11
282.099976
 21
175.500000
  0
LINE
  8
0
 10
-281.250000
 20
175.500000
 11
-161.250000
 21
175.500000
  0
LINE
  8
0
 10
162.099976
 20
195.500000
 11
162.099976
 21
175.500000
  0
LINE
  8
0
 10
-161.250000
 20
195.500000
 11
-161.250000
 21
175.500000
  0
LINE
  8
0
 10
-261.250000
 20
-75.000000
 11
-261.250000
 21
-175.000000
  0
LINE
  8
0
 10
-261.250000
 20
-175.000000
 11
-161.250000
 21
-175.000000
  0
LINE
  8
0
 10
-261.250000
 20
-165.000000
 11
-161.250000
 21
-165.000000
  0
LINE
  8
0
 10
-261.250000
 20
-155.000000
 11
-161.250000
 21
-155.000000
  0
LINE
  8
0
 10
-261.250000
 20
-145.000000
 11
-161.250000
 21
-145.000000
  0
LINE
  8
0
 10
-261.250000
 20
-135.000000
 11
-161.250000
 21
-135.000000
  0
LINE
  8
0
 10
-261.250000
 20
-125.000000
 11
-161.250000
 21
-125.000000
  0
LINE
  8
0
 10
-261.250000
 20
-115.000000
 11
-161.250000
 21
-115.000000
  0
LINE
  8
0
 10
-261.250000
 20
-105.000000
 11
-161.250000
 21
-105.000000
  0
LINE
  8
0
 10
-261.250000
 20
-95.000000
 11
-161.250000
 21
-95.000000
  0
LINE
  8
0
 10
-261.250000
 20
-85.000000
 11
-161.250000
 21
-85.000000
  0
LINE
  8
0
 10
-261.250000
 20
-75.000000
 11
-161.250000
 21
-75.000000
  0
LINE
  8
0
 10
-221.250000
 20
-75.000000
 11
-221.250000
 21
-175.000000
  0
LINE
  8
0
 10
-191.250000
 20
-75.000000
 11
-191.250000
 21
-175.000000
  0
LINE
  8
0
 10
-161.250000
 20
-75.000000
 11
-161.250000
 21
-175.000000
  0
LINE
  8
0
 62
     4
 10
10.249985
 20
9.250111
 11
33.249985
 21
9.250111
  0
LINE
  8
0
 62
     4
 10
10.249985
 20
62.250095
 11
33.249985
 21
62.250095
  0
LINE
  8
0
 62
     4
 10
10.249985
 20
62.250095
 11
10.249985
 21
9.250111
  0
LINE
  8
0
 62
     4
 10
33.249985
 20
9.250111
 11
33.249985
 21
62.250095
  0
LINE
  8
0
 10
-85.750015
 20
79.750107
 11
-85.750015
 21
0.250126
  0
LINE
  8
0
 10
-62.750015
 20
79.750107
 11
-62.750015
 21
0.250126
  0
LINE
  8
0
 10
-85.750015
 20
0.250126
 11
-62.750015
 21
0.250126
  0
LINE
  8
0
 10
-85.750015
 20
79.750107
 11
-62.750015
 21
79.750107
  0
LINE
  8
0
 10
-85.750015
 20
9.250126
 11
-62.750015
 21
9.250126
  0
LINE
  8
0
 10
-85.750015
 20
62.250111
 11
-62.750015
 21
62.250111
  0
LINE
  8
0
 10
-61.750015
 20
79.750107
 11
-61.750015
 21
0.250126
  0
LINE
  8
0
 10
-38.750015
 20
79.750107
 11
-38.750015
 21
0.250126
  0
LINE
  8
0
  6
CENTER
 62
     2
 10
-50.250015
 20
104.119049
 11
-50.250015
 21
-7.323925
  0
LINE
  8
0
 10
-61.750015
 20
0.250126
 11
-38.750015
 21
0.250126
  0
LINE
  8
0
 10
-61.750015
 20
79.750107
 11
-38.750015
 21
79.750107
  0
LINE
  8
0
 10
-61.750015
 20
9.250126
 11
-38.750015
 21
9.250126
  0
LINE
  8
0
 10
-61.750015
 20
62.250111
 11
-38.750015
 21
62.250111
  0
LINE
  8
0
 10
-37.750015
 20
79.750122
 11
-37.750015
 21
-8.249859
  0
LINE
  8
0
 10
-14.750015
 20
79.750122
 11
-14.750015
 21
-8.249859
  0
LINE
  8
0
  6
CENTER
 62
     2
 10
-26.250015
 20
105.583466
 11
-26.250015
 21
-33.749870
  0
LINE
  8
0
 10
-14.750023
 20
-8.249859
 11
-37.750023
 21
-8.249859
  0
LINE
  8
0
 10
-37.750015
 20
9.250141
 11
-14.750015
 21
9.250141
  0
LINE
  8
0
 10
-37.750015
 20
62.250130
 11
-14.750015
 21
62.250130
  0
LINE
  8
0
 10
-37.750015
 20
79.750122
 11
-14.750015
 21
79.750122
  0
LINE
  8
0
 10
-13.750015
 20
94.750122
 11
-13.750015
 21
-23.249886
  0
LINE
  8
0
 10
9.249985
 20
94.750122
 11
9.249985
 21
-23.249886
  0
LINE
  8
0
  6
CENTER
 62
     2
 10
-2.250015
 20
119.119034
 11
-2.250015
 21
-48.249886
  0
LINE
  8
0
 10
9.249977
 20
-23.249886
 11
-13.750023
 21
-23.249886
  0
LINE
  8
0
 10
-13.750015
 20
94.750114
 11
9.249985
 21
94.750114
  0
LINE
  8
0
 10
-13.750015
 20
9.250111
 11
9.249985
 21
9.250111
  0
LINE
  8
0
 10
-13.750015
 20
62.250099
 11
9.249985
 21
62.250099
  0
LINE
  8
0
  6
CENTER
 62
     2
 10
21.749985
 20
70.750122
 11
21.749985
 21
0.750122
  0
LINE
  8
0
  6
CENTER
 62
     2
 10
-74.250015
 20
105.036865
 11
-74.250015
 21
-2.958652
  0
LINE
  8
0
 10
-98.250015
 20
4.750126
 11
-85.750015
 21
4.750126
  0
LINE
  8
0
 10
-98.250015
 20
66.750122
 11
-85.750015
 21
66.750122
  0
LINE
  8
0
 10
-98.250015
 20
66.750122
 11
-98.250015
 21
4.750126
  0
LINE
  8
0
 10
45.749985
 20
4.750126
 11
45.749985
 21
66.750122
  0
LINE
  8
0
  6
CENTER
 62
     2
 10
-105.985161
 20
35.750122
 11
54.123764
 21
35.750122
  0
LINE
  8
0
  6
CENTER
 62
     2
 10
-98.250015
 20
25.750122
 11
-88.250015
 21
25.750122
  0
LINE
  8
0
  6
CENTER
 62
     2
 10
-93.250015
 20
30.750122
 11
-93.250015
 21
20.750122
  0
LINE
  8
0
  6
CENTER
 62
     2
 10
40.749985
 20
30.750122
 11
40.749985
 21
20.750122
  0
LINE
  8
0
  6
CENTER
 62
     2
 10
-98.250015
 20
45.750122
 11
-88.250015
 21
45.750122
  0
LINE
  8
0
  6
CENTER
 62
     2
 10
-93.250015
 20
40.750122
 11
-93.250015
 21
50.750122
  0
LINE
  8
0
  6
CENTER
 62
     2
 10
40.749985
 20
40.750122
 11
40.749985
 21
50.750122
  0
LINE
  8
0
 10
-62.750015
 20
4.750126
 11
-61.750015
 21
4.750126
  0
LINE
  8
0
 10
-38.750015
 20
4.750126
 11
-37.750015
 21
4.750126
  0
LINE
  8
0
 10
-14.750015
 20
4.750126
 11
-13.750015
 21
4.750126
  0
LINE
  8
0
 10
9.249985
 20
4.750126
 11
45.749985
 21
4.750126
  0
LINE
  8
0
 10
-62.750015
 20
66.750122
 11
-61.750015
 21
66.750122
  0
LINE
  8
0
 10
-38.750015
 20
66.750122
 11
-37.750015
 21
66.750122
  0
LINE
  8
0
 10
-14.750015
 20
66.750122
 11
-13.750015
 21
66.750122
  0
LINE
  8
0
 10
9.249985
 20
66.750122
 11
45.749985
 21
66.750122
  0
LINE
  8
0
 10
31.838629
 20
54.661549
 11
29.782911
 21
56.717270
  0
LINE
  8
0
 10
31.910778
 20
56.910915
 11
29.719090
 21
54.719223
  0
LINE
  8
0
 10
13.838749
 20
14.661656
 11
11.783027
 21
16.717373
  0
LINE
  8
0
 10
13.910805
 20
16.910881
 11
11.719093
 21
14.719170
  0
LINE
  8
0
  6
CENTER
 62
     2
 10
-7.750015
 20
46.750118
 11
7.249985
 21
46.750118
  0
LINE
  8
0
  6
CENTER
 62
     2
 10
-0.250015
 20
54.250118
 11
-0.250015
 21
39.250118
  0
LINE
  8
0
  6
CENTER
 62
     2
 10
-4.250015
 20
32.250118
 11
-4.250015
 21
17.250118
  0
LINE
  8
0
  6
CENTER
 62
     2
 10
-11.750015
 20
24.750118
 11
3.249985
 21
24.750118
  0
LINE
  8
0
 10
-11.250015
 20
12.750118
 11
-13.750015
 21
12.750118
  0
LINE
  8
0
 10
-11.250015
 20
18.750118
 11
-13.750015
 21
18.750118
  0
LINE
  8
0
 10
6.749985
 20
58.750118
 11
9.249985
 21
58.750118
  0
LINE
  8
0
 10
6.749985
 20
52.750118
 11
9.249985
 21
52.750118
  0
LINE
  8
0
 10
-64.161369
 20
54.661568
 11
-66.217087
 21
56.717289
  0
LINE
  8
0
 10
-64.089241
 20
56.910915
 11
-66.280930
 21
54.719223
  0
LINE
  8
0
 10
-82.161247
 20
14.661672
 11
-84.216965
 21
16.717388
  0
LINE
  8
0
 10
-82.089188
 20
16.910885
 11
-84.280899
 21
14.719173
  0
LINE
  8
0
  6
CENTER
 62
     2
 10
-79.750015
 20
46.750118
 11
-64.750015
 21
46.750118
  0
LINE
  8
0
  6
CENTER
 62
     2
 10
-72.250015
 20
54.250118
 11
-72.250015
 21
39.250118
  0
LINE
  8
0
  6
CENTER
 62
     2
 10
-76.250015
 20
32.250118
 11
-76.250015
 21
17.250118
  0
LINE
  8
0
  6
CENTER
 62
     2
 10
-83.750015
 20
24.750118
 11
-68.750015
 21
24.750118
  0
LINE
  8
0
 10
-83.250015
 20
12.750118
 11
-85.750015
 21
12.750118
  0
LINE
  8
0
 10
-83.250015
 20
18.750118
 11
-85.750015
 21
18.750118
  0
LINE
  8
0
 10
-65.250015
 20
58.750118
 11
-62.750015
 21
58.750118
  0
LINE
  8
0
 10
-65.250015
 20
52.750118
 11
-62.750015
 21
52.750118
  0
LINE
  8
0
 10
-40.161369
 20
54.661564
 11
-42.217087
 21
56.717285
  0
LINE
  8
0
 10
-40.089237
 20
56.910915
 11
-42.280926
 21
54.719227
  0
LINE
  8
0
 10
-58.161240
 20
14.661662
 11
-60.216965
 21
16.717379
  0
LINE
  8
0
 10
-58.089195
 20
16.910885
 11
-60.280907
 21
14.719173
  0
LINE
  8
0
  6
CENTER
 62
     2
 10
-55.750015
 20
46.750118
 11
-40.750015
 21
46.750118
  0
LINE
  8
0
  6
CENTER
 62
     2
 10
-48.250015
 20
54.250118
 11
-48.250015
 21
39.250118
  0
LINE
  8
0
  6
CENTER
 62
     2
 10
-52.250015
 20
32.250118
 11
-52.250015
 21
17.250118
  0
LINE
  8
0
  6
CENTER
 62
     2
 10
-59.750015
 20
24.750118
 11
-44.750015
 21
24.750118
  0
LINE
  8
0
 10
-59.250015
 20
12.750118
 11
-61.750015
 21
12.750118
  0
LINE
  8
0
 10
-59.250015
 20
18.750118
 11
-61.750015
 21
18.750118
  0
LINE
  8
0
 10
-41.250015
 20
58.750118
 11
-38.750015
 21
58.750118
  0
LINE
  8
0
 10
-41.250015
 20
52.750118
 11
-38.750015
 21
52.750118
  0
LINE
  8
0
 10
-16.161362
 20
54.661549
 11
-18.217079
 21
56.717270
  0
LINE
  8
0
 10
-16.089233
 20
56.910912
 11
-18.280922
 21
54.719219
  0
LINE
  8
0
 10
-34.161240
 20
14.661666
 11
-36.216965
 21
16.717382
  0
LINE
  8
0
 10
-34.089195
 20
16.910885
 11
-36.280907
 21
14.719173
  0
LINE
  8
0
  6
CENTER
 62
     2
 10
-31.750015
 20
46.750118
 11
-16.750015
 21
46.750118
  0
LINE
  8
0
  6
CENTER
 62
     2
 10
-24.250015
 20
54.250118
 11
-24.250015
 21
39.250118
  0
LINE
  8
0
  6
CENTER
 62
     2
 10
-28.250015
 20
32.250118
 11
-28.250015
 21
17.250118
  0
LINE
  8
0
  6
CENTER
 62
     2
 10
-35.750015
 20
24.750118
 11
-20.750015
 21
24.750118
  0
LINE
  8
0
 10
-35.250015
 20
12.750118
 11
-37.750015
 21
12.750118
  0
LINE
  8
0
 10
-35.250015
 20
18.750118
 11
-37.750015
 21
18.750118
  0
LINE
  8
0
 10
-17.250015
 20
58.750118
 11
-14.750015
 21
58.750118
  0
LINE
  8
0
 10
-17.250015
 20
52.750118
 11
-14.750015
 21
52.750118
  0
LINE
  8
0
 10
7.838636
 20
54.661549
 11
5.782918
 21
56.717270
  0
LINE
  8
0
 10
7.910771
 20
56.910915
 11
5.719082
 21
54.719223
  0
LINE
  8
0
 10
-10.161250
 20
14.661660
 11
-12.216972
 21
16.717377
  0
LINE
  8
0
 10
-10.089197
 20
16.910885
 11
-12.280909
 21
14.719173
  0
LINE
  8
0
 62
     4
 10
-62.750015
 20
100.750107
 11
-62.750015
 21
79.750107
  0
LINE
  8
0
 62
     4
 10
-85.750015
 20
100.750107
 11
-85.750015
 21
79.750107
  0
LINE
  8
0
 62
     4
 10
-62.750015
 20
99.750107
 11
-85.750015
 21
99.750107
  0
LINE
  8
0
 62
     4
 10
-62.750015
 20
100.750107
 11
-85.750015
 21
100.750107
  0
LINE
  8
0
 62
     4
 10
-84.749931
 20
102.750092
 11
-85.749939
 21
100.750076
  0
LINE
  8
0
 62
     4
 10
-63.750092
 20
102.750107
 11
-84.749954
 21
102.750107
  0
LINE
  8
0
 62
     4
 10
-65.500015
 20
103.450119
 11
-67.000015
 21
103.450119
  0
LINE
  8
0
 62
     4
 10
-81.500015
 20
103.450119
 11
-83.000015
 21
103.450119
  0
LINE
  8
0
 62
     4
 10
-62.750015
 20
98.750107
 11
-85.750015
 21
98.750107
  0
LINE
  8
0
 62
     4
 10
-72.950027
 20
94.450104
 11
-75.550003
 21
94.450104
  0
LINE
  8
0
 62
     4
 10
-72.950027
 20
91.050110
 11
-75.550003
 21
91.050110
  0
LINE
  8
0
 62
     4
 10
-63.750145
 20
102.750092
 11
-62.750141
 21
100.750076
  0
LINE
  8
0
 62
     4
 10
-38.750015
 20
100.750107
 11
-38.750015
 21
79.750107
  0
LINE
  8
0
 62
     4
 10
-61.750015
 20
100.750107
 11
-61.750015
 21
79.750107
  0
LINE
  8
0
 62
     4
 10
-38.750015
 20
99.750107
 11
-61.750015
 21
99.750107
  0
LINE
  8
0
 62
     4
 10
-38.750015
 20
100.750107
 11
-61.750015
 21
100.750107
  0
LINE
  8
0
 62
     4
 10
-60.749935
 20
102.750099
 11
-61.749947
 21
100.750076
  0
LINE
  8
0
 62
     4
 10
-39.750092
 20
102.750107
 11
-60.749954
 21
102.750107
  0
LINE
  8
0
 62
     4
 10
-41.500015
 20
103.450119
 11
-43.000015
 21
103.450119
  0
LINE
  8
0
 62
     4
 10
-57.500015
 20
103.450119
 11
-59.000015
 21
103.450119
  0
LINE
  8
0
 62
     4
 10
-38.750015
 20
98.750107
 11
-61.750015
 21
98.750107
  0
LINE
  8
0
 62
     4
 10
-48.950027
 20
94.450104
 11
-51.550003
 21
94.450104
  0
LINE
  8
0
 62
     4
 10
-48.950027
 20
91.050110
 11
-51.550003
 21
91.050110
  0
LINE
  8
0
 62
     4
 10
-39.750145
 20
102.750092
 11
-38.750141
 21
100.750076
  0
LINE
  8
0
 62
     4
 10
-14.750015
 20
100.750122
 11
-14.750015
 21
79.750122
  0
LINE
  8
0
 62
     4
 10
-37.750015
 20
100.750122
 11
-37.750015
 21
79.750122
  0
LINE
  8
0
 62
     4
 10
-14.750015
 20
99.750122
 11
-37.750015
 21
99.750122
  0
LINE
  8
0
 62
     4
 10
-14.750015
 20
100.750122
 11
-37.750015
 21
100.750122
  0
LINE
  8
0
 62
     4
 10
-36.749935
 20
102.750107
 11
-37.749943
 21
100.750099
  0
LINE
  8
0
 62
     4
 10
-15.750092
 20
102.750122
 11
-36.749954
 21
102.750122
  0
LINE
  8
0
 62
     4
 10
-17.500015
 20
103.450134
 11
-19.000015
 21
103.450134
  0
LINE
  8
0
 62
     4
 10
-33.500015
 20
103.450134
 11
-35.000015
 21
103.450134
  0
LINE
  8
0
 62
     4
 10
-14.750015
 20
98.750122
 11
-37.750015
 21
98.750122
  0
LINE
  8
0
 62
     4
 10
-24.950027
 20
94.450119
 11
-27.550003
 21
94.450119
  0
LINE
  8
0
 62
     4
 10
-24.950027
 20
91.050125
 11
-27.550003
 21
91.050125
  0
LINE
  8
0
 62
     4
 10
-15.750131
 20
102.750099
 11
-14.750128
 21
100.750084
  0
LINE
  8
0
 62
     4
 10
9.249985
 20
115.750114
 11
9.249985
 21
94.750114
  0
LINE
  8
0
 62
     4
 10
-13.750015
 20
115.750114
 11
-13.750015
 21
94.750114
  0
LINE
  8
0
 62
     4
 10
9.249985
 20
114.750114
 11
-13.750015
 21
114.750114
  0
LINE
  8
0
 62
     4
 10
9.249985
 20
115.750114
 11
-13.750015
 21
115.750114
  0
LINE
  8
0
 62
     4
 10
-12.749938
 20
117.750107
 11
-13.749949
 21
115.750084
  0
LINE
  8
0
 62
     4
 10
8.249908
 20
117.750114
 11
-12.749954
 21
117.750114
  0
LINE
  8
0
 62
     4
 10
6.499985
 20
118.450127
 11
4.999985
 21
118.450127
  0
LINE
  8
0
 62
     4
 10
-9.500015
 20
118.450127
 11
-11.000015
 21
118.450127
  0
LINE
  8
0
 62
     4
 10
9.249985
 20
113.750114
 11
-13.750015
 21
113.750114
  0
LINE
  8
0
 62
     4
 10
-0.950027
 20
109.450111
 11
-3.550003
 21
109.450111
  0
LINE
  8
0
 62
     4
 10
-0.950027
 20
106.050117
 11
-3.550003
 21
106.050117
  0
LINE
  8
0
 62
     4
 10
8.249870
 20
117.750114
 11
9.249874
 21
115.750099
  0
LINE
  8
0
 62
     4
 10
-37.750015
 20
-29.249855
 11
-37.750015
 21
-8.249855
  0
LINE
  8
0
 62
     4
 10
-14.750015
 20
-29.249863
 11
-14.750015
 21
-8.249863
  0
LINE
  8
0
 62
     4
 10
-37.750019
 20
-28.249863
 11
-14.750015
 21
-28.249863
  0
LINE
  8
0
 62
     4
 10
-37.750019
 20
-29.249863
 11
-14.750015
 21
-29.249863
  0
LINE
  8
0
 62
     4
 10
-15.750093
 20
-31.249857
 11
-14.750085
 21
-29.249842
  0
LINE
  8
0
 62
     4
 10
-36.749943
 20
-31.249863
 11
-15.750076
 21
-31.249863
  0
LINE
  8
0
 62
     4
 10
-35.000019
 20
-31.949875
 11
-33.500019
 21
-31.949875
  0
LINE
  8
0
 62
     4
 10
-19.000015
 20
-31.949875
 11
-17.500015
 21
-31.949875
  0
LINE
  8
0
 62
     4
 10
-37.750019
 20
-27.249863
 11
-14.750015
 21
-27.249863
  0
LINE
  8
0
 62
     4
 10
-27.550003
 20
-22.949860
 11
-24.950027
 21
-22.949860
  0
LINE
  8
0
 62
     4
 10
-27.550003
 20
-19.549866
 11
-24.950027
 21
-19.549866
  0
LINE
  8
0
 62
     4
 10
-36.749889
 20
-31.249838
 11
-37.749889
 21
-29.249823
  0
LINE
  8
0
 62
     4
 10
-13.750015
 20
-44.249886
 11
-13.750015
 21
-23.249886
  0
LINE
  8
0
 62
     4
 10
9.249985
 20
-44.249893
 11
9.249985
 21
-23.249893
  0
LINE
  8
0
 62
     4
 10
-13.750015
 20
-43.249886
 11
9.249985
 21
-43.249886
  0
LINE
  8
0
 62
     4
 10
-13.750015
 20
-44.249886
 11
9.249985
 21
-44.249886
  0
LINE
  8
0
 62
     4
 10
8.249904
 20
-46.249886
 11
9.249912
 21
-44.249866
  0
LINE
  8
0
 62
     4
 10
-12.749939
 20
-46.249886
 11
8.249924
 21
-46.249886
  0
LINE
  8
0
 62
     4
 10
-11.000015
 20
-46.949898
 11
-9.500015
 21
-46.949898
  0
LINE
  8
0
 62
     4
 10
4.999985
 20
-46.949898
 11
6.499985
 21
-46.949898
  0
LINE
  8
0
 62
     4
 10
-13.750015
 20
-42.249886
 11
9.249985
 21
-42.249886
  0
LINE
  8
0
 62
     4
 10
-3.550003
 20
-37.949883
 11
-0.950027
 21
-37.949883
  0
LINE
  8
0
 62
     4
 10
-3.550003
 20
-34.549889
 11
-0.950027
 21
-34.549889
  0
LINE
  8
0
 62
     4
 10
-12.749898
 20
-46.249863
 11
-13.749902
 21
-44.249844
  0
LINE
  8
0
  6
CENTER
 62
     2
 10
45.749985
 20
45.750122
 11
35.749985
 21
45.750122
  0
LINE
  8
0
  6
CENTER
 62
     2
 10
45.749985
 20
25.750122
 11
35.749985
 21
25.750122
  0
LINE
  8
0
  6
CENTER
 62
     2
 10
165.357101
 20
28.474785
 11
165.357101
 21
44.244087
  0
LINE
  8
0
  6
CENTER
 62
     2
 10
172.860138
 20
35.750088
 11
156.806732
 21
35.750088
  0
LINE
  8
0
 10
120.357094
 20
9.250111
 11
155.357086
 21
9.250111
  0
LINE
  8
0
 10
120.357094
 20
62.250118
 11
155.357086
 21
62.250118
  0
LINE
  8
0
 10
120.357094
 20
79.750122
 11
120.357094
 21
-23.249893
  0
LINE
  8
0
 10
156.357056
 20
61.750114
 11
156.357056
 21
9.750114
  0
LINE
  8
0
 10
155.357086
 20
79.750122
 11
155.357086
 21
-23.249893
  0
LINE
  8
0
 62
     4
 10
151.357086
 20
62.250095
 11
155.357086
 21
62.250095
  0
LINE
  8
0
 62
     4
 10
151.357086
 20
9.250111
 11
155.357086
 21
9.250111
  0
LINE
  8
0
 62
     4
 10
151.357086
 20
62.250095
 11
151.357086
 21
9.250111
  0
LINE
  8
0
 10
184.357086
 20
66.750114
 11
184.357086
 21
53.750114
  0
LINE
  8
0
 10
161.357056
 20
66.750114
 11
184.357086
 21
66.750114
  0
LINE
  8
0
 10
161.357040
 20
4.750114
 11
184.357086
 21
4.750114
  0
LINE
  8
0
 10
184.357086
 20
17.750122
 11
184.357086
 21
4.750114
  0
LINE
  8
0
 10
174.357086
 20
43.750114
 11
174.357086
 21
27.750114
  0
LINE
  8
0
  6
CENTER
 62
     2
 10
189.357086
 20
25.750122
 11
153.347061
 21
25.750122
  0
LINE
  8
0
  6
CENTER
 62
     2
 10
189.357086
 20
45.750122
 11
153.347061
 21
45.750122
  0
LINE
  8
0
 10
174.357086
 20
43.750114
 11
184.357086
 21
53.750111
  0
LINE
  8
0
 10
174.357086
 20
27.750113
 11
184.357086
 21
17.750122
  0
LINE
  8
0
 10
156.357056
 20
9.750113
 11
161.357040
 21
4.750124
  0
LINE
  8
0
 10
156.357056
 20
61.750126
 11
161.357040
 21
66.750122
  0
LINE
  8
0
  6
CENTER
 62
     2
 10
173.357101
 20
23.025444
 11
173.357101
 21
7.256142
  0
LINE
  8
0
  6
CENTER
 62
     2
 10
180.860138
 20
15.750141
 11
164.806732
 21
15.750141
  0
LINE
  8
0
  6
CENTER
 62
     2
 10
180.860138
 20
55.750088
 11
164.806732
 21
55.750088
  0
LINE
  8
0
  6
CENTER
 62
     2
 10
173.357101
 20
48.474785
 11
173.357101
 21
64.244087
  0
LINE
  8
0
 10
156.357056
 20
61.750114
 11
155.357086
 21
61.750114
  0
LINE
  8
0
 10
156.357056
 20
9.750114
 11
155.357086
 21
9.750114
  0
LINE
  8
0
 10
123.357094
 20
58.750118
 11
123.357094
 21
52.750118
  0
LINE
  8
0
 10
149.688812
 20
13.000126
 11
151.357086
 21
13.000126
  0
LINE
  8
0
 10
149.688812
 20
18.500111
 11
151.357086
 21
18.500111
  0
LINE
  8
0
 10
150.657074
 20
18.500111
 11
150.657074
 21
13.000126
  0
LINE
  8
0
 10
148.657074
 20
16.750126
 11
148.657074
 21
14.750111
  0
LINE
  8
0
 10
120.357094
 20
58.750118
 11
123.357094
 21
58.750118
  0
LINE
  8
0
 10
120.357094
 20
52.750118
 11
123.357094
 21
52.750118
  0
LINE
  8
0
 10
121.688812
 20
53.000126
 11
123.357094
 21
53.000126
  0
LINE
  8
0
 10
121.688812
 20
58.500111
 11
123.357094
 21
58.500111
  0
LINE
  8
0
 10
122.657082
 20
58.500111
 11
122.657082
 21
53.000126
  0
LINE
  8
0
 10
120.657082
 20
56.750126
 11
120.657082
 21
54.750111
  0
LINE
  8
0
 10
149.688812
 20
53.000126
 11
151.357086
 21
53.000126
  0
LINE
  8
0
 10
149.688812
 20
58.500111
 11
151.357086
 21
58.500111
  0
LINE
  8
0
 10
150.657074
 20
58.500111
 11
150.657074
 21
53.000126
  0
LINE
  8
0
 10
148.657074
 20
56.750126
 11
148.657074
 21
54.750111
  0
LINE
  8
0
 62
     4
 10
120.357086
 20
115.750122
 11
120.357086
 21
94.750122
  0
LINE
  8
0
 62
     4
 10
155.357086
 20
114.750122
 11
120.357086
 21
114.750122
  0
LINE
  8
0
 62
     4
 10
155.357086
 20
114.750122
 11
155.357086
 21
94.750122
  0
LINE
  8
0
 62
     4
 10
155.357086
 20
115.750122
 11
120.357086
 21
115.750122
  0
LINE
  8
0
 62
     4
 10
155.357086
 20
115.750122
 11
155.357086
 21
114.750122
  0
LINE
  8
0
 62
     4
 10
155.357040
 20
115.750107
 11
154.357040
 21
117.750107
  0
LINE
  8
0
 62
     4
 10
143.857086
 20
117.750122
 11
143.857086
 21
115.750122
  0
LINE
  8
0
 62
     4
 10
121.357208
 20
117.750107
 11
120.357185
 21
115.750061
  0
LINE
  8
0
 62
     4
 10
145.107086
 20
116.450134
 11
150.607086
 21
116.450134
  0
LINE
  8
0
 62
     4
 10
150.607086
 20
116.450134
 11
150.607086
 21
115.750122
  0
LINE
  8
0
 62
     4
 10
145.107086
 20
116.450134
 11
145.107086
 21
115.750122
  0
LINE
  8
0
 62
     4
 10
147.107086
 20
118.450134
 11
148.607086
 21
118.450134
  0
LINE
  8
0
 62
     4
 10
127.107086
 20
118.450134
 11
128.607086
 21
118.450134
  0
LINE
  8
0
 62
     4
 10
154.357056
 20
117.750122
 11
150.126968
 21
117.750122
  0
LINE
  8
0
 62
     4
 10
145.587204
 20
117.750122
 11
121.357178
 21
117.750122
  0
LINE
  8
0
 62
     4
 10
108.357086
 20
91.900116
 11
112.352859
 21
91.900116
  0
LINE
  8
0
 62
     4
 10
108.357086
 20
93.600128
 11
112.808380
 21
93.600128
  0
LINE
  8
0
 62
     4
 10
98.357071
 20
92.430115
 11
108.357086
 21
92.430115
  0
LINE
  8
0
 62
     4
 10
98.357071
 20
93.070114
 11
108.357086
 21
93.070114
  0
LINE
  8
0
 62
     4
 10
108.357071
 20
93.600098
 11
108.357071
 21
91.900101
  0
LINE
  8
0
 62
     4
 10
98.357071
 20
93.070099
 11
98.357071
 21
92.430115
  0
LINE
  8
0
 62
     4
 10
113.905777
 20
91.900116
 11
118.357101
 21
91.900116
  0
LINE
  8
0
 62
     4
 10
114.361298
 20
93.600128
 11
118.357101
 21
93.600128
  0
LINE
  8
0
 62
     4
 10
118.357086
 20
91.050125
 11
120.357086
 21
91.050125
  0
LINE
  8
0
 62
     4
 10
118.357071
 20
94.450104
 11
118.357071
 21
91.050110
  0
LINE
  8
0
 62
     4
 10
118.357086
 20
94.450119
 11
120.357086
 21
94.450119
  0
LINE
  8
0
 62
     4
 10
151.857086
 20
117.750122
 11
151.857086
 21
115.750122
  0
LINE
  8
0
 10
120.357086
 20
94.750122
 11
155.357086
 21
94.750122
  0
LINE
  8
0
 10
120.357086
 20
94.750122
 11
120.357086
 21
79.750122
  0
LINE
  8
0
 10
155.357086
 20
94.750122
 11
155.357086
 21
79.750122
  0
LINE
  8
0
 62
     4
 10
108.357086
 20
106.900116
 11
112.352859
 21
106.900116
  0
LINE
  8
0
 62
     4
 10
108.357086
 20
108.600128
 11
112.808380
 21
108.600128
  0
LINE
  8
0
 62
     4
 10
98.357071
 20
107.430115
 11
108.357086
 21
107.430115
  0
LINE
  8
0
 62
     4
 10
98.357071
 20
108.070114
 11
108.357086
 21
108.070114
  0
LINE
  8
0
 62
     4
 10
108.357071
 20
108.600098
 11
108.357071
 21
106.900101
  0
LINE
  8
0
 62
     4
 10
98.357071
 20
108.070099
 11
98.357071
 21
107.430115
  0
LINE
  8
0
 62
     4
 10
113.905777
 20
106.900116
 11
118.357101
 21
106.900116
  0
LINE
  8
0
 62
     4
 10
114.361298
 20
108.600128
 11
118.357101
 21
108.600128
  0
LINE
  8
0
 62
     4
 10
118.357086
 20
106.050125
 11
120.357086
 21
106.050125
  0
LINE
  8
0
 62
     4
 10
118.357071
 20
109.450104
 11
118.357071
 21
106.050110
  0
LINE
  8
0
 62
     4
 10
118.357086
 20
109.450119
 11
120.357086
 21
109.450119
  0
LINE
  8
0
 62
     4
 10
120.357086
 20
-44.249893
 11
120.357086
 21
-23.249893
  0
LINE
  8
0
 62
     4
 10
155.357086
 20
-43.249893
 11
120.357086
 21
-43.249893
  0
LINE
  8
0
 62
     4
 10
155.357086
 20
-43.249893
 11
155.357086
 21
-23.249893
  0
LINE
  8
0
 62
     4
 10
155.357086
 20
-44.249893
 11
120.357086
 21
-44.249893
  0
LINE
  8
0
 62
     4
 10
155.357086
 20
-44.249893
 11
155.357086
 21
-43.249893
  0
LINE
  8
0
 62
     4
 10
155.357025
 20
-44.249866
 11
154.357025
 21
-46.249863
  0
LINE
  8
0
 62
     4
 10
131.857086
 20
-46.249893
 11
131.857086
 21
-44.249893
  0
LINE
  8
0
 62
     4
 10
121.357216
 20
-46.249889
 11
120.357193
 21
-44.249847
  0
LINE
  8
0
 62
     4
 10
130.607086
 20
-44.949905
 11
125.107086
 21
-44.949905
  0
LINE
  8
0
 62
     4
 10
125.107086
 20
-44.949905
 11
125.107086
 21
-44.249893
  0
LINE
  8
0
 62
     4
 10
130.607086
 20
-44.949905
 11
130.607086
 21
-44.249893
  0
LINE
  8
0
 62
     4
 10
128.607086
 20
-46.949905
 11
127.107086
 21
-46.949905
  0
LINE
  8
0
 62
     4
 10
148.607086
 20
-46.949905
 11
147.107086
 21
-46.949905
  0
LINE
  8
0
 62
     4
 10
154.357056
 20
-46.249893
 11
130.126968
 21
-46.249893
  0
LINE
  8
0
 62
     4
 10
125.587204
 20
-46.249893
 11
121.357178
 21
-46.249893
  0
LINE
  8
0
 62
     4
 10
108.357094
 20
-20.399887
 11
112.352867
 21
-20.399887
  0
LINE
  8
0
 62
     4
 10
108.357094
 20
-22.099899
 11
112.808388
 21
-22.099899
  0
LINE
  8
0
 62
     4
 10
98.357079
 20
-20.929886
 11
108.357094
 21
-20.929886
  0
LINE
  8
0
 62
     4
 10
98.357079
 20
-21.569885
 11
108.357094
 21
-21.569885
  0
LINE
  8
0
 62
     4
 10
108.357079
 20
-22.099869
 11
108.357079
 21
-20.399872
  0
LINE
  8
0
 62
     4
 10
98.357079
 20
-21.569870
 11
98.357079
 21
-20.929886
  0
LINE
  8
0
 62
     1
 10
111.817017
 20
-18.399841
 11
113.344330
 21
-24.099852
  0
LINE
  8
0
 62
     1
 10
113.369957
 20
-18.399855
 11
114.897270
 21
-24.099844
  0
LINE
  8
0
 62
     4
 10
113.905785
 20
-20.399887
 11
118.357109
 21
-20.399887
  0
LINE
  8
0
 62
     4
 10
114.361305
 20
-22.099899
 11
118.357109
 21
-22.099899
  0
LINE
  8
0
 62
     4
 10
118.357094
 20
-19.549896
 11
120.357094
 21
-19.549896
  0
LINE
  8
0
 62
     4
 10
118.357079
 20
-22.949875
 11
118.357079
 21
-19.549881
  0
LINE
  8
0
 62
     4
 10
118.357094
 20
-22.949890
 11
120.357094
 21
-22.949890
  0
LINE
  8
0
 62
     4
 10
123.857086
 20
-46.249893
 11
123.857086
 21
-44.249893
  0
LINE
  8
0
  6
CENTER
 62
     1
 10
96.305840
 20
-21.249893
 11
122.367653
 21
-21.249893
  0
LINE
  8
0
 10
155.357086
 20
-23.249893
 11
120.357086
 21
-23.249893
  0
LINE
  8
0
 62
     4
 10
108.357086
 20
-35.399887
 11
112.352859
 21
-35.399887
  0
LINE
  8
0
 62
     4
 10
108.357086
 20
-37.099899
 11
112.808380
 21
-37.099899
  0
LINE
  8
0
 62
     4
 10
98.357071
 20
-35.929886
 11
108.357086
 21
-35.929886
  0
LINE
  8
0
 62
     4
 10
98.357071
 20
-36.569885
 11
108.357086
 21
-36.569885
  0
LINE
  8
0
 62
     4
 10
108.357071
 20
-37.099869
 11
108.357071
 21
-35.399872
  0
LINE
  8
0
 62
     4
 10
98.357071
 20
-36.569870
 11
98.357071
 21
-35.929886
  0
LINE
  8
0
 62
     1
 10
111.817024
 20
-33.399837
 11
113.344337
 21
-39.099850
  0
LINE
  8
0
 62
     1
 10
113.369965
 20
-33.399845
 11
114.897278
 21
-39.099838
  0
LINE
  8
0
 62
     4
 10
113.905777
 20
-35.399887
 11
118.357101
 21
-35.399887
  0
LINE
  8
0
 62
     4
 10
114.361298
 20
-37.099899
 11
118.357101
 21
-37.099899
  0
LINE
  8
0
 62
     4
 10
118.357086
 20
-34.549896
 11
120.357086
 21
-34.549896
  0
LINE
  8
0
 62
     4
 10
118.357071
 20
-37.949875
 11
118.357071
 21
-34.549881
  0
LINE
  8
0
 62
     4
 10
118.357086
 20
-37.949890
 11
120.357086
 21
-37.949890
  0
LINE
  8
0
  6
CENTER
 62
     1
 10
96.305832
 20
-36.249893
 11
122.367645
 21
-36.249893
  0
LINE
  8
0
 62
     1
 10
113.369987
 20
89.900078
 11
114.897293
 21
95.600067
  0
LINE
  8
0
  6
CENTER
 62
     1
 10
96.305832
 20
92.750122
 11
122.367645
 21
92.750122
  0
LINE
  8
0
  6
CENTER
 62
     1
 10
96.305832
 20
107.750122
 11
122.367645
 21
107.750122
  0
LINE
  8
0
 62
     1
 10
113.369987
 20
104.900063
 11
114.897293
 21
110.600052
  0
LINE
  8
0
 62
     1
 10
111.817001
 20
104.900070
 11
113.344322
 21
110.600090
  0
LINE
  8
0
 62
     1
 10
111.817009
 20
89.900070
 11
113.344330
 21
95.600090
  0
LINE
  8
0
  6
CENTER
 62
     2
 10
21.749985
 20
-132.178635
 11
21.749985
 21
-141.267838
  0
LINE
  8
0
 62
     4
 10
33.249954
 20
-133.749893
 11
33.249954
 21
-137.749893
  0
LINE
  8
0
 62
     4
 10
10.249954
 20
-137.749893
 11
33.249954
 21
-137.749893
  0
LINE
  8
0
 62
     4
 10
10.249954
 20
-133.749893
 11
10.249954
 21
-137.749893
  0
LINE
  8
0
 62
     4
 10
10.249954
 20
-133.749893
 11
33.249954
 21
-133.749893
  0
LINE
  8
0
 10
-85.750015
 20
-102.749893
 11
-62.750015
 21
-102.749893
  0
LINE
  8
0
 10
-85.750015
 20
-137.749893
 11
-62.750015
 21
-137.749893
  0
LINE
  8
0
  6
CENTER
 62
     2
 10
-74.250015
 20
-94.890915
 11
-74.250015
 21
-141.267838
  0
LINE
  8
0
 10
-66.250015
 20
-107.249893
 11
-62.750015
 21
-107.249893
  0
LINE
  8
0
 10
-66.250015
 20
-113.249893
 11
-62.750015
 21
-113.249893
  0
LINE
  8
0
 10
-85.750015
 20
-127.249893
 11
-82.250015
 21
-127.249893
  0
LINE
  8
0
 10
-85.750015
 20
-133.249893
 11
-82.250015
 21
-133.249893
  0
LINE
  8
0
 10
-83.338608
 20
-131.338547
 11
-81.282890
 21
-129.282822
  0
LINE
  8
0
 10
-83.410812
 20
-129.089172
 11
-81.219101
 21
-131.280884
  0
LINE
  8
0
 10
-67.338593
 20
-111.338562
 11
-65.282852
 21
-109.282814
  0
LINE
  8
0
 10
-67.410789
 20
-109.089142
 11
-65.219093
 21
-111.280846
  0
LINE
  8
0
  6
CENTER
 62
     2
 10
-86.250015
 20
-108.749893
 11
-76.250015
 21
-108.749893
  0
LINE
  8
0
  6
CENTER
 62
     2
 10
-72.250015
 20
-131.749893
 11
-62.250015
 21
-131.749893
  0
LINE
  8
0
  6
CENTER
 62
     2
 10
-67.250015
 20
-126.749893
 11
-67.250015
 21
-136.749893
  0
LINE
  8
0
  6
CENTER
 62
     2
 10
-81.250015
 20
-103.749893
 11
-81.250015
 21
-113.749893
  0
LINE
  8
0
 10
-85.750015
 20
-102.749893
 11
-85.750015
 21
-137.749893
  0
LINE
  8
0
 10
-62.750015
 20
-102.749893
 11
-62.750015
 21
-137.749893
  0
LINE
  8
0
 10
-85.750015
 20
-137.749893
 11
-85.750015
 21
-138.749893
  0
LINE
  8
0
 10
-62.750015
 20
-137.749893
 11
-62.750015
 21
-138.749893
  0
LINE
  8
0
 10
-61.750015
 20
-102.749893
 11
-38.750015
 21
-102.749893
  0
LINE
  8
0
 10
-61.750015
 20
-137.749893
 11
-38.750015
 21
-137.749893
  0
LINE
  8
0
  6
CENTER
 62
     2
 10
-50.250015
 20
-94.890915
 11
-50.250015
 21
-141.267838
  0
LINE
  8
0
 10
-42.250015
 20
-107.249893
 11
-38.750015
 21
-107.249893
  0
LINE
  8
0
 10
-42.250015
 20
-113.249893
 11
-38.750015
 21
-113.249893
  0
LINE
  8
0
 10
-61.750015
 20
-127.249893
 11
-58.250015
 21
-127.249893
  0
LINE
  8
0
 10
-61.750015
 20
-133.249893
 11
-58.250015
 21
-133.249893
  0
LINE
  8
0
 10
-59.338593
 20
-131.338562
 11
-57.282871
 21
-129.282837
  0
LINE
  8
0
 10
-59.410778
 20
-129.089157
 11
-57.219067
 21
-131.280869
  0
LINE
  8
0
 10
-43.338585
 20
-111.338554
 11
-41.282856
 21
-109.282829
  0
LINE
  8
0
 10
-43.410805
 20
-109.089142
 11
-41.219105
 21
-111.280846
  0
LINE
  8
0
  6
CENTER
 62
     2
 10
-62.250015
 20
-108.749893
 11
-52.250015
 21
-108.749893
  0
LINE
  8
0
  6
CENTER
 62
     2
 10
-48.250015
 20
-131.749893
 11
-38.250015
 21
-131.749893
  0
LINE
  8
0
  6
CENTER
 62
     2
 10
-43.250015
 20
-126.749893
 11
-43.250015
 21
-136.749893
  0
LINE
  8
0
  6
CENTER
 62
     2
 10
-57.250015
 20
-103.749893
 11
-57.250015
 21
-113.749893
  0
LINE
  8
0
 10
-61.750015
 20
-102.749893
 11
-61.750015
 21
-137.749893
  0
LINE
  8
0
 10
-38.750015
 20
-102.749893
 11
-38.750015
 21
-137.749893
  0
LINE
  8
0
 10
-61.750015
 20
-137.749893
 11
-61.750015
 21
-138.749893
  0
LINE
  8
0
 10
-38.750015
 20
-137.749893
 11
-38.750015
 21
-138.749893
  0
LINE
  8
0
 10
-14.750015
 20
-137.749878
 11
-14.750015
 21
-138.749878
  0
LINE
  8
0
 10
-37.750015
 20
-137.749878
 11
-14.750015
 21
-137.749878
  0
LINE
  8
0
 10
-37.750015
 20
-137.749878
 11
-37.750015
 21
-138.749878
  0
LINE
  8
0
 10
-13.750015
 20
-137.749893
 11
9.249985
 21
-137.749893
  0
LINE
  8
0
 10
-13.750015
 20
-137.749893
 11
-13.750015
 21
-138.749893
  0
LINE
  8
0
 10
9.249985
 20
-137.749893
 11
9.249985
 21
-138.749893
  0
LINE
  8
0
 10
10.249954
 20
-137.749893
 11
10.249954
 21
-138.749893
  0
LINE
  8
0
 10
33.249954
 20
-137.749893
 11
33.249954
 21
-138.749893
  0
LINE
  8
0
 10
-98.250015
 20
-138.749893
 11
45.749985
 21
-138.749893
  0
LINE
  8
0
 10
-98.250015
 20
-166.749893
 11
45.749985
 21
-166.749893
  0
LINE
  8
0
 10
-98.250015
 20
-143.749893
 11
45.749985
 21
-143.749893
  0
LINE
  8
0
 10
-98.250015
 20
-138.749893
 11
-98.250015
 21
-166.749893
  0
LINE
  8
0
 10
45.749985
 20
-138.749893
 11
45.749985
 21
-166.749893
  0
LINE
  8
0
 62
     4
 10
28.000000
 20
-132.081619
 11
28.000000
 21
-133.749893
  0
LINE
  8
0
 62
     4
 10
33.499969
 20
-132.081619
 11
33.499969
 21
-133.749893
  0
LINE
  8
0
 62
     4
 10
33.499969
 20
-133.049866
 11
27.999985
 21
-133.049866
  0
LINE
  8
0
 62
     4
 10
31.749985
 20
-131.049866
 11
29.749969
 21
-131.049866
  0
LINE
  8
0
 62
     4
 10
10.000000
 20
-132.081619
 11
10.000000
 21
-133.749893
  0
LINE
  8
0
 62
     4
 10
15.499969
 20
-132.081619
 11
15.499969
 21
-133.749893
  0
LINE
  8
0
 62
     4
 10
15.499969
 20
-133.049866
 11
9.999985
 21
-133.049866
  0
LINE
  8
0
 62
     4
 10
13.749985
 20
-131.049866
 11
11.749969
 21
-131.049866
  0
LINE
  8
0
 62
     1
 10
0.600058
 20
-94.199249
 11
-5.099971
 21
-95.726578
  0
LINE
  8
0
 62
     1
 10
0.600031
 20
-95.752205
 11
-5.099956
 21
-97.279518
  0
LINE
  8
0
  6
CENTER
 62
     1
 10
-0.950043
 20
-78.688072
 11
-0.950043
 21
-104.749893
  0
LINE
  8
0
 62
     4
 10
9.249985
 20
-102.749878
 11
9.249985
 21
-137.749878
  0
LINE
  8
0
 62
     4
 10
-13.750015
 20
-102.749878
 11
9.249985
 21
-102.749878
  0
LINE
  8
0
 62
     4
 10
-13.750015
 20
-102.749878
 11
-13.750015
 21
-137.749878
  0
LINE
  8
0
 62
     4
 10
-11.338228
 20
-131.338867
 11
-9.282509
 21
-129.283157
  0
LINE
  8
0
 62
     4
 10
-11.410907
 20
-129.089188
 11
-9.219206
 21
-131.280884
  0
LINE
  8
0
 62
     4
 10
5.749985
 20
-106.249878
 11
9.249985
 21
-106.249878
  0
LINE
  8
0
 62
     4
 10
-10.250015
 20
-126.249878
 11
-13.750015
 21
-126.249878
  0
LINE
  8
0
 62
     4
 10
-10.250015
 20
-134.249878
 11
-13.750015
 21
-134.249878
  0
LINE
  8
0
 62
     4
 10
6.838177
 20
-109.160995
 11
4.782461
 21
-111.216713
  0
LINE
  8
0
 62
     4
 10
6.910876
 20
-111.410599
 11
4.719153
 21
-109.218880
  0
LINE
  8
0
 62
     4
 10
5.749985
 20
-114.249878
 11
9.249985
 21
-114.249878
  0
LINE
  8
0
 62
     4
 10
-13.750015
 20
-137.749878
 11
9.249985
 21
-137.749878
  0
LINE
  8
0
 62
     4
 10
-1.800018
 20
-90.749878
 11
-1.800018
 21
-94.842346
  0
LINE
  8
0
 62
     4
 10
-0.100006
 20
-90.749878
 11
-0.100006
 21
-94.386826
  0
LINE
  8
0
 62
     4
 10
-1.270020
 20
-80.749847
 11
-1.270020
 21
-90.749878
  0
LINE
  8
0
 62
     4
 10
-0.630005
 20
-80.749847
 11
-0.630005
 21
-90.749878
  0
LINE
  8
0
 62
     4
 10
-0.100037
 20
-90.749847
 11
-1.800049
 21
-90.749847
  0
LINE
  8
0
 62
     4
 10
-0.630035
 20
-80.749847
 11
-1.270020
 21
-80.749847
  0
LINE
  8
0
 62
     4
 10
-14.750015
 20
-102.749878
 11
-14.750015
 21
-137.749878
  0
LINE
  8
0
 62
     4
 10
-37.750015
 20
-102.749878
 11
-14.750015
 21
-102.749878
  0
LINE
  8
0
 62
     4
 10
-37.750015
 20
-102.749878
 11
-37.750015
 21
-137.749878
  0
LINE
  8
0
 62
     4
 10
0.749985
 20
-100.749878
 11
0.749985
 21
-102.749878
  0
LINE
  8
0
 62
     4
 10
-35.338238
 20
-131.338852
 11
-33.282520
 21
-129.283142
  0
LINE
  8
0
 62
     4
 10
-35.410908
 20
-129.089203
 11
-33.219204
 21
-131.280899
  0
LINE
  8
0
 62
     4
 10
-18.250015
 20
-106.249878
 11
-14.750015
 21
-106.249878
  0
LINE
  8
0
 62
     4
 10
-34.250015
 20
-126.249878
 11
-37.750015
 21
-126.249878
  0
LINE
  8
0
 62
     4
 10
-34.250015
 20
-134.249878
 11
-37.750015
 21
-134.249878
  0
LINE
  8
0
 62
     4
 10
-17.161816
 20
-109.160995
 11
-19.217531
 21
-111.216721
  0
LINE
  8
0
 62
     4
 10
-17.089121
 20
-111.410614
 11
-19.280848
 21
-109.218887
  0
LINE
  8
0
 62
     4
 10
-18.250015
 20
-114.249878
 11
-14.750015
 21
-114.249878
  0
LINE
  8
0
 62
     4
 10
-5.250015
 20
-100.749878
 11
-5.250015
 21
-102.749878
  0
LINE
  8
0
 62
     4
 10
-5.250015
 20
-100.749878
 11
0.749985
 21
-100.749878
  0
LINE
  8
0
 62
     4
 10
-37.750015
 20
-137.749878
 11
-14.750015
 21
-137.749878
  0
LINE
  8
0
  6
CENTER
 62
     2
 10
-26.250015
 20
-93.976364
 11
-26.250015
 21
-141.267822
  0
LINE
  8
0
  6
CENTER
 62
     2
 10
-2.250015
 20
-93.976379
 11
-2.250015
 21
-141.267838
  0
LINE
  8
0
 62
     4
 10
-4.400024
 20
-90.749878
 11
-4.400024
 21
-95.539024
  0
LINE
  8
0
 62
     4
 10
-2.700012
 20
-90.749878
 11
-2.700012
 21
-95.083504
  0
LINE
  8
0
 62
     4
 10
-3.870026
 20
-80.749847
 11
-3.870026
 21
-90.749878
  0
LINE
  8
0
 62
     4
 10
-3.230011
 20
-80.749847
 11
-3.230011
 21
-90.749878
  0
LINE
  8
0
 62
     4
 10
-2.700043
 20
-90.749847
 11
-4.400055
 21
-90.749847
  0
LINE
  8
0
 62
     4
 10
-3.230042
 20
-80.749847
 11
-3.870026
 21
-80.749847
  0
LINE
  8
0
  6
CENTER
 62
     1
 10
-3.550049
 20
-78.688072
 11
-3.550049
 21
-104.749893
  0
LINE
  8
0
 62
     4
 10
-4.400024
 20
-97.091995
 11
-4.400024
 21
-100.749878
  0
LINE
  8
0
 62
     4
 10
-2.700012
 20
-96.636475
 11
-2.700012
 21
-100.749878
  0
LINE
  8
0
 62
     4
 10
-1.800018
 20
-96.395317
 11
-1.800018
 21
-100.749878
  0
LINE
  8
0
 62
     4
 10
-0.100006
 20
-95.939804
 11
-0.100006
 21
-100.749878
  0
LINE
  8
0
 62
     4
 10
-72.100006
 20
-95.939804
 11
-72.100006
 21
-100.749878
  0
LINE
  8
0
 62
     1
 10
-71.399940
 20
-94.199234
 11
-77.099968
 21
-95.726562
  0
LINE
  8
0
 62
     1
 10
-71.399963
 20
-95.752220
 11
-77.099945
 21
-97.279533
  0
LINE
  8
0
  6
CENTER
 62
     1
 10
-72.950043
 20
-78.688072
 11
-72.950043
 21
-104.749893
  0
LINE
  8
0
 62
     4
 10
-73.800018
 20
-90.749878
 11
-73.800018
 21
-94.842346
  0
LINE
  8
0
 62
     4
 10
-72.100006
 20
-90.749878
 11
-72.100006
 21
-94.386826
  0
LINE
  8
0
 62
     4
 10
-73.270020
 20
-80.749847
 11
-73.270020
 21
-90.749878
  0
LINE
  8
0
 62
     4
 10
-72.630005
 20
-80.749847
 11
-72.630005
 21
-90.749878
  0
LINE
  8
0
 62
     4
 10
-72.100037
 20
-90.749847
 11
-73.800049
 21
-90.749847
  0
LINE
  8
0
 62
     4
 10
-72.630035
 20
-80.749847
 11
-73.270020
 21
-80.749847
  0
LINE
  8
0
 62
     4
 10
-71.250015
 20
-100.749878
 11
-71.250015
 21
-102.749878
  0
LINE
  8
0
 62
     4
 10
-77.250015
 20
-100.749878
 11
-77.250015
 21
-102.749878
  0
LINE
  8
0
 62
     4
 10
-77.250015
 20
-100.749878
 11
-71.250015
 21
-100.749878
  0
LINE
  8
0
 62
     4
 10
-76.400024
 20
-90.749878
 11
-76.400024
 21
-95.539024
  0
LINE
  8
0
 62
     4
 10
-74.700012
 20
-90.749878
 11
-74.700012
 21
-95.083504
  0
LINE
  8
0
 62
     4
 10
-75.870026
 20
-80.749847
 11
-75.870026
 21
-90.749878
  0
LINE
  8
0
 62
     4
 10
-75.230011
 20
-80.749847
 11
-75.230011
 21
-90.749878
  0
LINE
  8
0
 62
     4
 10
-74.700043
 20
-90.749847
 11
-76.400055
 21
-90.749847
  0
LINE
  8
0
 62
     4
 10
-75.230042
 20
-80.749847
 11
-75.870026
 21
-80.749847
  0
LINE
  8
0
  6
CENTER
 62
     1
 10
-75.550049
 20
-78.688072
 11
-75.550049
 21
-104.749893
  0
LINE
  8
0
 62
     4
 10
-76.400024
 20
-97.091995
 11
-76.400024
 21
-100.749878
  0
LINE
  8
0
 62
     4
 10
-74.700012
 20
-96.636475
 11
-74.700012
 21
-100.749878
  0
LINE
  8
0
 62
     4
 10
-73.800018
 20
-96.395317
 11
-73.800018
 21
-100.749878
  0
LINE
  8
0
 62
     4
 10
-48.100006
 20
-95.939804
 11
-48.100006
 21
-100.749878
  0
LINE
  8
0
 62
     1
 10
-47.399940
 20
-94.199242
 11
-53.099968
 21
-95.726578
  0
LINE
  8
0
 62
     1
 10
-47.399963
 20
-95.752220
 11
-53.099949
 21
-97.279533
  0
LINE
  8
0
  6
CENTER
 62
     1
 10
-48.950043
 20
-78.688072
 11
-48.950043
 21
-104.749893
  0
LINE
  8
0
 62
     4
 10
-49.800018
 20
-90.749878
 11
-49.800018
 21
-94.842346
  0
LINE
  8
0
 62
     4
 10
-48.100006
 20
-90.749878
 11
-48.100006
 21
-94.386826
  0
LINE
  8
0
 62
     4
 10
-49.270020
 20
-80.749847
 11
-49.270020
 21
-90.749878
  0
LINE
  8
0
 62
     4
 10
-48.630005
 20
-80.749847
 11
-48.630005
 21
-90.749878
  0
LINE
  8
0
 62
     4
 10
-48.100037
 20
-90.749847
 11
-49.800049
 21
-90.749847
  0
LINE
  8
0
 62
     4
 10
-48.630035
 20
-80.749847
 11
-49.270020
 21
-80.749847
  0
LINE
  8
0
 62
     4
 10
-47.250015
 20
-100.749878
 11
-47.250015
 21
-102.749878
  0
LINE
  8
0
 62
     4
 10
-53.250015
 20
-100.749878
 11
-53.250015
 21
-102.749878
  0
LINE
  8
0
 62
     4
 10
-53.250015
 20
-100.749878
 11
-47.250015
 21
-100.749878
  0
LINE
  8
0
 62
     4
 10
-52.400024
 20
-90.749878
 11
-52.400024
 21
-95.539024
  0
LINE
  8
0
 62
     4
 10
-50.700012
 20
-90.749878
 11
-50.700012
 21
-95.083504
  0
LINE
  8
0
 62
     4
 10
-51.870026
 20
-80.749847
 11
-51.870026
 21
-90.749878
  0
LINE
  8
0
 62
     4
 10
-51.230011
 20
-80.749847
 11
-51.230011
 21
-90.749878
  0
LINE
  8
0
 62
     4
 10
-50.700043
 20
-90.749847
 11
-52.400055
 21
-90.749847
  0
LINE
  8
0
 62
     4
 10
-51.230042
 20
-80.749847
 11
-51.870026
 21
-80.749847
  0
LINE
  8
0
  6
CENTER
 62
     1
 10
-51.550049
 20
-78.688072
 11
-51.550049
 21
-104.749893
  0
LINE
  8
0
 62
     4
 10
-52.400024
 20
-97.091995
 11
-52.400024
 21
-100.749878
  0
LINE
  8
0
 62
     4
 10
-50.700012
 20
-96.636475
 11
-50.700012
 21
-100.749878
  0
LINE
  8
0
 62
     4
 10
-49.800018
 20
-96.395317
 11
-49.800018
 21
-100.749878
  0
LINE
  8
0
 62
     4
 10
-24.100006
 20
-95.939804
 11
-24.100006
 21
-100.749878
  0
LINE
  8
0
 62
     1
 10
-23.399956
 20
-94.199249
 11
-29.099985
 21
-95.726585
  0
LINE
  8
0
 62
     1
 10
-23.399963
 20
-95.752220
 11
-29.099951
 21
-97.279533
  0
LINE
  8
0
  6
CENTER
 62
     1
 10
-24.950043
 20
-78.688072
 11
-24.950043
 21
-104.749893
  0
LINE
  8
0
 62
     4
 10
-25.800018
 20
-90.749878
 11
-25.800018
 21
-94.842346
  0
LINE
  8
0
 62
     4
 10
-24.100006
 20
-90.749878
 11
-24.100006
 21
-94.386826
  0
LINE
  8
0
 62
     4
 10
-25.270020
 20
-80.749847
 11
-25.270020
 21
-90.749878
  0
LINE
  8
0
 62
     4
 10
-24.630005
 20
-80.749847
 11
-24.630005
 21
-90.749878
  0
LINE
  8
0
 62
     4
 10
-24.100037
 20
-90.749847
 11
-25.800049
 21
-90.749847
  0
LINE
  8
0
 62
     4
 10
-24.630035
 20
-80.749847
 11
-25.270020
 21
-80.749847
  0
LINE
  8
0
 62
     4
 10
-23.250015
 20
-100.749878
 11
-23.250015
 21
-102.749878
  0
LINE
  8
0
 62
     4
 10
-29.250015
 20
-100.749878
 11
-29.250015
 21
-102.749878
  0
LINE
  8
0
 62
     4
 10
-29.250015
 20
-100.749878
 11
-23.250015
 21
-100.749878
  0
LINE
  8
0
 62
     4
 10
-28.400024
 20
-90.749878
 11
-28.400024
 21
-95.539024
  0
LINE
  8
0
 62
     4
 10
-26.700012
 20
-90.749878
 11
-26.700012
 21
-95.083504
  0
LINE
  8
0
 62
     4
 10
-27.870026
 20
-80.749847
 11
-27.870026
 21
-90.749878
  0
LINE
  8
0
 62
     4
 10
-27.230011
 20
-80.749847
 11
-27.230011
 21
-90.749878
  0
LINE
  8
0
 62
     4
 10
-26.700043
 20
-90.749847
 11
-28.400055
 21
-90.749847
  0
LINE
  8
0
 62
     4
 10
-27.230042
 20
-80.749847
 11
-27.870026
 21
-80.749847
  0
LINE
  8
0
  6
CENTER
 62
     1
 10
-27.550049
 20
-78.688072
 11
-27.550049
 21
-104.749893
  0
LINE
  8
0
 62
     4
 10
-28.400024
 20
-97.091995
 11
-28.400024
 21
-100.749878
  0
LINE
  8
0
 62
     4
 10
-26.700012
 20
-96.636475
 11
-26.700012
 21
-100.749878
  0
LINE
  8
0
 62
     4
 10
-25.800018
 20
-96.395317
 11
-25.800018
 21
-100.749878
  0
LINE
  8
0
  6
CENTER
 62
     2
 10
-93.250015
 20
-161.749893
 11
-93.250015
 21
-171.749893
  0
LINE
  8
0
  6
CENTER
 62
     2
 10
40.749985
 20
-161.749893
 11
40.749985
 21
-171.749893
  0
LINE
  8
0
 62
     4
 10
-36.750015
 20
-103.749878
 11
-36.750015
 21
-126.249878
  0
LINE
  8
0
 62
     4
 10
-36.750015
 20
-103.749878
 11
-15.750015
 21
-103.749878
  0
LINE
  8
0
 62
     4
 10
-15.750015
 20
-103.749878
 11
-15.750015
 21
-106.249878
  0
LINE
  8
0
 62
     4
 10
-12.750015
 20
-103.749878
 11
-12.750015
 21
-126.249878
  0
LINE
  8
0
 62
     4
 10
-12.750015
 20
-103.749878
 11
8.249985
 21
-103.749878
  0
LINE
  8
0
 62
     4
 10
8.249985
 20
-103.749878
 11
8.249985
 21
-106.249878
  0
LINE
  8
0
 62
     4
 10
-12.750015
 20
-136.749878
 11
8.249985
 21
-136.749878
  0
LINE
  8
0
 62
     4
 10
-36.750015
 20
-136.749878
 11
-15.750015
 21
-136.749878
  0
LINE
  8
0
 62
     4
 10
-36.750015
 20
-134.249878
 11
-36.750015
 21
-136.749878
  0
LINE
  8
0
 62
     4
 10
-15.750015
 20
-114.249878
 11
-15.750015
 21
-136.749878
  0
LINE
  8
0
 62
     4
 10
-12.750015
 20
-134.249878
 11
-12.750015
 21
-136.749878
  0
LINE
  8
0
 62
     4
 10
8.249985
 20
-114.249878
 11
8.249985
 21
-136.749878
  0
LINE
  8
0
 62
     4
 10
-37.750019
 20
-102.749886
 11
-36.750019
 21
-103.749886
  0
LINE
  8
0
 62
     4
 10
-14.750013
 20
-102.749863
 11
-15.750014
 21
-103.749863
  0
LINE
  8
0
 62
     4
 10
-13.750014
 20
-102.749870
 11
-12.750013
 21
-103.749870
  0
LINE
  8
0
 62
     4
 10
9.249989
 20
-102.749863
 11
8.249988
 21
-103.749863
  0
LINE
  8
0
 62
     4
 10
9.249983
 20
-137.749878
 11
8.249982
 21
-136.749863
  0
LINE
  8
0
 62
     4
 10
-13.750014
 20
-137.749863
 11
-12.750013
 21
-136.749863
  0
LINE
  8
0
 62
     4
 10
-14.750021
 20
-137.749878
 11
-15.750017
 21
-136.749893
  0
LINE
  8
0
 62
     4
 10
-37.750011
 20
-137.749863
 11
-36.750011
 21
-136.749863
  0
ARC
  8
0
 62
     4
 10
30.749985
 20
41.250111
 40
3.000000
 50
0.000000
 51
0.399688
  0
ARC
  8
0
 62
     4
 10
30.749985
 20
41.750111
 40
3.000000
 50
0.000000
 51
2.505129
  0
ARC
  8
0
 62
     4
 10
30.749985
 20
40.250111
 40
3.000000
 50
0.000000
 51
0.399688
  0
ARC
  8
0
 62
     4
 10
30.749985
 20
40.750111
 40
3.000000
 50
0.000000
 51
2.505129
  0
ARC
  8
0
 62
     4
 10
30.749985
 20
40.750111
 40
3.000000
 50
0.000000
 51
2.440371
  0
CIRCLE
  8
0
 10
-74.250015
 20
76.250107
 40
2.299999
  0
CIRCLE
  8
0
 10
-74.250015
 20
76.250107
 40
1.500000
  0
CIRCLE
  8
0
 10
-50.250015
 20
76.250107
 40
2.299999
  0
CIRCLE
  8
0
 10
-50.250015
 20
76.250107
 40
1.500000
  0
CIRCLE
  8
0
 10
-26.250023
 20
-4.749859
 40
2.299999
  0
CIRCLE
  8
0
 10
-26.250023
 20
-4.749859
 40
1.500000
  0
CIRCLE
  8
0
 10
-26.250015
 20
76.250122
 40
1.500000
  0
CIRCLE
  8
0
 10
-26.250015
 20
76.250122
 40
2.299999
  0
CIRCLE
  8
0
 10
-2.250023
 20
-19.749886
 40
2.299999
  0
CIRCLE
  8
0
 10
-2.250023
 20
-19.749886
 40
1.500000
  0
CIRCLE
  8
0
 10
-2.250015
 20
91.250114
 40
2.299999
  0
CIRCLE
  8
0
 10
-2.250015
 20
91.250114
 40
1.500000
  0
CIRCLE
  8
0
 10
-93.250015
 20
25.750122
 40
2.250000
  0
CIRCLE
  8
0
 10
40.749985
 20
25.750122
 40
2.250000
  0
CIRCLE
  8
0
 10
-93.250015
 20
45.750122
 40
2.250000
  0
CIRCLE
  8
0
 10
40.749985
 20
45.750122
 40
2.250000
  0
CIRCLE
  8
0
 10
12.749985
 20
15.750118
 40
2.250000
  0
CIRCLE
  8
0
 10
30.749985
 20
55.750118
 40
2.250000
  0
CIRCLE
  8
0
 62
     2
 10
-0.250015
 20
46.750118
 40
6.578500
  0
CIRCLE
  8
0
 10
-0.250015
 20
46.750118
 40
5.722500
  0
CIRCLE
  8
0
 62
     2
 10
-4.250015
 20
24.750118
 40
6.578500
  0
CIRCLE
  8
0
 10
-4.250015
 20
24.750118
 40
5.722500
  0
ARC
  8
0
 10
-11.250015
 20
15.750118
 40
3.000000
 50
270.000031
 51
89.999985
  0
ARC
  8
0
 10
6.749985
 20
55.750118
 40
3.000000
 50
89.999985
 51
270.000000
  0
CIRCLE
  8
0
 10
-83.250015
 20
15.750118
 40
2.250000
  0
CIRCLE
  8
0
 10
-65.250015
 20
55.750118
 40
2.250000
  0
CIRCLE
  8
0
 62
     2
 10
-72.250015
 20
46.750118
 40
6.578500
  0
CIRCLE
  8
0
 10
-72.250015
 20
46.750118
 40
5.722500
  0
CIRCLE
  8
0
 62
     2
 10
-76.250015
 20
24.750118
 40
6.578500
  0
CIRCLE
  8
0
 10
-76.250015
 20
24.750118
 40
5.722500
  0
ARC
  8
0
 10
-83.250015
 20
15.750118
 40
3.000000
 50
270.000000
 51
90.000000
  0
ARC
  8
0
 10
-65.250015
 20
55.750118
 40
3.000000
 50
90.000000
 51
270.000000
  0
CIRCLE
  8
0
 10
-59.250015
 20
15.750118
 40
2.250000
  0
CIRCLE
  8
0
 10
-41.250015
 20
55.750118
 40
2.250000
  0
CIRCLE
  8
0
 62
     2
 10
-48.250015
 20
46.750118
 40
6.578500
  0
CIRCLE
  8
0
 10
-48.250015
 20
46.750118
 40
5.722500
  0
CIRCLE
  8
0
 62
     2
 10
-52.250015
 20
24.750118
 40
6.578500
  0
CIRCLE
  8
0
 10
-52.250015
 20
24.750118
 40
5.722500
  0
ARC
  8
0
 10
-59.250015
 20
15.750118
 40
3.000000
 50
270.000000
 51
90.000000
  0
ARC
  8
0
 10
-41.250015
 20
55.750118
 40
3.000000
 50
90.000000
 51
270.000000
  0
CIRCLE
  8
0
 10
-35.250015
 20
15.750118
 40
2.250000
  0
CIRCLE
  8
0
 10
-17.250015
 20
55.750118
 40
2.250000
  0
CIRCLE
  8
0
 62
     2
 10
-24.250015
 20
46.750118
 40
6.578500
  0
CIRCLE
  8
0
 10
-24.250015
 20
46.750118
 40
5.722500
  0
CIRCLE
  8
0
 62
     2
 10
-28.250015
 20
24.750118
 40
6.578500
  0
CIRCLE
  8
0
 10
-28.250015
 20
24.750118
 40
5.722500
  0
ARC
  8
0
 10
-35.250015
 20
15.750118
 40
3.000000
 50
270.000000
 51
90.000000
  0
ARC
  8
0
 10
-17.250015
 20
55.750118
 40
3.000000
 50
90.000000
 51
270.000000
  0
CIRCLE
  8
0
 10
6.749985
 20
55.750118
 40
2.250000
  0
CIRCLE
  8
0
 10
-11.250015
 20
15.750118
 40
2.250000
  0
ARC
  8
0
 62
     4
 10
-65.500015
 20
101.450119
 40
2.000003
 50
40.541080
 51
90.000000
  0
ARC
  8
0
 62
     4
 10
-67.000015
 20
101.450119
 40
2.000000
 50
90.000000
 51
139.458923
  0
ARC
  8
0
 62
     4
 10
-81.500015
 20
101.450119
 40
1.999996
 50
40.541531
 51
90.000000
  0
ARC
  8
0
 62
     4
 10
-83.000015
 20
101.450119
 40
2.000001
 50
84.816414
 51
90.000000
  0
ARC
  8
0
 62
     4
 10
-83.000015
 20
101.450119
 40
2.000000
 50
90.000000
 51
139.458298
  0
ARC
  8
0
 62
     4
 10
-72.950027
 20
92.750107
 40
1.699997
 50
269.999756
 51
90.000259
  0
ARC
  8
0
 62
     4
 10
-75.550003
 20
92.750107
 40
1.699997
 50
90.000000
 51
270.000000
  0
CIRCLE
  8
0
 62
     4
 10
-75.550003
 20
92.750107
 40
0.850000
  0
CIRCLE
  8
0
 62
     4
 10
-72.950027
 20
92.750107
 40
0.850000
  0
ARC
  8
0
 62
     4
 10
-41.500015
 20
101.450119
 40
2.000003
 50
40.541080
 51
90.000000
  0
ARC
  8
0
 62
     4
 10
-43.000015
 20
101.450119
 40
2.000000
 50
90.000000
 51
139.458923
  0
ARC
  8
0
 62
     4
 10
-57.500015
 20
101.450119
 40
1.999999
 50
40.541458
 51
90.000000
  0
ARC
  8
0
 62
     4
 10
-59.000015
 20
101.450119
 40
2.000001
 50
84.816307
 51
90.000000
  0
ARC
  8
0
 62
     4
 10
-59.000015
 20
101.450119
 40
2.000000
 50
90.000000
 51
139.458298
  0
ARC
  8
0
 62
     4
 10
-48.950027
 20
92.750107
 40
1.699997
 50
269.999878
 51
90.000130
  0
ARC
  8
0
 62
     4
 10
-51.550003
 20
92.750107
 40
1.699997
 50
89.999870
 51
270.000122
  0
CIRCLE
  8
0
 62
     4
 10
-51.550003
 20
92.750107
 40
0.850000
  0
CIRCLE
  8
0
 62
     4
 10
-48.950027
 20
92.750107
 40
0.850000
  0
ARC
  8
0
 62
     4
 10
-17.500015
 20
101.450134
 40
2.000001
 50
40.541115
 51
90.000000
  0
ARC
  8
0
 62
     4
 10
-19.000015
 20
101.450134
 40
2.000000
 50
90.000000
 51
139.458878
  0
ARC
  8
0
 62
     4
 10
-33.500015
 20
101.450134
 40
1.999997
 50
40.541492
 51
90.000000
  0
ARC
  8
0
 62
     4
 10
-35.000015
 20
101.450134
 40
2.000001
 50
84.816307
 51
90.000000
  0
ARC
  8
0
 62
     4
 10
-35.000015
 20
101.450134
 40
2.000000
 50
90.000000
 51
139.458298
  0
ARC
  8
0
 62
     4
 10
-24.950027
 20
92.750122
 40
1.699997
 50
269.999878
 51
90.000130
  0
ARC
  8
0
 62
     4
 10
-27.550003
 20
92.750122
 40
1.699997
 50
89.999870
 51
270.000122
  0
CIRCLE
  8
0
 62
     4
 10
-27.550003
 20
92.750122
 40
0.850000
  0
CIRCLE
  8
0
 62
     4
 10
-24.950027
 20
92.750122
 40
0.850000
  0
ARC
  8
0
 62
     4
 10
6.499985
 20
116.450127
 40
2.000001
 50
40.541115
 51
89.999985
  0
ARC
  8
0
 62
     4
 10
4.999985
 20
116.450127
 40
2.000000
 50
89.999985
 51
139.458893
  0
ARC
  8
0
 62
     4
 10
-9.500015
 20
116.450127
 40
1.999998
 50
40.541477
 51
89.999969
  0
ARC
  8
0
 62
     4
 10
-11.000015
 20
116.450127
 40
2.000001
 50
84.816307
 51
89.999969
  0
ARC
  8
0
 62
     4
 10
-11.000015
 20
116.450127
 40
2.000000
 50
89.999969
 51
139.458328
  0
ARC
  8
0
 62
     4
 10
-0.950027
 20
107.750114
 40
1.699997
 50
269.999847
 51
90.000145
  0
ARC
  8
0
 62
     4
 10
-3.550003
 20
107.750114
 40
1.699997
 50
89.999870
 51
270.000122
  0
CIRCLE
  8
0
 62
     4
 10
-3.550003
 20
107.750114
 40
0.850000
  0
CIRCLE
  8
0
 62
     4
 10
-0.950027
 20
107.750114
 40
0.850000
  0
ARC
  8
0
 62
     4
 10
-35.000019
 20
-29.949867
 40
1.999998
 50
220.541107
 51
270.000000
  0
ARC
  8
0
 62
     4
 10
-33.500019
 20
-29.949867
 40
2.000000
 50
270.000000
 51
319.458923
  0
ARC
  8
0
 62
     4
 10
-19.000015
 20
-29.949875
 40
2.000000
 50
220.541580
 51
270.000000
  0
ARC
  8
0
 62
     4
 10
-17.500015
 20
-29.949875
 40
2.000001
 50
264.816315
 51
270.000000
  0
ARC
  8
0
 62
     4
 10
-17.500015
 20
-29.949875
 40
2.000000
 50
270.000000
 51
319.458374
  0
ARC
  8
0
 62
     4
 10
-27.550003
 20
-21.249863
 40
1.699997
 50
89.999870
 51
270.000183
  0
ARC
  8
0
 62
     4
 10
-24.950027
 20
-21.249863
 40
1.699997
 50
269.999878
 51
90.000130
  0
CIRCLE
  8
0
 62
     4
 10
-24.950027
 20
-21.249863
 40
0.850000
  0
CIRCLE
  8
0
 62
     4
 10
-27.550003
 20
-21.249863
 40
0.850000
  0
ARC
  8
0
 62
     4
 10
-11.000015
 20
-44.949898
 40
2.000001
 50
220.541122
 51
270.000000
  0
ARC
  8
0
 62
     4
 10
-9.500015
 20
-44.949898
 40
2.000000
 50
270.000000
 51
319.458893
  0
ARC
  8
0
 62
     4
 10
4.999985
 20
-44.949905
 40
2.000000
 50
220.541565
 51
270.000000
  0
ARC
  8
0
 62
     4
 10
6.499985
 20
-44.949905
 40
2.000001
 50
264.816345
 51
270.000000
  0
ARC
  8
0
 62
     4
 10
6.499985
 20
-44.949905
 40
2.000000
 50
270.000000
 51
319.458405
  0
ARC
  8
0
 62
     4
 10
-3.550003
 20
-36.249886
 40
1.699997
 50
89.999855
 51
270.000153
  0
ARC
  8
0
 62
     4
 10
-0.950027
 20
-36.249886
 40
1.699997
 50
269.999878
 51
90.000130
  0
CIRCLE
  8
0
 62
     4
 10
-0.950027
 20
-36.249886
 40
0.850000
  0
CIRCLE
  8
0
 62
     4
 10
-3.550003
 20
-36.249886
 40
0.850000
  0
CIRCLE
  8
0
 62
     2
 10
165.357056
 20
35.750114
 40
6.600000
  0
CIRCLE
  8
0
 10
165.357056
 20
35.750114
 40
5.750000
  0
CIRCLE
  8
0
 62
     2
 10
173.357056
 20
15.750114
 40
6.600000
  0
CIRCLE
  8
0
 10
173.357056
 20
15.750114
 40
5.750000
  0
CIRCLE
  8
0
 10
173.357056
 20
55.750114
 40
5.750000
  0
CIRCLE
  8
0
 62
     2
 10
173.357056
 20
55.750114
 40
6.600000
  0
ARC
  8
0
 10
150.657074
 20
14.750111
 40
2.000000
 50
179.999939
 51
241.043991
  0
ARC
  8
0
 10
150.657074
 20
16.750126
 40
2.000003
 50
118.955994
 51
180.000000
  0
ARC
  8
0
 10
122.657082
 20
54.750111
 40
2.000000
 50
179.999893
 51
241.044174
  0
ARC
  8
0
 10
122.657082
 20
56.750126
 40
1.999998
 50
118.955826
 51
180.000000
  0
ARC
  8
0
 10
150.657074
 20
56.750126
 40
2.000002
 50
118.956017
 51
180.000000
  0
ARC
  8
0
 10
150.657074
 20
54.750111
 40
2.000000
 50
179.999893
 51
241.043976
  0
ARC
  8
0
 62
     4
 10
147.107086
 20
116.450134
 40
2.000000
 50
90.000000
 51
180.000000
  0
ARC
  8
0
 62
     4
 10
148.607086
 20
116.450134
 40
2.000000
 50
0.000000
 51
90.000000
  0
ARC
  8
0
 62
     4
 10
127.107086
 20
116.450134
 40
2.000000
 50
90.000000
 51
139.458298
  0
ARC
  8
0
 62
     4
 10
128.607086
 20
116.450134
 40
2.000004
 50
40.787987
 51
90.000000
  0
ARC
  8
0
 62
     4
 10
128.607086
 20
-44.949905
 40
2.000000
 50
270.000000
 51
0.000000
  0
ARC
  8
0
 62
     4
 10
127.107086
 20
-44.949905
 40
2.000000
 50
180.000107
 51
270.000000
  0
ARC
  8
0
 62
     4
 10
148.607086
 20
-44.949905
 40
2.000000
 50
270.000000
 51
319.458313
  0
ARC
  8
0
 62
     4
 10
147.107086
 20
-44.949905
 40
1.999995
 50
220.788361
 51
270.000000
  0
ARC
  8
0
 62
     4
 10
-34.250015
 20
-130.249878
 40
4.000000
 50
270.000000
 51
90.000000
  0
CIRCLE
  8
0
 62
     4
 10
-18.250015
 20
-110.249878
 40
2.750000
  0
CIRCLE
  8
0
 62
     4
 10
-34.250015
 20
-130.249878
 40
2.750000
  0
ARC
  8
0
 62
     4
 10
-18.250015
 20
-110.249878
 40
4.000000
 50
90.000031
 51
270.000000
  0
ARC
  8
0
 62
     4
 10
-10.250015
 20
-130.249878
 40
4.000000
 50
270.000000
 51
89.999985
  0
ARC
  8
0
 10
29.749954
 20
-110.249893
 40
3.000000
 50
0.000000
 51
2.873163
  0
ARC
  8
0
 10
-82.250015
 20
-130.249893
 40
3.000000
 50
0.000000
 51
90.000000
  0
ARC
  8
0
 10
-66.250015
 20
-110.249893
 40
3.000000
 50
0.000000
 51
2.873163
  0
ARC
  8
0
 10
-66.250015
 20
-110.249893
 40
3.000000
 50
90.000000
 51
270.000000
  0
ARC
  8
0
 10
-82.250015
 20
-130.249893
 40
3.000000
 50
270.000000
 51
0.000000
  0
CIRCLE
  8
0
 10
-66.250015
 20
-110.249893
 40
2.750000
  0
CIRCLE
  8
0
 10
-82.250015
 20
-130.249893
 40
2.750000
  0
CIRCLE
  8
0
 10
-81.250015
 20
-108.749893
 40
2.299999
  0
CIRCLE
  8
0
 10
-67.250015
 20
-131.749893
 40
2.299999
  0
CIRCLE
  8
0
 62
     2
 10
-81.250015
 20
-108.749893
 40
1.500000
  0
CIRCLE
  8
0
 62
     2
 10
-67.250015
 20
-131.749893
 40
1.500000
  0
CIRCLE
  8
0
 10
-81.250015
 20
-108.749893
 40
1.200000
  0
CIRCLE
  8
0
 10
-67.250015
 20
-131.749893
 40
1.200000
  0
ARC
  8
0
 10
-58.250015
 20
-130.249893
 40
3.000000
 50
0.000000
 51
90.000000
  0
ARC
  8
0
 10
-42.250015
 20
-110.249893
 40
3.000000
 50
0.000000
 51
2.873163
  0
ARC
  8
0
 10
-42.250015
 20
-110.249893
 40
3.000000
 50
90.000000
 51
270.000000
  0
ARC
  8
0
 10
-58.250015
 20
-130.249893
 40
3.000000
 50
270.000000
 51
0.000000
  0
CIRCLE
  8
0
 10
-42.250015
 20
-110.249893
 40
2.750000
  0
CIRCLE
  8
0
 10
-58.250015
 20
-130.249893
 40
2.750000
  0
CIRCLE
  8
0
 10
-57.250015
 20
-108.749893
 40
2.299999
  0
CIRCLE
  8
0
 10
-43.250015
 20
-131.749893
 40
2.299999
  0
CIRCLE
  8
0
 62
     2
 10
-57.250015
 20
-108.749893
 40
1.500000
  0
CIRCLE
  8
0
 62
     2
 10
-43.250015
 20
-131.749893
 40
1.500000
  0
CIRCLE
  8
0
 10
-57.250015
 20
-108.749893
 40
1.200000
  0
CIRCLE
  8
0
 10
-43.250015
 20
-131.749893
 40
1.200000
  0
ARC
  8
0
 62
     4
 10
29.749969
 20
-133.049881
 40
2.000000
 50
89.999947
 51
151.044006
  0
ARC
  8
0
 62
     4
 10
31.750000
 20
-133.049881
 40
2.000002
 50
28.956017
 51
90.000000
  0
ARC
  8
0
 62
     4
 10
13.750000
 20
-133.049881
 40
2.000003
 50
28.956003
 51
90.000000
  0
ARC
  8
0
 62
     4
 10
11.749969
 20
-133.049881
 40
2.000000
 50
89.999947
 51
151.043991
  0
ARC
  8
0
 62
     4
 10
5.749985
 20
-110.249878
 40
4.000000
 50
90.000031
 51
270.000000
  0
CIRCLE
  8
0
 62
     4
 10
-10.250015
 20
-130.249878
 40
2.750000
  0
CIRCLE
  8
0
 62
     4
 10
5.749985
 20
-110.249878
 40
2.750000
  0
TEXT
  8
0
 10
174.200241
 20
180.830002
 40
6.300000
  1
DATE: NOV ,1993
 50
0.000000
 41
1.052632
 51
0.000000
  7
STANDARD
  0
TEXT
  8
0
 10
167.564667
 20
-192.100006
 40
9.000000
  1
KOGANEI CORP.
 50
0.000000
 41
1.052632
 51
0.000000
  7
STANDARD
  0
TEXT
  8
0
 10
-237.649719
 20
180.830002
 40
6.300000
  1
240MF
 50
0.000000
 41
1.052632
 51
0.000000
  7
STANDARD
  0
TEXT
  8
0
 10
-270.049713
 20
155.830002
 40
6.300000
  1
MODEL:240M5F
 50
0.000000
 41
1.052632
 51
0.000000
  7
STANDARD
  0
TEXT
  8
0
 10
-255.785309
 20
-93.050003
 40
4.500000
  1
240M2F
 50
0.000000
 41
1.052632
 51
0.000000
  7
STANDARD
  0
TEXT
  8
0
 10
-255.785309
 20
-103.050003
 40
4.500000
  1
240M3F
 50
0.000000
 41
1.052632
 51
0.000000
  7
STANDARD
  0
TEXT
  8
0
 10
-255.785309
 20
-113.050003
 40
4.500000
  1
240M4F
 50
0.000000
 41
1.052632
 51
0.000000
  7
STANDARD
  0
TEXT
  8
0
 10
-255.785309
 20
-123.050003
 40
4.500000
  1
240M5F
 50
0.000000
 41
1.052632
 51
0.000000
  7
STANDARD
  0
TEXT
  8
0
 10
-255.785309
 20
-133.050003
 40
4.500000
  1
240M6F
 50
0.000000
 41
1.052632
 51
0.000000
  7
STANDARD
  0
TEXT
  8
0
 10
-255.785309
 20
-143.050003
 40
4.500000
  1
240M7F
 50
0.000000
 41
1.052632
 51
0.000000
  7
STANDARD
  0
TEXT
  8
0
 10
-255.785309
 20
-153.050003
 40
4.500000
  1
240M8F
 50
0.000000
 41
1.052632
 51
0.000000
  7
STANDARD
  0
TEXT
  8
0
 10
-255.785309
 20
-163.050003
 40
4.500000
  1
240M9F
 50
0.000000
 41
1.052632
 51
0.000000
  7
STANDARD
  0
TEXT
  8
0
 10
-260.285309
 20
-173.050003
 40
4.500000
  1
240M10F
 50
0.000000
 41
1.052632
 51
0.000000
  7
STANDARD
  0
TEXT
  8
0
 10
-250.642654
 20
-83.050003
 40
4.500000
  1
TYPE
 50
0.000000
 41
1.052632
 51
0.000000
  7
STANDARD
  0
TEXT
  8
0
 10
-208.892654
 20
-83.050003
 40
4.500000
  1
P
 50
0.000000
 41
1.052632
 51
0.000000
  7
STANDARD
  0
TEXT
  8
0
 10
-178.892654
 20
-83.050003
 40
4.500000
  1
L
 50
0.000000
 41
1.052632
 51
0.000000
  7
STANDARD
  0
TEXT
  8
0
 10
-243.142654
 20
-73.050003
 40
4.500000
  1
DIMENSION LIST
 50
0.000000
 41
1.052632
 51
0.000000
  7
STANDARD
  0
TEXT
  8
0
 10
-181.785309
 20
-93.050003
 40
4.500000
  1
72
 50
0.000000
 41
1.052632
 51
0.000000
  7
STANDARD
  0
TEXT
  8
0
 10
-181.785309
 20
-103.050003
 40
4.500000
  1
96
 50
0.000000
 41
1.052632
 51
0.000000
  7
STANDARD
  0
TEXT
  8
0
 10
-186.285309
 20
-113.050003
 40
4.500000
  1
120
 50
0.000000
 41
1.052632
 51
0.000000
  7
STANDARD
  0
TEXT
  8
0
 10
-186.285309
 20
-123.050003
 40
4.500000
  1
144
 50
0.000000
 41
1.052632
 51
0.000000
  7
STANDARD
  0
TEXT
  8
0
 10
-186.285309
 20
-133.050003
 40
4.500000
  1
168
 50
0.000000
 41
1.052632
 51
0.000000
  7
STANDARD
  0
TEXT
  8
0
 10
-186.285309
 20
-143.050003
 40
4.500000
  1
192
 50
0.000000
 41
1.052632
 51
0.000000
  7
STANDARD
  0
TEXT
  8
0
 10
-186.285309
 20
-153.050003
 40
4.500000
  1
216
 50
0.000000
 41
1.052632
 51
0.000000
  7
STANDARD
  0
TEXT
  8
0
 10
-186.285309
 20
-163.050003
 40
4.500000
  1
240
 50
0.000000
 41
1.052632
 51
0.000000
  7
STANDARD
  0
TEXT
  8
0
 10
-186.285309
 20
-173.050003
 40
4.500000
  1
264
 50
0.000000
 41
1.052632
 51
0.000000
  7
STANDARD
  0
TEXT
  8
0
 10
-211.785309
 20
-93.050003
 40
4.500000
  1
62
 50
0.000000
 41
1.052632
 51
0.000000
  7
STANDARD
  0
TEXT
  8
0
 10
-211.785309
 20
-103.050003
 40
4.500000
  1
86
 50
0.000000
 41
1.052632
 51
0.000000
  7
STANDARD
  0
TEXT
  8
0
 10
-216.285309
 20
-113.050003
 40
4.500000
  1
110
 50
0.000000
 41
1.052632
 51
0.000000
  7
STANDARD
  0
TEXT
  8
0
 10
-216.285309
 20
-123.050003
 40
4.500000
  1
134
 50
0.000000
 41
1.052632
 51
0.000000
  7
STANDARD
  0
TEXT
  8
0
 10
-216.285309
 20
-133.050003
 40
4.500000
  1
158
 50
0.000000
 41
1.052632
 51
0.000000
  7
STANDARD
  0
TEXT
  8
0
 10
-216.285309
 20
-143.050003
 40
4.500000
  1
182
 50
0.000000
 41
1.052632
 51
0.000000
  7
STANDARD
  0
TEXT
  8
0
 10
-216.285309
 20
-153.050003
 40
4.500000
  1
206
 50
0.000000
 41
1.052632
 51
0.000000
  7
STANDARD
  0
TEXT
  8
0
 10
-216.285309
 20
-163.050003
 40
4.500000
  1
230
 50
0.000000
 41
1.052632
 51
0.000000
  7
STANDARD
  0
TEXT
  8
0
 10
-216.285309
 20
-173.050003
 40
4.500000
  1
254
 50
0.000000
 41
1.052632
 51
0.000000
  7
STANDARD
  0
TEXT
  8
0
 10
-12.057015
 20
54.870117
 40
3.200000
  1
A
 50
0.000000
 41
1.052632
 51
0.000000
  7
STANDARD
  0
TEXT
  8
0
 10
3.942985
 20
12.870118
 40
3.200000
  1
B
 50
0.000000
 41
1.052632
 51
0.000000
  7
STANDARD
  0
TEXT
  8
0
 10
-68.057014
 20
12.870118
 40
3.200000
  1
B
 50
0.000000
 41
1.052632
 51
0.000000
  7
STANDARD
  0
TEXT
  8
0
 10
-84.057014
 20
54.870117
 40
3.200000
  1
A
 50
0.000000
 41
1.052632
 51
0.000000
  7
STANDARD
  0
TEXT
  8
0
 10
-44.057014
 20
12.870118
 40
3.200000
  1
B
 50
0.000000
 41
1.052632
 51
0.000000
  7
STANDARD
  0
TEXT
  8
0
 10
-60.057014
 20
54.870117
 40
3.200000
  1
A
 50
0.000000
 41
1.052632
 51
0.000000
  7
STANDARD
  0
TEXT
  8
0
 10
-20.057016
 20
12.870118
 40
3.200000
  1
B
 50
0.000000
 41
1.052632
 51
0.000000
  7
STANDARD
  0
TEXT
  8
0
 10
-36.057014
 20
54.870117
 40
3.200000
  1
A
 50
0.000000
 41
1.052632
 51
0.000000
  7
STANDARD
  0
TEXT
  8
0
 10
173.266251
 20
42.040527
 40
3.000000
  1
P
 50
90.000000
 41
1.052631
 51
0.000000
  7
STANDARD
  0
TEXT
  8
0
 10
163.557053
 20
12.571654
 40
3.000000
  1
R2
 50
90.000000
 41
1.052631
 51
0.000000
  7
STANDARD
  0
TEXT
  8
0
 10
163.557053
 20
52.571701
 40
3.000000
  1
R1
 50
90.000000
 41
1.052631
 51
0.000000
  7
STANDARD
  0
TEXT
  8
0
 62
     2
 10
-30.048264
 20
145.697418
 40
6.300000
  1
P
 50
359.899994
 41
1.052632
 51
0.000000
  7
STANDARD
  0
LINE
  8
0
 62
     2
 10
-93.250015
 20
144.690796
 11
40.749985
 21
144.690796
  0
LINE
  8
0
 62
     2
 10
-93.250015
 20
144.690796
 11
-90.352242
 21
145.467255
  0
LINE
  8
0
 62
     2
 10
-93.250015
 20
144.690796
 11
-90.352242
 21
143.914337
  0
LINE
  8
0
 62
     2
 10
40.749985
 20
144.690796
 11
37.852207
 21
143.914337
  0
LINE
  8
0
 62
     2
 10
40.749985
 20
144.690796
 11
37.852207
 21
145.467255
  0
LINE
  8
0
 62
     2
 10
-93.250015
 20
50.750122
 11
-93.250015
 21
146.190796
  0
LINE
  8
0
 62
     2
 10
40.749985
 20
50.750122
 11
40.749985
 21
146.190796
  0
TEXT
  8
0
 62
     2
 10
-30.048264
 20
165.697418
 40
6.300000
  1
L
 50
359.899994
 41
1.052632
 51
0.000000
  7
STANDARD
  0
LINE
  8
0
 62
     2
 10
-98.250015
 20
164.690796
 11
45.749985
 21
164.690796
  0
LINE
  8
0
 62
     2
 10
-98.250015
 20
164.690796
 11
-95.352242
 21
165.467255
  0
LINE
  8
0
 62
     2
 10
-98.250015
 20
164.690796
 11
-95.352242
 21
163.914337
  0
LINE
  8
0
 62
     2
 10
45.749985
 20
164.690796
 11
42.852207
 21
163.914337
  0
LINE
  8
0
 62
     2
 10
45.749985
 20
164.690796
 11
42.852207
 21
165.467255
  0
LINE
  8
0
 62
     2
 10
-98.250015
 20
66.750122
 11
-98.250015
 21
166.190796
  0
LINE
  8
0
 62
     2
 10
45.749985
 20
66.750122
 11
45.749985
 21
166.190796
  0
LINE
  8
0
 62
     2
 10
-77.250015
 20
-100.749886
 11
-87.250015
 21
-83.429375
  0
LINE
  8
0
 62
     2
 10
-87.250015
 20
-83.429375
 11
-133.939285
 21
-83.429375
  0
LINE
  8
0
 62
     2
 10
-77.250015
 20
-100.749886
 11
-78.026474
 21
-97.852104
  0
LINE
  8
0
 62
     2
 10
-77.250015
 20
-100.749886
 11
-79.371338
 21
-98.628563
  0
TEXT
  8
0
 62
     2
 10
-133.689285
 20
-82.429375
 40
6.300000
  1
240-4E1
 50
0.000000
 41
1.052632
 51
0.000000
  7
STANDARD
  0
LINE
  8
0
 62
     2
 10
0.749984
 20
-100.749878
 11
10.749994
 21
-83.429359
  0
LINE
  8
0
 62
     2
 10
10.749994
 20
-83.429359
 11
57.102348
 21
-83.429359
  0
LINE
  8
0
 62
     2
 10
0.749984
 20
-100.749878
 11
2.871305
 21
-98.628555
  0
LINE
  8
0
 62
     2
 10
0.749984
 20
-100.749878
 11
1.526442
 21
-97.852104
  0
TEXT
  8
0
 62
     2
 10
11.452908
 20
-82.429359
 40
6.300000
  1
243-4E2
 50
0.000000
 41
1.052632
 51
0.000000
  7
STANDARD
  0
LINE
  8
0
 62
     2
 10
21.749983
 20
-133.749893
 11
31.749983
 21
-116.429382
  0
LINE
  8
0
 62
     2
 10
31.749983
 20
-116.429382
 11
54.032768
 21
-116.429382
  0
LINE
  8
0
 62
     2
 10
21.749983
 20
-133.749893
 11
23.871304
 21
-131.628571
  0
LINE
  8
0
 62
     2
 10
21.749983
 20
-133.749893
 11
22.526440
 21
-130.852112
  0
TEXT
  8
0
 62
     2
 10
33.583332
 20
-115.429382
 40
6.300000
  1
-BP
 50
0.000000
 41
1.052632
 51
0.000000
  7
STANDARD
  0
LINE
  8
0
 62
     2
 10
-53.250000
 20
-100.749855
 11
-70.749992
 21
-70.438980
  0
LINE
  8
0
 62
     2
 10
-70.749992
 20
-70.438980
 11
-117.476181
 21
-70.438988
  0
LINE
  8
0
 62
     2
 10
-53.250000
 20
-100.749855
 11
-54.026459
 21
-97.852081
  0
LINE
  8
0
 62
     2
 10
-53.250000
 20
-100.749855
 11
-55.371319
 21
-98.628532
  0
TEXT
  8
0
 62
     2
 10
-117.226181
 20
-69.438988
 40
6.300000
  1
240-4E1
 50
0.000000
 41
1.052632
 51
0.000000
  7
STANDARD
  0
LINE
  8
0
 62
     2
 10
-23.250011
 20
-100.749870
 11
-5.750010
 21
-70.438980
  0
LINE
  8
0
 62
     2
 10
-5.750010
 20
-70.438980
 11
41.671745
 21
-70.439003
  0
LINE
  8
0
 62
     2
 10
-23.250011
 20
-100.749870
 11
-21.128691
 21
-98.628548
  0
LINE
  8
0
 62
     2
 10
-23.250011
 20
-100.749870
 11
-22.473555
 21
-97.852097
  0
TEXT
  8
0
 62
     2
 10
-3.977695
 20
-69.439003
 40
6.300000
  1
240-4E2
 50
0.000000
 41
1.052632
 51
0.000000
  7
STANDARD
  0
TEXT
  8
0
 62
     2
 10
49.868420
 20
145.697418
 40
6.300000
  1
5
 50
359.899994
 41
1.052632
 51
0.000000
  7
STANDARD
  0
LINE
  8
0
 62
     2
 10
45.749985
 20
144.690796
 11
55.916664
 21
144.690796
  0
LINE
  8
0
 62
     2
 10
40.749985
 20
144.690796
 11
45.749985
 21
144.690796
  0
LINE
  8
0
 62
     2
 10
45.749985
 20
144.690796
 11
48.647762
 21
145.467255
  0
LINE
  8
0
 62
     2
 10
45.749985
 20
144.690796
 11
48.647762
 21
143.914337
  0
LINE
  8
0
 62
     2
 10
45.749985
 20
144.690796
 11
51.749985
 21
144.690796
  0
LINE
  8
0
 62
     2
 10
40.749985
 20
50.750122
 11
40.749985
 21
146.190796
  0
LINE
  8
0
 62
     2
 10
45.749985
 20
66.750122
 11
45.749985
 21
146.190796
  0
TEXT
  8
0
 62
     2
 10
-109.800003
 20
145.690796
 40
6.300000
  1
5
 50
0.000000
 41
1.052632
 51
0.000000
  7
STANDARD
  0
LINE
  8
0
 62
     2
 10
-98.250015
 20
144.690796
 11
-108.250000
 21
144.690796
  0
LINE
  8
0
 62
     2
 10
-93.250015
 20
144.690796
 11
-98.250015
 21
144.690796
  0
LINE
  8
0
 62
     2
 10
-98.250015
 20
144.690796
 11
-101.147789
 21
143.914337
  0
LINE
  8
0
 62
     2
 10
-98.250015
 20
144.690796
 11
-101.147789
 21
145.467255
  0
LINE
  8
0
 62
     2
 10
-98.250015
 20
144.690796
 11
-104.250015
 21
144.690796
  0
LINE
  8
0
 62
     2
 10
-93.250015
 20
50.750122
 11
-93.250015
 21
146.190796
  0
LINE
  8
0
 62
     2
 10
-98.250015
 20
66.750122
 11
-98.250015
 21
146.190796
  0
ENDSEC
  0
EOF
