  0
SECTION
  2
HEADER
  0
ENDSEC
  0
SECTION
  2
TABLES
  0
TABLE
  2
LTYPE
 70
     4
  0
LTYPE
  2
CONTINUOUS
 70
    64
  3
Solid line
 72
    65
 73
     0
 40
0.000000
  0
LTYPE
  2
DASHED
 70
    64
  3
__ __ __ __ __ __ __ __ __ __ __ __ __ __ __
 72
    65
 73
     2
 40
3.500000
 49
2.000000
 49
-1.500000
  0
LTYPE
  2
CENTER
 70
    64
  3
____ _ ____ _ ____ _ ____ _ ____ _ ____ _ ____
 72
    65
 73
     4
 40
17.500000
 49
13.000000
 49
-1.500000
 49
1.500000
 49
-1.500000
  0
LTYPE
  2
PHANTOM
 70
    64
  3
_____ _ _ _____ _ _ _____ _ _ _____ _ _ ____  
 72
    65
 73
     6
 40
15.500000
 49
8.000000
 49
-1.500000
 49
1.500000
 49
-1.500000
 49
1.500000
 49
-1.500000
  0
LTYPE
  2
DASHED1
 70
    64
  3
__ __ __ __ __ __ __ __ __ __ __ __ __ __ __
 72
    65
 73
     2
 40
1.500000
 49
1.000000
 49
-0.500000
  0
LTYPE
  2
DASHED2
 70
    64
  3
__ __ __ __ __ __ __ __ __ __ __ __ __ __ __
 72
    65
 73
     2
 40
3.500000
 49
2.500000
 49
-1.000000
  0
LTYPE
  2
DASHED3
 70
    64
  3
__ __ __ __ __ __ __ __ __ __ __ __ __ __ __
 72
    65
 73
     2
 40
6.000000
 49
4.000000
 49
-2.000000
  0
LTYPE
  2
DASHED4
 70
    64
  3
__ __ __ __ __ __ __ __ __ __ __ __ __ __ __
 72
    65
 73
     2
 40
12.000000
 49
10.000000
 49
-2.000000
  0
LTYPE
  2
DASHED5
 70
    64
  3
__ __ __ __ __ __ __ __ __ __ __ __ __ __ __
 72
    65
 73
     2
 40
17.000000
 49
15.000000
 49
-2.000000
  0
LTYPE
  2
DASHED6
 70
    64
  3
__ __ __ __ __ __ __ __ __ __ __ __ __ __ __
 72
    65
 73
     2
 40
29.000000
 49
27.000000
 49
-2.000000
  0
LTYPE
  2
PHANTOM1
 70
    64
  3
_____ _ _ _____ _ _ _____ _ _ _____ _ _ ____  
 72
    65
 73
     6
 40
31.000000
 49
25.000000
 49
-1.500000
 49
1.000000
 49
-1.000000
 49
1.000000
 49
-1.500000
  0
LTYPE
  2
PHANTOM2
 70
    64
  3
_____ _ _ _____ _ _ _____ _ _ _____ _ _ ____  
 72
    65
 73
     6
 40
36.000000
 49
27.000000
 49
-1.500000
 49
2.500000
 49
-1.000000
 49
2.500000
 49
-1.500000
  0
LTYPE
  2
PHANTOM3
 70
    64
  3
_____ _ _ _____ _ _ _____ _ _ _____ _ _ ____  
 72
    65
 73
     6
 40
78.000000
 49
64.000000
 49
-2.000000
 49
4.000000
 49
-2.000000
 49
4.000000
 49
-2.000000
  0
LTYPE
  2
CENTER1
 70
    64
  3
____ _ ____ _ ____ _ ____ _ ____ _ ____ _ ____
 72
    65
 73
     4
 40
19.000000
 49
14.000000
 49
-1.000000
 49
3.000000
 49
-1.000000
  0
LTYPE
  2
CENTER2
 70
    64
  3
____ _ ____ _ ____ _ ____ _ ____ _ ____ _ ____
 72
    65
 73
     4
 40
28.500000
 49
25.000000
 49
-1.000000
 49
1.500000
 49
-1.000000
  0
LTYPE
  2
CENTER3
 70
    64
  3
____ _ ____ _ ____ _ ____ _ ____ _ ____ _ ____
 72
    65
 73
     4
 40
31.500000
 49
27.000000
 49
-1.000000
 49
2.500000
 49
-1.000000
  0
LTYPE
  2
CENTER4
 70
    64
  3
____ _ ____ _ ____ _ ____ _ ____ _ ____ _ ____
 72
    65
 73
     4
 40
50.000000
 49
45.000000
 49
-1.000000
 49
3.000000
 49
-1.000000
  0
LTYPE
  2
CENTER5
 70
    64
  3
____ _ ____ _ ____ _ ____ _ ____ _ ____ _ ____
 72
    65
 73
     4
 40
100.000000
 49
92.000000
 49
-2.000000
 49
4.000000
 49
-2.000000
  0
LTYPE
  2
SBK1
 70
    64
  3
______ _ _ _ ______ _ _ _ ______ _ _ _ _____  
 72
    65
 73
     8
 40
60.500000
 49
45.000000
 49
-2.000000
 49
2.500000
 49
-2.000000
 49
2.500000
 49
-2.000000
 49
2.500000
 49
-2.000000
  0
LTYPE
  2
SBK2
 70
    64
  3
______ _ _ _ ______ _ _ _ ______ _ _ _ _____  
 72
    65
 73
     8
 40
84.000000
 49
64.000000
 49
-2.000000
 49
4.000000
 49
-2.000000
 49
4.000000
 49
-2.000000
 49
4.000000
 49
-2.000000
  0
LTYPE
  2
STCH
 70
    64
  3
__ __ __ __ __ __ __ __ __ __ __ __ __ __ __
 72
    65
 73
     2
 40
3.000000
 49
1.000000
 49
-2.000000
  0
LTYPE
  2
MTCH
 70
    64
  3
_____ _ _ _____ _ _ _____ _ _ _____ _ _ ____  
 72
    65
 73
     6
 40
80.000000
 49
66.000000
 49
-2.000000
 49
4.000000
 49
-2.000000
 49
4.000000
 49
-2.000000
  0
ENDTAB
  0
TABLE
  2
LAYER
 70
     1
  0
LAYER
  2
0
 70
     0
 62
     7
  6
CONTINUOUS
  0
ENDTAB
  0
TABLE
  2
STYLE
 70
     1
  0
STYLE
  2
STANDARD
 70
     0
 40
0.000000
 41
1.000000
 50
0.000000
 71
     0
 42
0.200000
  3
txt
  4
BIGFONT
  0
ENDTAB
  0
TABLE
  2
VIEW
 70
     0
  0
ENDTAB
  0
ENDSEC
  0
SECTION
  2
BLOCKS
  0
ENDSEC
  0
SECTION
  2
ENTITIES
  0
LINE
  8
0
 10
-194.250000
 20
132.600006
 11
194.800003
 21
132.600006
  0
LINE
  8
0
 10
194.800003
 20
132.600006
 11
194.800003
 21
-133.500000
  0
LINE
  8
0
 10
-194.250000
 20
132.600006
 11
-194.250000
 21
-133.500000
  0
LINE
  8
0
 10
-194.250000
 20
-133.500000
 11
194.800003
 21
-133.500000
  0
LINE
  8
0
 10
109.800003
 20
-118.500000
 11
109.800003
 21
-133.500000
  0
LINE
  8
0
 10
109.800003
 20
-118.500000
 11
194.800003
 21
-118.500000
  0
LINE
  8
0
 10
109.800003
 20
132.600006
 11
109.800003
 21
117.600006
  0
LINE
  8
0
 10
109.800003
 20
117.600006
 11
194.800003
 21
117.600006
  0
LINE
  8
0
 10
-194.250000
 20
117.600006
 11
-109.250000
 21
117.600006
  0
LINE
  8
0
 10
-109.250000
 20
132.600006
 11
-109.250000
 21
117.600006
  0
LINE
  8
0
 10
-76.390915
 20
58.911373
 11
-78.446632
 21
60.967094
  0
LINE
  8
0
 10
-76.318794
 20
61.160812
 11
-78.510483
 21
58.969124
  0
LINE
  8
0
 10
-94.390945
 20
18.911333
 11
-96.446671
 21
20.967049
  0
LINE
  8
0
 10
-94.318779
 20
21.160833
 11
-96.510490
 21
18.969122
  0
LINE
  8
0
  6
CENTER
 62
     2
 10
-91.979523
 20
51.000000
 11
-76.979523
 21
51.000000
  0
LINE
  8
0
  6
CENTER
 62
     2
 10
-84.479523
 20
58.500000
 11
-84.479523
 21
43.500000
  0
LINE
  8
0
  6
CENTER
 62
     2
 10
-88.479523
 20
36.500000
 11
-88.479523
 21
21.500000
  0
LINE
  8
0
  6
CENTER
 62
     2
 10
-95.979523
 20
29.000000
 11
-80.979523
 21
29.000000
  0
LINE
  8
0
 10
-95.479523
 20
17.000000
 11
-97.979523
 21
17.000000
  0
LINE
  8
0
 10
-95.479523
 20
23.000000
 11
-97.979523
 21
23.000000
  0
LINE
  8
0
 10
-77.479523
 20
63.000000
 11
-74.979523
 21
63.000000
  0
LINE
  8
0
 10
-77.479523
 20
57.000000
 11
-74.979523
 21
57.000000
  0
LINE
  8
0
 10
-74.979523
 20
13.500000
 11
-97.979523
 21
13.500000
  0
LINE
  8
0
 10
-74.979523
 20
66.500000
 11
-97.979523
 21
66.500000
  0
LINE
  8
0
 10
-97.979523
 20
-18.999985
 11
-74.979523
 21
-18.999985
  0
LINE
  8
0
 10
-74.979523
 20
98.999985
 11
-97.979523
 21
98.999985
  0
LINE
  8
0
  6
CENTER
 62
     2
 10
-86.479523
 20
-43.368896
 11
-86.479523
 21
123.999985
  0
LINE
  8
0
 10
-97.979523
 20
98.999985
 11
-97.979523
 21
-18.999985
  0
LINE
  8
0
 10
-74.979523
 20
98.999985
 11
-74.979523
 21
-18.999985
  0
LINE
  8
0
  6
CENTER
 62
     2
 10
-95.479523
 20
24.000000
 11
-95.479523
 21
16.000000
  0
LINE
  8
0
  6
CENTER
 62
     2
 10
-99.479523
 20
20.000000
 11
-91.479523
 21
20.000000
  0
LINE
  8
0
  6
CENTER
 62
     2
 10
-77.479523
 20
64.000000
 11
-77.479523
 21
56.000000
  0
LINE
  8
0
  6
CENTER
 62
     2
 10
-81.479523
 20
60.000000
 11
-73.479523
 21
60.000000
  0
LINE
  8
0
 62
     4
 10
-74.979523
 20
119.999985
 11
-74.979523
 21
98.999985
  0
LINE
  8
0
 62
     4
 10
-97.979523
 20
119.999985
 11
-97.979523
 21
98.999985
  0
LINE
  8
0
 62
     4
 10
-74.979523
 20
118.999985
 11
-97.979523
 21
118.999985
  0
LINE
  8
0
 62
     4
 10
-74.979523
 20
119.999985
 11
-97.979523
 21
119.999985
  0
LINE
  8
0
 62
     4
 10
-96.979355
 20
121.999924
 11
-97.979355
 21
119.999908
  0
LINE
  8
0
 62
     4
 10
-75.979584
 20
121.999985
 11
-96.979462
 21
121.999985
  0
LINE
  8
0
 62
     4
 10
-77.729523
 20
122.699997
 11
-79.229523
 21
122.699997
  0
LINE
  8
0
 62
     4
 10
-93.729523
 20
122.699997
 11
-95.229523
 21
122.699997
  0
LINE
  8
0
 62
     4
 10
-74.979523
 20
117.999985
 11
-97.979523
 21
117.999985
  0
LINE
  8
0
 62
     4
 10
-85.179535
 20
113.699982
 11
-87.779510
 21
113.699982
  0
LINE
  8
0
 62
     4
 10
-85.179535
 20
110.299988
 11
-87.779510
 21
110.299988
  0
LINE
  8
0
 62
     4
 10
-75.979820
 20
121.999870
 11
-74.979813
 21
119.999855
  0
LINE
  8
0
 62
     4
 10
-97.979523
 20
-39.999985
 11
-97.979523
 21
-18.999985
  0
LINE
  8
0
 62
     4
 10
-74.979523
 20
-39.999985
 11
-74.979523
 21
-18.999985
  0
LINE
  8
0
 62
     4
 10
-97.979523
 20
-38.999985
 11
-74.979523
 21
-38.999985
  0
LINE
  8
0
 62
     4
 10
-97.979523
 20
-39.999985
 11
-74.979523
 21
-39.999985
  0
LINE
  8
0
 62
     4
 10
-75.979698
 20
-41.999924
 11
-74.979691
 21
-39.999908
  0
LINE
  8
0
 62
     4
 10
-96.979462
 20
-41.999985
 11
-75.979584
 21
-41.999985
  0
LINE
  8
0
 62
     4
 10
-95.229523
 20
-42.699997
 11
-93.729523
 21
-42.699997
  0
LINE
  8
0
 62
     4
 10
-79.229523
 20
-42.699997
 11
-77.729523
 21
-42.699997
  0
LINE
  8
0
 62
     4
 10
-97.979523
 20
-37.999985
 11
-74.979523
 21
-37.999985
  0
LINE
  8
0
 62
     4
 10
-87.779510
 20
-33.699982
 11
-85.179535
 21
-33.699982
  0
LINE
  8
0
 62
     4
 10
-87.779510
 20
-30.299988
 11
-85.179535
 21
-30.299988
  0
LINE
  8
0
 62
     4
 10
-96.979240
 20
-41.999859
 11
-97.979248
 21
-39.999844
  0
LINE
  8
0
  6
CENTER
 62
     2
 10
2.000000
 20
54.210747
 11
2.000000
 21
24.718872
  0
LINE
  8
0
 10
-25.000000
 20
66.500000
 11
10.000000
 21
66.500000
  0
LINE
  8
0
  6
CENTER
 62
     2
 10
-2.000000
 20
49.800003
 11
6.000000
 21
49.800003
  0
LINE
  8
0
  6
CENTER
 62
     2
 10
-2.000000
 20
30.199997
 11
6.000000
 21
30.199997
  0
LINE
  8
0
 10
-25.000000
 20
13.500000
 11
10.000000
 21
13.500000
  0
LINE
  8
0
 10
10.000000
 20
-18.999985
 11
-25.000000
 21
-18.999985
  0
LINE
  8
0
 10
-25.000000
 20
98.999985
 11
-25.000000
 21
-18.999985
  0
LINE
  8
0
 10
10.000000
 20
98.999985
 11
10.000000
 21
-18.999985
  0
LINE
  8
0
 10
-22.000000
 20
63.000000
 11
-22.000000
 21
57.000000
  0
LINE
  8
0
 10
-25.000000
 20
63.000000
 11
-22.000000
 21
63.000000
  0
LINE
  8
0
 10
-25.000000
 20
57.000000
 11
-22.000000
 21
57.000000
  0
LINE
  8
0
 10
-23.668274
 20
57.250008
 11
-22.000000
 21
57.250008
  0
LINE
  8
0
 10
-23.668274
 20
62.749992
 11
-22.000000
 21
62.749992
  0
LINE
  8
0
 10
-22.700012
 20
62.749992
 11
-22.700012
 21
57.250008
  0
LINE
  8
0
 10
-24.700012
 20
61.000008
 11
-24.700012
 21
58.999992
  0
LINE
  8
0
 10
-25.000000
 20
98.999985
 11
10.000000
 21
98.999985
  0
LINE
  8
0
 10
-25.000000
 20
-18.999985
 11
10.000000
 21
-18.999985
  0
LINE
  8
0
  6
CENTER
 62
     2
 10
7.500000
 20
60.000000
 11
12.500000
 21
60.000000
  0
LINE
  8
0
  6
CENTER
 62
     2
 10
7.500000
 20
20.000000
 11
12.500000
 21
20.000000
  0
LINE
  8
0
 62
     4
 10
-25.000000
 20
119.999985
 11
-25.000000
 21
98.999985
  0
LINE
  8
0
 62
     4
 10
10.000000
 20
118.999985
 11
-25.000000
 21
118.999985
  0
LINE
  8
0
 62
     4
 10
10.000000
 20
118.999985
 11
10.000000
 21
98.999985
  0
LINE
  8
0
 62
     4
 10
10.000000
 20
119.999985
 11
-25.000000
 21
119.999985
  0
LINE
  8
0
 62
     4
 10
10.000000
 20
119.999985
 11
10.000000
 21
118.999985
  0
LINE
  8
0
 62
     4
 10
10.000054
 20
120.000015
 11
9.000048
 21
122.000031
  0
LINE
  8
0
 62
     4
 10
-1.500000
 20
121.999985
 11
-1.500000
 21
119.999985
  0
LINE
  8
0
 62
     4
 10
-23.999786
 20
121.999924
 11
-24.999807
 21
119.999878
  0
LINE
  8
0
 62
     4
 10
-0.250000
 20
120.699997
 11
5.250000
 21
120.699997
  0
LINE
  8
0
 62
     4
 10
5.250000
 20
120.699997
 11
5.250000
 21
119.999985
  0
LINE
  8
0
 62
     4
 10
-0.250000
 20
120.699997
 11
-0.250000
 21
119.999985
  0
LINE
  8
0
 62
     4
 10
1.750000
 20
122.699997
 11
3.250000
 21
122.699997
  0
LINE
  8
0
 62
     4
 10
-18.250000
 20
122.699997
 11
-16.750000
 21
122.699997
  0
LINE
  8
0
 62
     4
 10
8.999969
 20
121.999985
 11
4.769867
 21
121.999985
  0
LINE
  8
0
 62
     4
 10
0.230133
 20
121.999985
 11
-23.999908
 21
121.999985
  0
LINE
  8
0
 62
     4
 10
-37.000000
 20
111.149979
 11
-33.004242
 21
111.149979
  0
LINE
  8
0
 62
     4
 10
-37.000000
 20
112.849991
 11
-32.548706
 21
112.849991
  0
LINE
  8
0
 62
     4
 10
-47.000031
 20
111.679977
 11
-37.000000
 21
111.679977
  0
LINE
  8
0
 62
     4
 10
-47.000031
 20
112.319977
 11
-37.000000
 21
112.319977
  0
LINE
  8
0
 62
     4
 10
-37.000031
 20
112.849960
 11
-37.000031
 21
111.149963
  0
LINE
  8
0
 62
     4
 10
-47.000031
 20
112.319962
 11
-47.000031
 21
111.679977
  0
LINE
  8
0
 62
     1
 10
-33.540096
 20
109.149940
 11
-32.012779
 21
114.849945
  0
LINE
  8
0
 62
     1
 10
-31.987066
 20
109.149925
 11
-30.459757
 21
114.849907
  0
LINE
  8
0
 62
     4
 10
-31.451324
 20
111.149979
 11
-26.999969
 21
111.149979
  0
LINE
  8
0
 62
     4
 10
-30.995789
 20
112.849991
 11
-26.999969
 21
112.849991
  0
LINE
  8
0
 62
     4
 10
-27.000000
 20
110.299988
 11
-25.000000
 21
110.299988
  0
LINE
  8
0
 62
     4
 10
-27.000031
 20
113.699966
 11
-27.000031
 21
110.299973
  0
LINE
  8
0
 62
     4
 10
-27.000000
 20
113.699982
 11
-25.000000
 21
113.699982
  0
LINE
  8
0
 62
     4
 10
6.500000
 20
121.999985
 11
6.500000
 21
119.999985
  0
LINE
  8
0
  6
CENTER
 62
     1
 10
-49.051239
 20
111.999985
 11
-22.989441
 21
111.999985
  0
LINE
  8
0
 62
     4
 10
-25.000000
 20
-39.999985
 11
-25.000000
 21
-18.999985
  0
LINE
  8
0
 62
     4
 10
10.000000
 20
-38.999985
 11
-25.000000
 21
-38.999985
  0
LINE
  8
0
 62
     4
 10
10.000000
 20
-38.999985
 11
10.000000
 21
-18.999985
  0
LINE
  8
0
 62
     4
 10
10.000000
 20
-39.999985
 11
-25.000000
 21
-39.999985
  0
LINE
  8
0
 62
     4
 10
10.000000
 20
-39.999985
 11
10.000000
 21
-38.999985
  0
LINE
  8
0
 62
     4
 10
10.000045
 20
-40.000019
 11
9.000038
 21
-42.000034
  0
LINE
  8
0
 62
     4
 10
-13.500000
 20
-41.999985
 11
-13.500000
 21
-39.999985
  0
LINE
  8
0
 62
     4
 10
-23.999792
 20
-41.999931
 11
-24.999811
 21
-39.999889
  0
LINE
  8
0
 62
     4
 10
-14.750000
 20
-40.699997
 11
-20.250000
 21
-40.699997
  0
LINE
  8
0
 62
     4
 10
-20.250000
 20
-40.699997
 11
-20.250000
 21
-39.999985
  0
LINE
  8
0
 62
     4
 10
-14.750000
 20
-40.699997
 11
-14.750000
 21
-39.999985
  0
LINE
  8
0
 62
     4
 10
-16.750000
 20
-42.699997
 11
-18.250000
 21
-42.699997
  0
LINE
  8
0
 62
     4
 10
3.250000
 20
-42.699997
 11
1.750000
 21
-42.699997
  0
LINE
  8
0
 62
     4
 10
-23.999969
 20
-41.999985
 11
-19.769867
 21
-41.999985
  0
LINE
  8
0
 62
     4
 10
-15.230133
 20
-41.999985
 11
8.999908
 21
-41.999985
  0
LINE
  8
0
 62
     4
 10
-37.000000
 20
-31.149979
 11
-33.004242
 21
-31.149979
  0
LINE
  8
0
 62
     4
 10
-37.000000
 20
-32.849991
 11
-32.548706
 21
-32.849991
  0
LINE
  8
0
 62
     4
 10
-47.000031
 20
-31.679977
 11
-37.000000
 21
-31.679977
  0
LINE
  8
0
 62
     4
 10
-47.000031
 20
-32.319977
 11
-37.000000
 21
-32.319977
  0
LINE
  8
0
 62
     4
 10
-37.000031
 20
-32.849960
 11
-37.000031
 21
-31.149963
  0
LINE
  8
0
 62
     4
 10
-47.000031
 20
-32.319962
 11
-47.000031
 21
-31.679977
  0
LINE
  8
0
 62
     1
 10
-33.540100
 20
-29.149942
 11
-32.012787
 21
-34.849949
  0
LINE
  8
0
 62
     1
 10
-31.987068
 20
-29.149921
 11
-30.459759
 21
-34.849907
  0
LINE
  8
0
 62
     4
 10
-31.451324
 20
-31.149979
 11
-26.999969
 21
-31.149979
  0
LINE
  8
0
 62
     4
 10
-30.995789
 20
-32.849991
 11
-26.999969
 21
-32.849991
  0
LINE
  8
0
 62
     4
 10
-27.000000
 20
-30.299988
 11
-25.000000
 21
-30.299988
  0
LINE
  8
0
 62
     4
 10
-27.000031
 20
-33.699966
 11
-27.000031
 21
-30.299973
  0
LINE
  8
0
 62
     4
 10
-27.000000
 20
-33.699982
 11
-25.000000
 21
-33.699982
  0
LINE
  8
0
 62
     4
 10
-21.500000
 20
-41.999985
 11
-21.500000
 21
-39.999985
  0
LINE
  8
0
  6
CENTER
 62
     1
 10
-49.051239
 20
-31.999985
 11
-22.989441
 21
-31.999985
  0
LINE
  8
0
  6
CENTER
 62
     2
 10
-86.479523
 20
-67.726486
 11
-86.479523
 21
-115.017944
  0
LINE
  8
0
  6
CENTER
 62
     2
 10
-95.479523
 20
-109.000000
 11
-95.479523
 21
-114.000000
  0
LINE
  8
0
  6
CENTER
 62
     2
 10
-77.479523
 20
-109.000000
 11
-77.479523
 21
-114.000000
  0
LINE
  8
0
 62
     4
 10
-74.979523
 20
-76.499992
 11
-74.979523
 21
-111.500000
  0
LINE
  8
0
 62
     4
 10
-97.979515
 20
-111.500000
 11
-74.979515
 21
-111.500000
  0
LINE
  8
0
 62
     4
 10
-97.979523
 20
-76.499992
 11
-97.979523
 21
-111.499992
  0
LINE
  8
0
 62
     4
 10
-95.567764
 20
-105.088959
 11
-93.512047
 21
-103.033241
  0
LINE
  8
0
 62
     4
 10
-95.640396
 20
-102.839287
 11
-93.448692
 21
-105.030991
  0
LINE
  8
0
 62
     4
 10
-78.479515
 20
-79.999992
 11
-74.979515
 21
-79.999992
  0
LINE
  8
0
 62
     4
 10
-94.479515
 20
-99.999992
 11
-97.979515
 21
-99.999992
  0
LINE
  8
0
 62
     4
 10
-94.479523
 20
-107.999992
 11
-97.979523
 21
-107.999992
  0
LINE
  8
0
 62
     4
 10
-77.391304
 20
-82.911118
 11
-79.447021
 21
-84.966835
  0
LINE
  8
0
 62
     4
 10
-77.318642
 20
-85.160751
 11
-79.510361
 21
-82.969032
  0
LINE
  8
0
 62
     4
 10
-78.479515
 20
-87.999992
 11
-74.979515
 21
-87.999992
  0
LINE
  8
0
 62
     1
 10
-83.629440
 20
-67.949409
 11
-89.329453
 21
-69.476738
  0
LINE
  8
0
 62
     1
 10
-83.629478
 20
-69.502342
 11
-89.329468
 21
-71.029655
  0
LINE
  8
0
  6
CENTER
 62
     1
 10
-85.179535
 20
-52.438187
 11
-85.179535
 21
-75.426712
  0
LINE
  8
0
 62
     4
 10
-86.029510
 20
-64.500000
 11
-86.029510
 21
-68.592468
  0
LINE
  8
0
 62
     4
 10
-84.329498
 20
-64.500000
 11
-84.329498
 21
-68.136948
  0
LINE
  8
0
 62
     4
 10
-85.499542
 20
-54.499969
 11
-85.499542
 21
-64.500000
  0
LINE
  8
0
 62
     4
 10
-84.859528
 20
-54.499969
 11
-84.859528
 21
-64.500000
  0
LINE
  8
0
 62
     4
 10
-84.329552
 20
-64.499962
 11
-86.029564
 21
-64.499962
  0
LINE
  8
0
 62
     4
 10
-84.859528
 20
-54.499969
 11
-85.499542
 21
-54.499969
  0
LINE
  8
0
 62
     4
 10
-88.629547
 20
-64.500000
 11
-88.629547
 21
-69.289139
  0
LINE
  8
0
 62
     4
 10
-86.929535
 20
-64.500000
 11
-86.929535
 21
-68.833618
  0
LINE
  8
0
 62
     4
 10
-88.099518
 20
-54.499969
 11
-88.099518
 21
-64.500000
  0
LINE
  8
0
 62
     4
 10
-87.459503
 20
-54.499969
 11
-87.459503
 21
-64.500000
  0
LINE
  8
0
 62
     4
 10
-86.929527
 20
-64.499962
 11
-88.629539
 21
-64.499962
  0
LINE
  8
0
 62
     4
 10
-87.459564
 20
-54.499969
 11
-88.099518
 21
-54.499969
  0
LINE
  8
0
  6
CENTER
 62
     1
 10
-87.779572
 20
-52.438187
 11
-87.779572
 21
-75.426712
  0
LINE
  8
0
 62
     4
 10
-88.629547
 20
-70.842117
 11
-88.629547
 21
-74.499992
  0
LINE
  8
0
 62
     4
 10
-86.929535
 20
-70.386597
 11
-86.929535
 21
-74.499992
  0
LINE
  8
0
 62
     4
 10
-86.029510
 20
-70.145432
 11
-86.029510
 21
-74.499992
  0
LINE
  8
0
 62
     4
 10
-84.329498
 20
-69.689926
 11
-84.329498
 21
-74.499992
  0
LINE
  8
0
 62
     4
 10
-96.979523
 20
-77.499992
 11
-96.979523
 21
-99.999992
  0
LINE
  8
0
 62
     4
 10
-75.979523
 20
-77.500000
 11
-75.979523
 21
-80.000000
  0
LINE
  8
0
 62
     4
 10
-96.979515
 20
-77.499992
 11
-75.979515
 21
-77.499992
  0
LINE
  8
0
 62
     4
 10
-96.979523
 20
-110.499992
 11
-75.979523
 21
-110.499992
  0
LINE
  8
0
 62
     4
 10
-97.979515
 20
-76.500000
 11
-96.979507
 21
-77.500000
  0
LINE
  8
0
 62
     4
 10
-74.979523
 20
-76.500015
 11
-75.979515
 21
-77.500008
  0
LINE
  8
0
 62
     4
 10
-74.979515
 20
-111.500000
 11
-75.979515
 21
-110.499992
  0
LINE
  8
0
 62
     4
 10
-97.979500
 20
-111.499992
 11
-96.979500
 21
-110.499992
  0
LINE
  8
0
 62
     4
 10
-96.979523
 20
-107.999992
 11
-96.979523
 21
-110.499992
  0
LINE
  8
0
 62
     4
 10
-75.979523
 20
-88.000000
 11
-75.979523
 21
-110.500000
  0
LINE
  8
0
 62
     4
 10
-83.479553
 20
-74.499992
 11
-89.479553
 21
-74.499992
  0
LINE
  8
0
 62
     4
 10
-83.479553
 20
-74.499992
 11
-83.479553
 21
-76.499992
  0
LINE
  8
0
 62
     4
 10
-89.479553
 20
-74.499992
 11
-89.479553
 21
-76.499992
  0
LINE
  8
0
 62
     4
 10
-97.979515
 20
-76.499992
 11
-74.979515
 21
-76.499992
  0
LINE
  8
0
  6
CENTER
 62
     2
 10
89.479523
 20
14.500000
 11
89.479523
 21
29.500000
  0
LINE
  8
0
  6
CENTER
 62
     2
 10
102.979523
 20
58.000000
 11
87.979523
 21
58.000000
  0
LINE
  8
0
  6
CENTER
 62
     2
 10
96.979523
 20
22.000000
 11
81.979523
 21
22.000000
  0
LINE
  8
0
  6
CENTER
 62
     2
 10
95.479523
 20
65.500000
 11
95.479523
 21
50.500000
  0
LINE
  8
0
  6
CENTER
 62
     2
 10
84.979523
 20
40.000000
 11
99.979523
 21
40.000000
  0
LINE
  8
0
  6
CENTER
 62
     2
 10
98.479523
 20
20.000000
 11
104.479523
 21
20.000000
  0
LINE
  8
0
  6
CENTER
 62
     2
 10
80.479523
 20
60.000000
 11
86.479523
 21
60.000000
  0
LINE
  8
0
  6
CENTER
 62
     2
 10
101.479523
 20
23.000000
 11
101.479523
 21
17.000000
  0
LINE
  8
0
  6
CENTER
 62
     2
 10
83.479523
 20
63.000000
 11
83.479523
 21
57.000000
  0
LINE
  8
0
 10
103.979523
 20
13.500000
 11
80.979523
 21
13.500000
  0
LINE
  8
0
 10
103.979523
 20
66.500000
 11
80.979523
 21
66.500000
  0
LINE
  8
0
 10
80.979523
 20
-18.999985
 11
103.979523
 21
-18.999985
  0
LINE
  8
0
 10
103.979523
 20
98.999985
 11
80.979523
 21
98.999985
  0
LINE
  8
0
  6
CENTER
 62
     2
 10
92.479523
 20
-43.368896
 11
92.479523
 21
123.999985
  0
LINE
  8
0
 10
80.979523
 20
98.999985
 11
80.979523
 21
-18.999985
  0
LINE
  8
0
 10
103.979523
 20
98.999985
 11
103.979523
 21
-18.999985
  0
LINE
  8
0
 62
     4
 10
80.979523
 20
119.999985
 11
80.979523
 21
98.999985
  0
LINE
  8
0
 62
     4
 10
103.979523
 20
119.999985
 11
103.979523
 21
98.999985
  0
LINE
  8
0
 62
     4
 10
80.979523
 20
118.999985
 11
103.979523
 21
118.999985
  0
LINE
  8
0
 62
     4
 10
80.979523
 20
119.999985
 11
103.979523
 21
119.999985
  0
LINE
  8
0
 62
     4
 10
102.979515
 20
122.000038
 11
103.979523
 21
120.000023
  0
LINE
  8
0
 62
     4
 10
83.729523
 20
122.699997
 11
85.229523
 21
122.699997
  0
LINE
  8
0
 62
     4
 10
99.729523
 20
122.699997
 11
101.229523
 21
122.699997
  0
LINE
  8
0
 62
     4
 10
81.979553
 20
121.999985
 11
102.979492
 21
121.999985
  0
LINE
  8
0
 62
     4
 10
80.979523
 20
117.999985
 11
103.979523
 21
117.999985
  0
LINE
  8
0
 62
     4
 10
81.979874
 20
121.999817
 11
80.979866
 21
119.999802
  0
LINE
  8
0
 62
     4
 10
103.979523
 20
-39.999985
 11
103.979523
 21
-18.999985
  0
LINE
  8
0
 62
     4
 10
80.979523
 20
-39.999985
 11
80.979523
 21
-18.999985
  0
LINE
  8
0
 62
     4
 10
103.979523
 20
-38.999985
 11
80.979523
 21
-38.999985
  0
LINE
  8
0
 62
     4
 10
103.979523
 20
-39.999985
 11
80.979523
 21
-39.999985
  0
LINE
  8
0
 62
     4
 10
81.979523
 20
-42.000031
 11
80.979515
 21
-40.000015
  0
LINE
  8
0
 62
     4
 10
101.229523
 20
-42.699997
 11
99.729523
 21
-42.699997
  0
LINE
  8
0
 62
     4
 10
85.229523
 20
-42.699997
 11
83.729523
 21
-42.699997
  0
LINE
  8
0
 62
     4
 10
102.979492
 20
-41.999985
 11
81.979553
 21
-41.999985
  0
LINE
  8
0
 62
     4
 10
103.979523
 20
-37.999985
 11
80.979523
 21
-37.999985
  0
LINE
  8
0
 62
     4
 10
102.979156
 20
-41.999813
 11
103.979164
 21
-39.999809
  0
CIRCLE
  8
0
 10
-95.479523
 20
20.000000
 40
2.250000
  0
CIRCLE
  8
0
 10
-77.479523
 20
60.000000
 40
2.250000
  0
CIRCLE
  8
0
 62
     2
 10
-84.479523
 20
51.000000
 40
6.578500
  0
CIRCLE
  8
0
 10
-84.479523
 20
51.000000
 40
5.722500
  0
CIRCLE
  8
0
 62
     2
 10
-88.479523
 20
29.000000
 40
6.578500
  0
CIRCLE
  8
0
 10
-88.479523
 20
29.000000
 40
5.722500
  0
ARC
  8
0
 10
-95.479523
 20
20.000000
 40
3.000000
 50
270.000000
 51
90.000000
  0
ARC
  8
0
 10
-77.479523
 20
60.000000
 40
3.000000
 50
90.000000
 51
270.000000
  0
CIRCLE
  8
0
 10
-86.479523
 20
-15.499985
 40
2.299999
  0
CIRCLE
  8
0
 10
-86.479523
 20
-15.499985
 40
1.500000
  0
CIRCLE
  8
0
 10
-86.479523
 20
95.499985
 40
2.299999
  0
CIRCLE
  8
0
 10
-86.479523
 20
95.499985
 40
1.500000
  0
CIRCLE
  8
0
 62
     4
 10
-87.779510
 20
111.999985
 40
0.850000
  0
CIRCLE
  8
0
 62
     4
 10
-85.179535
 20
111.999985
 40
0.850000
  0
ARC
  8
0
 62
     4
 10
-77.729523
 20
120.699997
 40
2.000003
 50
40.541080
 51
90.000000
  0
ARC
  8
0
 62
     4
 10
-79.229523
 20
120.699997
 40
2.000000
 50
90.000000
 51
139.458923
  0
ARC
  8
0
 62
     4
 10
-93.729523
 20
120.699997
 40
1.999996
 50
40.541531
 51
90.000000
  0
ARC
  8
0
 62
     4
 10
-95.229523
 20
120.699997
 40
2.000001
 50
84.816414
 51
90.000000
  0
ARC
  8
0
 62
     4
 10
-95.229523
 20
120.699997
 40
2.000000
 50
90.000000
 51
139.458298
  0
ARC
  8
0
 62
     4
 10
-85.179535
 20
111.999985
 40
1.699997
 50
269.999756
 51
90.000259
  0
ARC
  8
0
 62
     4
 10
-87.779510
 20
111.999985
 40
1.699997
 50
90.000000
 51
270.000000
  0
CIRCLE
  8
0
 62
     4
 10
-85.179535
 20
-31.999985
 40
0.850000
  0
CIRCLE
  8
0
 62
     4
 10
-87.779510
 20
-31.999985
 40
0.850000
  0
ARC
  8
0
 62
     4
 10
-95.229523
 20
-40.699997
 40
2.000003
 50
220.541077
 51
270.000000
  0
ARC
  8
0
 62
     4
 10
-93.729523
 20
-40.699997
 40
2.000000
 50
270.000000
 51
319.458923
  0
ARC
  8
0
 62
     4
 10
-79.229523
 20
-40.699997
 40
1.999998
 50
220.541611
 51
270.000000
  0
ARC
  8
0
 62
     4
 10
-77.729523
 20
-40.699997
 40
2.000001
 50
264.816406
 51
270.000000
  0
ARC
  8
0
 62
     4
 10
-77.729523
 20
-40.699997
 40
2.000000
 50
270.000000
 51
319.458374
  0
ARC
  8
0
 62
     4
 10
-87.779510
 20
-31.999985
 40
1.699997
 50
89.999741
 51
270.000244
  0
ARC
  8
0
 62
     4
 10
-85.179535
 20
-31.999985
 40
1.699997
 50
270.000000
 51
90.000259
  0
CIRCLE
  8
0
 10
2.000000
 20
49.800003
 40
1.650000
  0
CIRCLE
  8
0
 10
2.000000
 20
30.199997
 40
1.650000
  0
ARC
  8
0
 10
-22.700012
 20
61.000008
 40
1.999999
 50
118.955872
 51
180.000000
  0
ARC
  8
0
 10
-22.700012
 20
58.999992
 40
2.000000
 50
179.999893
 51
241.044128
  0
ARC
  8
0
 62
     4
 10
1.750000
 20
120.699997
 40
2.000000
 50
89.999985
 51
180.000000
  0
ARC
  8
0
 62
     4
 10
3.250000
 20
120.699997
 40
2.000000
 50
0.000000
 51
89.999977
  0
ARC
  8
0
 62
     4
 10
-18.250000
 20
120.699997
 40
2.000000
 50
90.000000
 51
139.458267
  0
ARC
  8
0
 62
     4
 10
-16.750000
 20
120.699997
 40
1.999998
 50
40.788128
 51
90.000000
  0
ARC
  8
0
 62
     4
 10
1.750000
 20
-40.699997
 40
2.000001
 50
220.788193
 51
269.999969
  0
ARC
  8
0
 62
     4
 10
3.250000
 20
-40.699997
 40
2.000000
 50
269.999969
 51
319.458282
  0
ARC
  8
0
 62
     4
 10
-18.250000
 20
-40.699997
 40
2.000000
 50
179.999893
 51
269.999939
  0
ARC
  8
0
 62
     4
 10
-16.750000
 20
-40.699997
 40
2.000000
 50
269.999939
 51
0.000000
  0
ARC
  8
0
 62
     4
 10
-94.479523
 20
-103.999992
 40
4.000000
 50
270.000000
 51
90.000000
  0
CIRCLE
  8
0
 62
     4
 10
-78.479515
 20
-83.999992
 40
2.750000
  0
CIRCLE
  8
0
 62
     4
 10
-94.479523
 20
-103.999992
 40
2.750000
  0
ARC
  8
0
 62
     4
 10
-78.479515
 20
-83.999992
 40
4.000000
 50
90.000000
 51
270.000000
  0
CIRCLE
  8
0
 10
83.479523
 20
60.000000
 40
1.650000
  0
CIRCLE
  8
0
 62
     2
 10
89.479523
 20
22.000000
 40
4.864000
  0
CIRCLE
  8
0
 10
89.479523
 20
22.000000
 40
4.278000
  0
CIRCLE
  8
0
 62
     2
 10
95.479523
 20
58.000000
 40
4.864000
  0
CIRCLE
  8
0
 10
95.479523
 20
58.000000
 40
4.278000
  0
CIRCLE
  8
0
 62
     2
 10
92.479523
 20
40.000000
 40
6.578500
  0
CIRCLE
  8
0
 10
92.479523
 20
40.000000
 40
5.722500
  0
CIRCLE
  8
0
 10
101.479523
 20
20.000000
 40
1.650000
  0
CIRCLE
  8
0
 10
90.979523
 20
4.300003
 40
2.000000
  0
CIRCLE
  8
0
 10
90.979523
 20
4.300003
 40
2.700000
  0
CIRCLE
  8
0
 10
93.979523
 20
75.699997
 40
2.700000
  0
CIRCLE
  8
0
 10
93.979523
 20
75.699997
 40
2.000000
  0
ARC
  8
0
 62
     4
 10
83.729523
 20
120.699997
 40
2.000000
 50
90.000000
 51
139.458923
  0
ARC
  8
0
 62
     4
 10
85.229523
 20
120.699997
 40
2.000003
 50
40.541080
 51
90.000000
  0
ARC
  8
0
 62
     4
 10
99.729523
 20
120.699997
 40
2.000000
 50
90.000000
 51
139.458298
  0
ARC
  8
0
 62
     4
 10
101.229523
 20
120.699997
 40
2.000000
 50
90.000000
 51
95.183586
  0
ARC
  8
0
 62
     4
 10
101.229523
 20
120.699997
 40
2.000001
 50
40.541695
 51
90.000000
  0
ARC
  8
0
 62
     4
 10
101.229523
 20
-40.699997
 40
2.000000
 50
270.000000
 51
319.458923
  0
ARC
  8
0
 62
     4
 10
99.729523
 20
-40.699997
 40
2.000003
 50
220.541077
 51
270.000000
  0
ARC
  8
0
 62
     4
 10
85.229523
 20
-40.699997
 40
2.000000
 50
270.000000
 51
319.458374
  0
ARC
  8
0
 62
     4
 10
83.729523
 20
-40.699997
 40
2.000000
 50
270.000000
 51
275.183594
  0
ARC
  8
0
 62
     4
 10
83.729523
 20
-40.699997
 40
1.999998
 50
220.541611
 51
270.000000
  0
TEXT
  8
0
 10
115.907150
 20
122.050003
 40
4.500000
  1
DATE : NOV ,1993
 50
0.000000
 41
1.052631
 51
0.000000
  7
STANDARD
  0
TEXT
  8
0
 10
113.700279
 20
-130.669998
 40
6.300000
  1
KOGANEI CORP.
 50
0.000000
 41
1.052632
 51
0.000000
  7
STANDARD
  0
TEXT
  8
0
 10
-167.892654
 20
122.050003
 40
4.500000
  1
243-4E2
 50
0.000000
 41
1.052632
 51
0.000000
  7
STANDARD
  0
TEXT
  8
0
 10
-186.892654
 20
104.550003
 40
4.500000
  1
MODEL:243-4E2
 50
0.000000
 41
1.052632
 51
0.000000
  7
STANDARD
  0
TEXT
  8
0
 10
-96.286522
 20
59.119999
 40
3.200000
  1
A
 50
0.000000
 41
1.052632
 51
0.000000
  7
STANDARD
  0
TEXT
  8
0
 10
-80.286522
 20
17.120001
 40
3.200000
  1
B
 50
0.000000
 41
1.052632
 51
0.000000
  7
STANDARD
  0
TEXT
  8
0
 10
86.072525
 20
62.119999
 40
3.200000
  1
R1
 50
0.000000
 41
1.052632
 51
0.000000
  7
STANDARD
  0
TEXT
  8
0
 10
92.072525
 20
14.120000
 40
3.200000
  1
R2
 50
0.000000
 41
1.052632
 51
0.000000
  7
STANDARD
  0
TEXT
  8
0
 10
98.672523
 20
30.120001
 40
3.200000
  1
P
 50
0.000000
 41
1.052632
 51
0.000000
  7
STANDARD
  0
ENDSEC
  0
EOF
