  0
SECTION
  2
HEADER
  0
ENDSEC
  0
SECTION
  2
TABLES
  0
TABLE
  2
LTYPE
 70
     4
  0
LTYPE
  2
CONTINUOUS
 70
    64
  3
Solid line
 72
    65
 73
     0
 40
0.000000
  0
LTYPE
  2
DASHED
 70
    64
  3
__ __ __ __ __ __ __ __ __ __ __ __ __ __ __
 72
    65
 73
     2
 40
3.500000
 49
2.000000
 49
-1.500000
  0
LTYPE
  2
CENTER
 70
    64
  3
____ _ ____ _ ____ _ ____ _ ____ _ ____ _ ____
 72
    65
 73
     4
 40
17.500000
 49
13.000000
 49
-1.500000
 49
1.500000
 49
-1.500000
  0
LTYPE
  2
PHANTOM
 70
    64
  3
_____ _ _ _____ _ _ _____ _ _ _____ _ _ ____  
 72
    65
 73
     6
 40
15.500000
 49
8.000000
 49
-1.500000
 49
1.500000
 49
-1.500000
 49
1.500000
 49
-1.500000
  0
LTYPE
  2
DASHED1
 70
    64
  3
__ __ __ __ __ __ __ __ __ __ __ __ __ __ __
 72
    65
 73
     2
 40
1.500000
 49
1.000000
 49
-0.500000
  0
LTYPE
  2
DASHED2
 70
    64
  3
__ __ __ __ __ __ __ __ __ __ __ __ __ __ __
 72
    65
 73
     2
 40
3.500000
 49
2.500000
 49
-1.000000
  0
LTYPE
  2
DASHED3
 70
    64
  3
__ __ __ __ __ __ __ __ __ __ __ __ __ __ __
 72
    65
 73
     2
 40
6.000000
 49
4.000000
 49
-2.000000
  0
LTYPE
  2
DASHED4
 70
    64
  3
__ __ __ __ __ __ __ __ __ __ __ __ __ __ __
 72
    65
 73
     2
 40
12.000000
 49
10.000000
 49
-2.000000
  0
LTYPE
  2
DASHED5
 70
    64
  3
__ __ __ __ __ __ __ __ __ __ __ __ __ __ __
 72
    65
 73
     2
 40
17.000000
 49
15.000000
 49
-2.000000
  0
LTYPE
  2
DASHED6
 70
    64
  3
__ __ __ __ __ __ __ __ __ __ __ __ __ __ __
 72
    65
 73
     2
 40
29.000000
 49
27.000000
 49
-2.000000
  0
LTYPE
  2
PHANTOM1
 70
    64
  3
_____ _ _ _____ _ _ _____ _ _ _____ _ _ ____  
 72
    65
 73
     6
 40
31.000000
 49
25.000000
 49
-1.500000
 49
1.000000
 49
-1.000000
 49
1.000000
 49
-1.500000
  0
LTYPE
  2
PHANTOM2
 70
    64
  3
_____ _ _ _____ _ _ _____ _ _ _____ _ _ ____  
 72
    65
 73
     6
 40
36.000000
 49
27.000000
 49
-1.500000
 49
2.500000
 49
-1.000000
 49
2.500000
 49
-1.500000
  0
LTYPE
  2
PHANTOM3
 70
    64
  3
_____ _ _ _____ _ _ _____ _ _ _____ _ _ ____  
 72
    65
 73
     6
 40
78.000000
 49
64.000000
 49
-2.000000
 49
4.000000
 49
-2.000000
 49
4.000000
 49
-2.000000
  0
LTYPE
  2
CENTER1
 70
    64
  3
____ _ ____ _ ____ _ ____ _ ____ _ ____ _ ____
 72
    65
 73
     4
 40
19.000000
 49
14.000000
 49
-1.000000
 49
3.000000
 49
-1.000000
  0
LTYPE
  2
CENTER2
 70
    64
  3
____ _ ____ _ ____ _ ____ _ ____ _ ____ _ ____
 72
    65
 73
     4
 40
28.500000
 49
25.000000
 49
-1.000000
 49
1.500000
 49
-1.000000
  0
LTYPE
  2
CENTER3
 70
    64
  3
____ _ ____ _ ____ _ ____ _ ____ _ ____ _ ____
 72
    65
 73
     4
 40
31.500000
 49
27.000000
 49
-1.000000
 49
2.500000
 49
-1.000000
  0
LTYPE
  2
CENTER4
 70
    64
  3
____ _ ____ _ ____ _ ____ _ ____ _ ____ _ ____
 72
    65
 73
     4
 40
50.000000
 49
45.000000
 49
-1.000000
 49
3.000000
 49
-1.000000
  0
LTYPE
  2
CENTER5
 70
    64
  3
____ _ ____ _ ____ _ ____ _ ____ _ ____ _ ____
 72
    65
 73
     4
 40
100.000000
 49
92.000000
 49
-2.000000
 49
4.000000
 49
-2.000000
  0
LTYPE
  2
SBK1
 70
    64
  3
______ _ _ _ ______ _ _ _ ______ _ _ _ _____  
 72
    65
 73
     8
 40
60.500000
 49
45.000000
 49
-2.000000
 49
2.500000
 49
-2.000000
 49
2.500000
 49
-2.000000
 49
2.500000
 49
-2.000000
  0
LTYPE
  2
SBK2
 70
    64
  3
______ _ _ _ ______ _ _ _ ______ _ _ _ _____  
 72
    65
 73
     8
 40
84.000000
 49
64.000000
 49
-2.000000
 49
4.000000
 49
-2.000000
 49
4.000000
 49
-2.000000
 49
4.000000
 49
-2.000000
  0
LTYPE
  2
STCH
 70
    64
  3
__ __ __ __ __ __ __ __ __ __ __ __ __ __ __
 72
    65
 73
     2
 40
3.000000
 49
1.000000
 49
-2.000000
  0
LTYPE
  2
MTCH
 70
    64
  3
_____ _ _ _____ _ _ _____ _ _ _____ _ _ ____  
 72
    65
 73
     6
 40
80.000000
 49
66.000000
 49
-2.000000
 49
4.000000
 49
-2.000000
 49
4.000000
 49
-2.000000
  0
ENDTAB
  0
TABLE
  2
LAYER
 70
     1
  0
LAYER
  2
0
 70
     0
 62
     7
  6
CONTINUOUS
  0
ENDTAB
  0
TABLE
  2
STYLE
 70
     1
  0
STYLE
  2
STANDARD
 70
     0
 40
0.000000
 41
1.000000
 50
0.000000
 71
     0
 42
0.200000
  3
txt
  4
BIGFONT
  0
ENDTAB
  0
TABLE
  2
VIEW
 70
     0
  0
ENDTAB
  0
ENDSEC
  0
SECTION
  2
BLOCKS
  0
ENDSEC
  0
SECTION
  2
ENTITIES
  0
LINE
  8
0
 10
-262.247223
 20
-180.000046
 11
-262.247223
 21
180.000046
  0
LINE
  8
0
 10
262.247223
 20
180.000046
 11
262.247223
 21
-180.000046
  0
LINE
  8
0
 10
-262.247223
 20
-180.000046
 11
262.247223
 21
-180.000046
  0
LINE
  8
0
 10
-262.247223
 20
180.000046
 11
262.247223
 21
180.000046
  0
LINE
  8
0
 10
-262.247223
 20
159.775299
 11
-154.382050
 21
159.775299
  0
LINE
  8
0
 10
-154.382050
 20
159.775299
 11
-154.382050
 21
180.000046
  0
LINE
  8
0
 10
154.382034
 20
-159.775345
 11
262.247223
 21
-159.775345
  0
LINE
  8
0
 10
154.382034
 20
159.775299
 11
262.247223
 21
159.775299
  0
LINE
  8
0
 10
154.382034
 20
180.000046
 11
154.382034
 21
159.775299
  0
LINE
  8
0
 10
154.382034
 20
-159.775345
 11
154.382034
 21
-180.000046
  0
LINE
  8
0
 10
-33.500000
 20
138.800003
 11
33.500000
 21
138.800003
  0
LINE
  8
0
 10
-33.500000
 20
86.800003
 11
33.500000
 21
86.800003
  0
LINE
  8
0
 10
41.500000
 20
130.800003
 11
41.500000
 21
94.800003
  0
LINE
  8
0
 10
-41.500000
 20
130.800003
 11
-41.500000
 21
94.800003
  0
LINE
  8
0
 10
7.000000
 20
143.300003
 11
7.000000
 21
138.800003
  0
LINE
  8
0
 10
35.000000
 20
143.300003
 11
35.000000
 21
138.800003
  0
LINE
  8
0
 10
7.000000
 20
86.800003
 11
7.000000
 21
82.300003
  0
LINE
  8
0
 10
35.000000
 20
86.800003
 11
35.000000
 21
82.300003
  0
LINE
  8
0
 10
-7.000000
 20
143.300003
 11
-7.000000
 21
138.800003
  0
LINE
  8
0
 10
-35.000000
 20
143.300003
 11
-35.000000
 21
138.800003
  0
LINE
  8
0
 10
-7.000000
 20
86.800003
 11
-7.000000
 21
82.300003
  0
LINE
  8
0
 10
-35.000000
 20
86.800003
 11
-35.000000
 21
82.300003
  0
LINE
  8
0
 10
50.000000
 20
134.800003
 11
50.000000
 21
97.800003
  0
LINE
  8
0
 10
-50.000000
 20
143.300003
 11
-50.000000
 21
138.800003
  0
LINE
  8
0
 10
-48.000000
 20
136.800003
 11
-41.000000
 21
136.800003
  0
LINE
  8
0
 10
-48.000000
 20
129.800003
 11
-41.500000
 21
129.800003
  0
LINE
  8
0
 10
41.000000
 20
88.800003
 11
48.000000
 21
88.800003
  0
LINE
  8
0
 10
41.500000
 20
95.800003
 11
48.000000
 21
95.800003
  0
LINE
  8
0
 10
50.000000
 20
86.800003
 11
50.000000
 21
82.300003
  0
LINE
  8
0
 10
-50.000000
 20
127.800003
 11
-50.000000
 21
100.800003
  0
LINE
  8
0
 10
-48.000000
 20
98.800003
 11
-41.500000
 21
98.800003
  0
LINE
  8
0
 10
38.791504
 20
136.800003
 11
48.000000
 21
136.800003
  0
LINE
  8
0
 10
-48.000000
 20
126.800003
 11
-41.500000
 21
126.800003
  0
LINE
  8
0
 10
-120.348770
 20
4.500000
 11
-120.348770
 21
-32.500000
  0
LINE
  8
0
 10
-41.500000
 20
12.800003
 11
41.500000
 21
12.800003
  0
LINE
  8
0
 10
-41.500000
 20
6.500000
 11
41.500000
 21
6.500000
  0
LINE
  8
0
 10
50.000000
 20
2.000000
 11
50.000000
 21
-32.500000
  0
LINE
  8
0
 10
-50.000000
 20
2.000000
 11
-50.000000
 21
-32.500000
  0
LINE
  8
0
 10
41.500000
 20
12.800003
 11
41.500000
 21
-2.000000
  0
LINE
  8
0
 10
-41.500000
 20
12.800003
 11
-41.500000
 21
-2.000000
  0
LINE
  8
0
  6
CENTER
 10
-53.000000
 20
-10.000000
 11
53.000000
 21
-10.000000
  0
LINE
  8
0
 10
-48.000000
 20
4.000000
 11
-43.500000
 21
4.000000
  0
LINE
  8
0
 10
-48.000000
 20
-24.000000
 11
-43.500000
 21
-24.000000
  0
LINE
  8
0
 10
43.500000
 20
4.000000
 11
48.000000
 21
4.000000
  0
LINE
  8
0
 10
-41.500000
 20
-18.000000
 11
-41.500000
 21
-32.500000
  0
LINE
  8
0
 10
30.260132
 20
-20.500000
 11
48.000000
 21
-20.500000
  0
LINE
  8
0
 10
-50.000000
 20
-32.500000
 11
50.000000
 21
-32.500000
  0
LINE
  8
0
 10
35.000000
 20
4.000000
 11
35.000000
 21
-10.000000
  0
LINE
  8
0
 10
35.000000
 20
-20.500000
 11
35.000000
 21
-32.500000
  0
LINE
  8
0
 10
21.000000
 20
-24.000000
 11
21.000000
 21
-32.500000
  0
LINE
  8
0
 10
5.131924
 20
3.801956
 11
5.131924
 21
-32.500000
  0
LINE
  8
0
 10
-5.131924
 20
3.801956
 11
-5.131924
 21
-32.500000
  0
LINE
  8
0
 10
41.500000
 20
98.800003
 11
48.000000
 21
98.800003
  0
LINE
  8
0
 10
-160.348770
 20
12.800003
 11
-108.348770
 21
12.800003
  0
LINE
  8
0
 10
-110.348770
 20
-32.500000
 11
-166.348770
 21
-32.500000
  0
LINE
  8
0
 10
-108.348770
 20
12.800003
 11
-108.348770
 21
7.500000
  0
LINE
  8
0
 10
-160.348770
 20
12.800003
 11
-160.348770
 21
2.794724
  0
LINE
  8
0
 10
-159.348770
 20
6.500000
 11
-150.348770
 21
6.500000
  0
LINE
  8
0
  6
CENTER
 10
-98.848770
 20
-10.000000
 11
-169.848770
 21
-10.000000
  0
LINE
  8
0
 10
-146.348770
 20
-20.500000
 11
-164.848770
 21
-20.500000
  0
LINE
  8
0
 10
-113.098770
 20
4.000000
 11
-103.848770
 21
4.000000
  0
LINE
  8
0
 10
-144.348770
 20
-22.500000
 11
-144.348770
 21
-32.500000
  0
LINE
  8
0
 10
-164.848770
 20
4.000000
 11
-162.348770
 21
4.000000
  0
LINE
  8
0
 10
-103.848770
 20
-24.000000
 11
-120.348770
 21
-24.000000
  0
LINE
  8
0
 10
-41.500000
 20
-103.500000
 11
-41.500000
 21
-120.500000
  0
LINE
  8
0
 10
-110.348770
 20
-24.000000
 11
-110.348770
 21
-32.500000
  0
LINE
  8
0
 10
-159.348770
 20
-22.500000
 11
-159.348770
 21
-32.500000
  0
LINE
  8
0
 10
-152.348770
 20
-22.500000
 11
-152.348770
 21
-32.500000
  0
LINE
  8
0
 10
-48.000000
 20
-137.500000
 11
-41.000000
 21
-137.500000
  0
LINE
  8
0
 10
-48.000000
 20
-130.500000
 11
-41.000000
 21
-130.500000
  0
LINE
  8
0
 10
-48.000000
 20
-122.500000
 11
-43.500000
 21
-122.500000
  0
LINE
  8
0
 10
-50.000000
 20
-139.500000
 11
-50.000000
 21
-143.000000
  0
LINE
  8
0
 10
-50.000000
 20
-100.500000
 11
-50.000000
 21
-128.500000
  0
LINE
  8
0
 10
-31.414213
 20
-144.414200
 11
-20.191288
 21
-133.191284
  0
LINE
  8
0
 10
-7.000000
 20
-138.500000
 11
-7.000000
 21
-143.000000
  0
LINE
  8
0
 10
-7.000000
 20
-82.000000
 11
-7.000000
 21
-98.217148
  0
LINE
  8
0
 10
-35.000000
 20
-82.000000
 11
-35.000000
 21
-95.000000
  0
LINE
  8
0
 10
41.500000
 20
-123.500000
 11
41.500000
 21
-105.500000
  0
LINE
  8
0
 10
47.000000
 20
-136.500000
 11
38.000000
 21
-136.500000
  0
LINE
  8
0
 10
48.000000
 20
-87.500000
 11
41.000000
 21
-87.500000
  0
LINE
  8
0
 10
48.000000
 20
-94.500000
 11
41.000000
 21
-94.500000
  0
LINE
  8
0
 10
48.000000
 20
-102.500000
 11
44.500000
 21
-102.500000
  0
LINE
  8
0
 10
50.000000
 20
-85.500000
 11
50.000000
 21
-82.000000
  0
LINE
  8
0
 10
50.000000
 20
-133.500000
 11
50.000000
 21
-96.500000
  0
LINE
  8
0
 10
31.414211
 20
-80.585777
 11
20.191280
 21
-91.808708
  0
LINE
  8
0
 10
7.000000
 20
-98.217148
 11
7.000000
 21
-82.000000
  0
LINE
  8
0
 10
7.000000
 20
-143.000000
 11
7.000000
 21
-138.500000
  0
LINE
  8
0
 10
35.000000
 20
-143.000000
 11
35.000000
 21
-139.500000
  0
LINE
  8
0
 10
5.000000
 20
-136.500000
 11
-5.000000
 21
-136.500000
  0
LINE
  8
0
 10
2.751713
 20
-123.500000
 11
-2.751713
 21
-123.500000
  0
LINE
  8
0
 10
2.751713
 20
-101.500000
 11
-2.751713
 21
-101.500000
  0
LINE
  8
0
 10
-38.500000
 20
-98.500000
 11
-48.000000
 21
-98.500000
  0
LINE
  8
0
 10
-118.348770
 20
6.500000
 11
-109.348770
 21
6.500000
  0
LINE
  8
0
 10
-148.348770
 20
4.500000
 11
-148.348770
 21
-10.000000
  0
LINE
  8
0
 10
-152.200409
 20
5.500000
 11
-152.200409
 21
2.794724
  0
LINE
  8
0
 10
-159.348770
 20
1.794724
 11
-153.200409
 21
1.794724
  0
LINE
  8
0
 10
-114.539246
 20
-24.000000
 11
-114.539246
 21
-32.500000
  0
LINE
  8
0
 10
41.500000
 20
126.800003
 11
48.000000
 21
126.800003
  0
LINE
  8
0
 10
148.348770
 20
-20.954445
 11
148.348770
 21
-32.500000
  0
LINE
  8
0
 10
160.348770
 20
12.800003
 11
108.348770
 21
12.800003
  0
LINE
  8
0
 10
158.348770
 20
-32.500000
 11
102.348770
 21
-32.500000
  0
LINE
  8
0
 10
108.348770
 20
12.800003
 11
108.348770
 21
7.500000
  0
LINE
  8
0
 10
160.348770
 20
12.800003
 11
160.348770
 21
2.794724
  0
LINE
  8
0
 10
159.348770
 20
6.500000
 11
150.348770
 21
6.500000
  0
LINE
  8
0
  6
CENTER
 10
169.848770
 20
-10.000000
 11
98.848770
 21
-10.000000
  0
LINE
  8
0
 10
149.348770
 20
-1.000000
 11
146.390366
 21
-1.000000
  0
LINE
  8
0
 10
149.348770
 20
-19.000000
 11
146.390366
 21
-19.000000
  0
LINE
  8
0
 10
122.348770
 20
-20.500000
 11
103.848770
 21
-20.500000
  0
LINE
  8
0
 10
113.098770
 20
4.000000
 11
103.848770
 21
4.000000
  0
LINE
  8
0
 10
124.348770
 20
-22.500000
 11
124.348770
 21
-32.500000
  0
LINE
  8
0
 10
164.848770
 20
4.000000
 11
162.348770
 21
4.000000
  0
LINE
  8
0
 10
164.848770
 20
-24.000000
 11
148.348770
 21
-24.000000
  0
LINE
  8
0
 10
158.348770
 20
-24.000000
 11
158.348770
 21
-32.500000
  0
LINE
  8
0
 10
109.348770
 20
-22.500000
 11
109.348770
 21
-32.500000
  0
LINE
  8
0
 10
116.348770
 20
-22.500000
 11
116.348770
 21
-32.500000
  0
LINE
  8
0
 10
120.348770
 20
4.500000
 11
120.348770
 21
-10.000000
  0
LINE
  8
0
 10
118.348770
 20
6.500000
 11
109.348770
 21
6.500000
  0
LINE
  8
0
 10
148.348770
 20
4.500000
 11
148.348770
 21
1.000000
  0
LINE
  8
0
 10
152.200409
 20
5.500000
 11
152.200409
 21
2.794724
  0
LINE
  8
0
 10
159.348770
 20
1.794724
 11
153.200409
 21
1.794724
  0
LINE
  8
0
 10
154.158295
 20
-24.000000
 11
154.158295
 21
-32.500000
  0
LINE
  8
0
 10
38.500000
 20
-126.500000
 11
36.491932
 21
-126.500000
  0
LINE
  8
0
 10
-7.000000
 20
-86.500000
 11
7.000000
 21
-86.500000
  0
LINE
  8
0
 10
-7.000000
 20
-138.500000
 11
7.000000
 21
-138.500000
  0
LINE
  8
0
 10
-41.500000
 20
-98.500000
 11
-41.500000
 21
-94.500000
  0
LINE
  8
0
 10
48.827568
 20
-123.223801
 11
42.698536
 21
-123.223801
  0
LINE
  8
0
 10
35.000004
 20
-136.500000
 11
31.661356
 21
-130.776611
  0
LINE
  8
0
 10
7.000003
 20
-136.500000
 11
10.338649
 21
-130.776611
  0
LINE
  8
0
 10
-7.000003
 20
-136.500000
 11
-10.338649
 21
-130.776611
  0
LINE
  8
0
  6
DASHED
 10
-14.514842
 20
-89.500000
 11
-14.233579
 21
-80.500000
  0
LINE
  8
0
  6
DASHED
 10
-15.371255
 20
-89.500000
 11
-15.089992
 21
-80.500000
  0
LINE
  8
0
  6
DASHED
 10
-26.628748
 20
-89.500000
 11
-26.910011
 21
-80.500000
  0
LINE
  8
0
  6
DASHED
 10
-27.485168
 20
-89.500000
 11
-27.766432
 21
-80.500000
  0
LINE
  8
0
  6
CENTER
 10
-53.000000
 20
-112.500000
 11
53.000000
 21
-112.500000
  0
LINE
  8
0
  6
DASHED
 10
15.371253
 20
-89.500000
 11
15.089990
 21
-80.500000
  0
LINE
  8
0
  6
DASHED
 10
14.514840
 20
-89.500000
 11
14.233576
 21
-80.499992
  0
LINE
  8
0
  6
DASHED
 10
27.485168
 20
-89.500000
 11
27.766432
 21
-80.500000
  0
LINE
  8
0
  6
DASHED
 10
26.628748
 20
-89.500000
 11
26.910011
 21
-80.500000
  0
LINE
  8
0
  6
DASHED
 10
15.371254
 20
-135.500000
 11
15.089990
 21
-144.500000
  0
LINE
  8
0
  6
DASHED
 10
14.514841
 20
-135.500000
 11
14.233577
 21
-144.500000
  0
LINE
  8
0
  6
DASHED
 10
27.485168
 20
-135.500000
 11
27.766434
 21
-144.500000
  0
LINE
  8
0
  6
DASHED
 10
26.628748
 20
-135.500000
 11
26.910013
 21
-144.500000
  0
LINE
  8
0
  6
CENTER
 10
0.000000
 20
-75.000000
 11
0.000000
 21
-150.000000
  0
LINE
  8
0
  6
CENTER
 10
-21.000000
 20
-75.000000
 11
-21.000000
 21
-150.000000
  0
LINE
  8
0
  6
CENTER
 10
21.000000
 20
-75.000000
 11
21.000000
 21
-150.000000
  0
LINE
  8
0
  6
CENTER
 10
149.348770
 20
2.500000
 11
149.348770
 21
-22.500000
  0
LINE
  8
0
  6
CENTER
 10
21.000000
 20
40.152138
 11
21.000000
 21
-35.500000
  0
LINE
  8
0
  6
CENTER
 10
-53.000000
 20
112.800003
 11
53.000000
 21
112.800003
  0
LINE
  8
0
  6
CENTER
 10
-21.000000
 20
75.300003
 11
-21.000000
 21
150.300003
  0
LINE
  8
0
  6
CENTER
 10
21.000000
 20
75.300003
 11
21.000000
 21
150.300003
  0
LINE
  8
0
  6
CENTER
 10
0.000000
 20
75.300003
 11
0.000000
 21
150.300003
  0
LINE
  8
0
  6
DASHED
 10
111.348770
 20
-3.514842
 11
102.348770
 21
-3.233578
  0
LINE
  8
0
  6
DASHED
 10
111.348770
 20
-4.371255
 11
102.348770
 21
-4.089991
  0
LINE
  8
0
  6
DASHED
 10
111.348770
 20
-15.628746
 11
102.348770
 21
-15.910010
  0
LINE
  8
0
  6
DASHED
 10
111.348770
 20
-16.485167
 11
102.348770
 21
-16.766432
  0
LINE
  8
0
  6
DASHED
 10
157.348770
 20
-4.371255
 11
166.348770
 21
-4.089991
  0
LINE
  8
0
  6
DASHED
 10
157.348770
 20
-3.514842
 11
166.348770
 21
-3.233578
  0
LINE
  8
0
  6
DASHED
 10
157.348770
 20
-16.485168
 11
166.348770
 21
-16.766432
  0
LINE
  8
0
  6
DASHED
 10
157.348770
 20
-15.628748
 11
166.348770
 21
-15.910012
  0
LINE
  8
0
  6
DASHED
 10
-111.348770
 20
-16.485168
 11
-102.348770
 21
-16.766434
  0
LINE
  8
0
  6
DASHED
 10
-111.348770
 20
-15.628748
 11
-102.348770
 21
-15.910012
  0
LINE
  8
0
  6
DASHED
 10
-111.348770
 20
-4.371255
 11
-102.348770
 21
-4.089991
  0
LINE
  8
0
  6
DASHED
 10
-111.348770
 20
-3.514841
 11
-102.348770
 21
-3.233577
  0
LINE
  8
0
  6
DASHED
 10
-41.000004
 20
-3.514842
 11
-50.000000
 21
-3.233578
  0
LINE
  8
0
  6
DASHED
 10
-41.000000
 20
-4.371255
 11
-50.000000
 21
-4.089991
  0
LINE
  8
0
  6
DASHED
 10
-41.000000
 20
-15.628748
 11
-50.000000
 21
-15.910012
  0
LINE
  8
0
  6
DASHED
 10
-41.000000
 20
-16.485168
 11
-49.999996
 21
-16.766434
  0
LINE
  8
0
  6
DASHED
 10
41.000000
 20
-4.371255
 11
50.000000
 21
-4.089991
  0
LINE
  8
0
  6
DASHED
 10
41.000000
 20
-3.514842
 11
50.000000
 21
-3.233578
  0
LINE
  8
0
  6
DASHED
 10
41.000000
 20
-15.628748
 11
50.000000
 21
-15.910012
  0
LINE
  8
0
  6
DASHED
 10
40.999996
 20
-16.485168
 11
49.999996
 21
-16.766434
  0
LINE
  8
0
  6
DASHED
 10
-41.000000
 20
-106.871254
 11
-50.000004
 21
-106.589989
  0
LINE
  8
0
  6
DASHED
 10
-41.000004
 20
-106.014839
 11
-50.000000
 21
-105.733574
  0
LINE
  8
0
  6
DASHED
 10
-41.000000
 20
-118.128746
 11
-50.000000
 21
-118.410011
  0
LINE
  8
0
  6
DASHED
 10
-41.000000
 20
-118.985168
 11
-49.999996
 21
-119.266426
  0
LINE
  8
0
  6
DASHED
 10
41.000000
 20
-106.014839
 11
50.000000
 21
-105.733574
  0
LINE
  8
0
  6
DASHED
 10
41.000000
 20
-106.871254
 11
50.000004
 21
-106.589989
  0
LINE
  8
0
  6
DASHED
 10
41.000000
 20
-118.128746
 11
50.000000
 21
-118.410011
  0
LINE
  8
0
  6
DASHED
 10
40.999996
 20
-118.985161
 11
49.999996
 21
-119.266426
  0
LINE
  8
0
 10
146.833771
 20
-8.547964
 11
149.348770
 21
-7.095930
  0
LINE
  8
0
 10
149.348770
 20
-12.904071
 11
151.863770
 21
-11.452037
  0
LINE
  8
0
 10
146.833771
 20
-8.547964
 11
146.833771
 21
-11.452036
  0
LINE
  8
0
 10
151.863770
 20
-8.547964
 11
151.863770
 21
-11.452036
  0
LINE
  8
0
 10
146.833755
 20
-11.452035
 11
149.348755
 21
-12.904069
  0
LINE
  8
0
 10
149.348755
 20
-7.095928
 11
151.863754
 21
-8.547962
  0
LINE
  8
0
 10
-33.500000
 20
87.300003
 11
33.500000
 21
87.300003
  0
LINE
  8
0
 10
-33.500000
 20
138.300003
 11
33.500000
 21
138.300003
  0
LINE
  8
0
 10
125.348770
 20
39.800003
 11
143.348770
 21
39.800003
  0
LINE
  8
0
 10
41.500000
 20
12.800003
 11
41.500000
 21
20.800003
  0
LINE
  8
0
 10
-159.848770
 20
12.800003
 11
-159.848770
 21
20.800003
  0
LINE
  8
0
 10
-157.848770
 20
22.800003
 11
-110.848770
 21
22.800003
  0
LINE
  8
0
 10
144.348770
 20
37.800003
 11
144.348770
 21
38.800003
  0
LINE
  8
0
 10
124.348770
 20
37.800003
 11
124.348770
 21
38.800003
  0
LINE
  8
0
 10
34.000000
 20
27.389591
 11
34.000000
 21
34.800003
  0
LINE
  8
0
 10
-146.348770
 20
35.800003
 11
-122.348770
 21
35.800003
  0
LINE
  8
0
 10
-143.348770
 20
39.800003
 11
-125.348770
 21
39.800003
  0
LINE
  8
0
 10
-129.348770
 20
37.800003
 11
-129.348770
 21
38.800003
  0
LINE
  8
0
 10
-139.348770
 20
37.800003
 11
-139.348770
 21
38.800003
  0
LINE
  8
0
 10
-147.348770
 20
24.800003
 11
-147.348770
 21
34.800003
  0
LINE
  8
0
  6
CENTER
 10
0.000000
 20
-35.500000
 11
0.000000
 21
40.152138
  0
LINE
  8
0
  6
CENTER
 10
-134.348770
 20
-35.500000
 11
-134.348770
 21
42.264580
  0
LINE
  8
0
 10
-8.380570
 20
118.800003
 11
7.771244
 21
118.800003
  0
LINE
  8
0
 10
-8.380570
 20
106.800003
 11
7.771244
 21
106.800003
  0
LINE
  8
0
  6
DASHED
 10
139.041168
 20
30.300001
 11
139.338058
 21
39.800003
  0
LINE
  8
0
  6
DASHED
 10
138.459885
 20
30.300001
 11
138.756775
 21
39.799999
  0
LINE
  8
0
  6
DASHED
 10
130.237656
 20
30.300005
 11
129.940765
 21
39.800007
  0
LINE
  8
0
  6
DASHED
 10
129.656372
 20
30.300005
 11
129.359482
 21
39.800007
  0
LINE
  8
0
 10
9.467438
 20
24.800003
 11
9.467438
 21
34.800003
  0
LINE
  8
0
 10
-41.500000
 20
12.800003
 11
-41.500000
 21
20.800003
  0
LINE
  8
0
 10
-39.500000
 20
22.800003
 11
39.500000
 21
22.800003
  0
LINE
  8
0
 10
-32.500000
 20
35.800003
 11
33.000000
 21
35.800003
  0
LINE
  8
0
 10
-25.000000
 20
39.800003
 11
-17.000000
 21
39.800003
  0
LINE
  8
0
 10
-16.000000
 20
37.800003
 11
-16.000000
 21
38.800003
  0
LINE
  8
0
 10
-26.000000
 20
37.800003
 11
-26.000000
 21
38.800003
  0
LINE
  8
0
 10
-33.500000
 20
27.400009
 11
-33.500000
 21
34.800003
  0
LINE
  8
0
  6
CENTER
 10
-21.000000
 20
-35.500000
 11
-21.000000
 21
40.152138
  0
LINE
  8
0
 10
-10.034143
 20
24.800003
 11
-10.034143
 21
34.800003
  0
LINE
  8
0
 10
-121.348770
 20
24.800003
 11
-121.348770
 21
34.800003
  0
LINE
  8
0
 10
-108.848770
 20
12.800003
 11
-108.848770
 21
20.800003
  0
LINE
  8
0
 10
159.848770
 20
12.800003
 11
159.848770
 21
20.800003
  0
LINE
  8
0
 10
157.848770
 20
22.800003
 11
110.848770
 21
22.800003
  0
LINE
  8
0
 10
146.348770
 20
35.800003
 11
122.348770
 21
35.800003
  0
LINE
  8
0
 10
147.348770
 20
24.800003
 11
147.348770
 21
34.800003
  0
LINE
  8
0
  6
CENTER
 10
134.348770
 20
-35.500000
 11
134.348770
 21
42.800003
  0
LINE
  8
0
 10
121.348770
 20
24.800003
 11
121.348770
 21
34.800003
  0
LINE
  8
0
 10
108.848770
 20
12.800003
 11
108.848770
 21
20.800003
  0
LINE
  8
0
 10
-146.848770
 20
24.800003
 11
-146.848770
 21
34.800003
  0
LINE
  8
0
 10
-121.848770
 20
24.800003
 11
-121.848770
 21
34.800003
  0
LINE
  8
0
 10
11.000000
 20
37.800003
 11
11.000000
 21
38.800003
  0
LINE
  8
0
 10
12.000000
 20
39.800003
 11
30.000000
 21
39.800003
  0
LINE
  8
0
  6
DASHED
 10
16.307600
 20
30.300003
 11
16.010710
 21
39.800003
  0
LINE
  8
0
  6
DASHED
 10
16.888885
 20
30.300003
 11
16.591995
 21
39.800003
  0
LINE
  8
0
  6
DASHED
 10
25.111116
 20
30.300001
 11
25.408007
 21
39.799999
  0
LINE
  8
0
  6
DASHED
 10
25.692402
 20
30.299999
 11
25.989290
 21
39.799999
  0
LINE
  8
0
 10
31.000000
 20
37.800003
 11
31.000000
 21
38.800003
  0
LINE
  8
0
 10
-124.348770
 20
37.800003
 11
-124.348770
 21
38.800003
  0
LINE
  8
0
 10
-144.348770
 20
37.800003
 11
-144.348770
 21
38.800003
  0
LINE
  8
0
  6
CENTER
 10
33.500000
 20
100.800003
 11
33.500000
 21
89.800003
  0
LINE
  8
0
  6
CENTER
 10
28.000000
 20
95.299973
 11
39.000000
 21
95.299973
  0
LINE
  8
0
 10
34.100006
 20
92.899994
 11
34.100006
 21
93.100006
  0
LINE
  8
0
 10
32.899994
 20
92.899994
 11
32.899994
 21
93.100006
  0
LINE
  8
0
 10
31.100006
 20
95.899979
 11
31.300003
 21
95.899979
  0
LINE
  8
0
 10
31.100006
 20
94.699982
 11
31.300003
 21
94.699982
  0
LINE
  8
0
 10
35.699997
 20
95.899979
 11
35.899994
 21
95.899979
  0
LINE
  8
0
 10
34.100006
 20
97.500000
 11
34.100006
 21
97.699997
  0
LINE
  8
0
 10
32.899994
 20
97.500000
 11
32.899994
 21
97.699997
  0
LINE
  8
0
 10
35.699997
 20
94.699982
 11
35.899994
 21
94.699982
  0
LINE
  8
0
 10
35.899994
 20
95.899994
 11
35.899994
 21
94.699997
  0
LINE
  8
0
 10
31.100006
 20
95.899994
 11
31.100006
 21
94.699997
  0
LINE
  8
0
 10
32.899994
 20
92.899979
 11
34.100006
 21
92.899979
  0
LINE
  8
0
 10
32.899994
 20
97.699982
 11
34.100006
 21
97.699982
  0
LINE
  8
0
  6
CENTER
 10
33.500000
 20
135.800003
 11
33.500000
 21
124.800003
  0
LINE
  8
0
  6
CENTER
 10
28.000000
 20
130.299973
 11
39.000000
 21
130.299973
  0
LINE
  8
0
 10
34.100006
 20
127.899994
 11
34.100006
 21
128.100006
  0
LINE
  8
0
 10
32.899994
 20
127.899994
 11
32.899994
 21
128.100006
  0
LINE
  8
0
 10
31.100006
 20
130.899979
 11
31.300003
 21
130.899979
  0
LINE
  8
0
 10
31.100006
 20
129.699982
 11
31.300003
 21
129.699982
  0
LINE
  8
0
 10
35.699997
 20
130.899979
 11
35.899994
 21
130.899979
  0
LINE
  8
0
 10
34.100006
 20
132.500000
 11
34.100006
 21
132.699997
  0
LINE
  8
0
 10
32.899994
 20
132.500000
 11
32.899994
 21
132.699997
  0
LINE
  8
0
 10
35.699997
 20
129.699982
 11
35.899994
 21
129.699982
  0
LINE
  8
0
 10
35.899994
 20
130.899994
 11
35.899994
 21
129.699997
  0
LINE
  8
0
 10
31.100006
 20
130.899994
 11
31.100006
 21
129.699997
  0
LINE
  8
0
 10
32.899994
 20
127.899979
 11
34.100006
 21
127.899979
  0
LINE
  8
0
 10
32.899994
 20
132.699982
 11
34.100006
 21
132.699982
  0
LINE
  8
0
  6
CENTER
 10
-33.500000
 20
135.800003
 11
-33.500000
 21
124.800003
  0
LINE
  8
0
  6
CENTER
 10
-39.000000
 20
130.299973
 11
-28.000000
 21
130.299973
  0
LINE
  8
0
 10
-32.899994
 20
127.899994
 11
-32.899994
 21
128.100006
  0
LINE
  8
0
 10
-34.100006
 20
127.899994
 11
-34.100006
 21
128.100006
  0
LINE
  8
0
 10
-35.899994
 20
130.899979
 11
-35.699997
 21
130.899979
  0
LINE
  8
0
 10
-35.899994
 20
129.699982
 11
-35.699997
 21
129.699982
  0
LINE
  8
0
 10
-31.300003
 20
130.899979
 11
-31.100006
 21
130.899979
  0
LINE
  8
0
 10
-32.899994
 20
132.500000
 11
-32.899994
 21
132.699997
  0
LINE
  8
0
 10
-34.100006
 20
132.500000
 11
-34.100006
 21
132.699997
  0
LINE
  8
0
 10
-31.300003
 20
129.699982
 11
-31.100006
 21
129.699982
  0
LINE
  8
0
 10
-31.100006
 20
130.899994
 11
-31.100006
 21
129.699997
  0
LINE
  8
0
 10
-35.899994
 20
130.899994
 11
-35.899994
 21
129.699997
  0
LINE
  8
0
 10
-34.100006
 20
127.899979
 11
-32.899994
 21
127.899979
  0
LINE
  8
0
 10
-34.100006
 20
132.699982
 11
-32.899994
 21
132.699982
  0
LINE
  8
0
  6
CENTER
 10
-33.500000
 20
100.800003
 11
-33.500000
 21
89.800003
  0
LINE
  8
0
  6
CENTER
 10
-39.000000
 20
95.299973
 11
-28.000000
 21
95.299973
  0
LINE
  8
0
 10
-32.899994
 20
92.899994
 11
-32.899994
 21
93.100006
  0
LINE
  8
0
 10
-34.100006
 20
92.899994
 11
-34.100006
 21
93.100006
  0
LINE
  8
0
 10
-35.899994
 20
95.899979
 11
-35.699997
 21
95.899979
  0
LINE
  8
0
 10
-35.899994
 20
94.699982
 11
-35.699997
 21
94.699982
  0
LINE
  8
0
 10
-31.300003
 20
95.899979
 11
-31.100006
 21
95.899979
  0
LINE
  8
0
 10
-32.899994
 20
97.500000
 11
-32.899994
 21
97.699997
  0
LINE
  8
0
 10
-34.100006
 20
97.500000
 11
-34.100006
 21
97.699997
  0
LINE
  8
0
 10
-31.300003
 20
94.699982
 11
-31.100006
 21
94.699982
  0
LINE
  8
0
 10
-31.100006
 20
95.899994
 11
-31.100006
 21
94.699997
  0
LINE
  8
0
 10
-35.899994
 20
95.899994
 11
-35.899994
 21
94.699997
  0
LINE
  8
0
 10
-34.100006
 20
92.899979
 11
-32.899994
 21
92.899979
  0
LINE
  8
0
 10
-34.100006
 20
97.699982
 11
-32.899994
 21
97.699982
  0
LINE
  8
0
 10
28.900047
 20
24.100006
 11
38.099998
 21
24.100006
  0
LINE
  8
0
 10
32.399883
 20
24.099951
 11
33.699894
 21
22.799940
  0
LINE
  8
0
 10
33.389896
 20
24.099989
 11
34.689877
 21
22.800011
  0
LINE
  8
0
 10
28.900047
 20
24.100006
 11
28.900047
 21
22.800003
  0
LINE
  8
0
 10
38.099998
 20
24.100006
 11
38.099998
 21
22.800003
  0
LINE
  8
0
  6
CENTER
 10
33.500008
 20
29.088226
 11
33.500008
 21
7.800003
  0
LINE
  8
0
 10
29.127920
 20
25.561516
 11
29.000050
 21
24.099998
  0
LINE
  8
0
 10
37.872162
 20
25.561506
 11
38.000027
 21
24.100002
  0
LINE
  8
0
 10
-156.448730
 20
24.100006
 11
-147.248779
 21
24.100006
  0
LINE
  8
0
 10
-152.948883
 20
24.099953
 11
-151.648880
 21
22.799942
  0
LINE
  8
0
 10
-151.958862
 20
24.099991
 11
-150.658890
 21
22.800013
  0
LINE
  8
0
 10
-156.448730
 20
24.100006
 11
-156.448730
 21
22.800003
  0
LINE
  8
0
 10
-147.248779
 20
24.100006
 11
-147.248779
 21
22.800003
  0
LINE
  8
0
  6
CENTER
 10
-151.848755
 20
29.088226
 11
-151.848755
 21
7.800003
  0
LINE
  8
0
 10
-156.220840
 20
25.561518
 11
-156.348709
 21
24.099998
  0
LINE
  8
0
 10
-147.476608
 20
25.561506
 11
-147.348740
 21
24.100002
  0
LINE
  8
0
 10
-38.099953
 20
24.100006
 11
-28.900002
 21
24.100006
  0
LINE
  8
0
 10
-34.600117
 20
24.099953
 11
-33.300106
 21
22.799940
  0
LINE
  8
0
 10
-33.610100
 20
24.099989
 11
-32.310123
 21
22.800011
  0
LINE
  8
0
 10
-38.099953
 20
24.100006
 11
-38.099953
 21
22.800003
  0
LINE
  8
0
 10
-28.900002
 20
24.100006
 11
-28.900002
 21
22.800003
  0
LINE
  8
0
  6
CENTER
 10
-33.499992
 20
29.088226
 11
-33.499992
 21
7.800003
  0
LINE
  8
0
 10
-37.872078
 20
25.561518
 11
-37.999947
 21
24.099998
  0
LINE
  8
0
 10
-29.127838
 20
25.561508
 11
-28.999975
 21
24.100004
  0
LINE
  8
0
 10
-121.448723
 20
24.100006
 11
-112.248772
 21
24.100006
  0
LINE
  8
0
 10
-117.948883
 20
24.099947
 11
-116.648872
 21
22.799936
  0
LINE
  8
0
 10
-116.958870
 20
24.099985
 11
-115.658890
 21
22.800007
  0
LINE
  8
0
 10
-121.448723
 20
24.100006
 11
-121.448723
 21
22.800003
  0
LINE
  8
0
 10
-112.248772
 20
24.100006
 11
-112.248772
 21
22.800003
  0
LINE
  8
0
  6
CENTER
 10
-116.848763
 20
29.088226
 11
-116.848763
 21
7.800003
  0
LINE
  8
0
 10
-121.220848
 20
25.561518
 11
-121.348717
 21
24.099998
  0
LINE
  8
0
 10
-112.476608
 20
25.561506
 11
-112.348740
 21
24.100002
  0
LINE
  8
0
 10
112.248817
 20
24.100006
 11
121.448769
 21
24.100006
  0
LINE
  8
0
 10
115.748650
 20
24.099947
 11
117.048660
 21
22.799936
  0
LINE
  8
0
 10
116.738663
 20
24.099985
 11
118.038643
 21
22.800007
  0
LINE
  8
0
 10
112.248817
 20
24.100006
 11
112.248817
 21
22.800003
  0
LINE
  8
0
 10
121.448769
 20
24.100006
 11
121.448769
 21
22.800003
  0
LINE
  8
0
  6
CENTER
 10
116.848778
 20
29.088226
 11
116.848778
 21
7.800003
  0
LINE
  8
0
 10
112.476692
 20
25.561518
 11
112.348824
 21
24.099998
  0
LINE
  8
0
 10
121.220924
 20
25.561506
 11
121.348793
 21
24.100002
  0
LINE
  8
0
 10
147.248810
 20
24.100006
 11
156.448761
 21
24.100006
  0
LINE
  8
0
 10
150.748642
 20
24.099953
 11
152.048660
 21
22.799942
  0
LINE
  8
0
 10
151.738663
 20
24.099991
 11
153.038651
 21
22.800013
  0
LINE
  8
0
 10
147.248810
 20
24.100006
 11
147.248810
 21
22.800003
  0
LINE
  8
0
 10
156.448761
 20
24.100006
 11
156.448761
 21
22.800003
  0
LINE
  8
0
  6
CENTER
 10
151.848785
 20
29.088226
 11
151.848785
 21
7.800003
  0
LINE
  8
0
 10
147.476700
 20
25.561516
 11
147.348816
 21
24.099997
  0
LINE
  8
0
 10
156.220932
 20
25.561506
 11
156.348801
 21
24.100002
  0
LINE
  8
0
 10
-25.639030
 20
-126.389259
 11
-26.204716
 21
-127.576920
  0
LINE
  8
0
 10
-16.360971
 20
-126.389252
 11
-15.795286
 21
-127.576912
  0
LINE
  8
0
 10
16.360977
 20
-126.389259
 11
15.795290
 21
-127.576927
  0
LINE
  8
0
 10
25.639027
 20
-126.389252
 11
26.204710
 21
-127.576912
  0
LINE
  8
0
 10
-12.954166
 20
-112.000000
 11
-12.954166
 21
-113.000000
  0
LINE
  8
0
 10
-8.407840
 20
-113.500000
 11
-12.454166
 21
-113.500000
  0
LINE
  8
0
 10
-8.407840
 20
-111.500000
 11
-12.454166
 21
-111.500000
  0
LINE
  8
0
 10
-12.454169
 20
-111.500000
 11
-12.954170
 21
-112.000000
  0
LINE
  8
0
 10
-12.454168
 20
-113.500000
 11
-12.954164
 21
-113.000008
  0
LINE
  8
0
 10
-7.259094
 20
-113.000000
 11
-12.954166
 21
-113.000000
  0
LINE
  8
0
 10
-7.259094
 20
-112.000000
 11
-12.954166
 21
-112.000000
  0
LINE
  8
0
 10
-21.500000
 20
-104.454163
 11
-20.500000
 21
-104.454163
  0
LINE
  8
0
 10
-20.000000
 20
-99.907837
 11
-20.000000
 21
-103.954163
  0
LINE
  8
0
 10
-22.000000
 20
-99.907837
 11
-22.000000
 21
-103.954163
  0
LINE
  8
0
 10
-22.000002
 20
-103.954170
 11
-21.500000
 21
-104.454170
  0
LINE
  8
0
 10
-20.000000
 20
-103.954170
 11
-20.500000
 21
-104.454170
  0
LINE
  8
0
 10
-20.500000
 20
-98.759094
 11
-20.500000
 21
-104.454163
  0
LINE
  8
0
 10
-21.500000
 20
-98.759094
 11
-21.500000
 21
-104.454163
  0
LINE
  8
0
 10
-29.045834
 20
-113.000000
 11
-29.045834
 21
-112.000000
  0
LINE
  8
0
 10
-33.592159
 20
-111.500000
 11
-29.545834
 21
-111.500000
  0
LINE
  8
0
 10
-33.592159
 20
-113.500000
 11
-29.545834
 21
-113.500000
  0
LINE
  8
0
 10
-29.545832
 20
-113.500008
 11
-29.045832
 21
-113.000008
  0
LINE
  8
0
 10
-29.545835
 20
-111.500008
 11
-29.045839
 21
-112.000000
  0
LINE
  8
0
 10
-34.740906
 20
-112.000000
 11
-29.045834
 21
-112.000000
  0
LINE
  8
0
 10
-34.740906
 20
-113.000000
 11
-29.045834
 21
-113.000000
  0
LINE
  8
0
 10
-20.500000
 20
-120.545837
 11
-21.500000
 21
-120.545837
  0
LINE
  8
0
 10
-22.000000
 20
-125.092163
 11
-22.000000
 21
-121.045837
  0
LINE
  8
0
 10
-20.000000
 20
-125.092163
 11
-20.000000
 21
-121.045837
  0
LINE
  8
0
 10
-20.000000
 20
-121.045837
 11
-20.500002
 21
-120.545830
  0
LINE
  8
0
 10
-21.999996
 20
-121.045837
 11
-21.499996
 21
-120.545837
  0
LINE
  8
0
 10
-21.500000
 20
-126.240906
 11
-21.500000
 21
-120.545837
  0
LINE
  8
0
 10
-20.500000
 20
-126.240906
 11
-20.500000
 21
-120.545837
  0
LINE
  8
0
 10
29.045834
 20
-112.000000
 11
29.045834
 21
-113.000000
  0
LINE
  8
0
 10
33.592159
 20
-113.500000
 11
29.545834
 21
-113.500000
  0
LINE
  8
0
 10
33.592159
 20
-111.500000
 11
29.545834
 21
-111.500000
  0
LINE
  8
0
 10
29.545835
 20
-111.500008
 11
29.045839
 21
-112.000000
  0
LINE
  8
0
 10
29.545832
 20
-113.500008
 11
29.045832
 21
-113.000008
  0
LINE
  8
0
 10
34.740906
 20
-113.000000
 11
29.045834
 21
-113.000000
  0
LINE
  8
0
 10
34.740906
 20
-112.000000
 11
29.045834
 21
-112.000000
  0
LINE
  8
0
 10
20.500000
 20
-104.454163
 11
21.500000
 21
-104.454163
  0
LINE
  8
0
 10
22.000000
 20
-99.907837
 11
22.000000
 21
-103.954163
  0
LINE
  8
0
 10
20.000000
 20
-99.907837
 11
20.000000
 21
-103.954163
  0
LINE
  8
0
 10
20.000000
 20
-103.954170
 11
20.500000
 21
-104.454170
  0
LINE
  8
0
 10
22.000002
 20
-103.954170
 11
21.500000
 21
-104.454170
  0
LINE
  8
0
 10
21.500000
 20
-98.759094
 11
21.500000
 21
-104.454163
  0
LINE
  8
0
 10
20.500000
 20
-98.759094
 11
20.500000
 21
-104.454163
  0
LINE
  8
0
 10
12.954166
 20
-113.000000
 11
12.954166
 21
-112.000000
  0
LINE
  8
0
 10
8.407840
 20
-111.500000
 11
12.454166
 21
-111.500000
  0
LINE
  8
0
 10
8.407840
 20
-113.500000
 11
12.454166
 21
-113.500000
  0
LINE
  8
0
 10
12.454168
 20
-113.500000
 11
12.954164
 21
-113.000008
  0
LINE
  8
0
 10
12.454169
 20
-111.500000
 11
12.954170
 21
-112.000000
  0
LINE
  8
0
 10
7.259094
 20
-112.000000
 11
12.954166
 21
-112.000000
  0
LINE
  8
0
 10
7.259094
 20
-113.000000
 11
12.954166
 21
-113.000000
  0
LINE
  8
0
 10
21.500000
 20
-120.545837
 11
20.500000
 21
-120.545837
  0
LINE
  8
0
 10
20.000000
 20
-125.092163
 11
20.000000
 21
-121.045837
  0
LINE
  8
0
 10
22.000000
 20
-125.092163
 11
22.000000
 21
-121.045837
  0
LINE
  8
0
 10
21.999996
 20
-121.045837
 11
21.499996
 21
-120.545837
  0
LINE
  8
0
 10
20.000000
 20
-121.045837
 11
20.500002
 21
-120.545830
  0
LINE
  8
0
 10
20.500000
 20
-126.240906
 11
20.500000
 21
-120.545837
  0
LINE
  8
0
 10
21.500000
 20
-126.240906
 11
21.500000
 21
-120.545837
  0
LINE
  8
0
  6
CENTER
 10
-36.000000
 20
-134.000000
 11
-53.000000
 21
-134.000000
  0
LINE
  8
0
  6
CENTER
 10
-41.000000
 20
-129.000000
 11
-41.000000
 21
-139.000000
  0
LINE
  8
0
  6
CENTER
 10
36.000000
 20
-91.000000
 11
53.000000
 21
-91.000000
  0
LINE
  8
0
  6
CENTER
 10
41.000000
 20
-96.000000
 11
41.000000
 21
-86.000000
  0
LINE
  8
0
 10
-49.322876
 20
-144.500000
 11
-7.677125
 21
-144.500000
  0
LINE
  8
0
 10
-34.322876
 20
-80.500000
 11
-7.677125
 21
-80.500000
  0
LINE
  8
0
 10
7.677125
 20
-80.500000
 11
49.322876
 21
-80.500000
  0
LINE
  8
0
 10
7.677125
 20
-144.500000
 11
34.322876
 21
-144.500000
  0
LINE
  8
0
 10
-49.322876
 20
144.800003
 11
-7.677125
 21
144.800003
  0
LINE
  8
0
 10
-34.322876
 20
80.800003
 11
-7.677125
 21
80.800003
  0
LINE
  8
0
 10
7.677125
 20
80.800003
 11
49.322876
 21
80.800003
  0
LINE
  8
0
 10
7.677125
 20
144.800003
 11
34.322876
 21
144.800003
  0
LINE
  8
0
 10
-166.348770
 20
-32.500000
 11
-166.348770
 21
3.322876
  0
LINE
  8
0
 10
-102.348770
 20
-23.322876
 11
-102.348770
 21
3.322876
  0
LINE
  8
0
 10
166.348770
 20
-23.322876
 11
166.348770
 21
3.322876
  0
LINE
  8
0
 10
102.348770
 20
-32.500000
 11
102.348770
 21
3.322876
  0
LINE
  8
0
  6
CENTER
 10
-36.000000
 20
134.300003
 11
-53.000000
 21
134.300003
  0
LINE
  8
0
  6
CENTER
 10
-41.000000
 20
129.300003
 11
-41.000000
 21
139.300003
  0
LINE
  8
0
  6
CENTER
 10
41.000000
 20
96.300003
 11
41.000000
 21
86.300003
  0
LINE
  8
0
  6
CENTER
 10
36.000000
 20
91.300003
 11
53.000000
 21
91.300003
  0
LINE
  8
0
  6
CENTER
 10
-155.848770
 20
-17.500000
 11
-155.848770
 21
-35.500000
  0
LINE
  8
0
  6
CENTER
 10
112.848770
 20
-17.500000
 11
112.848770
 21
-35.500000
  0
ARC
  8
0
 10
-33.500000
 20
130.800003
 40
8.000000
 50
89.999969
 51
180.000000
  0
ARC
  8
0
 10
-33.500000
 20
94.800003
 40
8.000000
 50
180.000000
 51
270.000031
  0
ARC
  8
0
 10
33.500000
 20
94.800003
 40
8.000000
 50
270.000031
 51
0.000000
  0
ARC
  8
0
 10
33.500000
 20
130.800003
 40
8.000000
 50
0.000000
 51
89.999969
  0
ARC
  8
0
 10
33.000000
 20
82.300003
 40
2.000000
 50
311.409637
 51
0.000000
  0
ARC
  8
0
 10
9.000000
 20
82.300003
 40
2.000000
 50
180.000000
 51
228.590378
  0
ARC
  8
0
 10
9.000000
 20
143.300003
 40
2.000000
 50
131.409622
 51
180.000000
  0
ARC
  8
0
 10
33.000000
 20
143.300003
 40
2.000000
 50
0.000000
 51
48.590370
  0
ARC
  8
0
 10
-9.000000
 20
143.300003
 40
2.000000
 50
0.000000
 51
48.590382
  0
ARC
  8
0
 10
-33.000000
 20
143.300003
 40
2.000000
 50
131.409622
 51
180.000000
  0
ARC
  8
0
 10
-9.000000
 20
82.300003
 40
2.000000
 50
311.409607
 51
0.000000
  0
ARC
  8
0
 10
-33.000000
 20
82.300003
 40
2.000000
 50
180.000000
 51
228.590378
  0
ARC
  8
0
 10
48.000000
 20
82.300003
 40
2.000000
 50
311.409637
 51
0.000000
  0
ARC
  8
0
 10
48.000000
 20
86.800003
 40
2.000000
 50
0.000000
 51
90.000000
  0
ARC
  8
0
 10
48.000000
 20
97.800003
 40
2.000000
 50
270.000000
 51
0.000000
  0
ARC
  8
0
 10
-48.000000
 20
143.300003
 40
2.000000
 50
131.409622
 51
180.000000
  0
ARC
  8
0
 10
-48.000000
 20
138.800003
 40
2.000000
 50
180.000000
 51
270.000000
  0
ARC
  8
0
 10
-48.000000
 20
127.800003
 40
2.000000
 50
90.000000
 51
180.000000
  0
ARC
  8
0
 10
48.000000
 20
100.800003
 40
2.000000
 50
270.000000
 51
0.000000
  0
ARC
  8
0
 10
-48.000000
 20
100.800003
 40
2.000000
 50
180.000000
 51
270.000000
  0
ARC
  8
0
 10
48.000000
 20
134.800003
 40
2.000000
 50
0.000000
 51
90.000000
  0
ARC
  8
0
 10
-48.000000
 20
124.800003
 40
2.000000
 50
90.000000
 51
180.000000
  0
ARC
  8
0
 10
48.000000
 20
124.800003
 40
2.000000
 50
0.000000
 51
90.000000
  0
ARC
  8
0
 10
-41.000000
 20
133.300003
 40
3.500002
 50
60.363930
 51
90.000000
  0
ARC
  8
0
 10
41.000000
 20
92.300003
 40
3.500002
 50
240.363922
 51
270.000000
  0
CIRCLE
  8
0
 10
21.000000
 20
-10.000000
 40
14.000000
  0
CIRCLE
  8
0
 10
-21.000000
 20
-10.000000
 40
14.000000
  0
ARC
  8
0
 10
-48.000000
 20
2.000000
 40
2.000000
 50
90.000000
 51
179.999969
  0
ARC
  8
0
 10
-48.000000
 20
-22.000000
 40
2.000000
 50
180.000000
 51
270.000000
  0
ARC
  8
0
 10
48.000000
 20
2.000000
 40
2.000000
 50
0.000000
 51
90.000000
  0
ARC
  8
0
 10
43.500000
 20
6.000000
 40
2.000000
 50
179.999969
 51
270.000000
  0
ARC
  8
0
 10
-43.500000
 20
6.000000
 40
2.000000
 50
270.000000
 51
0.000000
  0
ARC
  8
0
 10
-43.500000
 20
-26.000000
 40
2.000000
 50
0.000000
 51
90.000000
  0
ARC
  8
0
 10
48.000000
 20
-22.500000
 40
2.000000
 50
0.000000
 51
90.000000
  0
CIRCLE
  8
0
 10
-134.348770
 20
-10.000000
 40
14.000000
  0
ARC
  8
0
 10
-21.000000
 20
-112.500000
 40
20.000004
 50
277.318970
 51
322.504761
  0
ARC
  8
0
 10
-41.000000
 20
-134.000000
 40
3.500000
 50
270.000000
 51
90.000000
  0
ARC
  8
0
 10
41.000000
 20
-91.000000
 40
3.500000
 50
90.000000
 51
270.000000
  0
ARC
  8
0
 10
-21.000000
 20
-112.500000
 40
20.000000
 50
37.495247
 51
75.211288
  0
ARC
  8
0
 10
-21.000000
 20
-91.500000
 40
3.000001
 50
11.908515
 51
168.091476
  0
ARC
  8
0
 10
21.000000
 20
-112.500000
 40
19.999998
 50
97.318970
 51
142.504745
  0
ARC
  8
0
 10
48.000000
 20
-85.500000
 40
2.000000
 50
270.000000
 51
0.000000
  0
ARC
  8
0
 10
48.000000
 20
-82.000000
 40
2.000000
 50
0.000000
 51
48.590370
  0
ARC
  8
0
 10
48.000000
 20
-96.500000
 40
2.000000
 50
0.000000
 51
90.000000
  0
ARC
  8
0
 10
48.000000
 20
-100.500000
 40
2.000000
 50
270.000000
 51
0.000000
  0
ARC
  8
0
 10
-21.000000
 20
-112.500000
 40
19.999996
 50
104.788712
 51
143.980881
  0
ARC
  8
0
 10
-26.870871
 20
-90.261902
 40
2.999999
 50
284.788727
 51
348.091492
  0
ARC
  8
0
 10
-15.129129
 20
-90.261902
 40
3.000000
 50
191.908524
 51
255.211288
  0
ARC
  8
0
 10
21.000000
 20
-133.500000
 40
3.000000
 50
191.908524
 51
348.091492
  0
ARC
  8
0
 10
15.129128
 20
-134.738098
 40
3.000001
 50
11.908515
 51
75.211273
  0
ARC
  8
0
 10
26.870872
 20
-134.738098
 40
2.999999
 50
104.788727
 51
168.091476
  0
ARC
  8
0
 10
21.000000
 20
-112.500000
 40
20.000004
 50
284.788696
 51
312.342590
  0
ARC
  8
0
 10
21.000000
 20
-112.500000
 40
20.000000
 50
217.495255
 51
255.211304
  0
ARC
  8
0
 10
-18.069963
 20
-135.312607
 40
2.999999
 50
97.318977
 51
134.999969
  0
ARC
  8
0
 10
-2.751713
 20
-126.500000
 40
3.000000
 50
90.000008
 51
142.504730
  0
ARC
  8
0
 10
2.751713
 20
-126.500000
 40
3.000000
 50
37.495266
 51
90.000008
  0
ARC
  8
0
 10
-2.751713
 20
-98.500000
 40
3.000000
 50
217.495270
 51
270.000000
  0
ARC
  8
0
 10
2.751713
 20
-98.500000
 40
3.000000
 50
270.000000
 51
322.504730
  0
ARC
  8
0
 10
18.069962
 20
-89.687393
 40
2.999999
 50
277.318970
 51
314.999969
  0
ARC
  8
0
 10
-162.348770
 20
6.000000
 40
2.000000
 50
270.000000
 51
0.000000
  0
ARC
  8
0
 10
-164.848770
 20
2.000000
 40
2.000000
 50
90.000000
 51
138.590378
  0
ARC
  8
0
 10
-103.848770
 20
-22.000000
 40
2.000000
 50
270.000000
 51
318.590363
  0
ARC
  8
0
 10
-103.848770
 20
2.000000
 40
2.000000
 50
41.409622
 51
90.000000
  0
ARC
  8
0
 10
-164.848770
 20
-22.500000
 40
2.000000
 50
90.000000
 51
138.590378
  0
ARC
  8
0
 10
-161.348770
 20
-22.500000
 40
2.000000
 50
0.000000
 51
90.000000
  0
ARC
  8
0
 10
-150.348770
 20
-22.500000
 40
2.000000
 50
90.000000
 51
180.000000
  0
ARC
  8
0
 10
-146.348770
 20
-22.500000
 40
2.000000
 50
0.000000
 51
90.000000
  0
ARC
  8
0
 10
-150.348770
 20
4.500000
 40
2.000000
 50
0.000000
 51
90.000000
  0
ARC
  8
0
 10
-109.348770
 20
7.500000
 40
1.000000
 50
270.000000
 51
0.000000
  0
ARC
  8
0
 10
-159.348770
 20
7.500000
 40
1.000000
 50
180.000000
 51
270.000000
  0
ARC
  8
0
 10
-113.098770
 20
5.250000
 40
1.250000
 50
90.000000
 51
270.000000
  0
ARC
  8
0
 10
-151.200409
 20
5.500000
 40
1.000000
 50
90.000000
 51
180.000000
  0
ARC
  8
0
 10
-153.200409
 20
2.794724
 40
1.000000
 50
270.000000
 51
0.000000
  0
ARC
  8
0
 10
-159.348770
 20
2.794724
 40
1.000000
 50
179.999985
 51
270.000000
  0
ARC
  8
0
 10
150.348770
 20
-20.954445
 40
2.000000
 50
95.216064
 51
180.000000
  0
ARC
  8
0
 10
134.348770
 20
-10.000000
 40
14.000003
 50
44.900864
 51
315.099152
  0
ARC
  8
0
 10
149.348770
 20
-10.000000
 40
9.000000
 50
270.000000
 51
90.000000
  0
ARC
  8
0
 10
146.390366
 20
2.000000
 40
2.999998
 50
224.900909
 51
270.000000
  0
ARC
  8
0
 10
146.390366
 20
-22.000000
 40
3.000000
 50
90.000000
 51
135.099091
  0
ARC
  8
0
 10
162.348770
 20
6.000000
 40
2.000000
 50
179.999985
 51
270.000000
  0
ARC
  8
0
 10
164.848770
 20
2.000000
 40
2.000000
 50
41.409622
 51
90.000000
  0
ARC
  8
0
 10
164.848770
 20
-22.000000
 40
2.000000
 50
270.000000
 51
318.590363
  0
ARC
  8
0
 10
103.848770
 20
2.000000
 40
2.000000
 50
90.000000
 51
138.590378
  0
ARC
  8
0
 10
103.848770
 20
-22.500000
 40
2.000000
 50
90.000000
 51
138.590378
  0
ARC
  8
0
 10
107.348770
 20
-22.500000
 40
2.000000
 50
0.000000
 51
90.000000
  0
ARC
  8
0
 10
118.348770
 20
-22.500000
 40
2.000000
 50
90.000000
 51
180.000000
  0
ARC
  8
0
 10
122.348770
 20
-22.500000
 40
2.000000
 50
0.000000
 51
90.000000
  0
ARC
  8
0
 10
150.348770
 20
4.500000
 40
2.000000
 50
90.000000
 51
180.000000
  0
ARC
  8
0
 10
150.348770
 20
1.000000
 40
2.000000
 50
179.999985
 51
270.000000
  0
ARC
  8
0
 10
109.348770
 20
7.500000
 40
1.000000
 50
180.000000
 51
270.000000
  0
ARC
  8
0
 10
159.348770
 20
7.500000
 40
1.000000
 50
270.000000
 51
0.000000
  0
ARC
  8
0
 10
113.098770
 20
5.250000
 40
1.250000
 50
270.000000
 51
90.000000
  0
ARC
  8
0
 10
151.200409
 20
5.500000
 40
1.000000
 50
0.000000
 51
90.000000
  0
ARC
  8
0
 10
153.200409
 20
2.794724
 40
1.000000
 50
179.999985
 51
270.000000
  0
ARC
  8
0
 10
159.348770
 20
2.794724
 40
1.000000
 50
270.000000
 51
0.000000
  0
ARC
  8
0
 10
118.348770
 20
4.500000
 40
2.000000
 50
0.000000
 51
90.000000
  0
ARC
  8
0
 10
-118.348770
 20
4.500000
 40
2.000000
 50
90.000000
 51
180.000000
  0
ARC
  8
0
 10
-38.500000
 20
-95.000000
 40
3.500000
 50
270.000000
 51
0.000000
  0
ARC
  8
0
 10
-48.000000
 20
-100.500000
 40
2.000000
 50
90.000000
 51
180.000000
  0
ARC
  8
0
 10
36.491932
 20
-129.500000
 40
3.000000
 50
90.000000
 51
132.342606
  0
ARC
  8
0
 10
38.500000
 20
-123.500000
 40
3.000000
 50
270.000000
 51
0.000000
  0
ARC
  8
0
 10
44.500000
 20
-105.500000
 40
3.000000
 50
90.000000
 51
180.000000
  0
ARC
  8
0
 10
47.000000
 20
-133.500000
 40
3.000000
 50
270.000000
 51
0.000000
  0
ARC
  8
0
 10
38.000000
 20
-139.500000
 40
3.000000
 50
90.000000
 51
180.000000
  0
ARC
  8
0
 10
33.000000
 20
-143.000000
 40
2.000000
 50
311.409637
 51
0.000000
  0
ARC
  8
0
 10
9.000000
 20
-143.000000
 40
2.000000
 50
180.000000
 51
228.590378
  0
ARC
  8
0
 10
-9.000000
 20
-143.000000
 40
2.000000
 50
311.409607
 51
0.000000
  0
ARC
  8
0
 10
-48.000000
 20
-143.000000
 40
2.000000
 50
180.000000
 51
228.590378
  0
ARC
  8
0
 10
-48.000000
 20
-139.500000
 40
2.000000
 50
90.000000
 51
180.000000
  0
ARC
  8
0
 10
-48.000000
 20
-128.500000
 40
2.000000
 50
180.000000
 51
270.000000
  0
ARC
  8
0
 10
-48.000000
 20
-124.500000
 40
2.000000
 50
90.000000
 51
180.000000
  0
ARC
  8
0
 10
-43.500000
 20
-120.500000
 40
2.000000
 50
270.000000
 51
0.000000
  0
ARC
  8
0
 10
-39.500000
 20
-103.500000
 40
1.999998
 50
79.834900
 51
180.000000
  0
ARC
  8
0
 10
-38.794060
 20
-99.562790
 40
1.999998
 50
259.834900
 51
323.980896
  0
ARC
  8
0
 10
-33.000000
 20
-82.000000
 40
2.000000
 50
131.409622
 51
180.000000
  0
ARC
  8
0
 10
-9.000000
 20
-82.000000
 40
2.000000
 50
0.000000
 51
48.590382
  0
ARC
  8
0
 10
9.000000
 20
-82.000000
 40
2.000000
 50
131.409622
 51
180.000000
  0
ARC
  8
0
 10
5.000000
 20
-138.500000
 40
2.000000
 50
0.000000
 51
90.000000
  0
ARC
  8
0
 10
-5.000000
 20
-138.500000
 40
2.000000
 50
90.000000
 51
180.000000
  0
ARC
  8
0
 10
33.500000
 20
-94.500000
 40
8.000000
 50
0.000000
 51
49.776783
  0
ARC
  8
0
 10
-33.500000
 20
-94.500000
 40
8.000000
 50
100.806923
 51
180.000000
  0
ARC
  8
0
 10
-33.500000
 20
-130.500000
 40
8.000000
 50
180.000000
 51
229.776779
  0
CIRCLE
  8
0
 10
-21.000000
 20
-112.500000
 40
15.950000
  0
CIRCLE
  8
0
 10
21.000000
 20
-112.500000
 40
15.950000
  0
CIRCLE
  8
0
 10
-134.348770
 20
-10.000000
 40
6.578500
  0
CIRCLE
  8
0
 10
-134.348770
 20
-10.000000
 40
5.722500
  0
CIRCLE
  8
0
 10
149.348770
 20
-10.000000
 40
4.283000
  0
CIRCLE
  8
0
 10
149.348770
 20
-10.000000
 40
4.864000
  0
CIRCLE
  8
0
 10
134.348770
 20
-10.000000
 40
5.722500
  0
CIRCLE
  8
0
 10
134.348770
 20
-10.000000
 40
6.578500
  0
CIRCLE
  8
0
 10
-21.000000
 20
-10.000000
 40
5.722500
  0
CIRCLE
  8
0
 10
-21.000000
 20
-10.000000
 40
6.578500
  0
ARC
  8
0
 10
-33.500000
 20
130.300003
 40
8.000000
 50
90.000000
 51
180.000000
  0
ARC
  8
0
 10
33.500000
 20
130.300003
 40
8.000000
 50
0.000000
 51
90.000000
  0
ARC
  8
0
 10
33.500000
 20
95.300003
 40
8.000000
 50
270.000000
 51
0.000000
  0
ARC
  8
0
 10
-33.500000
 20
95.300003
 40
8.000000
 50
180.000000
 51
270.000000
  0
ARC
  8
0
 10
125.348770
 20
38.800003
 40
1.000000
 50
90.000000
 51
180.000000
  0
ARC
  8
0
 10
143.348770
 20
38.800003
 40
1.000000
 50
0.000000
 51
90.000000
  0
ARC
  8
0
 10
146.348770
 20
37.800003
 40
2.000000
 50
180.000000
 51
270.000000
  0
ARC
  8
0
 10
122.348770
 20
37.800003
 40
2.000000
 50
270.000000
 51
0.000000
  0
ARC
  8
0
 10
33.000000
 20
34.800003
 40
1.000000
 50
0.000000
 51
90.000000
  0
ARC
  8
0
 10
-138.348770
 20
38.800003
 40
1.000000
 50
90.000000
 51
180.000000
  0
ARC
  8
0
 10
-130.348770
 20
38.800003
 40
1.000000
 50
0.000000
 51
90.000000
  0
ARC
  8
0
 10
-146.348770
 20
34.800003
 40
1.000000
 50
90.000000
 51
180.000000
  0
ARC
  8
0
 10
-149.348770
 20
24.800003
 40
1.999998
 50
349.950836
 51
0.000000
  0
ARC
  8
0
 10
-141.348770
 20
37.800003
 40
2.000000
 50
270.000000
 51
0.000000
  0
ARC
  8
0
 10
-127.348770
 20
37.800003
 40
2.000000
 50
180.000000
 51
270.000000
  0
ARC
  8
0
 10
-157.848770
 20
20.800003
 40
2.000000
 50
90.000000
 51
180.000000
  0
ARC
  8
0
 10
39.500000
 20
20.800003
 40
2.000000
 50
0.000000
 51
90.000000
  0
ARC
  8
0
 10
21.000000
 20
112.800003
 40
13.000001
 50
214.228867
 51
145.771133
  0
ARC
  8
0
 10
-21.000000
 20
112.800003
 40
12.500000
 50
35.495934
 51
324.504059
  0
CIRCLE
  8
0
 10
-21.000000
 20
112.800003
 40
5.000000
  0
CIRCLE
  8
0
 10
21.000000
 20
112.800003
 40
10.000000
  0
CIRCLE
  8
0
 10
21.000000
 20
112.800003
 40
4.864000
  0
CIRCLE
  8
0
 10
21.000000
 20
112.800003
 40
4.283000
  0
ARC
  8
0
 10
7.771244
 20
121.800003
 40
3.000000
 50
270.000000
 51
325.771118
  0
ARC
  8
0
 10
7.771244
 20
103.800003
 40
3.000000
 50
34.228870
 51
90.000000
  0
ARC
  8
0
 10
-8.380570
 20
103.800003
 40
3.000000
 50
90.000000
 51
144.504074
  0
ARC
  8
0
 10
-8.380570
 20
121.800003
 40
3.000000
 50
215.495926
 51
270.000000
  0
ARC
  8
0
 10
-25.000000
 20
38.800003
 40
1.000000
 50
90.000000
 51
180.000000
  0
ARC
  8
0
 10
-17.000000
 20
38.800003
 40
1.000000
 50
0.000000
 51
90.000000
  0
ARC
  8
0
 10
-32.500000
 20
34.800003
 40
1.000000
 50
90.000000
 51
180.000000
  0
ARC
  8
0
 10
-28.000000
 20
37.800003
 40
2.000000
 50
270.000000
 51
0.000000
  0
ARC
  8
0
 10
-14.000000
 20
37.800003
 40
2.000000
 50
180.000000
 51
270.000000
  0
ARC
  8
0
 10
-39.500000
 20
20.800003
 40
2.000000
 50
90.000000
 51
180.000000
  0
ARC
  8
0
 10
-119.348770
 20
24.800003
 40
2.000000
 50
180.000000
 51
190.057816
  0
ARC
  8
0
 10
-122.348770
 20
34.800003
 40
1.000000
 50
0.000000
 51
90.000000
  0
ARC
  8
0
 10
-110.848770
 20
20.800003
 40
2.000000
 50
0.000000
 51
90.000000
  0
ARC
  8
0
 10
146.348770
 20
34.800003
 40
1.000000
 50
0.000000
 51
90.000000
  0
ARC
  8
0
 10
149.348770
 20
24.800003
 40
2.000000
 50
180.000000
 51
190.057785
  0
ARC
  8
0
 10
157.848770
 20
20.800003
 40
2.000000
 50
0.000000
 51
90.000000
  0
ARC
  8
0
 10
119.348770
 20
24.800003
 40
1.999998
 50
349.950836
 51
0.000000
  0
ARC
  8
0
 10
122.348770
 20
34.800003
 40
1.000000
 50
90.000000
 51
180.000000
  0
ARC
  8
0
 10
110.848770
 20
20.800003
 40
2.000000
 50
90.000000
 51
180.000000
  0
ARC
  8
0
 10
-145.848770
 20
34.800003
 40
1.000000
 50
90.000000
 51
180.000000
  0
ARC
  8
0
 10
-148.848770
 20
24.800003
 40
1.999994
 50
323.129883
 51
0.000000
  0
ARC
  8
0
 10
-119.848770
 20
24.800003
 40
2.000000
 50
180.000000
 51
216.872177
  0
ARC
  8
0
 10
-122.848770
 20
34.800003
 40
1.000000
 50
0.000000
 51
90.000000
  0
ARC
  8
0
 10
9.000000
 20
37.800003
 40
2.000000
 50
270.000000
 51
0.000000
  0
ARC
  8
0
 10
12.000000
 20
38.800003
 40
1.000000
 50
90.000000
 51
180.000000
  0
ARC
  8
0
 10
30.000000
 20
38.800003
 40
1.000000
 50
0.000000
 51
90.000000
  0
ARC
  8
0
 10
33.000000
 20
37.800003
 40
2.000000
 50
180.000000
 51
270.000000
  0
ARC
  8
0
 10
-125.348770
 20
38.800003
 40
1.000000
 50
0.000000
 51
90.000000
  0
ARC
  8
0
 10
-143.348770
 20
38.800003
 40
1.000000
 50
90.000000
 51
180.000000
  0
ARC
  8
0
 10
-146.348770
 20
37.800003
 40
2.000000
 50
270.000000
 51
0.000000
  0
ARC
  8
0
 10
-122.348770
 20
37.800003
 40
2.000000
 50
180.000000
 51
270.000000
  0
CIRCLE
  8
0
 10
-134.348770
 20
30.300003
 40
1.900000
  0
CIRCLE
  8
0
 10
-134.348770
 20
30.300003
 40
1.600000
  0
CIRCLE
  8
0
 10
134.348770
 20
16.800003
 40
1.000000
  0
ARC
  8
0
 10
31.300003
 20
97.500000
 40
1.599998
 50
270.000000
 51
0.000000
  0
ARC
  8
0
 10
35.699997
 20
97.500000
 40
1.599998
 50
180.000000
 51
270.000000
  0
CIRCLE
  8
0
 10
33.500000
 20
95.300003
 40
4.500000
  0
ARC
  8
0
 10
31.300003
 20
93.100006
 40
1.599998
 50
0.000000
 51
90.000000
  0
ARC
  8
0
 10
35.699997
 20
93.100006
 40
1.599998
 50
90.000000
 51
180.000000
  0
CIRCLE
  8
0
 10
33.500000
 20
95.300003
 40
4.599983
  0
ARC
  8
0
 10
31.300003
 20
132.500000
 40
1.600006
 50
270.000000
 51
0.000000
  0
ARC
  8
0
 10
35.699997
 20
132.500000
 40
1.599998
 50
180.000000
 51
270.000000
  0
CIRCLE
  8
0
 10
33.500000
 20
130.300003
 40
4.500000
  0
ARC
  8
0
 10
31.300003
 20
128.100006
 40
1.599998
 50
0.000000
 51
90.000000
  0
ARC
  8
0
 10
35.699997
 20
128.100006
 40
1.600006
 50
90.000000
 51
180.000000
  0
CIRCLE
  8
0
 10
33.500000
 20
130.300003
 40
4.599983
  0
ARC
  8
0
 10
-35.699997
 20
132.500000
 40
1.600006
 50
270.000000
 51
0.000000
  0
ARC
  8
0
 10
-31.300003
 20
132.500000
 40
1.599998
 50
180.000000
 51
270.000000
  0
CIRCLE
  8
0
 10
-33.500000
 20
130.300003
 40
4.500000
  0
ARC
  8
0
 10
-35.699997
 20
128.100006
 40
1.599998
 50
0.000000
 51
90.000000
  0
ARC
  8
0
 10
-31.300003
 20
128.100006
 40
1.600006
 50
90.000000
 51
180.000000
  0
CIRCLE
  8
0
 10
-33.500000
 20
130.300003
 40
4.599983
  0
ARC
  8
0
 10
-35.699997
 20
97.500000
 40
1.599998
 50
270.000000
 51
0.000000
  0
ARC
  8
0
 10
-31.300003
 20
97.500000
 40
1.599998
 50
180.000000
 51
270.000000
  0
CIRCLE
  8
0
 10
-33.500000
 20
95.300003
 40
4.500000
  0
ARC
  8
0
 10
-35.699997
 20
93.100006
 40
1.599998
 50
0.000000
 51
90.000000
  0
ARC
  8
0
 10
-31.300003
 20
93.100006
 40
1.599998
 50
90.000000
 51
180.000000
  0
CIRCLE
  8
0
 10
-33.500000
 20
95.300003
 40
4.599983
  0
ARC
  8
0
 10
30.721809
 20
25.422058
 40
1.600001
 50
105.493912
 51
174.999908
  0
ARC
  8
0
 10
33.500038
 20
15.400009
 40
12.000000
 50
74.506012
 51
105.493874
  0
ARC
  8
0
 10
36.278252
 20
25.422058
 40
1.599999
 50
5.000036
 51
74.506073
  0
ARC
  8
0
 10
-154.626953
 20
25.422058
 40
1.600000
 50
105.493782
 51
174.999924
  0
ARC
  8
0
 10
-151.848724
 20
15.400009
 40
11.999999
 50
74.506035
 51
105.493889
  0
ARC
  8
0
 10
-149.070526
 20
25.422058
 40
1.600006
 50
5.000012
 51
74.506203
  0
ARC
  8
0
 10
-33.499962
 20
15.400009
 40
12.000000
 50
74.506012
 51
105.493874
  0
ARC
  8
0
 10
-36.278191
 20
25.422058
 40
1.600001
 50
105.493912
 51
174.999893
  0
ARC
  8
0
 10
-30.721748
 20
25.422058
 40
1.600001
 50
5.000030
 51
74.506004
  0
ARC
  8
0
 10
-116.848732
 20
15.400009
 40
11.999999
 50
74.506035
 51
105.493889
  0
ARC
  8
0
 10
-119.626961
 20
25.422058
 40
1.600000
 50
105.493782
 51
174.999893
  0
ARC
  8
0
 10
-114.070518
 20
25.422058
 40
1.599999
 50
5.000036
 51
74.505936
  0
ARC
  8
0
 10
114.070580
 20
25.422058
 40
1.600000
 50
105.493782
 51
174.999893
  0
ARC
  8
0
 10
116.848808
 20
15.400009
 40
11.999999
 50
74.506035
 51
105.493889
  0
ARC
  8
0
 10
119.627022
 20
25.422058
 40
1.599999
 50
5.000036
 51
74.505936
  0
ARC
  8
0
 10
149.070572
 20
25.422058
 40
1.600000
 50
105.493782
 51
174.999924
  0
ARC
  8
0
 10
151.848816
 20
15.400009
 40
11.999999
 50
74.506035
 51
105.493889
  0
ARC
  8
0
 10
154.627014
 20
25.422058
 40
1.600006
 50
5.000012
 51
74.506203
  0
ARC
  8
0
 10
-21.000000
 20
-113.400002
 40
15.000000
 50
308.555725
 51
231.444260
  0
CIRCLE
  8
0
 10
-27.250000
 20
-125.621948
 40
1.000000
  0
ARC
  8
0
 10
-27.250000
 20
-125.621948
 40
1.784375
 50
334.531372
 51
152.772629
  0
CIRCLE
  8
0
 10
-14.750000
 20
-125.621948
 40
1.000000
  0
ARC
  8
0
 10
-14.750000
 20
-125.621948
 40
1.784373
 50
27.227369
 51
205.468613
  0
ARC
  8
0
 10
-29.725859
 20
-124.348030
 40
1.000003
 50
231.444366
 51
332.772430
  0
ARC
  8
0
 10
-12.274141
 20
-124.348030
 40
1.000002
 50
207.227615
 51
308.555634
  0
ARC
  8
0
 10
21.000000
 20
-113.400002
 40
15.000000
 50
308.555725
 51
231.444260
  0
CIRCLE
  8
0
 10
14.750000
 20
-125.621948
 40
1.000000
  0
ARC
  8
0
 10
14.750000
 20
-125.621948
 40
1.784375
 50
334.531372
 51
152.772629
  0
CIRCLE
  8
0
 10
27.250000
 20
-125.621948
 40
1.000000
  0
ARC
  8
0
 10
27.250000
 20
-125.621948
 40
1.784373
 50
27.227369
 51
205.468613
  0
ARC
  8
0
 10
12.274139
 20
-124.348030
 40
1.000003
 50
231.444366
 51
332.772400
  0
ARC
  8
0
 10
29.725861
 20
-124.348030
 40
1.000002
 50
207.227585
 51
308.555634
  0
ARC
  8
0
 10
-21.000000
 20
-112.500000
 40
15.799997
 50
251.016006
 51
288.983978
  0
ARC
  8
0
 10
-21.000000
 20
-112.500000
 40
13.749998
 50
301.967834
 51
238.032166
  0
ARC
  8
0
 10
-8.407840
 20
-110.500000
 40
1.000000
 50
270.000000
 51
9.024711
  0
ARC
  8
0
 10
-8.407840
 20
-114.500000
 40
1.000000
 50
350.975281
 51
90.000000
  0
ARC
  8
0
 10
-23.000000
 20
-99.907837
 40
1.000000
 50
0.000000
 51
99.024841
  0
ARC
  8
0
 10
-19.000000
 20
-99.907837
 40
0.999997
 50
80.975159
 51
180.000000
  0
ARC
  8
0
 10
-33.592159
 20
-114.500000
 40
1.000000
 50
90.000000
 51
189.024704
  0
ARC
  8
0
 10
-33.592159
 20
-110.500000
 40
1.000000
 50
170.975296
 51
270.000000
  0
ARC
  8
0
 10
-19.000000
 20
-125.092163
 40
1.000000
 50
180.000000
 51
279.024841
  0
ARC
  8
0
 10
-23.000000
 20
-125.092163
 40
0.999997
 50
260.975159
 51
0.000000
  0
CIRCLE
  8
0
 10
-21.000000
 20
-112.500000
 40
6.350000
  0
CIRCLE
  8
0
 10
-21.000000
 20
-112.500000
 40
4.000000
  0
ARC
  8
0
 10
-21.000000
 20
-112.500000
 40
13.749997
 50
251.030777
 51
288.969208
  0
ARC
  8
0
 10
21.000000
 20
-112.500000
 40
15.799997
 50
251.016006
 51
288.983978
  0
ARC
  8
0
 10
21.000000
 20
-112.500000
 40
13.749997
 50
301.967834
 51
238.032166
  0
ARC
  8
0
 10
33.592159
 20
-110.500000
 40
1.000000
 50
270.000000
 51
9.024702
  0
ARC
  8
0
 10
33.592159
 20
-114.500000
 40
1.000000
 50
350.975311
 51
90.000000
  0
ARC
  8
0
 10
19.000000
 20
-99.907837
 40
1.000000
 50
0.000000
 51
99.024841
  0
ARC
  8
0
 10
23.000000
 20
-99.907837
 40
0.999997
 50
80.975159
 51
180.000000
  0
ARC
  8
0
 10
8.407840
 20
-114.500000
 40
1.000000
 50
90.000000
 51
189.024704
  0
ARC
  8
0
 10
8.407840
 20
-110.500000
 40
1.000000
 50
170.975296
 51
270.000000
  0
ARC
  8
0
 10
23.000000
 20
-125.092163
 40
1.000000
 50
180.000000
 51
279.024841
  0
ARC
  8
0
 10
19.000000
 20
-125.092163
 40
0.999997
 50
260.975159
 51
0.000000
  0
CIRCLE
  8
0
 10
21.000000
 20
-112.500000
 40
6.350000
  0
CIRCLE
  8
0
 10
21.000000
 20
-112.500000
 40
4.000000
  0
ARC
  8
0
 10
21.000000
 20
-112.500000
 40
13.749997
 50
251.030777
 51
288.969208
  0
ARC
  8
0
 10
33.500000
 20
-130.500000
 40
8.000000
 50
282.617218
 51
311.409637
  0
TEXT
  8
0
 10
160.213089
 20
165.487701
 40
6.000000
  1
DATE : AUG ,1992
 50
0.000000
 41
1.052631
 51
0.000000
  7
STANDARD
  0
TEXT
  8
0
 10
-230.064621
 20
164.587692
 40
7.000000
  1
250-4A
 50
0.000000
 41
1.052632
 51
0.000000
  7
STANDARD
  0
TEXT
  8
0
 10
-231.347122
 20
125.665039
 40
7.000000
  1
MODEL : 250-4A
 50
0.000000
 41
1.052632
 51
0.000000
  7
STANDARD
  0
TEXT
  8
0
 10
165.727844
 20
-175.666000
 40
6.800000
  1
KOGANEI,CORP
 50
0.000000
 41
1.052632
 51
0.000000
  7
STANDARD
  0
TEXT
  8
0
 10
-71.419777
 20
-13.434718
 40
5.000000
  1
R1
 50
0.000000
 41
1.052632
 51
0.000000
  7
STANDARD
  0
TEXT
  8
0
 10
58.283493
 20
-12.882790
 40
5.000000
  1
R2
 50
0.000000
 41
1.052632
 51
0.000000
  7
STANDARD
  0
TEXT
  8
0
 10
-24.765472
 20
-161.903564
 40
5.000000
  1
A
 50
0.000000
 41
1.052632
 51
0.000000
  7
STANDARD
  0
TEXT
  8
0
 10
18.284973
 20
-161.903564
 40
5.000000
  1
B
 50
0.000000
 41
1.052632
 51
0.000000
  7
STANDARD
  0
TEXT
  8
0
 10
-69.212059
 20
-115.541550
 40
5.000000
  1
R1
 50
0.000000
 41
1.052632
 51
0.000000
  7
STANDARD
  0
TEXT
  8
0
 10
63.250851
 20
-115.541550
 40
5.000000
  1
R2
 50
0.000000
 41
1.052632
 51
0.000000
  7
STANDARD
  0
TEXT
  8
0
 10
-23.661615
 20
-66.971817
 40
5.000000
  1
P
 50
0.000000
 41
1.052632
 51
0.000000
  7
STANDARD
  0
TEXT
  8
0
 10
-19.246185
 20
5.882790
 40
5.000000
  1
P
 50
0.000000
 41
1.052632
 51
0.000000
  7
STANDARD
  0
LINE
  8
0
 10
134.348755
 20
39.799995
 11
144.348755
 21
57.120502
  0
LINE
  8
0
 10
144.348755
 20
57.120502
 11
164.069260
 21
57.120510
  0
LINE
  8
0
 10
134.348755
 20
39.799995
 11
136.470078
 21
41.921314
  0
LINE
  8
0
 10
134.348755
 20
39.799995
 11
135.125214
 21
42.697773
  0
TEXT
  8
0
 10
147.404968
 20
58.120510
 40
3.200000
  1
RC1/8
 50
0.000000
 41
1.052632
 51
0.000000
  7
STANDARD
  0
LINE
  8
0
 10
137.627258
 20
-4.296653
 11
162.627274
 21
39.004616
  0
LINE
  8
0
 10
162.627274
 20
39.004616
 11
188.721970
 21
39.004616
  0
LINE
  8
0
 10
137.627258
 20
-4.296653
 11
139.748581
 21
-2.175333
  0
LINE
  8
0
 10
137.627258
 20
-4.296653
 11
138.403717
 21
-1.398876
  0
TEXT
  8
0
 10
165.657684
 20
40.004616
 40
3.200000
  1
5-RC1/8
 50
0.000000
 41
1.052632
 51
0.000000
  7
STANDARD
  0
ENDSEC
  0
EOF
