  0
SECTION
  2
HEADER
  9
$ACADVER
  1
AC1009
  9
$DWGCODEPAGE
  3
dos932
  9
$INSBASE
 10
0.0
 20
0.0
 30
0.0
  9
$EXTMIN
 10
-194.25
 20
-133.5
 30
0.0
  9
$EXTMAX
 10
194.80000305
 20
132.6000061
 30
0.0
  9
$LIMMIN
 10
-194.25
 20
-133.5
  9
$LIMMAX
 10
194.80000305
 20
132.6000061
  9
$ORTHOMODE
 70
       0
  9
$REGENMODE
 70
       1
  9
$FILLMODE
 70
       1
  9
$QTEXTMODE
 70
       0
  9
$MIRRTEXT
 70
       1
  9
$DRAGMODE
 70
       2
  9
$LTSCALE
 40
1.0
  9
$OSMODE
 70
       0
  9
$ATTMODE
 70
       1
  9
$TEXTSIZE
 40
3.20000005
  9
$TRACEWID
 40
0.05
  9
$TEXTSTYLE
  7
MX_NOTE_STANDARD
  9
$CLAYER
  8
0
  9
$CELTYPE
  6
CONTINUOUS
  9
$CECOLOR
 62
     256
  9
$DIMSCALE
 40
1.0
  9
$DIMASZ
 40
2.5
  9
$DIMEXO
 40
1.5
  9
$DIMDLI
 40
3.75
  9
$DIMRND
 40
0.0
  9
$DIMDLE
 40
0.0
  9
$DIMEXE
 40
1.5
  9
$DIMTP
 40
0.0
  9
$DIMTM
 40
0.0
  9
$DIMTXT
 40
3.20000005
  9
$DIMCEN
 40
2.5
  9
$DIMTSZ
 40
0.0
  9
$DIMTOL
 70
       0
  9
$DIMLIM
 70
       0
  9
$DIMTIH
 70
       0
  9
$DIMTOH
 70
       0
  9
$DIMSE1
 70
       0
  9
$DIMSE2
 70
       0
  9
$DIMTAD
 70
       1
  9
$DIMZIN
 70
       8
  9
$DIMBLK
  1

  9
$DIMASO
 70
       1
  9
$DIMSHO
 70
       1
  9
$DIMPOST
  1

  9
$DIMAPOST
  1

  9
$DIMALT
 70
       0
  9
$DIMALTD
 70
       4
  9
$DIMALTF
 40
0.03937008
  9
$DIMLFAC
 40
1.0
  9
$DIMTOFL
 70
       1
  9
$DIMTVP
 40
0.0
  9
$DIMTIX
 70
       0
  9
$DIMSOXD
 70
       0
  9
$DIMSAH
 70
       0
  9
$DIMBLK1
  1

  9
$DIMBLK2
  1

  9
$DIMSTYLE
  2
MXDIMSTYLE
  9
$DIMCLRD
 70
       0
  9
$DIMCLRE
 70
       0
  9
$DIMCLRT
 70
       0
  9
$DIMTFAC
 40
1.0
  9
$DIMGAP
 40
1.0
  9
$LUNITS
 70
       2
  9
$LUPREC
 70
       4
  9
$AXISMODE
 70
       0
  9
$AXISUNIT
 10
0.0
 20
0.0
  9
$SKETCHINC
 40
0.1
  9
$FILLETRAD
 40
0.0
  9
$AUNITS
 70
       0
  9
$AUPREC
 70
       0
  9
$MENU
  1
acad
  9
$ELEVATION
 40
0.0
  9
$PELEVATION
 40
0.0
  9
$THICKNESS
 40
0.0
  9
$LIMCHECK
 70
       0
  9
$BLIPMODE
 70
       1
  9
$CHAMFERA
 40
0.0
  9
$CHAMFERB
 40
0.0
  9
$SKPOLY
 70
       0
  9
$TDCREATE
 40
2453747.670000000
  9
$TDUPDATE
 40
2453747.670000000
  9
$TDINDWG
 40
0.0000000000
  9
$TDUSRTIMER
 40
0.0000000000
  9
$USRTIMER
 70
       1
  9
$ANGBASE
 50
0.0
  9
$ANGDIR
 70
       0
  9
$PDMODE
 70
       0
  9
$PDSIZE
 40
0.0
  9
$PLINEWID
 40
0.0
  9
$COORDS
 70
       1
  9
$SPLFRAME
 70
       0
  9
$SPLINETYPE
 70
       6
  9
$SPLINESEGS
 70
       8
  9
$ATTDIA
 70
       0
  9
$ATTREQ
 70
       1
  9
$HANDLING
 70
       1
  9
$HANDSEED
  5
131
  9
$SURFTAB1
 70
       6
  9
$SURFTAB2
 70
       6
  9
$SURFTYPE
 70
       6
  9
$SURFU
 70
       6
  9
$SURFV
 70
       6
  9
$UCSNAME
  2

  9
$UCSORG
 10
0.0
 20
0.0
 30
0.0
  9
$UCSXDIR
 10
1.0
 20
0.0
 30
0.0
  9
$UCSYDIR
 10
0.0
 20
1.0
 30
0.0
  9
$PUCSNAME
  2

  9
$PUCSORG
 10
0.0
 20
0.0
 30
0.0
  9
$PUCSXDIR
 10
1.0
 20
0.0
 30
0.0
  9
$PUCSYDIR
 10
0.0
 20
1.0
 30
0.0
  9
$USERI1
 70
       0
  9
$USERI2
 70
       0
  9
$USERI3
 70
       0
  9
$USERI4
 70
       0
  9
$USERI5
 70
       0
  9
$USERR1
 40
0.0
  9
$USERR2
 40
0.0
  9
$USERR3
 40
0.0
  9
$USERR4
 40
0.0
  9
$USERR5
 40
0.0
  9
$WORLDVIEW
 70
       1
  9
$SHADEDGE
 70
       3
  9
$SHADEDIF
 70
      70
  9
$TILEMODE
 70
       1
  9
$MAXACTVP
 70
      16
  9
$PINSBASE
 10
0.0
 20
0.0
 30
0.0
  9
$PLIMCHECK
 70
       0
  9
$PEXTMIN
 10
1.00000000E+20
 20
1.00000000E+20
 30
1.00000000E+20
  9
$PEXTMAX
 10
-1.00000000E+20
 20
-1.00000000E+20
 30
-1.00000000E+20
  9
$PLIMMIN
 10
0.0
 20
0.0
  9
$PLIMMAX
 10
12.0
 20
9.0
  9
$UNITMODE
 70
       0
  9
$VISRETAIN
 70
       0
  9
$PLINEGEN
 70
       1
  9
$PSLTSCALE
 70
       0
  9
$TREEDEPTH
 70
    3020
  9
$DWGCODEPAGE
  3
dos932
  0
ENDSEC
  0
SECTION
  2
TABLES
  0
TABLE
  2
VPORT
 70
       1
  0
VPORT
  2
*ACTIVE
 70
       0
 10
0.0
 20
0.0
 11
1.0
 21
1.0
 12
0.27500153
 22
-0.44999695
 13
0.0
 23
0.0
 14
1.0
 24
1.0
 15
0.0
 25
0.0
 16
0.0
 26
0.0
 36
1.0
 17
0.0
 27
0.0
 37
0.0
 40
268.76100616
 41
1.73205081
 42
50.0
 43
0.0
 44
0.0
 50
0.0
 51
0.0
 71
       0
 72
     100
 73
       1
 74
       1
 75
       0
 76
       0
 77
       0
 78
       0
  0
ENDTAB
  0
TABLE
  2
LTYPE
 70
       2
  0
LTYPE
  2
CONTINUOUS
 70
      64
  3
Solid line
 72
      65
 73
       0
 40
0.0
  0
LTYPE
  2
PHANTOM
 70
      64
  3
Phantom ______  __  __  ______  __  __  ______
 72
      65
 73
       6
 40
30.0
 49
20.0
 49
-2.0
 49
2.0
 49
-2.0
 49
2.0
 49
-2.0
  0
ENDTAB
  0
TABLE
  2
LAYER
 70
       2
  0
LAYER
  2
0
 70
       0
 62
       7
  6
CONTINUOUS
  0
LAYER
  2
DEFPOINTS
 70
       0
 62
       7
  6
CONTINUOUS
  0
ENDTAB
  0
TABLE
  2
STYLE
 70
       1
  0
STYLE
  2
MX_NOTE_STANDARD
 70
       0
 40
0.0
 41
1.0
 50
0.0
 71
       0
 42
3.20000005
  3
txt.shx
  4
extfont.shx
  0
ENDTAB
  0
TABLE
  2
VIEW
 70
       0
  0
ENDTAB
  0
TABLE
  2
UCS
 70
       0
  0
ENDTAB
  0
TABLE
  2
APPID
 70
       1
  0
APPID
  2
ACAD
 70
       0
  0
ENDTAB
  0
TABLE
  2
DIMSTYLE
 70
       1
  0
DIMSTYLE
  2
MXDIMSTYLE
 70
       0
  3

  4

  5

  6

  7

 40
1.0
 41
2.5
 42
1.5
 43
3.75
 44
1.5
 45
0.0
 46
0.0
 47
0.0
 48
0.0
 71
       0
 72
       0
 73
       0
 74
       0
 75
       0
 76
       0
 77
       1
 78
       8
140
3.20000005
141
2.5
142
0.0
143
0.03937008
144
1.0
145
0.0
146
1.0
147
1.0
170
       0
171
       4
172
       1
173
       0
174
       0
175
       0
176
       0
177
       0
178
       0
  0
ENDTAB
  0
ENDSEC
  0
SECTION
  2
BLOCKS
  0
BLOCK
  8
0
  6
BYBLOCK
 62
       0
  5
112
  2
_OPEN30
 70
       2
 10
0.0
 20
0.0
 30
0.0
  3
_OPEN30
  0
LINE
  8
0
  6
BYBLOCK
 62
       0
  5
113
 10
-1.0
 20
0.267949
 30
0.0
 11
0.0
 21
0.0
 31
0.0
  0
LINE
  8
0
  6
BYBLOCK
 62
       0
  5
114
 10
0.0
 20
0.0
 30
0.0
 11
-1.0
 21
-0.267949
 31
0.0
  0
LINE
  8
0
  6
BYBLOCK
 62
       0
  5
115
 10
0.0
 20
0.0
 30
0.0
 11
-1.0
 21
0.0
 31
0.0
  0
ENDBLK
  8
0
  6
BYBLOCK
 62
       0
  5
116
  0
ENDSEC
  0
SECTION
  2
ENTITIES
  0
LINE
  8
0
  6
CONTINUOUS
 62
       2
  5
1E
 10
-89.18939124
 20
-3.87511091
 30
0.0
 11
-9.22625719
 21
-3.87511091
 31
0.0
  0
LINE
  8
0
  6
CONTINUOUS
 62
       2
  5
1F
 10
93.78806414
 20
-56.50480542
 30
0.0
 11
93.78806414
 21
-123.55788329
 31
0.0
  0
LINE
  8
0
  6
CONTINUOUS
 62
       2
  5
20
 10
60.2615252
 20
-90.03134435
 30
0.0
 11
127.30030406
 21
-90.03134435
 31
0.0
  0
LINE
  8
0
  6
CONTINUOUS
 62
       7
  5
21
 10
73.26897473
 20
-61.50480542
 30
0.0
 11
114.30715355
 21
-61.50480542
 31
0.0
  0
LINE
  8
0
  6
CONTINUOUS
 62
       7
  5
22
 10
122.30030406
 20
-110.55043377
 30
0.0
 11
122.30030406
 21
-69.51225494
 31
0.0
  0
LINE
  8
0
  6
CONTINUOUS
 62
       7
  5
23
 10
65.2615252
 20
-110.55043377
 30
0.0
 11
65.2615252
 21
-69.51225494
 31
0.0
  0
LINE
  8
0
  6
CONTINUOUS
 62
       2
  5
24
 10
73.76944032
 20
-65.89460364
 30
0.0
 11
73.76944032
 21
-74.53120991
 31
0.0
  0
LINE
  8
0
  6
CONTINUOUS
 62
       2
  5
25
 10
78.68830217
 20
-70.01272054
 30
0.0
 11
69.10796078
 21
-70.01272054
 31
0.0
  0
LINE
  8
0
  6
CONTINUOUS
 62
       2
  5
26
 10
108.8878261
 20
-70.01272054
 30
0.0
 11
118.05349601
 21
-70.01272054
 31
0.0
  0
LINE
  8
0
  6
CONTINUOUS
 62
       2
  5
27
 10
113.80668795
 20
-65.89460364
 30
0.0
 11
113.80668795
 21
-74.53120991
 31
0.0
  0
LINE
  8
0
  6
CONTINUOUS
 62
       7
  5
28
 10
73.26897473
 20
-118.55788329
 30
0.0
 11
114.30715355
 21
-118.55788329
 31
0.0
  0
LINE
  8
0
  6
CONTINUOUS
 62
       2
  5
29
 10
73.76944032
 20
-114.18238409
 30
0.0
 11
73.76944032
 21
-105.54577781
 31
0.0
  0
LINE
  8
0
  6
CONTINUOUS
 62
       2
  5
2A
 10
78.68830217
 20
-110.04996817
 30
0.0
 11
69.10796078
 21
-110.04996817
 31
0.0
  0
LINE
  8
0
  6
CONTINUOUS
 62
       2
  5
2B
 10
108.8878261
 20
-110.04996817
 30
0.0
 11
118.05349601
 21
-110.04996817
 31
0.0
  0
LINE
  8
0
  6
CONTINUOUS
 62
       2
  5
2C
 10
113.80668795
 20
-114.18238409
 30
0.0
 11
113.80668795
 21
-105.54577781
 31
0.0
  0
CIRCLE
  8
0
  6
CONTINUOUS
 62
       7
  5
2D
 10
93.77671674
 20
-90.04176927
 30
0.0
 40
19.86848479
  0
CIRCLE
  8
0
  6
CONTINUOUS
 62
       7
  5
2E
 10
93.77671674
 20
-90.04176927
 30
0.0
 40
15.96485244
  0
ARC
  8
0
  6
CONTINUOUS
 62
       7
  5
2F
 10
93.78333874
 20
-90.93903351
 30
0.0
 40
15.01869483
 50
0.02613665
 51
236.76432419
  0
ARC
  8
0
  6
CONTINUOUS
 62
       7
  5
30
 10
87.52442665
 20
-104.59272963
 30
0.0
 40
1.00929243
 50
331.5266171
 51
161.54123116
  0
ARC
  8
0
  6
CONTINUOUS
 62
       7
  5
31
 10
100.04182517
 20
-104.58712303
 30
0.0
 40
1.00332988
 50
18.23503602
 51
209.02371944
  0
ARC
  8
0
  6
CONTINUOUS
 62
       7
  5
32
 10
87.52307455
 20
-104.59218798
 30
0.0
 40
2.25309894
 50
340.07853041
 51
151.03356002
  0
ARC
  8
0
  6
CONTINUOUS
 62
       7
  5
33
 10
93.78103659
 20
-90.93461523
 30
0.0
 40
15.02099561
 50
303.2183159
 51
0.00927965
  0
ARC
  8
0
  6
CONTINUOUS
 62
       7
  5
34
 10
100.0412956
 20
-104.58698351
 30
0.0
 40
2.24835785
 50
28.88176201
 51
202.45289305
  0
ARC
  8
0
  6
CONTINUOUS
 62
       7
  5
35
 10
73.26851423
 20
-69.51179445
 30
0.0
 40
8.00698905
 50
89.99670483
 51
180.00329517
  0
ARC
  8
0
  6
CONTINUOUS
 62
       7
  5
36
 10
114.2890921
 20
-69.51599789
 30
0.0
 40
8.01121284
 50
0.02676939
 51
89.87082531
  0
CIRCLE
  8
0
  6
CONTINUOUS
 62
       7
  5
37
 10
73.75809292
 20
-70.02314681
 30
0.0
 40
2.75255968
  0
CIRCLE
  8
0
  6
CONTINUOUS
 62
       7
  5
38
 10
113.79530783
 20
-70.02314681
 30
0.0
 40
2.75255968
  0
ARC
  8
0
  6
CONTINUOUS
 62
       7
  5
39
 10
73.25806895
 20
-110.56133955
 30
0.0
 40
7.99655118
 50
179.9218594
 51
270.0781406
  0
CIRCLE
  8
0
  6
CONTINUOUS
 62
       7
  5
3A
 10
113.79530783
 20
-110.0604149
 30
0.0
 40
2.75255968
  0
CIRCLE
  8
0
  6
CONTINUOUS
 62
       7
  5
3B
 10
73.75809292
 20
-110.0604149
 30
0.0
 40
2.75255968
  0
ARC
  8
0
  6
CONTINUOUS
 62
       7
  5
3C
 10
114.29953187
 20
-110.55711195
 30
0.0
 40
8.00077498
 50
270.05458098
 51
0.04782432
  0
ARC
  8
0
  6
CONTINUOUS
 62
       7
  5
3D
 10
93.77093664
 20
-90.03240077
 30
0.0
 40
13.75282592
 50
179.99559887
 51
243.39023813
  0
ARC
  8
0
  6
CONTINUOUS
 62
       7
  5
3E
 10
93.7815979
 20
-90.03384378
 30
0.0
 40
13.76212083
 50
296.70027606
 51
0.01040587
  0
ARC
  8
0
  6
CONTINUOUS
 62
       7
  5
3F
 10
93.78806414
 20
-90.04176487
 30
0.0
 40
13.76309188
 50
250.13938301
 51
289.86061699
  0
CIRCLE
  8
0
  6
CONTINUOUS
 62
       7
  5
40
 10
93.77671674
 20
-90.04176927
 30
0.0
 40
6.35591263
  0
ARC
  8
0
  6
CONTINUOUS
 62
       7
  5
41
 10
93.77717797
 20
-90.04223052
 30
0.0
 40
13.76654483
 50
0.04530776
 51
89.95469224
  0
ARC
  8
0
  6
CONTINUOUS
 62
       7
  5
42
 10
93.78045607
 20
-90.03803483
 30
0.0
 40
13.76234694
 50
89.96832589
 51
179.97214603
  0
LINE
  8
0
  6
PHANTOM
 62
       2
  5
44
 10
39.8938835
 20
43.25786989
 30
0.0
 11
37.01201574
 21
59.60175413
 31
0.0
  0
LINE
  8
0
  6
PHANTOM
 62
       2
  5
45
 10
36.87192325
 20
43.11994657
 30
0.0
 11
33.99565209
 21
59.43209097
 31
0.0
  0
LINE
  8
0
  6
CONTINUOUS
 62
       7
  5
46
 10
34.61895395
 20
55.89717045
 30
0.0
 11
17.40145733
 21
55.89717045
 31
0.0
  0
LINE
  8
0
  6
CONTINUOUS
 62
       7
  5
47
 10
35.0597714
 20
53.39717045
 30
0.0
 11
17.40145733
 21
53.39717045
 31
0.0
  0
LINE
  8
0
  6
CONTINUOUS
 62
       7
  5
48
 10
35.58875234
 20
50.39717045
 30
0.0
 11
17.40145733
 21
50.39717045
 31
0.0
  0
LINE
  8
0
  6
CONTINUOUS
 62
       7
  5
49
 10
36.02956979
 20
47.89717045
 30
0.0
 11
17.40145733
 21
47.89717045
 31
0.0
  0
LINE
  8
0
  6
CONTINUOUS
 62
       7
  5
4A
 10
17.40145733
 20
47.89717051
 30
0.0
 11
17.40145733
 21
50.39717045
 31
0.0
  0
LINE
  8
0
  6
CONTINUOUS
 62
       7
  5
4B
 10
17.40145733
 20
55.14717045
 30
0.0
 11
7.40145733
 21
55.14717045
 31
0.0
  0
LINE
  8
0
  6
CONTINUOUS
 62
       7
  5
4C
 10
17.40145733
 20
54.14717045
 30
0.0
 11
7.40145733
 21
54.14717045
 31
0.0
  0
LINE
  8
0
  6
CONTINUOUS
 62
       7
  5
4D
 10
17.40145733
 20
49.64717045
 30
0.0
 11
7.40145733
 21
49.64717045
 31
0.0
  0
LINE
  8
0
  6
CONTINUOUS
 62
       7
  5
4E
 10
17.40145733
 20
48.64717045
 30
0.0
 11
7.40145733
 21
48.64717045
 31
0.0
  0
LINE
  8
0
  6
CONTINUOUS
 62
       7
  5
4F
 10
17.40145733
 20
53.39717045
 30
0.0
 11
17.40145733
 21
55.89717051
 31
0.0
  0
LINE
  8
0
  6
CONTINUOUS
 62
       7
  5
50
 10
7.40145733
 20
55.14717045
 30
0.0
 11
7.40145733
 21
54.14717045
 31
0.0
  0
LINE
  8
0
  6
CONTINUOUS
 62
       7
  5
51
 10
7.40145733
 20
49.64717045
 30
0.0
 11
7.40145733
 21
48.64717045
 31
0.0
  0
LINE
  8
0
  6
CONTINUOUS
 62
       2
  5
52
 10
68.1213286
 20
-3.87511091
 30
0.0
 11
120.4843289
 21
-3.87511091
 31
0.0
  0
LINE
  8
0
  6
CONTINUOUS
 62
       7
  5
53
 10
71.76757794
 20
12.39717045
 30
0.0
 11
115.80855034
 21
12.39717045
 31
0.0
  0
LINE
  8
0
  6
CONTINUOUS
 62
       7
  5
54
 10
70.76664675
 20
11.39623926
 30
0.0
 11
70.76664675
 21
-3.87511091
 31
0.0
  0
LINE
  8
0
  6
CONTINUOUS
 62
       7
  5
55
 10
116.80948153
 20
11.39623926
 30
0.0
 11
116.80948153
 21
-3.87511091
 31
0.0
  0
LINE
  8
0
  6
CONTINUOUS
 62
       7
  5
56
 10
116.80948153
 20
11.39623926
 30
0.0
 11
115.80855034
 21
12.39717045
 31
0.0
  0
LINE
  8
0
  6
CONTINUOUS
 62
       7
  5
57
 10
70.76664675
 20
11.39623926
 30
0.0
 11
116.80948153
 21
11.39623926
 31
0.0
  0
LINE
  8
0
  6
CONTINUOUS
 62
       7
  5
58
 10
71.76757794
 20
-20.13309325
 30
0.0
 11
115.80855034
 21
-20.13309325
 31
0.0
  0
LINE
  8
0
  6
CONTINUOUS
 62
       7
  5
59
 10
70.76664675
 20
-19.13216206
 30
0.0
 11
70.76664675
 21
-3.87511091
 31
0.0
  0
LINE
  8
0
  6
CONTINUOUS
 62
       7
  5
5A
 10
116.80948153
 20
-19.13216206
 30
0.0
 11
116.80948153
 21
-3.87511091
 31
0.0
  0
LINE
  8
0
  6
CONTINUOUS
 62
       7
  5
5B
 10
116.80948153
 20
-19.13216206
 30
0.0
 11
115.80855034
 21
-20.13309325
 31
0.0
  0
LINE
  8
0
  6
CONTINUOUS
 62
       7
  5
5C
 10
71.76757794
 20
-20.13309325
 30
0.0
 11
70.76664675
 21
-19.13216206
 31
0.0
  0
LINE
  8
0
  6
CONTINUOUS
 62
       7
  5
5D
 10
70.76664675
 20
-19.13216206
 30
0.0
 11
116.80948153
 21
-19.13216206
 31
0.0
  0
LINE
  8
0
  6
CONTINUOUS
 62
       2
  5
5E
 10
88.02322478
 20
-25.6382148
 30
0.0
 11
99.53020869
 21
-25.6382148
 31
0.0
  0
LINE
  8
0
  6
CONTINUOUS
 62
       2
  5
5F
 10
67.76571556
 20
-25.6382148
 30
0.0
 11
74.81140618
 21
-25.6382148
 31
0.0
  0
LINE
  8
0
  6
CONTINUOUS
 62
       7
  5
60
 10
114.75042308
 20
-30.94315011
 30
0.0
 11
114.75042308
 21
-20.13309325
 31
0.0
  0
LINE
  8
0
  6
CONTINUOUS
 62
       7
  5
61
 10
122.30030406
 20
-32.94501249
 30
0.0
 11
122.30030406
 21
-34.14612992
 31
0.0
  0
LINE
  8
0
  6
CONTINUOUS
 62
       7
  5
62
 10
65.2615252
 20
-32.94501249
 30
0.0
 11
122.30030406
 21
-32.94501249
 31
0.0
  0
LINE
  8
0
  6
CONTINUOUS
 62
       7
  5
63
 10
115.20799162
 20
-29.39885627
 30
0.0
 11
115.20799162
 21
-21.89187234
 31
0.0
  0
LINE
  8
0
  6
CONTINUOUS
 62
       7
  5
64
 10
114.75042308
 20
-21.89187234
 30
0.0
 11
115.20799162
 21
-21.89187234
 31
0.0
  0
LINE
  8
0
  6
CONTINUOUS
 62
       7
  5
65
 10
115.20799162
 20
-22.13495563
 30
0.0
 11
115.6083641
 21
-22.13495563
 31
0.0
  0
LINE
  8
0
  6
CONTINUOUS
 62
       7
  5
66
 10
117.81041272
 20
-26.93942535
 30
0.0
 11
117.81041272
 21
-24.33700425
 31
0.0
  0
LINE
  8
0
  6
CONTINUOUS
 62
       7
  5
67
 10
114.75042308
 20
-29.39885627
 30
0.0
 11
115.20799162
 21
-29.39885627
 31
0.0
  0
LINE
  8
0
  6
CONTINUOUS
 62
       7
  5
68
 10
115.20799162
 20
-29.14147396
 30
0.0
 11
115.6083641
 21
-29.14147396
 31
0.0
  0
LINE
  8
0
  6
CONTINUOUS
 62
       7
  5
69
 10
72.81140618
 20
-30.94315011
 30
0.0
 11
72.81140618
 21
-20.13309325
 31
0.0
  0
LINE
  8
0
  6
CONTINUOUS
 62
       7
  5
6A
 10
72.36813665
 20
-29.39885627
 30
0.0
 11
72.36813665
 21
-21.89187234
 31
0.0
  0
LINE
  8
0
  6
CONTINUOUS
 62
       7
  5
6B
 10
72.81140618
 20
-21.89187234
 30
0.0
 11
72.36813665
 21
-21.89187234
 31
0.0
  0
LINE
  8
0
  6
CONTINUOUS
 62
       7
  5
6C
 10
72.36813665
 20
-22.13495563
 30
0.0
 11
71.96776418
 21
-22.13495563
 31
0.0
  0
LINE
  8
0
  6
CONTINUOUS
 62
       7
  5
6D
 10
69.76571556
 20
-26.93942535
 30
0.0
 11
69.76571556
 21
-24.33700425
 31
0.0
  0
LINE
  8
0
  6
CONTINUOUS
 62
       7
  5
6E
 10
72.81140618
 20
-29.39885627
 30
0.0
 11
72.36813665
 21
-29.39885627
 31
0.0
  0
LINE
  8
0
  6
CONTINUOUS
 62
       7
  5
6F
 10
72.36813665
 20
-29.14147396
 30
0.0
 11
71.96776418
 21
-29.14147396
 31
0.0
  0
LINE
  8
0
  6
CONTINUOUS
 62
       7
  5
70
 10
92.42965752
 20
-26.99662141
 30
0.0
 11
95.21796584
 21
-24.2083131
 31
0.0
  0
LINE
  8
0
  6
CONTINUOUS
 62
       7
  5
71
 10
92.3295644
 20
-24.19401408
 30
0.0
 11
95.16076977
 21
-27.02521945
 31
0.0
  0
LINE
  8
0
  6
CONTINUOUS
 62
       2
  5
72
 10
112.75042308
 20
-25.6382148
 30
0.0
 11
119.81041272
 21
-25.6382148
 31
0.0
  0
LINE
  8
0
  6
CONTINUOUS
 62
       7
  5
73
 10
65.2615252
 20
-34.14612992
 30
0.0
 11
122.30030406
 21
-34.14612992
 31
0.0
  0
LINE
  8
0
  6
CONTINUOUS
 62
       7
  5
74
 10
65.2615252
 20
-32.94501249
 30
0.0
 11
65.2615252
 21
-34.14612992
 31
0.0
  0
CIRCLE
  8
0
  6
CONTINUOUS
 62
       2
  5
75
 10
93.77671674
 20
-3.86773187
 30
0.0
 40
8.50791485
  0
CIRCLE
  8
0
  6
CONTINUOUS
 62
       7
  5
76
 10
93.77671674
 20
-3.86773187
 30
0.0
 40
7.50698393
  0
CIRCLE
  8
0
  6
CONTINUOUS
 62
       7
  5
77
 10
93.77671674
 20
-25.63797217
 30
0.0
 40
3.75349197
  0
ARC
  8
0
  6
CONTINUOUS
 62
       7
  5
78
 10
116.75028829
 20
-30.94514728
 30
0.0
 40
1.99986621
 50
179.94278135
 51
270.05721865
  0
ARC
  8
0
  6
CONTINUOUS
 62
       7
  5
79
 10
115.60254025
 20
-26.9336015
 30
0.0
 40
2.20788014
 50
270.15113233
 51
359.84886767
  0
ARC
  8
0
  6
CONTINUOUS
 62
       7
  5
7A
 10
70.80731469
 20
-30.940921
 30
0.0
 40
2.00409273
 50
270.06372879
 51
359.93627121
  0
ARC
  8
0
  6
CONTINUOUS
 62
       7
  5
7B
 10
71.96194481
 20
-24.33118488
 30
0.0
 40
2.19623697
 50
89.84818332
 51
180.15181668
  0
ARC
  8
0
  6
CONTINUOUS
 62
       7
  5
7C
 10
115.60278225
 20
-24.3425861
 30
0.0
 40
2.20763753
 50
0.14486833
 51
89.85513167
  0
CIRCLE
  8
0
  6
CONTINUOUS
 62
       7
  5
7D
 10
93.77671674
 20
-25.63797217
 30
0.0
 40
3.5032589
  0
ARC
  8
0
  6
CONTINUOUS
 62
       7
  5
7E
 10
71.96218806
 20
-26.94500146
 30
0.0
 40
2.19647958
 50
179.85454537
 51
270.14545463
  0
LINE
  8
0
  6
CONTINUOUS
 62
       7
  5
7F
 10
106.78806414
 20
102.85387008
 30
0.0
 11
80.78806414
 21
102.85387008
 31
0.0
  0
LINE
  8
0
  6
CONTINUOUS
 62
       7
  5
80
 10
73.13806414
 20
81.89717045
 30
0.0
 11
73.13806414
 21
71.89717045
 31
0.0
  0
LINE
  8
0
  6
CONTINUOUS
 62
       7
  5
81
 10
114.43806414
 20
81.89717045
 30
0.0
 11
114.43806414
 21
12.39717045
 31
0.0
  0
LINE
  8
0
  6
CONTINUOUS
 62
       2
  5
82
 10
88.02322478
 20
17.89717045
 30
0.0
 11
99.53020869
 21
17.89717045
 31
0.0
  0
LINE
  8
0
  6
CONTINUOUS
 62
       7
  5
83
 10
109.43806414
 20
86.89717045
 30
0.0
 11
78.13806414
 21
86.89717045
 31
0.0
  0
ARC
  8
0
  6
CONTINUOUS
 62
       7
  5
84
 10
109.43806414
 20
81.89717045
 30
0.0
 40
5.0
 50
0.0
 51
90.0
  0
ARC
  8
0
  6
CONTINUOUS
 62
       7
  5
85
 10
78.13806414
 20
81.89717045
 30
0.0
 40
5.0
 50
90.0
 51
180.0
  0
LINE
  8
0
  6
CONTINUOUS
 62
       7
  5
86
 10
71.63806414
 20
64.89717045
 30
0.0
 11
71.63806414
 21
38.89717045
 31
0.0
  0
LINE
  8
0
  6
CONTINUOUS
 62
       7
  5
87
 10
73.13806414
 20
31.89717045
 30
0.0
 11
73.13806414
 21
12.39717045
 31
0.0
  0
LINE
  8
0
  6
CONTINUOUS
 62
       7
  5
88
 10
71.63806414
 20
64.89717045
 30
0.0
 11
73.13806414
 21
71.89717045
 31
0.0
  0
LINE
  8
0
  6
CONTINUOUS
 62
       7
  5
89
 10
71.63806414
 20
38.89717045
 30
0.0
 11
73.13806414
 21
31.89717045
 31
0.0
  0
LINE
  8
0
  6
CONTINUOUS
 62
       7
  5
8A
 10
55.13806414
 20
64.89717045
 30
0.0
 11
55.13806414
 21
38.89717045
 31
0.0
  0
LINE
  8
0
  6
CONTINUOUS
 62
       7
  5
8B
 10
71.63806414
 20
64.89717045
 30
0.0
 11
52.13806414
 21
64.89717045
 31
0.0
  0
LINE
  8
0
  6
CONTINUOUS
 62
       7
  5
8C
 10
71.63806414
 20
38.89717045
 30
0.0
 11
52.13806414
 21
38.89717045
 31
0.0
  0
LINE
  8
0
  6
CONTINUOUS
 62
       7
  5
8D
 10
51.13806414
 20
63.89717045
 30
0.0
 11
51.13806414
 21
39.89717045
 31
0.0
  0
ARC
  8
0
  6
CONTINUOUS
 62
       7
  5
8E
 10
52.13806414
 20
63.89717045
 30
0.0
 40
1.0
 50
90.0
 51
180.0
  0
ARC
  8
0
  6
CONTINUOUS
 62
       7
  5
8F
 10
52.13806414
 20
39.89717045
 30
0.0
 40
1.0
 50
180.0
 51
270.0
  0
LINE
  8
0
  6
CONTINUOUS
 62
       7
  5
90
 10
51.13806414
 20
59.39717045
 30
0.0
 11
49.13806414
 21
59.39717045
 31
0.0
  0
LINE
  8
0
  6
CONTINUOUS
 62
       7
  5
91
 10
51.13806414
 20
44.39717045
 30
0.0
 11
49.13806414
 21
44.39717045
 31
0.0
  0
LINE
  8
0
  6
CONTINUOUS
 62
       7
  5
92
 10
48.13806414
 20
58.39717045
 30
0.0
 11
48.13806414
 21
45.39717045
 31
0.0
  0
ARC
  8
0
  6
CONTINUOUS
 62
       7
  5
93
 10
49.13806414
 20
58.39717045
 30
0.0
 40
1.0
 50
90.0
 51
180.0
  0
ARC
  8
0
  6
CONTINUOUS
 62
       7
  5
94
 10
49.13806414
 20
45.39717045
 30
0.0
 40
1.0
 50
180.0
 51
270.0
  0
LINE
  8
0
  6
CONTINUOUS
 62
       7
  5
95
 10
78.78806414
 20
95.59717045
 30
0.0
 11
78.78806414
 21
86.89717045
 31
0.0
  0
LINE
  8
0
  6
CONTINUOUS
 62
       7
  5
96
 10
108.78806414
 20
95.59717045
 30
0.0
 11
108.78806414
 21
86.89717045
 31
0.0
  0
LINE
  8
0
  6
CONTINUOUS
 62
       7
  5
97
 10
108.28806414
 20
96.09717045
 30
0.0
 11
79.28806414
 21
96.09717045
 31
0.0
  0
LINE
  8
0
  6
CONTINUOUS
 62
       7
  5
98
 10
80.23686127
 20
96.55359258
 30
0.0
 11
80.78806413
 21
102.85387
 31
0.0
  0
LINE
  8
0
  6
CONTINUOUS
 62
       7
  5
99
 10
107.339267
 20
96.55359258
 30
0.0
 11
106.78806416
 21
102.85387
 31
0.0
  0
ARC
  8
0
  6
CONTINUOUS
 62
       7
  5
9A
 10
79.28806414
 20
95.59717045
 30
0.0
 40
0.5
 50
90.0
 51
180.0
  0
ARC
  8
0
  6
CONTINUOUS
 62
       7
  5
9B
 10
108.28806414
 20
95.59717045
 30
0.0
 40
0.5
 50
0.0
 51
90.0
  0
ARC
  8
0
  6
CONTINUOUS
 62
       7
  5
9C
 10
79.73876392
 20
96.59717045
 30
0.0
 40
0.5
 50
270.0
 51
354.99999996
  0
ARC
  8
0
  6
CONTINUOUS
 62
       7
  5
9D
 10
107.83736435
 20
96.59717045
 30
0.0
 40
0.5
 50
184.99999998
 51
270.0
  0
ARC
  8
0
  6
CONTINUOUS
 62
       7
  5
9E
 10
71.63806414
 20
51.89717045
 30
0.0
 40
20.0
 50
14.47751219
 51
85.6987777
  0
ARC
  8
0
  6
CONTINUOUS
 62
       7
  5
9F
 10
71.63806414
 20
51.89717045
 30
0.0
 40
20.0
 50
274.3012223
 51
345.52248781
  0
CIRCLE
  8
0
  6
CONTINUOUS
 62
       7
  5
A0
 10
93.77671674
 20
17.89741308
 30
0.0
 40
3.75349197
  0
CIRCLE
  8
0
  6
CONTINUOUS
 62
       7
  5
A1
 10
93.77671674
 20
17.89741308
 30
0.0
 40
3.5032589
  0
LINE
  8
0
  6
CONTINUOUS
 62
       7
  5
A2
 10
92.3295644
 20
19.34137117
 30
0.0
 11
95.16076977
 21
16.5101658
 31
0.0
  0
LINE
  8
0
  6
CONTINUOUS
 62
       7
  5
A3
 10
92.42965752
 20
16.53876384
 30
0.0
 11
95.21796584
 21
19.32707216
 31
0.0
  0
LINE
  8
0
  6
CONTINUOUS
 62
       7
  5
A4
 10
70.76664675
 20
11.39623926
 30
0.0
 11
71.76757794
 21
12.39717045
 31
0.0
  0
LINE
  8
0
  6
CONTINUOUS
 62
       7
  5
A5
 10
69.76571556
 20
-25.63821494
 30
0.0
 11
71.26571556
 21
-24.13821485
 31
0.0
  0
LINE
  8
0
  6
CONTINUOUS
 62
       7
  5
A6
 10
69.76571556
 20
-25.63821466
 30
0.0
 11
71.26571556
 21
-27.13821474
 31
0.0
  0
LINE
  8
0
  6
CONTINUOUS
 62
       7
  5
A7
 10
117.81041272
 20
-25.63821494
 30
0.0
 11
116.31041272
 21
-24.13821485
 31
0.0
  0
LINE
  8
0
  6
CONTINUOUS
 62
       7
  5
A8
 10
117.81041272
 20
-25.63821466
 30
0.0
 11
116.31041272
 21
-27.13821474
 31
0.0
  0
LINE
  8
0
  6
CONTINUOUS
 62
       2
  5
A9
 10
119.76297199
 20
51.89717045
 30
0.0
 11
2.40145733
 21
51.89717045
 31
0.0
  0
LINE
  8
0
  6
CONTINUOUS
 62
       7
  5
AA
 10
48.13806414
 20
47.89717045
 30
0.0
 11
39.07584964
 21
47.89717045
 31
0.0
  0
LINE
  8
0
  6
CONTINUOUS
 62
       7
  5
AB
 10
48.13806414
 20
50.39717045
 30
0.0
 11
38.63503219
 21
50.39717045
 31
0.0
  0
LINE
  8
0
  6
CONTINUOUS
 62
       7
  5
AC
 10
48.13806414
 20
53.39717045
 30
0.0
 11
38.10605124
 21
53.39717045
 31
0.0
  0
LINE
  8
0
  6
CONTINUOUS
 62
       7
  5
AD
 10
48.13806414
 20
55.89717045
 30
0.0
 11
37.66523379
 21
55.89717045
 31
0.0
  0
LINE
  8
0
  6
CONTINUOUS
 62
       2
  5
AE
 10
93.78806414
 20
107.85387008
 30
0.0
 11
93.78806414
 21
-39.14612992
 31
0.0
  0
LINE
  8
0
  6
CONTINUOUS
 62
       7
  5
AF
 10
-84.3607
 20
12.39717045
 30
0.0
 11
-40.3197276
 21
12.39717045
 31
0.0
  0
LINE
  8
0
  6
CONTINUOUS
 62
       2
  5
B0
 10
-62.3402138
 20
107.85387008
 30
0.0
 11
-62.3402138
 21
-39.14612992
 31
0.0
  0
LINE
  8
0
  6
CONTINUOUS
 62
       7
  5
B1
 10
-85.36163119
 20
11.39623926
 30
0.0
 11
-85.36163119
 21
-3.87511091
 31
0.0
  0
LINE
  8
0
  6
CONTINUOUS
 62
       7
  5
B2
 10
-39.31879641
 20
-19.13216206
 30
0.0
 11
-39.31879641
 21
11.39623926
 31
0.0
  0
LINE
  8
0
  6
CONTINUOUS
 62
       7
  5
B3
 10
-39.31879641
 20
11.39623926
 30
0.0
 11
-40.3197276
 21
12.39717045
 31
0.0
  0
LINE
  8
0
  6
CONTINUOUS
 62
       7
  5
B4
 10
-84.3607
 20
12.39717045
 30
0.0
 11
-85.36163119
 21
11.39623926
 31
0.0
  0
LINE
  8
0
  6
CONTINUOUS
 62
       7
  5
B5
 10
-85.36163119
 20
11.39623926
 30
0.0
 11
-39.31879641
 21
11.39623926
 31
0.0
  0
LINE
  8
0
  6
CONTINUOUS
 62
       7
  5
B6
 10
-84.3607
 20
-20.13309325
 30
0.0
 11
-40.3197276
 21
-20.13309325
 31
0.0
  0
LINE
  8
0
  6
CONTINUOUS
 62
       7
  5
B7
 10
-85.36163119
 20
-19.13216206
 30
0.0
 11
-85.36163119
 21
-3.87511091
 31
0.0
  0
LINE
  8
0
  6
CONTINUOUS
 62
       7
  5
B8
 10
-39.31879641
 20
-19.13216206
 30
0.0
 11
-40.3197276
 21
-20.13309325
 31
0.0
  0
LINE
  8
0
  6
CONTINUOUS
 62
       7
  5
B9
 10
-84.3607
 20
-20.13309325
 30
0.0
 11
-85.36163119
 21
-19.13216206
 31
0.0
  0
LINE
  8
0
  6
CONTINUOUS
 62
       7
  5
BA
 10
-85.36163119
 20
-19.13216206
 30
0.0
 11
-39.31879641
 21
-19.13216206
 31
0.0
  0
LINE
  8
0
  6
CONTINUOUS
 62
       7
  5
BB
 10
-78.23242206
 20
12.39717045
 30
0.0
 11
-79.23335325
 21
11.39623926
 31
0.0
  0
LINE
  8
0
  6
CONTINUOUS
 62
       2
  5
BC
 10
-68.08364827
 20
-25.6382148
 30
0.0
 11
-56.57666435
 21
-25.6382148
 31
0.0
  0
LINE
  8
0
  6
CONTINUOUS
 62
       2
  5
BD
 10
-88.36256238
 20
-25.6382148
 30
0.0
 11
-81.10052412
 21
-25.6382148
 31
0.0
  0
LINE
  8
0
  6
CONTINUOUS
 62
       7
  5
BE
 10
-41.36355584
 20
-30.94315011
 30
0.0
 11
-41.36355584
 21
-20.13309325
 31
0.0
  0
LINE
  8
0
  6
CONTINUOUS
 62
       7
  5
BF
 10
-33.81367486
 20
-32.94501249
 30
0.0
 11
-33.81367486
 21
-34.14612992
 31
0.0
  0
LINE
  8
0
  6
CONTINUOUS
 62
       7
  5
C0
 10
-40.92028632
 20
-29.39885627
 30
0.0
 11
-40.92028632
 21
-21.89187234
 31
0.0
  0
LINE
  8
0
  6
CONTINUOUS
 62
       7
  5
C1
 10
-41.36355584
 20
-21.89187234
 30
0.0
 11
-40.92028632
 21
-21.89187234
 31
0.0
  0
LINE
  8
0
  6
CONTINUOUS
 62
       7
  5
C2
 10
-40.92028632
 20
-22.13495563
 30
0.0
 11
-40.51991384
 21
-22.13495563
 31
0.0
  0
LINE
  8
0
  6
CONTINUOUS
 62
       7
  5
C3
 10
-38.31786522
 20
-26.93942535
 30
0.0
 11
-38.31786522
 21
-24.33700425
 31
0.0
  0
LINE
  8
0
  6
CONTINUOUS
 62
       7
  5
C4
 10
-41.36355584
 20
-29.39885627
 30
0.0
 11
-40.92028632
 21
-29.39885627
 31
0.0
  0
LINE
  8
0
  6
CONTINUOUS
 62
       7
  5
C5
 10
-40.92028632
 20
-29.14147396
 30
0.0
 11
-40.51991384
 21
-29.14147396
 31
0.0
  0
LINE
  8
0
  6
CONTINUOUS
 62
       7
  5
C6
 10
-83.30257274
 20
-30.94315011
 30
0.0
 11
-83.30257274
 21
-20.13309325
 31
0.0
  0
LINE
  8
0
  6
CONTINUOUS
 62
       7
  5
C7
 10
-90.86675274
 20
-32.94501249
 30
0.0
 11
-33.81367486
 21
-32.94501249
 31
0.0
  0
LINE
  8
0
  6
CONTINUOUS
 62
       7
  5
C8
 10
-83.76014128
 20
-29.39885627
 30
0.0
 11
-83.76014128
 21
-21.89187234
 31
0.0
  0
LINE
  8
0
  6
CONTINUOUS
 62
       7
  5
C9
 10
-83.30257274
 20
-21.89187234
 30
0.0
 11
-83.76014128
 21
-21.89187234
 31
0.0
  0
LINE
  8
0
  6
CONTINUOUS
 62
       7
  5
CA
 10
-83.76014128
 20
-22.13495563
 30
0.0
 11
-84.16051376
 21
-22.13495563
 31
0.0
  0
LINE
  8
0
  6
CONTINUOUS
 62
       7
  5
CB
 10
-86.36256238
 20
-26.93942535
 30
0.0
 11
-86.36256238
 21
-24.33700425
 31
0.0
  0
LINE
  8
0
  6
CONTINUOUS
 62
       7
  5
CC
 10
-83.30257274
 20
-29.39885627
 30
0.0
 11
-83.76014128
 21
-29.39885627
 31
0.0
  0
LINE
  8
0
  6
CONTINUOUS
 62
       7
  5
CD
 10
-83.76014128
 20
-29.14147396
 30
0.0
 11
-84.16051376
 21
-29.14147396
 31
0.0
  0
LINE
  8
0
  6
CONTINUOUS
 62
       7
  5
CE
 10
-63.6843214
 20
-26.99662141
 30
0.0
 11
-60.89601308
 21
-24.2083131
 31
0.0
  0
LINE
  8
0
  6
CONTINUOUS
 62
       7
  5
CF
 10
-63.79871353
 20
-24.19401408
 30
0.0
 11
-60.95320915
 21
-27.02521945
 31
0.0
  0
LINE
  8
0
  6
CONTINUOUS
 62
       2
  5
D0
 10
-43.51909946
 20
-25.6382148
 30
0.0
 11
-36.2874048
 21
-25.6382148
 31
0.0
  0
LINE
  8
0
  6
CONTINUOUS
 62
       7
  5
D1
 10
-90.86675274
 20
-34.14612992
 30
0.0
 11
-33.81367486
 21
-34.14612992
 31
0.0
  0
CIRCLE
  8
0
  6
CONTINUOUS
 62
       2
  5
D2
 10
-62.33015631
 20
-3.86773187
 30
0.0
 40
8.50791485
  0
CIRCLE
  8
0
  6
CONTINUOUS
 62
       7
  5
D3
 10
-62.33015631
 20
-3.86773187
 30
0.0
 40
7.50698393
  0
ARC
  8
0
  6
CONTINUOUS
 62
       7
  5
D4
 10
-39.36012077
 20
-30.94157741
 30
0.0
 40
2.00343569
 50
180.04497711
 51
269.95502289
  0
ARC
  8
0
  6
CONTINUOUS
 62
       7
  5
D5
 10
-40.51500284
 20
-26.94433635
 30
0.0
 40
2.19714311
 50
269.87193378
 51
0.12806622
  0
ARC
  8
0
  6
CONTINUOUS
 62
       7
  5
D6
 10
-85.3030891
 20
-30.94449613
 30
0.0
 40
2.00051682
 50
269.96144936
 51
0.03855064
  0
ARC
  8
0
  6
CONTINUOUS
 62
       7
  5
D7
 10
-84.15559898
 20
-24.34191903
 30
0.0
 40
2.20696887
 50
90.12759416
 51
179.87240584
  0
ARC
  8
0
  6
CONTINUOUS
 62
       7
  5
D8
 10
-40.51475966
 20
-24.33185007
 30
0.0
 40
2.19690049
 50
359.8655775
 51
90.1344225
  0
CIRCLE
  8
0
  6
CONTINUOUS
 62
       7
  5
D9
 10
-62.33015631
 20
-25.63797217
 30
0.0
 40
3.5032589
  0
ARC
  8
0
  6
CONTINUOUS
 62
       7
  5
DA
 10
-84.15535691
 20
-26.9342685
 30
0.0
 40
2.20721149
 50
180.13386385
 51
269.86613615
  0
CIRCLE
  8
0
  6
CONTINUOUS
 62
       7
  5
DB
 10
-62.33015631
 20
-25.63797217
 30
0.0
 40
3.75349197
  0
LINE
  8
0
  6
CONTINUOUS
 62
       7
  5
DC
 10
-82.9902138
 20
81.89717045
 30
0.0
 11
-82.9902138
 21
12.39717045
 31
0.0
  0
ARC
  8
0
  6
CONTINUOUS
 62
       7
  5
DD
 10
-76.38951401
 20
96.59717045
 30
0.0
 40
0.5
 50
270.0
 51
355.00000002
  0
ARC
  8
0
  6
CONTINUOUS
 62
       7
  5
DE
 10
-48.29091358
 20
96.59717045
 30
0.0
 40
0.5
 50
185.00000004
 51
270.0
  0
ARC
  8
0
  6
CONTINUOUS
 62
       7
  5
DF
 10
-76.8402138
 20
95.59717045
 30
0.0
 40
0.5
 50
90.0
 51
180.0
  0
ARC
  8
0
  6
CONTINUOUS
 62
       7
  5
E0
 10
-47.8402138
 20
95.59717045
 30
0.0
 40
0.5
 50
0.0
 51
90.0
  0
LINE
  8
0
  6
CONTINUOUS
 62
       7
  5
E1
 10
-75.89141667
 20
96.55359258
 30
0.0
 11
-75.34021382
 21
102.85387
 31
0.0
  0
LINE
  8
0
  6
CONTINUOUS
 62
       7
  5
E2
 10
-48.78901093
 20
96.55359258
 30
0.0
 11
-49.34021379
 21
102.85387
 31
0.0
  0
LINE
  8
0
  6
CONTINUOUS
 62
       7
  5
E3
 10
-76.8402138
 20
96.09717045
 30
0.0
 11
-47.8402138
 21
96.09717045
 31
0.0
  0
LINE
  8
0
  6
CONTINUOUS
 62
       7
  5
E4
 10
-77.3402138
 20
95.59717045
 30
0.0
 11
-77.3402138
 21
86.89717045
 31
0.0
  0
LINE
  8
0
  6
CONTINUOUS
 62
       7
  5
E5
 10
-47.3402138
 20
95.59717045
 30
0.0
 11
-47.3402138
 21
86.89717045
 31
0.0
  0
ARC
  8
0
  6
CONTINUOUS
 62
       7
  5
E6
 10
-46.6902138
 20
81.89717045
 30
0.0
 40
5.0
 50
0.0
 51
90.0
  0
ARC
  8
0
  6
CONTINUOUS
 62
       7
  5
E7
 10
-77.9902138
 20
81.89717045
 30
0.0
 40
5.0
 50
90.0
 51
180.0
  0
LINE
  8
0
  6
CONTINUOUS
 62
       7
  5
E8
 10
-77.9902138
 20
86.89717045
 30
0.0
 11
-46.6902138
 21
86.89717045
 31
0.0
  0
LINE
  8
0
  6
CONTINUOUS
 62
       7
  5
E9
 10
-41.6902138
 20
12.39717045
 30
0.0
 11
-41.6902138
 21
81.89717045
 31
0.0
  0
LINE
  8
0
  6
CONTINUOUS
 62
       7
  5
EA
 10
-75.3402138
 20
102.85387008
 30
0.0
 11
-49.3402138
 21
102.85387008
 31
0.0
  0
LINE
  8
0
  6
CONTINUOUS
 62
       2
  5
EB
 10
-87.9902138
 20
51.89717045
 30
0.0
 11
-36.6902138
 21
51.89717045
 31
0.0
  0
CIRCLE
  8
0
  6
CONTINUOUS
 62
       7
  5
EC
 10
-62.3402138
 20
51.89717045
 30
0.0
 40
13.0
  0
CIRCLE
  8
0
  6
CONTINUOUS
 62
       7
  5
ED
 10
-62.3402138
 20
51.89717045
 30
0.0
 40
7.5
  0
LINE
  8
0
  6
CONTINUOUS
 62
       2
  5
EE
 10
-67.48643221
 20
54.64717045
 30
0.0
 11
-57.57045313
 21
54.64717045
 31
0.0
  0
LINE
  8
0
  6
CONTINUOUS
 62
       2
  5
EF
 10
-67.48643221
 20
49.14717045
 30
0.0
 11
-57.57045313
 21
49.14717045
 31
0.0
  0
CIRCLE
  8
0
  6
CONTINUOUS
 62
       7
  5
F0
 10
-62.3402138
 20
49.14717045
 30
0.0
 40
2.5
  0
CIRCLE
  8
0
  6
CONTINUOUS
 62
       7
  5
F1
 10
-62.3402138
 20
54.64717045
 30
0.0
 40
2.5
  0
ARC
  8
0
  6
CONTINUOUS
 62
       7
  5
F2
 10
-62.3402138
 20
51.89717045
 30
0.0
 40
20.0
 50
14.47751219
 51
165.52248781
  0
ARC
  8
0
  6
CONTINUOUS
 62
       7
  5
F3
 10
-62.3402138
 20
51.89717045
 30
0.0
 40
20.0
 50
194.47751219
 51
345.52248781
  0
LINE
  8
0
  6
CONTINUOUS
 62
       2
  5
F4
 10
-88.36256238
 20
17.89717045
 30
0.0
 11
-81.10052412
 21
17.89717045
 31
0.0
  0
LINE
  8
0
  6
CONTINUOUS
 62
       7
  5
F5
 10
-82.9902138
 20
21.64351291
 30
0.0
 11
-83.44778234
 21
21.64351291
 31
0.0
  0
LINE
  8
0
  6
CONTINUOUS
 62
       7
  5
F6
 10
-82.9902138
 20
14.13652898
 30
0.0
 11
-83.44778234
 21
14.13652898
 31
0.0
  0
ARC
  8
0
  6
CONTINUOUS
 62
       7
  5
F7
 10
-83.84324004
 20
19.19346622
 30
0.0
 40
2.20696887
 50
90.12759416
 51
179.87240584
  0
ARC
  8
0
  6
CONTINUOUS
 62
       7
  5
F8
 10
-83.84299797
 20
16.60111675
 30
0.0
 40
2.20721149
 50
180.13386385
 51
269.86613615
  0
LINE
  8
0
  6
CONTINUOUS
 62
       7
  5
F9
 10
-86.05020344
 20
17.89717051
 30
0.0
 11
-84.55020344
 21
19.39717051
 31
0.0
  0
LINE
  8
0
  6
CONTINUOUS
 62
       7
  5
FA
 10
-86.05020344
 20
17.89717059
 30
0.0
 11
-84.55020344
 21
16.39717051
 31
0.0
  0
LINE
  8
0
  6
CONTINUOUS
 62
       7
  5
FB
 10
-83.44778234
 20
14.39391129
 30
0.0
 11
-83.84815482
 21
14.39391129
 31
0.0
  0
LINE
  8
0
  6
CONTINUOUS
 62
       7
  5
FC
 10
-83.44778234
 20
21.40042962
 30
0.0
 11
-83.84815482
 21
21.40042962
 31
0.0
  0
LINE
  8
0
  6
CONTINUOUS
 62
       7
  5
FD
 10
-83.44778234
 20
14.13652898
 30
0.0
 11
-83.44778234
 21
21.64351291
 31
0.0
  0
LINE
  8
0
  6
CONTINUOUS
 62
       7
  5
FE
 10
-86.05020344
 20
16.59595991
 30
0.0
 11
-86.05020344
 21
19.198381
 31
0.0
  0
LINE
  8
0
  6
CONTINUOUS
 62
       7
  5
FF
 10
-41.6902138
 20
21.64351291
 30
0.0
 11
-41.23264525
 21
21.64351291
 31
0.0
  0
LINE
  8
0
  6
CONTINUOUS
 62
       7
  5
100
 10
-41.6902138
 20
14.13652898
 30
0.0
 11
-41.23264525
 21
14.13652898
 31
0.0
  0
LINE
  8
0
  6
CONTINUOUS
 62
       7
  5
101
 10
-38.63022416
 20
16.59595991
 30
0.0
 11
-38.63022416
 21
19.198381
 31
0.0
  0
LINE
  8
0
  6
CONTINUOUS
 62
       7
  5
102
 10
-41.23264525
 20
14.13652898
 30
0.0
 11
-41.23264525
 21
21.64351291
 31
0.0
  0
LINE
  8
0
  6
CONTINUOUS
 62
       7
  5
103
 10
-41.23264525
 20
21.40042962
 30
0.0
 11
-40.83227278
 21
21.40042962
 31
0.0
  0
LINE
  8
0
  6
CONTINUOUS
 62
       7
  5
104
 10
-41.23264525
 20
14.39391129
 30
0.0
 11
-40.83227278
 21
14.39391129
 31
0.0
  0
LINE
  8
0
  6
CONTINUOUS
 62
       7
  5
105
 10
-38.63022416
 20
17.89717059
 30
0.0
 11
-40.13022416
 21
16.39717051
 31
0.0
  0
LINE
  8
0
  6
CONTINUOUS
 62
       7
  5
106
 10
-38.63022416
 20
17.89717051
 30
0.0
 11
-40.13022416
 21
19.39717051
 31
0.0
  0
ARC
  8
0
  6
CONTINUOUS
 62
       7
  5
107
 10
-40.83742963
 20
16.60111675
 30
0.0
 40
2.20721149
 50
270.13386385
 51
359.86613615
  0
ARC
  8
0
  6
CONTINUOUS
 62
       7
  5
108
 10
-40.83718756
 20
19.19346622
 30
0.0
 40
2.20696887
 50
0.12759416
 51
89.87240584
  0
LINE
  8
0
  6
CONTINUOUS
 62
       2
  5
109
 10
-43.51909946
 20
17.89717045
 30
0.0
 11
-36.2874048
 21
17.89717045
 31
0.0
  0
LINE
  8
0
  6
CONTINUOUS
 62
       7
  5
10A
 10
-90.86675274
 20
-34.14612992
 30
0.0
 11
-90.86675274
 21
-32.94501249
 31
0.0
  0
LINE
  8
0
  6
CONTINUOUS
 62
       7
  5
10B
 10
-86.36256238
 20
-25.63821486
 30
0.0
 11
-84.86256238
 21
-27.13821485
 31
0.0
  0
LINE
  8
0
  6
CONTINUOUS
 62
       7
  5
10C
 10
-86.36256238
 20
-25.63821474
 30
0.0
 11
-84.86256238
 21
-24.13821474
 31
0.0
  0
LINE
  8
0
  6
CONTINUOUS
 62
       7
  5
10D
 10
-38.31786522
 20
-25.63821474
 30
0.0
 11
-39.81786522
 21
-24.13821474
 31
0.0
  0
LINE
  8
0
  6
CONTINUOUS
 62
       7
  5
10E
 10
-38.31786522
 20
-25.63821466
 30
0.0
 11
-39.81786522
 21
-27.13821474
 31
0.0
  0
CIRCLE
  8
0
  6
CONTINUOUS
 62
       7
  5
10F
 10
-62.3402138
 20
54.64717045
 30
0.0
 40
1.0
  0
CIRCLE
  8
0
  6
CONTINUOUS
 62
       7
  5
110
 10
-62.3402138
 20
49.14717045
 30
0.0
 40
1.0
  0
POLYLINE
  8
0
  6
CONTINUOUS
 62
       7
  5
117
 66
       1
 10
0.0
 20
0.0
 30
0.0
  0
VERTEX
  8
0
  6
CONTINUOUS
 62
       7
  5
12C
 10
-16.2815148
 20
2.52072315
 30
0.0
  0
VERTEX
  8
0
  6
CONTINUOUS
 62
       7
  5
12D
 10
-12.41996515
 20
16.44338503
 30
0.0
  0
VERTEX
  8
0
  6
CONTINUOUS
 62
       7
  5
12E
 10
-20.65792024
 20
16.44338503
 30
0.0
  0
SEQEND
  8
0
  6
CONTINUOUS
 62
       7
  5
12F
  0
INSERT
  8
0
  6
CONTINUOUS
 62
       7
  5
118
  2
_OPEN30
 10
-16.2815148
 20
2.52072315
 30
0.0
 41
2.77
 42
2.77
 50
254.4982659
 43
2.77
  0
TEXT
  8
0
  6
CONTINUOUS
 62
       7
  5
119
 10
-20.1245869
 20
18.44338491
 30
0.0
 40
3.20000005
  1
-2
  7
MX_NOTE_STANDARD
 11
-20.1245869
 21
20.04338493
 31
0.0
 73
       2
  0
LINE
  8
0
  6
CONTINUOUS
 62
       7
  5
11A
 10
-23.41216581
 20
-8.48761091
 30
0.0
 11
-21.93716581
 21
-9.96261091
 31
0.0
  0
LINE
  8
0
  6
CONTINUOUS
 62
       7
  5
11B
 10
-13.99132241
 20
-10.37823964
 30
0.0
 11
-21.93716581
 21
-9.96261091
 31
0.0
  0
LINE
  8
0
  6
CONTINUOUS
 62
       2
  5
11C
 10
-13.41216581
 20
-9.37511091
 30
0.0
 11
-22.52466581
 21
-9.37511091
 31
0.0
  0
LINE
  8
0
  6
CONTINUOUS
 62
       7
  5
11D
 10
-22.01216581
 20
2.21238909
 30
0.0
 11
-22.01216581
 21
-9.96261091
 31
0.0
  0
LINE
  8
0
  6
CONTINUOUS
 62
       7
  5
11E
 10
-23.41216581
 20
0.73738909
 30
0.0
 11
-21.93716581
 21
2.22488909
 31
0.0
  0
LINE
  8
0
  6
CONTINUOUS
 62
       7
  5
11F
 10
-13.99832772
 20
2.64015139
 30
0.0
 11
-21.93716581
 21
2.22488909
 31
0.0
  0
LINE
  8
0
  6
CONTINUOUS
 62
       2
  5
120
 10
-13.41216581
 20
1.62488909
 30
0.0
 11
-22.52466581
 21
1.62488909
 31
0.0
  0
LINE
  8
0
  6
CONTINUOUS
 62
       7
  5
121
 10
-23.41216581
 20
0.73738909
 30
0.0
 11
-23.41216581
 21
-8.48761091
 31
0.0
  0
LINE
  8
0
  6
CONTINUOUS
 62
       7
  5
122
 10
-13.41216581
 20
1.62488918
 30
0.0
 11
-13.41216581
 21
-9.375111
 31
0.0
  0
LINE
  8
0
  6
CONTINUOUS
 62
       7
  5
123
 10
-13.41216572
 20
-9.37511083
 30
0.0
 11
-13.99832772
 21
-10.39037321
 31
0.0
  0
LINE
  8
0
  6
CONTINUOUS
 62
       7
  5
124
 10
-13.41216572
 20
1.62488902
 30
0.0
 11
-13.99832772
 21
2.64015139
 31
0.0
  0
LINE
  8
0
  6
CONTINUOUS
 62
       7
  5
125
 10
-13.99832772
 20
-10.37787324
 30
0.0
 11
-13.99832772
 21
2.64015132
 31
0.0
  0
TEXT
  8
0
  6
CONTINUOUS
 62
       7
  5
126
 10
-185.66923077
 20
120.3500061
 30
0.0
 40
4.5
  1
MODEL:2503E1
 41
1.10769231
  7
MX_NOTE_STANDARD
 11
-185.66923077
 21
122.6000061
 31
0.0
 73
       2
  0
LINE
  8
0
  6
CONTINUOUS
 62
       7
  5
127
 10
-194.25
 20
132.6000061
 30
0.0
 11
194.80000305
 21
132.6000061
 31
0.0
  0
LINE
  8
0
  6
CONTINUOUS
 62
       7
  5
128
 10
194.80000305
 20
132.6000061
 30
0.0
 11
194.80000305
 21
-133.5
 31
0.0
  0
LINE
  8
0
  6
CONTINUOUS
 62
       7
  5
129
 10
-194.25
 20
132.6000061
 30
0.0
 11
-194.25
 21
-133.5
 31
0.0
  0
LINE
  8
0
  6
CONTINUOUS
 62
       7
  5
12A
 10
-194.25
 20
-133.5
 30
0.0
 11
194.80000305
 21
-133.5
 31
0.0
  0
ENDSEC
  0
EOF
