  0
SECTION
  2
HEADER
  0
ENDSEC
  0
SECTION
  2
TABLES
  0
TABLE
  2
LTYPE
 70
     4
  0
LTYPE
  2
CONTINUOUS
 70
    64
  3
Solid line
 72
    65
 73
     0
 40
0.000000
  0
LTYPE
  2
DASHED
 70
    64
  3
__ __ __ __ __ __ __ __ __ __ __ __ __ __ __
 72
    65
 73
     2
 40
3.500000
 49
2.000000
 49
-1.500000
  0
LTYPE
  2
CENTER
 70
    64
  3
____ _ ____ _ ____ _ ____ _ ____ _ ____ _ ____
 72
    65
 73
     4
 40
17.500000
 49
13.000000
 49
-1.500000
 49
1.500000
 49
-1.500000
  0
LTYPE
  2
PHANTOM
 70
    64
  3
_____ _ _ _____ _ _ _____ _ _ _____ _ _ ____  
 72
    65
 73
     6
 40
15.500000
 49
8.000000
 49
-1.500000
 49
1.500000
 49
-1.500000
 49
1.500000
 49
-1.500000
  0
LTYPE
  2
DASHED1
 70
    64
  3
__ __ __ __ __ __ __ __ __ __ __ __ __ __ __
 72
    65
 73
     2
 40
1.500000
 49
1.000000
 49
-0.500000
  0
LTYPE
  2
DASHED2
 70
    64
  3
__ __ __ __ __ __ __ __ __ __ __ __ __ __ __
 72
    65
 73
     2
 40
3.500000
 49
2.500000
 49
-1.000000
  0
LTYPE
  2
DASHED3
 70
    64
  3
__ __ __ __ __ __ __ __ __ __ __ __ __ __ __
 72
    65
 73
     2
 40
6.000000
 49
4.000000
 49
-2.000000
  0
LTYPE
  2
DASHED4
 70
    64
  3
__ __ __ __ __ __ __ __ __ __ __ __ __ __ __
 72
    65
 73
     2
 40
12.000000
 49
10.000000
 49
-2.000000
  0
LTYPE
  2
DASHED5
 70
    64
  3
__ __ __ __ __ __ __ __ __ __ __ __ __ __ __
 72
    65
 73
     2
 40
17.000000
 49
15.000000
 49
-2.000000
  0
LTYPE
  2
DASHED6
 70
    64
  3
__ __ __ __ __ __ __ __ __ __ __ __ __ __ __
 72
    65
 73
     2
 40
29.000000
 49
27.000000
 49
-2.000000
  0
LTYPE
  2
PHANTOM1
 70
    64
  3
_____ _ _ _____ _ _ _____ _ _ _____ _ _ ____  
 72
    65
 73
     6
 40
31.000000
 49
25.000000
 49
-1.500000
 49
1.000000
 49
-1.000000
 49
1.000000
 49
-1.500000
  0
LTYPE
  2
PHANTOM2
 70
    64
  3
_____ _ _ _____ _ _ _____ _ _ _____ _ _ ____  
 72
    65
 73
     6
 40
36.000000
 49
27.000000
 49
-1.500000
 49
2.500000
 49
-1.000000
 49
2.500000
 49
-1.500000
  0
LTYPE
  2
PHANTOM3
 70
    64
  3
_____ _ _ _____ _ _ _____ _ _ _____ _ _ ____  
 72
    65
 73
     6
 40
78.000000
 49
64.000000
 49
-2.000000
 49
4.000000
 49
-2.000000
 49
4.000000
 49
-2.000000
  0
LTYPE
  2
CENTER1
 70
    64
  3
____ _ ____ _ ____ _ ____ _ ____ _ ____ _ ____
 72
    65
 73
     4
 40
19.000000
 49
14.000000
 49
-1.000000
 49
3.000000
 49
-1.000000
  0
LTYPE
  2
CENTER2
 70
    64
  3
____ _ ____ _ ____ _ ____ _ ____ _ ____ _ ____
 72
    65
 73
     4
 40
28.500000
 49
25.000000
 49
-1.000000
 49
1.500000
 49
-1.000000
  0
LTYPE
  2
CENTER3
 70
    64
  3
____ _ ____ _ ____ _ ____ _ ____ _ ____ _ ____
 72
    65
 73
     4
 40
31.500000
 49
27.000000
 49
-1.000000
 49
2.500000
 49
-1.000000
  0
LTYPE
  2
CENTER4
 70
    64
  3
____ _ ____ _ ____ _ ____ _ ____ _ ____ _ ____
 72
    65
 73
     4
 40
50.000000
 49
45.000000
 49
-1.000000
 49
3.000000
 49
-1.000000
  0
LTYPE
  2
CENTER5
 70
    64
  3
____ _ ____ _ ____ _ ____ _ ____ _ ____ _ ____
 72
    65
 73
     4
 40
100.000000
 49
92.000000
 49
-2.000000
 49
4.000000
 49
-2.000000
  0
LTYPE
  2
SBK1
 70
    64
  3
______ _ _ _ ______ _ _ _ ______ _ _ _ _____  
 72
    65
 73
     8
 40
60.500000
 49
45.000000
 49
-2.000000
 49
2.500000
 49
-2.000000
 49
2.500000
 49
-2.000000
 49
2.500000
 49
-2.000000
  0
LTYPE
  2
SBK2
 70
    64
  3
______ _ _ _ ______ _ _ _ ______ _ _ _ _____  
 72
    65
 73
     8
 40
84.000000
 49
64.000000
 49
-2.000000
 49
4.000000
 49
-2.000000
 49
4.000000
 49
-2.000000
 49
4.000000
 49
-2.000000
  0
LTYPE
  2
STCH
 70
    64
  3
__ __ __ __ __ __ __ __ __ __ __ __ __ __ __
 72
    65
 73
     2
 40
3.000000
 49
1.000000
 49
-2.000000
  0
LTYPE
  2
MTCH
 70
    64
  3
_____ _ _ _____ _ _ _____ _ _ _____ _ _ ____  
 72
    65
 73
     6
 40
80.000000
 49
66.000000
 49
-2.000000
 49
4.000000
 49
-2.000000
 49
4.000000
 49
-2.000000
  0
ENDTAB
  0
TABLE
  2
LAYER
 70
     1
  0
LAYER
  2
0
 70
     0
 62
     7
  6
CONTINUOUS
  0
ENDTAB
  0
TABLE
  2
STYLE
 70
     1
  0
STYLE
  2
STANDARD
 70
     0
 40
0.000000
 41
1.000000
 50
0.000000
 71
     0
 42
0.200000
  3
txt
  4
BIGFONT
  0
ENDTAB
  0
TABLE
  2
VIEW
 70
     0
  0
ENDTAB
  0
ENDSEC
  0
SECTION
  2
BLOCKS
  0
ENDSEC
  0
SECTION
  2
ENTITIES
  0
LINE
  8
0
 10
-262.247223
 20
-180.000046
 11
-262.247223
 21
180.000046
  0
LINE
  8
0
 10
262.247223
 20
180.000046
 11
262.247223
 21
-180.000046
  0
LINE
  8
0
 10
-262.247223
 20
-180.000046
 11
262.247223
 21
-180.000046
  0
LINE
  8
0
 10
-262.247223
 20
180.000046
 11
262.247223
 21
180.000046
  0
LINE
  8
0
 10
-262.247223
 20
159.775299
 11
-154.382050
 21
159.775299
  0
LINE
  8
0
 10
-154.382050
 20
159.775299
 11
-154.382050
 21
180.000046
  0
LINE
  8
0
 10
154.382034
 20
-159.775345
 11
262.247223
 21
-159.775345
  0
LINE
  8
0
 10
154.382034
 20
159.775299
 11
262.247223
 21
159.775299
  0
LINE
  8
0
 10
154.382034
 20
180.000046
 11
154.382034
 21
159.775299
  0
LINE
  8
0
 10
154.382034
 20
-159.775345
 11
154.382034
 21
-180.000046
  0
LINE
  8
0
 10
5.000000
 20
59.680603
 11
-36.000000
 21
59.680603
  0
LINE
  8
0
 10
5.000000
 20
116.680603
 11
-36.000000
 21
116.680603
  0
LINE
  8
0
 10
-44.000000
 20
108.680603
 11
-44.000000
 21
67.680603
  0
LINE
  8
0
 10
13.000000
 20
108.680603
 11
13.000000
 21
67.680603
  0
LINE
  8
0
  6
CENTER
 10
17.000000
 20
88.180603
 11
-48.000000
 21
88.180603
  0
LINE
  8
0
  6
CENTER
 10
-15.500000
 20
120.680603
 11
-15.500000
 21
55.680603
  0
LINE
  8
0
  6
CENTER
 10
9.500000
 20
68.180603
 11
-0.500000
 21
68.180603
  0
LINE
  8
0
  6
CENTER
 10
4.500000
 20
73.180603
 11
4.500000
 21
63.180603
  0
LINE
  8
0
  6
CENTER
 10
9.500000
 20
108.180603
 11
-0.500000
 21
108.180603
  0
LINE
  8
0
  6
CENTER
 10
4.500000
 20
113.180603
 11
4.500000
 21
103.180603
  0
LINE
  8
0
  6
CENTER
 10
-30.500000
 20
108.180603
 11
-40.500000
 21
108.180603
  0
LINE
  8
0
  6
CENTER
 10
-35.500000
 20
113.180603
 11
-35.500000
 21
103.180603
  0
LINE
  8
0
  6
CENTER
 10
-30.500000
 20
68.180603
 11
-40.500000
 21
68.180603
  0
LINE
  8
0
  6
CENTER
 10
-35.500000
 20
73.180603
 11
-35.500000
 21
63.180603
  0
LINE
  8
0
 10
105.549995
 20
-16.166668
 11
63.449997
 21
-16.166668
  0
LINE
  8
0
 10
113.000000
 20
-30.166668
 11
56.000000
 21
-30.166668
  0
LINE
  8
0
 10
113.000000
 20
-28.966671
 11
113.000000
 21
-30.166668
  0
LINE
  8
0
 10
56.000000
 20
-28.966671
 11
56.000000
 21
-30.166668
  0
LINE
  8
0
 10
113.000000
 20
-28.966671
 11
56.000000
 21
-28.966671
  0
LINE
  8
0
 10
63.449997
 20
-16.166668
 11
63.449997
 21
-26.966671
  0
LINE
  8
0
 10
105.549995
 20
-16.166668
 11
105.549995
 21
-26.966671
  0
LINE
  8
0
 10
64.649994
 20
17.833336
 11
104.349998
 21
17.833336
  0
LINE
  8
0
 10
63.500000
 20
6.833336
 11
105.500000
 21
6.833336
  0
LINE
  8
0
 10
63.500000
 20
-16.166668
 11
63.500000
 21
6.833336
  0
LINE
  8
0
 10
105.500000
 20
-16.166668
 11
105.500000
 21
6.833336
  0
LINE
  8
0
 10
104.349998
 20
6.833336
 11
104.349998
 21
17.833336
  0
LINE
  8
0
 10
64.650002
 20
6.833336
 11
64.650002
 21
17.833336
  0
LINE
  8
0
 10
-36.500000
 20
80.680603
 11
-36.500000
 21
95.680603
  0
LINE
  8
0
 10
-35.115044
 20
95.680603
 11
-36.500000
 21
95.680603
  0
LINE
  8
0
 10
-35.115044
 20
80.680603
 11
-36.500000
 21
80.680603
  0
LINE
  8
0
 10
5.500000
 20
95.680603
 11
5.500000
 21
80.680603
  0
LINE
  8
0
 10
4.115046
 20
80.680603
 11
5.500000
 21
80.680603
  0
LINE
  8
0
 10
4.115046
 20
95.680603
 11
5.500000
 21
95.680603
  0
LINE
  8
0
 10
-8.000000
 20
67.180603
 11
-23.000000
 21
67.180603
  0
LINE
  8
0
 10
-23.000000
 20
68.565552
 11
-23.000000
 21
67.180603
  0
LINE
  8
0
 10
-8.000000
 20
68.565552
 11
-8.000000
 21
67.180603
  0
LINE
  8
0
 10
64.884956
 20
-16.166668
 11
64.884956
 21
6.833336
  0
LINE
  8
0
 10
92.000000
 20
-16.166668
 11
92.000000
 21
6.833336
  0
LINE
  8
0
 10
77.000000
 20
-16.166668
 11
77.000000
 21
6.833336
  0
LINE
  8
0
  6
DASHED
 10
72.500000
 20
-11.151829
 11
63.499996
 21
-11.433093
  0
LINE
  8
0
  6
DASHED
 10
72.499992
 20
-10.295408
 11
63.500000
 21
-10.576672
  0
LINE
  8
0
  6
DASHED
 10
72.500000
 20
0.962076
 11
63.499996
 21
1.243340
  0
LINE
  8
0
  6
DASHED
 10
72.500000
 20
1.818497
 11
63.499996
 21
2.099761
  0
LINE
  8
0
  6
CENTER
 10
59.822807
 20
-21.666668
 11
66.600777
 21
-21.666668
  0
LINE
  8
0
 10
63.000000
 20
-17.416668
 11
63.000000
 21
-25.916668
  0
LINE
  8
0
 10
62.020981
 20
-25.166668
 11
63.000000
 21
-25.166668
  0
LINE
  8
0
 10
62.020981
 20
-18.166668
 11
63.000000
 21
-18.166668
  0
LINE
  8
0
 10
63.000000
 20
-25.916668
 11
63.449997
 21
-25.916668
  0
LINE
  8
0
 10
63.000000
 20
-17.416668
 11
63.449997
 21
-17.416668
  0
LINE
  8
0
 10
82.450012
 20
-21.166637
 11
82.450012
 21
-22.166637
  0
LINE
  8
0
 10
86.549988
 20
-21.166637
 11
86.549988
 21
-22.166637
  0
LINE
  8
0
 10
84.000000
 20
-19.616650
 11
85.000000
 21
-19.616650
  0
LINE
  8
0
 10
84.000000
 20
-23.716656
 11
85.000000
 21
-23.716656
  0
LINE
  8
0
 10
83.999969
 20
-19.866650
 11
83.999969
 21
-19.616650
  0
LINE
  8
0
 10
86.299988
 20
-22.166653
 11
86.549988
 21
-22.166653
  0
LINE
  8
0
 10
85.000000
 20
-19.866650
 11
85.000000
 21
-19.616650
  0
LINE
  8
0
 10
86.299988
 20
-21.166668
 11
86.549988
 21
-21.166668
  0
LINE
  8
0
 10
82.450012
 20
-22.166653
 11
82.700012
 21
-22.166653
  0
LINE
  8
0
 10
82.450012
 20
-21.166668
 11
82.700012
 21
-21.166668
  0
LINE
  8
0
 10
83.999969
 20
-23.716656
 11
83.999969
 21
-23.466656
  0
LINE
  8
0
 10
85.000000
 20
-23.716656
 11
85.000000
 21
-23.466656
  0
LINE
  8
0
 10
63.000000
 20
-22.166666
 11
63.450001
 21
-22.616667
  0
LINE
  8
0
 10
63.000000
 20
-22.666666
 11
63.450001
 21
-23.116669
  0
LINE
  8
0
 10
63.000000
 20
-23.166666
 11
63.450001
 21
-23.616669
  0
LINE
  8
0
 10
63.000000
 20
-23.666668
 11
63.449997
 21
-24.116667
  0
LINE
  8
0
 10
63.000000
 20
-24.166668
 11
63.449997
 21
-24.616667
  0
LINE
  8
0
 10
63.000000
 20
-24.666668
 11
63.449997
 21
-25.116667
  0
LINE
  8
0
 10
63.000000
 20
-25.166670
 11
63.449997
 21
-25.616669
  0
LINE
  8
0
 10
63.000000
 20
-21.666666
 11
63.450001
 21
-22.116667
  0
LINE
  8
0
 10
63.000004
 20
-21.166668
 11
63.450001
 21
-21.616667
  0
LINE
  8
0
 10
63.000004
 20
-20.666668
 11
63.450001
 21
-21.116667
  0
LINE
  8
0
 10
63.000004
 20
-20.166666
 11
63.450001
 21
-20.616665
  0
LINE
  8
0
 10
63.000004
 20
-19.666666
 11
63.450001
 21
-20.116665
  0
LINE
  8
0
 10
63.000004
 20
-19.166666
 11
63.450001
 21
-19.616665
  0
LINE
  8
0
 10
63.000004
 20
-18.666664
 11
63.450001
 21
-19.116663
  0
LINE
  8
0
 10
63.000004
 20
-18.166664
 11
63.450005
 21
-18.616667
  0
LINE
  8
0
 10
63.000004
 20
-17.666664
 11
63.450005
 21
-18.116665
  0
LINE
  8
0
  6
CENTER
 10
84.500000
 20
26.862923
 11
84.500000
 21
-33.137077
  0
LINE
  8
0
  6
CENTER
 10
79.500000
 20
-21.666668
 11
89.500000
 21
-21.666668
  0
LINE
  8
0
  6
CENTER
 10
109.177185
 20
-21.666668
 11
102.399223
 21
-21.666668
  0
LINE
  8
0
 10
106.000000
 20
-17.416668
 11
106.000000
 21
-25.916668
  0
LINE
  8
0
 10
106.979027
 20
-25.166668
 11
106.000000
 21
-25.166668
  0
LINE
  8
0
 10
106.979027
 20
-18.166668
 11
106.000000
 21
-18.166668
  0
LINE
  8
0
 10
106.000000
 20
-25.916668
 11
105.550003
 21
-25.916668
  0
LINE
  8
0
 10
106.000000
 20
-17.416668
 11
105.550003
 21
-17.416668
  0
LINE
  8
0
 10
106.000008
 20
-22.166658
 11
105.550003
 21
-22.616659
  0
LINE
  8
0
 10
106.000000
 20
-22.666664
 11
105.549995
 21
-23.116665
  0
LINE
  8
0
 10
106.000008
 20
-23.166658
 11
105.550003
 21
-23.616661
  0
LINE
  8
0
 10
106.000000
 20
-23.666664
 11
105.549995
 21
-24.116667
  0
LINE
  8
0
 10
106.000008
 20
-24.166660
 11
105.549995
 21
-24.616667
  0
LINE
  8
0
 10
106.000000
 20
-24.666666
 11
105.549995
 21
-25.116667
  0
LINE
  8
0
 10
106.000000
 20
-25.166666
 11
105.549995
 21
-25.616669
  0
LINE
  8
0
 10
106.000008
 20
-21.666668
 11
105.550003
 21
-22.116669
  0
LINE
  8
0
 10
106.000000
 20
-21.166674
 11
105.550011
 21
-21.616663
  0
LINE
  8
0
 10
106.000008
 20
-20.666668
 11
105.550003
 21
-21.116669
  0
LINE
  8
0
 10
106.000000
 20
-20.166672
 11
105.550011
 21
-20.616663
  0
LINE
  8
0
 10
106.000008
 20
-19.666666
 11
105.550003
 21
-20.116667
  0
LINE
  8
0
 10
106.000000
 20
-19.166672
 11
105.550011
 21
-19.616661
  0
LINE
  8
0
 10
106.000008
 20
-18.666664
 11
105.550003
 21
-19.116667
  0
LINE
  8
0
 10
106.000000
 20
-18.166670
 11
105.549995
 21
-18.616671
  0
LINE
  8
0
 10
106.000008
 20
-17.666664
 11
105.550003
 21
-18.116665
  0
LINE
  8
0
 10
5.000000
 20
-122.574615
 11
-36.000000
 21
-122.574615
  0
LINE
  8
0
 10
5.000000
 20
-65.574623
 11
-36.000000
 21
-65.574623
  0
LINE
  8
0
 10
-44.000000
 20
-73.574623
 11
-44.000000
 21
-114.574623
  0
LINE
  8
0
 10
13.000000
 20
-73.574623
 11
13.000000
 21
-114.574623
  0
LINE
  8
0
  6
CENTER
 10
17.000000
 20
-94.074623
 11
-48.000000
 21
-94.074623
  0
LINE
  8
0
  6
CENTER
 10
-15.500000
 20
-61.574623
 11
-15.500000
 21
-126.574615
  0
LINE
  8
0
  6
CENTER
 10
9.500000
 20
-114.074623
 11
-0.500000
 21
-114.074623
  0
LINE
  8
0
  6
CENTER
 10
4.500000
 20
-109.074623
 11
4.500000
 21
-119.074623
  0
LINE
  8
0
  6
CENTER
 10
9.500000
 20
-74.074623
 11
-0.500000
 21
-74.074623
  0
LINE
  8
0
  6
CENTER
 10
4.500000
 20
-69.074623
 11
4.500000
 21
-79.074623
  0
LINE
  8
0
  6
CENTER
 10
-30.500000
 20
-74.074623
 11
-40.500000
 21
-74.074623
  0
LINE
  8
0
  6
CENTER
 10
-35.500000
 20
-69.074623
 11
-35.500000
 21
-79.074623
  0
LINE
  8
0
  6
CENTER
 10
-30.500000
 20
-114.074623
 11
-40.500000
 21
-114.074623
  0
LINE
  8
0
  6
CENTER
 10
-35.500000
 20
-109.074623
 11
-35.500000
 21
-119.074623
  0
LINE
  8
0
 10
-20.139027
 20
74.291344
 11
-20.704714
 21
73.103683
  0
LINE
  8
0
 10
-10.860967
 20
74.291336
 11
-10.295286
 21
73.103683
  0
LINE
  8
0
 10
-10.250000
 20
81.180603
 11
-20.750000
 21
81.180603
  0
LINE
  8
0
 10
-10.250000
 20
95.180603
 11
-20.750000
 21
95.180603
  0
LINE
  8
0
  6
CENTER
 10
61.724228
 20
-4.666664
 11
106.994698
 21
-4.666664
  0
LINE
  8
0
 10
5.549999
 20
-16.166668
 11
-36.549999
 21
-16.166668
  0
LINE
  8
0
 10
13.000000
 20
-30.166668
 11
-44.000000
 21
-30.166668
  0
LINE
  8
0
 10
13.000000
 20
-28.966671
 11
13.000000
 21
-30.166668
  0
LINE
  8
0
 10
-44.000000
 20
-28.966671
 11
-44.000000
 21
-30.166668
  0
LINE
  8
0
 10
13.000000
 20
-28.966671
 11
-44.000000
 21
-28.966671
  0
LINE
  8
0
 10
-36.549999
 20
-16.166668
 11
-36.549999
 21
-26.966671
  0
LINE
  8
0
 10
5.549999
 20
-16.166668
 11
5.549999
 21
-26.966671
  0
LINE
  8
0
 10
-35.349998
 20
17.833336
 11
4.350000
 21
17.833336
  0
LINE
  8
0
 10
-36.500000
 20
6.833336
 11
5.500000
 21
6.833336
  0
LINE
  8
0
 10
-36.500000
 20
-16.166668
 11
-36.500000
 21
6.833336
  0
LINE
  8
0
 10
5.500000
 20
-16.166668
 11
5.500000
 21
6.833336
  0
LINE
  8
0
 10
4.350000
 20
6.833336
 11
4.350000
 21
17.833336
  0
LINE
  8
0
 10
-35.349998
 20
6.833336
 11
-35.349998
 21
17.833336
  0
LINE
  8
0
 10
-35.115044
 20
-16.166668
 11
-35.115044
 21
6.833336
  0
LINE
  8
0
 10
4.115046
 20
-16.166668
 11
4.115046
 21
6.833336
  0
LINE
  8
0
 10
-8.000000
 20
-16.166668
 11
-8.000000
 21
6.833336
  0
LINE
  8
0
 10
-23.000000
 20
-16.166668
 11
-23.000000
 21
6.833336
  0
LINE
  8
0
  6
DASHED
 10
-3.500000
 20
1.818500
 11
5.499999
 21
2.099764
  0
LINE
  8
0
  6
DASHED
 10
-3.500001
 20
0.962080
 11
5.500000
 21
1.243344
  0
LINE
  8
0
  6
DASHED
 10
-3.500000
 20
-10.295411
 11
5.500001
 21
-10.576675
  0
LINE
  8
0
  6
DASHED
 10
-3.500000
 20
-11.151832
 11
5.500000
 21
-11.433096
  0
LINE
  8
0
  6
DASHED
 10
-27.500000
 20
-11.151833
 11
-36.500000
 21
-11.433097
  0
LINE
  8
0
  6
DASHED
 10
-27.500000
 20
-10.295412
 11
-36.500000
 21
-10.576676
  0
LINE
  8
0
  6
DASHED
 10
-27.500000
 20
0.962081
 11
-36.500000
 21
1.243345
  0
LINE
  8
0
  6
DASHED
 10
-27.500000
 20
1.818494
 11
-36.500000
 21
2.099758
  0
LINE
  8
0
  6
CENTER
 10
-40.177193
 20
-21.666668
 11
-33.399223
 21
-21.666668
  0
LINE
  8
0
 10
-37.000000
 20
-17.416668
 11
-37.000000
 21
-25.916668
  0
LINE
  8
0
 10
-37.979023
 20
-25.166668
 11
-37.000000
 21
-25.166668
  0
LINE
  8
0
 10
-37.979023
 20
-18.166668
 11
-37.000000
 21
-18.166668
  0
LINE
  8
0
 10
-37.000000
 20
-25.916668
 11
-36.549999
 21
-25.916668
  0
LINE
  8
0
 10
-37.000000
 20
-17.416668
 11
-36.549999
 21
-17.416668
  0
LINE
  8
0
 10
-17.549988
 20
-21.166637
 11
-17.549988
 21
-22.166637
  0
LINE
  8
0
 10
-13.450012
 20
-21.166637
 11
-13.450012
 21
-22.166637
  0
LINE
  8
0
 10
-16.000000
 20
-19.616650
 11
-15.000000
 21
-19.616650
  0
LINE
  8
0
 10
-16.000000
 20
-23.716656
 11
-15.000000
 21
-23.716656
  0
LINE
  8
0
 10
-16.000031
 20
-19.866650
 11
-16.000031
 21
-19.616650
  0
LINE
  8
0
 10
-13.700012
 20
-22.166653
 11
-13.450012
 21
-22.166653
  0
LINE
  8
0
 10
-15.000000
 20
-19.866650
 11
-15.000000
 21
-19.616650
  0
LINE
  8
0
 10
-13.700012
 20
-21.166668
 11
-13.450012
 21
-21.166668
  0
LINE
  8
0
 10
-17.549988
 20
-22.166653
 11
-17.299988
 21
-22.166653
  0
LINE
  8
0
 10
-17.549988
 20
-21.166668
 11
-17.299988
 21
-21.166668
  0
LINE
  8
0
 10
-16.000031
 20
-23.716656
 11
-16.000031
 21
-23.466656
  0
LINE
  8
0
 10
-15.000000
 20
-23.716656
 11
-15.000000
 21
-23.466656
  0
LINE
  8
0
 10
-37.000000
 20
-22.166666
 11
-36.549995
 21
-22.616667
  0
LINE
  8
0
 10
-37.000000
 20
-22.666666
 11
-36.549999
 21
-23.116665
  0
LINE
  8
0
 10
-37.000000
 20
-23.166666
 11
-36.549999
 21
-23.616667
  0
LINE
  8
0
 10
-37.000000
 20
-23.666668
 11
-36.549999
 21
-24.116667
  0
LINE
  8
0
 10
-37.000000
 20
-24.166668
 11
-36.549999
 21
-24.616667
  0
LINE
  8
0
 10
-37.000000
 20
-24.666668
 11
-36.549999
 21
-25.116667
  0
LINE
  8
0
 10
-37.000000
 20
-25.166670
 11
-36.549999
 21
-25.616669
  0
LINE
  8
0
 10
-37.000000
 20
-21.666666
 11
-36.549995
 21
-22.116667
  0
LINE
  8
0
 10
-37.000000
 20
-21.166664
 11
-36.549995
 21
-21.616667
  0
LINE
  8
0
 10
-37.000000
 20
-20.666668
 11
-36.549999
 21
-21.116669
  0
LINE
  8
0
 10
-37.000000
 20
-20.166670
 11
-36.549999
 21
-20.616669
  0
LINE
  8
0
 10
-37.000000
 20
-19.666668
 11
-36.549999
 21
-20.116667
  0
LINE
  8
0
 10
-37.000000
 20
-19.166668
 11
-36.549999
 21
-19.616667
  0
LINE
  8
0
 10
-37.000000
 20
-18.666668
 11
-36.549999
 21
-19.116667
  0
LINE
  8
0
 10
-37.000000
 20
-18.166668
 11
-36.549999
 21
-18.616667
  0
LINE
  8
0
 10
-37.000000
 20
-17.666666
 11
-36.549999
 21
-18.116665
  0
LINE
  8
0
  6
CENTER
 10
-15.500000
 20
26.862923
 11
-15.500000
 21
-33.137077
  0
LINE
  8
0
  6
CENTER
 10
-20.500000
 20
-21.666668
 11
-10.500000
 21
-21.666668
  0
LINE
  8
0
  6
CENTER
 10
9.177193
 20
-21.666668
 11
2.399223
 21
-21.666668
  0
LINE
  8
0
 10
6.000000
 20
-17.416668
 11
6.000000
 21
-25.916668
  0
LINE
  8
0
 10
6.979023
 20
-25.166668
 11
6.000000
 21
-25.166668
  0
LINE
  8
0
 10
6.979023
 20
-18.166668
 11
6.000000
 21
-18.166668
  0
LINE
  8
0
 10
6.000000
 20
-25.916668
 11
5.549999
 21
-25.916668
  0
LINE
  8
0
 10
6.000000
 20
-17.416668
 11
5.549999
 21
-17.416668
  0
LINE
  8
0
 10
5.999998
 20
-22.166666
 11
5.549999
 21
-22.616665
  0
LINE
  8
0
 10
5.999998
 20
-22.666666
 11
5.549999
 21
-23.116665
  0
LINE
  8
0
 10
5.999998
 20
-23.166666
 11
5.549999
 21
-23.616667
  0
LINE
  8
0
 10
5.999998
 20
-23.666668
 11
5.549999
 21
-24.116667
  0
LINE
  8
0
 10
5.999998
 20
-24.166668
 11
5.549999
 21
-24.616667
  0
LINE
  8
0
 10
6.000000
 20
-24.666664
 11
5.549998
 21
-25.116667
  0
LINE
  8
0
 10
6.000000
 20
-25.166664
 11
5.549998
 21
-25.616667
  0
LINE
  8
0
 10
6.000000
 20
-21.666666
 11
5.550001
 21
-22.116665
  0
LINE
  8
0
 10
6.000000
 20
-21.166666
 11
5.549998
 21
-21.616669
  0
LINE
  8
0
 10
6.000000
 20
-20.666666
 11
5.549998
 21
-21.116667
  0
LINE
  8
0
 10
6.000000
 20
-20.166666
 11
5.549998
 21
-20.616667
  0
LINE
  8
0
 10
6.000000
 20
-19.666664
 11
5.549998
 21
-20.116667
  0
LINE
  8
0
 10
5.999998
 20
-19.166668
 11
5.549999
 21
-19.616667
  0
LINE
  8
0
 10
5.999998
 20
-18.666668
 11
5.549999
 21
-19.116667
  0
LINE
  8
0
 10
5.999998
 20
-18.166668
 11
5.549999
 21
-18.616667
  0
LINE
  8
0
 10
5.999998
 20
-17.666666
 11
5.549999
 21
-18.116665
  0
LINE
  8
0
 10
-7.750000
 20
23.133331
 11
-23.250000
 21
23.133331
  0
LINE
  8
0
 10
-6.750000
 20
22.133331
 11
-6.750000
 21
17.833336
  0
LINE
  8
0
 10
-24.250000
 20
22.133331
 11
-24.250000
 21
17.833336
  0
LINE
  8
0
 10
-6.750000
 20
22.133331
 11
-10.250000
 21
22.133331
  0
LINE
  8
0
 10
-6.749999
 20
22.133333
 11
-7.750003
 21
23.133337
  0
LINE
  8
0
 10
-24.250000
 20
22.133335
 11
-23.250000
 21
23.133335
  0
LINE
  8
0
 10
-20.750000
 20
22.133331
 11
-24.250000
 21
22.133331
  0
LINE
  8
0
 10
-10.250000
 20
17.833336
 11
-10.250000
 21
22.133331
  0
LINE
  8
0
 10
-20.750000
 20
17.833336
 11
-20.750000
 21
22.133331
  0
LINE
  8
0
 10
-10.249998
 20
22.133329
 11
-12.173964
 21
23.133329
  0
LINE
  8
0
 10
-20.749996
 20
22.133329
 11
-18.826031
 21
23.133329
  0
LINE
  8
0
 10
-12.540909
 20
17.833334
 11
-20.750000
 21
22.133335
  0
LINE
  8
0
 10
-18.459089
 20
17.833334
 11
-10.249999
 21
22.133333
  0
LINE
  8
0
  6
CENTER
 10
-38.275772
 20
-4.666664
 11
6.994701
 21
-4.666664
  0
LINE
  8
0
 10
91.500000
 20
23.133331
 11
77.500000
 21
23.133331
  0
LINE
  8
0
 10
91.500000
 20
23.133331
 11
91.500000
 21
17.833336
  0
LINE
  8
0
 10
77.500000
 20
23.133331
 11
77.500000
 21
17.833336
  0
LINE
  8
0
 10
91.500000
 20
22.133331
 11
77.500000
 21
22.133331
  0
LINE
  8
0
  6
CENTER
 10
80.500000
 20
12.333336
 11
88.500000
 21
12.333336
  0
LINE
  8
0
  6
CENTER
 10
-19.500000
 20
12.333336
 11
-11.500000
 21
12.333336
  0
LINE
  8
0
 10
-10.860972
 20
-107.963882
 11
-10.295288
 21
-109.151543
  0
LINE
  8
0
 10
-20.139029
 20
-107.963875
 11
-20.704714
 21
-109.151543
  0
LINE
  8
0
 10
-7.454166
 20
-93.574623
 11
-7.454166
 21
-94.574623
  0
LINE
  8
0
 10
-2.907839
 20
-95.074623
 11
-6.954166
 21
-95.074623
  0
LINE
  8
0
 10
-2.907839
 20
-93.074623
 11
-6.954166
 21
-93.074623
  0
LINE
  8
0
 10
-6.954164
 20
-93.074623
 11
-7.454165
 21
-93.574623
  0
LINE
  8
0
 10
-6.954169
 20
-95.074623
 11
-7.454170
 21
-94.574623
  0
LINE
  8
0
 10
-1.759094
 20
-94.574623
 11
-7.454166
 21
-94.574623
  0
LINE
  8
0
 10
-1.759094
 20
-93.574623
 11
-7.454166
 21
-93.574623
  0
LINE
  8
0
 10
-16.000000
 20
-86.028786
 11
-15.000000
 21
-86.028786
  0
LINE
  8
0
 10
-14.500000
 20
-81.482460
 11
-14.500000
 21
-85.528786
  0
LINE
  8
0
 10
-16.500000
 20
-81.482460
 11
-16.500000
 21
-85.528786
  0
LINE
  8
0
 10
-16.499998
 20
-85.528793
 11
-16.000000
 21
-86.028786
  0
LINE
  8
0
 10
-14.500001
 20
-85.528793
 11
-15.000001
 21
-86.028793
  0
LINE
  8
0
 10
-15.000000
 20
-80.333717
 11
-15.000000
 21
-86.028786
  0
LINE
  8
0
 10
-16.000000
 20
-80.333717
 11
-16.000000
 21
-86.028786
  0
LINE
  8
0
 10
-23.545834
 20
-94.574623
 11
-23.545834
 21
-93.574623
  0
LINE
  8
0
 10
-28.092159
 20
-93.074623
 11
-24.045834
 21
-93.074623
  0
LINE
  8
0
 10
-28.092159
 20
-95.074623
 11
-24.045834
 21
-95.074623
  0
LINE
  8
0
 10
-24.045832
 20
-95.074623
 11
-23.545832
 21
-94.574623
  0
LINE
  8
0
 10
-24.045835
 20
-93.074623
 11
-23.545834
 21
-93.574623
  0
LINE
  8
0
 10
-29.240906
 20
-93.574623
 11
-23.545834
 21
-93.574623
  0
LINE
  8
0
 10
-29.240906
 20
-94.574623
 11
-23.545834
 21
-94.574623
  0
LINE
  8
0
 10
-15.000000
 20
-102.120453
 11
-16.000000
 21
-102.120453
  0
LINE
  8
0
 10
-16.500000
 20
-106.666779
 11
-16.500000
 21
-102.620453
  0
LINE
  8
0
 10
-14.500000
 20
-106.666779
 11
-14.500000
 21
-102.620453
  0
LINE
  8
0
 10
-14.500004
 20
-102.620461
 11
-15.000002
 21
-102.120461
  0
LINE
  8
0
 10
-16.500002
 20
-102.620461
 11
-16.000000
 21
-102.120461
  0
LINE
  8
0
 10
-16.000000
 20
-107.815529
 11
-16.000000
 21
-102.120453
  0
LINE
  8
0
 10
-15.000000
 20
-107.815529
 11
-15.000000
 21
-102.120453
  0
LINE
  8
0
 10
6.000000
 20
83.930603
 11
6.000000
 21
92.430603
  0
LINE
  8
0
 10
6.979025
 20
91.680603
 11
6.000000
 21
91.680603
  0
LINE
  8
0
 10
6.979025
 20
84.680603
 11
6.000000
 21
84.680603
  0
LINE
  8
0
 10
5.549999
 20
83.930603
 11
5.549999
 21
92.430603
  0
LINE
  8
0
 10
6.000000
 20
92.430603
 11
5.549999
 21
92.430603
  0
LINE
  8
0
 10
6.000000
 20
83.930603
 11
5.549999
 21
83.930603
  0
LINE
  8
0
 10
6.000001
 20
88.680595
 11
5.549999
 21
89.130600
  0
LINE
  8
0
 10
6.000006
 20
89.180603
 11
5.550005
 21
89.630608
  0
LINE
  8
0
 10
6.000001
 20
89.680603
 11
5.549999
 21
90.130600
  0
LINE
  8
0
 10
6.000006
 20
90.180603
 11
5.550005
 21
90.630608
  0
LINE
  8
0
 10
6.000001
 20
90.680603
 11
5.549999
 21
91.130600
  0
LINE
  8
0
 10
6.000006
 20
91.180603
 11
5.550005
 21
91.630608
  0
LINE
  8
0
 10
6.000001
 20
91.680603
 11
5.549999
 21
92.130600
  0
LINE
  8
0
 10
6.000006
 20
88.180603
 11
5.550005
 21
88.630608
  0
LINE
  8
0
 10
6.000001
 20
87.680595
 11
5.549999
 21
88.130600
  0
LINE
  8
0
 10
6.000006
 20
87.180603
 11
5.550005
 21
87.630608
  0
LINE
  8
0
 10
6.000001
 20
86.680595
 11
5.549999
 21
87.130600
  0
LINE
  8
0
 10
6.000006
 20
86.180603
 11
5.550005
 21
86.630600
  0
LINE
  8
0
 10
6.000001
 20
85.680595
 11
5.549999
 21
86.130600
  0
LINE
  8
0
 10
6.000006
 20
85.180603
 11
5.550005
 21
85.630600
  0
LINE
  8
0
 10
5.999996
 20
84.680603
 11
5.549999
 21
85.130592
  0
LINE
  8
0
 10
6.000001
 20
84.180603
 11
5.550005
 21
84.630600
  0
LINE
  8
0
 10
-19.750000
 20
66.680603
 11
-11.250000
 21
66.680603
  0
LINE
  8
0
 10
-12.000000
 20
65.701569
 11
-12.000000
 21
66.680603
  0
LINE
  8
0
 10
-19.000000
 20
65.701569
 11
-19.000000
 21
66.680603
  0
LINE
  8
0
 10
-19.750000
 20
67.130600
 11
-11.250000
 21
67.130600
  0
LINE
  8
0
 10
-11.250000
 20
66.680603
 11
-11.250000
 21
67.130600
  0
LINE
  8
0
 10
-19.750000
 20
66.680603
 11
-19.750000
 21
67.130600
  0
LINE
  8
0
 10
-15.000000
 20
66.680595
 11
-14.549998
 21
67.130600
  0
LINE
  8
0
 10
-14.499999
 20
66.680595
 11
-14.049997
 21
67.130600
  0
LINE
  8
0
 10
-13.999999
 20
66.680595
 11
-13.549997
 21
67.130600
  0
LINE
  8
0
 10
-13.499998
 20
66.680595
 11
-13.049996
 21
67.130600
  0
LINE
  8
0
 10
-12.999998
 20
66.680595
 11
-12.549996
 21
67.130600
  0
LINE
  8
0
 10
-12.499997
 20
66.680595
 11
-12.049995
 21
67.130600
  0
LINE
  8
0
 10
-12.000002
 20
66.680603
 11
-11.550000
 21
67.130600
  0
LINE
  8
0
 10
-15.500000
 20
66.680595
 11
-15.049998
 21
67.130600
  0
LINE
  8
0
 10
-16.000000
 20
66.680595
 11
-15.549999
 21
67.130600
  0
LINE
  8
0
 10
-16.500002
 20
66.680595
 11
-16.049999
 21
67.130600
  0
LINE
  8
0
 10
-17.000002
 20
66.680595
 11
-16.550001
 21
67.130600
  0
LINE
  8
0
 10
-17.499996
 20
66.680603
 11
-17.050001
 21
67.130600
  0
LINE
  8
0
 10
-17.999998
 20
66.680603
 11
-17.550001
 21
67.130600
  0
LINE
  8
0
 10
-18.499998
 20
66.680603
 11
-18.050001
 21
67.130600
  0
LINE
  8
0
 10
-18.999998
 20
66.680603
 11
-18.550003
 21
67.130600
  0
LINE
  8
0
 10
-19.500000
 20
66.680603
 11
-19.050003
 21
67.130600
  0
LINE
  8
0
 10
-37.000000
 20
92.430603
 11
-37.000000
 21
83.930603
  0
LINE
  8
0
 10
-37.979027
 20
84.680603
 11
-37.000000
 21
84.680603
  0
LINE
  8
0
 10
-37.979027
 20
91.680603
 11
-37.000000
 21
91.680603
  0
LINE
  8
0
 10
-36.549999
 20
92.430603
 11
-36.549999
 21
83.930603
  0
LINE
  8
0
 10
-37.000000
 20
83.930603
 11
-36.549999
 21
83.930603
  0
LINE
  8
0
 10
-37.000000
 20
92.430603
 11
-36.549999
 21
92.430603
  0
LINE
  8
0
 10
-37.000008
 20
87.680603
 11
-36.550007
 21
87.230598
  0
LINE
  8
0
 10
-37.000000
 20
87.180595
 11
-36.549999
 21
86.730598
  0
LINE
  8
0
 10
-37.000008
 20
86.680603
 11
-36.550007
 21
86.230598
  0
LINE
  8
0
 10
-36.999996
 20
86.180603
 11
-36.549995
 21
85.730598
  0
LINE
  8
0
 10
-37.000000
 20
85.680603
 11
-36.549999
 21
85.230606
  0
LINE
  8
0
 10
-36.999996
 20
85.180603
 11
-36.549995
 21
84.730598
  0
LINE
  8
0
 10
-37.000000
 20
84.680603
 11
-36.549999
 21
84.230606
  0
LINE
  8
0
 10
-37.000000
 20
88.180595
 11
-36.549999
 21
87.730598
  0
LINE
  8
0
 10
-37.000008
 20
88.680603
 11
-36.550007
 21
88.230606
  0
LINE
  8
0
 10
-37.000000
 20
89.180595
 11
-36.549999
 21
88.730598
  0
LINE
  8
0
 10
-37.000008
 20
89.680603
 11
-36.550007
 21
89.230606
  0
LINE
  8
0
 10
-37.000000
 20
90.180603
 11
-36.549999
 21
89.730598
  0
LINE
  8
0
 10
-37.000008
 20
90.680603
 11
-36.550007
 21
90.230606
  0
LINE
  8
0
 10
-37.000000
 20
91.180603
 11
-36.549999
 21
90.730598
  0
LINE
  8
0
 10
-37.000008
 20
91.680611
 11
-36.550007
 21
91.230606
  0
LINE
  8
0
 10
-37.000000
 20
92.180603
 11
-36.549999
 21
91.730598
  0
LINE
  8
0
  6
CENTER
 10
-35.500000
 20
-26.057878
 11
-35.500000
 21
-33.137077
  0
LINE
  8
0
  6
CENTER
 10
4.500000
 20
-26.057878
 11
4.500000
 21
-33.137077
  0
LINE
  8
0
  6
CENTER
 10
64.500000
 20
-26.057878
 11
64.500000
 21
-33.137077
  0
LINE
  8
0
  6
CENTER
 10
104.500000
 20
-26.057878
 11
104.500000
 21
-33.137077
  0
ARC
  8
0
 10
5.000000
 20
67.680603
 40
8.000000
 50
270.000000
 51
0.000000
  0
ARC
  8
0
 10
-36.000000
 20
67.680603
 40
8.000000
 50
180.000000
 51
270.000000
  0
ARC
  8
0
 10
-36.000000
 20
108.680603
 40
8.000000
 50
90.000000
 51
180.000000
  0
ARC
  8
0
 10
5.000000
 20
108.680603
 40
8.000000
 50
0.000000
 51
90.000000
  0
CIRCLE
  8
0
 10
4.500000
 20
108.180603
 40
2.750000
  0
CIRCLE
  8
0
 10
-35.500000
 20
108.180603
 40
2.750000
  0
CIRCLE
  8
0
 10
4.500000
 20
68.180603
 40
2.750000
  0
CIRCLE
  8
0
 10
-35.500000
 20
68.180603
 40
2.750000
  0
ARC
  8
0
 10
61.449997
 20
-26.966671
 40
2.000000
 50
270.000000
 51
0.000000
  0
ARC
  8
0
 10
107.550003
 20
-26.966671
 40
2.000000
 50
180.000000
 51
270.000000
  0
CIRCLE
  8
0
 10
-15.500000
 20
88.180603
 40
19.850000
  0
ARC
  8
0
 10
-15.500000
 20
88.180603
 40
20.999998
 50
20.924833
 51
159.075165
  0
ARC
  8
0
 10
-15.500000
 20
88.180603
 40
20.999998
 50
290.924835
 51
339.075165
  0
ARC
  8
0
 10
-15.500000
 20
88.180603
 40
20.999998
 50
200.924835
 51
249.075165
  0
CIRCLE
  8
0
 10
84.500000
 20
-4.666664
 40
6.578500
  0
CIRCLE
  8
0
 10
84.500000
 20
-4.666664
 40
5.722500
  0
CIRCLE
  8
0
 10
84.500000
 20
12.333336
 40
2.000000
  0
CIRCLE
  8
0
 10
84.500000
 20
12.333336
 40
1.621000
  0
ARC
  8
0
 10
69.400002
 20
-21.666668
 40
8.999998
 50
163.398453
 51
196.601547
  0
ARC
  8
0
 10
62.020981
 20
-23.866665
 40
1.299999
 50
196.601608
 51
270.000000
  0
ARC
  8
0
 10
62.020981
 20
-19.466667
 40
1.299999
 50
90.000000
 51
163.398392
  0
CIRCLE
  8
0
 10
84.500000
 20
-21.666668
 40
3.500000
  0
CIRCLE
  8
0
 10
84.500000
 20
-21.666668
 40
4.250000
  0
ARC
  8
0
 10
86.299988
 20
-19.866665
 40
1.300003
 50
180.000000
 51
270.000000
  0
ARC
  8
0
 10
82.700012
 20
-19.866665
 40
1.299999
 50
270.000000
 51
0.000000
  0
ARC
  8
0
 10
82.700012
 20
-23.466671
 40
1.300003
 50
0.000000
 51
90.000000
  0
ARC
  8
0
 10
86.299988
 20
-23.466671
 40
1.299999
 50
90.000000
 51
180.000000
  0
ARC
  8
0
 10
99.599998
 20
-21.666668
 40
8.999998
 50
343.398437
 51
16.601551
  0
ARC
  8
0
 10
106.979027
 20
-23.866665
 40
1.299999
 50
270.000000
 51
343.398437
  0
ARC
  8
0
 10
106.979027
 20
-19.466667
 40
1.300002
 50
16.601559
 51
90.000000
  0
ARC
  8
0
 10
5.000000
 20
-114.574623
 40
8.000000
 50
270.000000
 51
0.000000
  0
ARC
  8
0
 10
-36.000000
 20
-114.574623
 40
8.000000
 50
180.000000
 51
270.000000
  0
ARC
  8
0
 10
-36.000000
 20
-73.574623
 40
8.000000
 50
90.000000
 51
180.000000
  0
ARC
  8
0
 10
5.000000
 20
-73.574623
 40
8.000000
 50
0.000000
 51
90.000000
  0
CIRCLE
  8
0
 10
4.500000
 20
-74.074623
 40
2.750000
  0
CIRCLE
  8
0
 10
-35.500000
 20
-74.074623
 40
2.750000
  0
CIRCLE
  8
0
 10
4.500000
 20
-114.074623
 40
2.750000
  0
CIRCLE
  8
0
 10
-35.500000
 20
-114.074623
 40
2.750000
  0
CIRCLE
  8
0
 10
-15.500000
 20
88.180603
 40
15.950000
  0
ARC
  8
0
 10
-15.500000
 20
87.280594
 40
15.000000
 50
308.555725
 51
231.444260
  0
CIRCLE
  8
0
 10
-21.750000
 20
75.058655
 40
1.000000
  0
ARC
  8
0
 10
-21.750000
 20
75.058655
 40
1.784375
 50
334.531372
 51
152.772629
  0
CIRCLE
  8
0
 10
-9.250000
 20
75.058655
 40
1.000000
  0
ARC
  8
0
 10
-9.250000
 20
75.058655
 40
1.784373
 50
27.227362
 51
205.468613
  0
ARC
  8
0
 10
-24.225859
 20
76.332565
 40
1.000003
 50
231.444366
 51
332.772430
  0
ARC
  8
0
 10
-6.774141
 20
76.332565
 40
1.000002
 50
207.227615
 51
308.555634
  0
ARC
  8
0
 10
-15.500000
 20
88.180603
 40
15.799997
 50
251.016022
 51
288.983978
  0
CIRCLE
  8
0
 10
-15.500000
 20
88.180603
 40
8.750000
  0
ARC
  8
0
 10
-15.500000
 20
88.180603
 40
7.750000
 50
115.414627
 51
244.585388
  0
ARC
  8
0
 10
-15.500000
 20
88.180603
 40
7.750000
 50
295.414612
 51
64.585388
  0
CIRCLE
  8
0
 10
-15.500000
 20
88.180603
 40
4.864000
  0
CIRCLE
  8
0
 10
-15.500000
 20
88.180603
 40
4.283000
  0
CIRCLE
  8
0
 10
-15.500000
 20
88.180603
 40
16.450001
  0
ARC
  8
0
 10
-15.500000
 20
88.180603
 40
15.500004
 50
251.016022
 51
288.983978
  0
ARC
  8
0
 10
-38.549999
 20
-26.966671
 40
2.000000
 50
270.000000
 51
0.000000
  0
ARC
  8
0
 10
7.549999
 20
-26.966671
 40
2.000000
 50
180.000000
 51
270.000000
  0
CIRCLE
  8
0
 10
-15.500000
 20
-4.666664
 40
6.578500
  0
CIRCLE
  8
0
 10
-15.500000
 20
-4.666664
 40
5.722500
  0
CIRCLE
  8
0
 10
-15.500000
 20
12.333336
 40
2.000000
  0
CIRCLE
  8
0
 10
-15.500000
 20
12.333336
 40
1.621000
  0
ARC
  8
0
 10
-30.599998
 20
-21.666668
 40
8.999998
 50
163.398453
 51
196.601547
  0
ARC
  8
0
 10
-37.979023
 20
-23.866665
 40
1.299999
 50
196.601608
 51
270.000000
  0
ARC
  8
0
 10
-37.979023
 20
-19.466667
 40
1.299999
 50
90.000000
 51
163.398392
  0
CIRCLE
  8
0
 10
-15.500000
 20
-21.666668
 40
3.500000
  0
CIRCLE
  8
0
 10
-15.500000
 20
-21.666668
 40
4.250000
  0
ARC
  8
0
 10
-13.700012
 20
-19.866665
 40
1.300000
 50
180.000000
 51
270.000000
  0
ARC
  8
0
 10
-17.299988
 20
-19.866665
 40
1.299999
 50
270.000000
 51
0.000000
  0
ARC
  8
0
 10
-17.299988
 20
-23.466671
 40
1.300000
 50
0.000000
 51
90.000000
  0
ARC
  8
0
 10
-13.700012
 20
-23.466671
 40
1.299999
 50
90.000000
 51
180.000000
  0
ARC
  8
0
 10
-0.400002
 20
-21.666668
 40
9.000000
 50
343.398468
 51
16.601549
  0
ARC
  8
0
 10
6.979023
 20
-23.866665
 40
1.299999
 50
270.000000
 51
343.398407
  0
ARC
  8
0
 10
6.979023
 20
-19.466667
 40
1.300001
 50
16.601583
 51
90.000000
  0
CIRCLE
  8
0
 10
-15.500000
 20
-94.074623
 40
19.850000
  0
CIRCLE
  8
0
 10
-15.500000
 20
-94.074623
 40
15.950000
  0
CIRCLE
  8
0
 10
-15.500000
 20
-94.074623
 40
16.450001
  0
CIRCLE
  8
0
 10
-9.250000
 20
-107.196571
 40
1.000000
  0
ARC
  8
0
 10
-9.250000
 20
-107.196571
 40
1.784373
 50
27.227362
 51
205.468613
  0
ARC
  8
0
 10
-6.774141
 20
-105.922653
 40
1.000002
 50
207.227615
 51
308.555634
  0
ARC
  8
0
 10
-15.500000
 20
-94.974625
 40
15.000000
 50
308.555725
 51
231.444260
  0
ARC
  8
0
 10
-24.225859
 20
-105.922653
 40
1.000003
 50
231.444366
 51
332.772430
  0
ARC
  8
0
 10
-21.750000
 20
-107.196571
 40
1.784375
 50
334.531372
 51
152.772629
  0
CIRCLE
  8
0
 10
-21.750000
 20
-107.196571
 40
1.000000
  0
ARC
  8
0
 10
-15.500000
 20
-94.074623
 40
15.799997
 50
251.016022
 51
288.983978
  0
ARC
  8
0
 10
-15.500000
 20
-94.074623
 40
13.749998
 50
301.967834
 51
238.032166
  0
ARC
  8
0
 10
-2.907839
 20
-92.074623
 40
1.000000
 50
270.000000
 51
9.024711
  0
ARC
  8
0
 10
-2.907839
 20
-96.074623
 40
1.000000
 50
350.975281
 51
90.000000
  0
ARC
  8
0
 10
-17.500000
 20
-81.482460
 40
1.000000
 50
0.000000
 51
99.024841
  0
ARC
  8
0
 10
-13.500000
 20
-81.482460
 40
0.999997
 50
80.975159
 51
180.000000
  0
ARC
  8
0
 10
-28.092159
 20
-96.074623
 40
1.000000
 50
90.000000
 51
189.024704
  0
ARC
  8
0
 10
-28.092159
 20
-92.074623
 40
1.000000
 50
170.975296
 51
270.000000
  0
ARC
  8
0
 10
-13.500000
 20
-106.666779
 40
1.000000
 50
180.000000
 51
279.024841
  0
ARC
  8
0
 10
-17.500000
 20
-106.666779
 40
0.999997
 50
260.975159
 51
0.000000
  0
CIRCLE
  8
0
 10
-15.500000
 20
-94.074623
 40
6.350000
  0
CIRCLE
  8
0
 10
-15.500000
 20
-94.074623
 40
4.000000
  0
ARC
  8
0
 10
-15.500000
 20
-94.074623
 40
13.749997
 50
251.030777
 51
288.969208
  0
ARC
  8
0
 10
-0.400000
 20
88.180603
 40
8.999999
 50
343.398468
 51
16.601536
  0
ARC
  8
0
 10
6.979025
 20
90.380600
 40
1.300001
 50
16.601583
 51
90.000000
  0
ARC
  8
0
 10
6.979025
 20
85.980606
 40
1.300003
 50
270.000000
 51
343.398407
  0
ARC
  8
0
 10
-15.500000
 20
73.080597
 40
8.999998
 50
253.398468
 51
286.601532
  0
ARC
  8
0
 10
-13.299999
 20
65.701569
 40
1.300002
 50
286.601532
 51
0.000000
  0
ARC
  8
0
 10
-17.700001
 20
65.701569
 40
1.299999
 50
180.000000
 51
253.398514
  0
ARC
  8
0
 10
-30.599998
 20
88.180603
 40
8.999998
 50
163.398468
 51
196.601532
  0
ARC
  8
0
 10
-37.979027
 20
85.980606
 40
1.299999
 50
196.601608
 51
270.000000
  0
ARC
  8
0
 10
-37.979027
 20
90.380600
 40
1.300003
 50
90.000000
 51
163.398392
  0
TEXT
  8
0
 10
160.213089
 20
165.487701
 40
6.000000
  1
DATE : AUG ,1992
 50
0.000000
 41
1.052631
 51
0.000000
  7
STANDARD
  0
TEXT
  8
0
 10
-223.064621
 20
164.587692
 40
7.000000
  1
250A
 50
0.000000
 41
1.052632
 51
0.000000
  7
STANDARD
  0
TEXT
  8
0
 10
-231.347122
 20
125.665039
 40
7.000000
  1
MODEL : 250A
 50
0.000000
 41
1.052632
 51
0.000000
  7
STANDARD
  0
TEXT
  8
0
 10
164.072052
 20
-175.114059
 40
6.800000
  1
KOGANEI,CORP
 50
0.000000
 41
1.052632
 51
0.000000
  7
STANDARD
  0
TEXT
  8
0
 10
-64.005699
 20
-98.395973
 40
6.800000
  1
A
 50
0.000000
 41
1.052632
 51
0.000000
  7
STANDARD
  0
TEXT
  8
0
 10
-19.851398
 20
-57.001305
 40
6.800000
  1
R
 50
0.000000
 41
1.052632
 51
0.000000
  7
STANDARD
  0
TEXT
  8
0
 10
-56.830631
 20
-8.983502
 40
6.800000
  1
A
 50
0.000000
 41
1.052632
 51
0.000000
  7
STANDARD
  0
TEXT
  8
0
 10
19.335546
 20
-8.983502
 40
6.800000
  1
P
 50
0.000000
 41
1.052632
 51
0.000000
  7
STANDARD
  0
TEXT
  8
0
 10
-27.578402
 20
5.366647
 40
6.800000
  1
R
 50
0.000000
 41
1.052632
 51
0.000000
  7
STANDARD
  0
LINE
  8
0
 10
84.499992
 20
23.133327
 11
94.499992
 21
40.453835
  0
LINE
  8
0
 10
94.499992
 20
40.453835
 11
113.888916
 21
40.453838
  0
LINE
  8
0
 10
84.499992
 20
23.133327
 11
86.621315
 21
25.254648
  0
LINE
  8
0
 10
84.499992
 20
23.133327
 11
85.276451
 21
26.031105
  0
TEXT
  8
0
 10
97.224632
 20
41.453838
 40
3.200000
  1
RC1/8
 50
0.000000
 41
1.052632
 51
0.000000
  7
STANDARD
  0
LINE
  8
0
 10
87.753021
 20
1.064785
 11
100.253014
 21
22.715416
  0
LINE
  8
0
 10
100.253014
 20
22.715416
 11
124.899719
 21
22.715418
  0
LINE
  8
0
 10
87.753021
 20
1.064785
 11
89.874344
 21
3.186106
  0
LINE
  8
0
 10
87.753021
 20
1.064785
 11
88.529480
 21
3.962563
  0
TEXT
  8
0
 10
101.835434
 20
23.715418
 40
3.200000
  1
3-RC1/4
 50
0.000000
 41
1.052632
 51
0.000000
  7
STANDARD
  0
ENDSEC
  0
EOF
