  0
SECTION
  2
HEADER
  9
$ACADVER
  1
AC1009
  9
$DWGCODEPAGE
  3
dos932
  9
$INSBASE
 10
0.0
 20
0.0
 30
0.0
  9
$EXTMIN
 10
-194.25
 20
-133.5
 30
0.0
  9
$EXTMAX
 10
194.80000305
 20
132.6000061
 30
0.0
  9
$LIMMIN
 10
-210.0
 20
-148.5
  9
$LIMMAX
 10
210.0
 20
148.5
  9
$ORTHOMODE
 70
       0
  9
$REGENMODE
 70
       1
  9
$FILLMODE
 70
       1
  9
$QTEXTMODE
 70
       0
  9
$MIRRTEXT
 70
       1
  9
$DRAGMODE
 70
       2
  9
$LTSCALE
 40
1.0
  9
$OSMODE
 70
       0
  9
$ATTMODE
 70
       1
  9
$TEXTSIZE
 40
3.20000005
  9
$TRACEWID
 40
0.05
  9
$TEXTSTYLE
  7
MX_NOTE_STANDARD
  9
$CLAYER
  8
0
  9
$CELTYPE
  6
CONTINUOUS
  9
$CECOLOR
 62
     256
  9
$DIMSCALE
 40
1.0
  9
$DIMASZ
 40
2.5
  9
$DIMEXO
 40
1.5
  9
$DIMDLI
 40
3.75
  9
$DIMRND
 40
0.0
  9
$DIMDLE
 40
0.0
  9
$DIMEXE
 40
1.5
  9
$DIMTP
 40
0.0
  9
$DIMTM
 40
0.0
  9
$DIMTXT
 40
3.20000005
  9
$DIMCEN
 40
2.5
  9
$DIMTSZ
 40
0.0
  9
$DIMTOL
 70
       0
  9
$DIMLIM
 70
       0
  9
$DIMTIH
 70
       0
  9
$DIMTOH
 70
       0
  9
$DIMSE1
 70
       0
  9
$DIMSE2
 70
       0
  9
$DIMTAD
 70
       1
  9
$DIMZIN
 70
       8
  9
$DIMBLK
  1

  9
$DIMASO
 70
       1
  9
$DIMSHO
 70
       1
  9
$DIMPOST
  1

  9
$DIMAPOST
  1

  9
$DIMALT
 70
       0
  9
$DIMALTD
 70
       4
  9
$DIMALTF
 40
0.03937008
  9
$DIMLFAC
 40
1.0
  9
$DIMTOFL
 70
       1
  9
$DIMTVP
 40
0.0
  9
$DIMTIX
 70
       0
  9
$DIMSOXD
 70
       0
  9
$DIMSAH
 70
       1
  9
$DIMBLK1
  1
_OPEN30
  9
$DIMBLK2
  1
_OPEN30
  9
$DIMSTYLE
  2
MXDIMSTYLE
  9
$DIMCLRD
 70
       0
  9
$DIMCLRE
 70
       0
  9
$DIMCLRT
 70
       0
  9
$DIMTFAC
 40
1.0
  9
$DIMGAP
 40
1.0
  9
$LUNITS
 70
       2
  9
$LUPREC
 70
       4
  9
$AXISMODE
 70
       0
  9
$AXISUNIT
 10
0.0
 20
0.0
  9
$SKETCHINC
 40
0.1
  9
$FILLETRAD
 40
0.0
  9
$AUNITS
 70
       0
  9
$AUPREC
 70
       0
  9
$MENU
  1
acad
  9
$ELEVATION
 40
0.0
  9
$PELEVATION
 40
0.0
  9
$THICKNESS
 40
0.0
  9
$LIMCHECK
 70
       0
  9
$BLIPMODE
 70
       1
  9
$CHAMFERA
 40
0.0
  9
$CHAMFERB
 40
0.0
  9
$SKPOLY
 70
       0
  9
$TDCREATE
 40
2454216.748229167
  9
$TDUPDATE
 40
2454216.748229167
  9
$TDINDWG
 40
0.0000000000
  9
$TDUSRTIMER
 40
0.0000000000
  9
$USRTIMER
 70
       1
  9
$ANGBASE
 50
0.0
  9
$ANGDIR
 70
       0
  9
$PDMODE
 70
       0
  9
$PDSIZE
 40
0.0
  9
$PLINEWID
 40
0.0
  9
$COORDS
 70
       1
  9
$SPLFRAME
 70
       0
  9
$SPLINETYPE
 70
       6
  9
$SPLINESEGS
 70
       8
  9
$ATTDIA
 70
       0
  9
$ATTREQ
 70
       1
  9
$HANDLING
 70
       1
  9
$HANDSEED
  5
FD
  9
$SURFTAB1
 70
       6
  9
$SURFTAB2
 70
       6
  9
$SURFTYPE
 70
       6
  9
$SURFU
 70
       6
  9
$SURFV
 70
       6
  9
$UCSNAME
  2

  9
$UCSORG
 10
0.0
 20
0.0
 30
0.0
  9
$UCSXDIR
 10
1.0
 20
0.0
 30
0.0
  9
$UCSYDIR
 10
0.0
 20
1.0
 30
0.0
  9
$PUCSNAME
  2

  9
$PUCSORG
 10
0.0
 20
0.0
 30
0.0
  9
$PUCSXDIR
 10
1.0
 20
0.0
 30
0.0
  9
$PUCSYDIR
 10
0.0
 20
1.0
 30
0.0
  9
$USERI1
 70
       0
  9
$USERI2
 70
       0
  9
$USERI3
 70
       0
  9
$USERI4
 70
       0
  9
$USERI5
 70
       0
  9
$USERR1
 40
0.0
  9
$USERR2
 40
0.0
  9
$USERR3
 40
0.0
  9
$USERR4
 40
0.0
  9
$USERR5
 40
0.0
  9
$WORLDVIEW
 70
       1
  9
$SHADEDGE
 70
       3
  9
$SHADEDIF
 70
      70
  9
$TILEMODE
 70
       1
  9
$MAXACTVP
 70
      16
  9
$PINSBASE
 10
0.0
 20
0.0
 30
0.0
  9
$PLIMCHECK
 70
       0
  9
$PEXTMIN
 10
1.00000000E+20
 20
1.00000000E+20
 30
1.00000000E+20
  9
$PEXTMAX
 10
-1.00000000E+20
 20
-1.00000000E+20
 30
-1.00000000E+20
  9
$PLIMMIN
 10
0.0
 20
0.0
  9
$PLIMMAX
 10
12.0
 20
9.0
  9
$UNITMODE
 70
       0
  9
$VISRETAIN
 70
       0
  9
$PLINEGEN
 70
       1
  9
$PSLTSCALE
 70
       0
  9
$TREEDEPTH
 70
    3020
  0
ENDSEC
  0
SECTION
  2
TABLES
  0
TABLE
  2
VPORT
 70
       1
  0
VPORT
  2
*ACTIVE
 70
       0
 10
0.0
 20
0.0
 11
1.0
 21
1.0
 12
0.0
 22
0.0
 13
0.0
 23
0.0
 14
1.0
 24
1.0
 15
0.0
 25
0.0
 16
0.0
 26
0.0
 36
1.0
 17
0.0
 27
0.0
 37
0.0
 40
299.97
 41
1.73205081
 42
50.0
 43
0.0
 44
0.0
 50
0.0
 51
0.0
 71
       0
 72
     100
 73
       1
 74
       1
 75
       0
 76
       0
 77
       0
 78
       0
  0
ENDTAB
  0
TABLE
  2
LTYPE
 70
       1
  0
LTYPE
  2
CONTINUOUS
 70
      64
  3
Solid line
 72
      65
 73
       0
 40
0.0
  0
ENDTAB
  0
TABLE
  2
LAYER
 70
       2
  0
LAYER
  2
0
 70
       0
 62
       7
  6
CONTINUOUS
  0
LAYER
  2
DEFPOINTS
 70
       0
 62
       7
  6
CONTINUOUS
  0
ENDTAB
  0
TABLE
  2
STYLE
 70
       1
  0
STYLE
  2
MX_NOTE_STANDARD
 70
       0
 40
0.0
 41
1.0
 50
0.0
 71
       0
 42
3.20000005
  3
txt.shx
  4
extfont.shx
  0
ENDTAB
  0
TABLE
  2
VIEW
 70
       0
  0
ENDTAB
  0
TABLE
  2
UCS
 70
       0
  0
ENDTAB
  0
TABLE
  2
APPID
 70
       1
  0
APPID
  2
ACAD
 70
       0
  0
ENDTAB
  0
TABLE
  2
DIMSTYLE
 70
       1
  0
DIMSTYLE
  2
MXDIMSTYLE
 70
       0
  3

  4

  5

  6
_OPEN30
  7
_OPEN30
 40
1.0
 41
2.5
 42
1.5
 43
3.75
 44
1.5
 45
0.0
 46
0.0
 47
0.0
 48
0.0
 71
       0
 72
       0
 73
       0
 74
       0
 75
       0
 76
       0
 77
       1
 78
       8
140
3.20000005
141
2.5
142
0.0
143
0.03937008
144
1.0
145
0.0
146
1.0
147
1.0
170
       0
171
       4
172
       1
173
       1
174
       0
175
       0
176
       0
177
       0
178
       0
  0
ENDTAB
  0
ENDSEC
  0
SECTION
  2
BLOCKS
  0
BLOCK
  8
0
  6
BYBLOCK
 62
       0
  5
1F
  2
_OPEN30
 70
       2
 10
0.0
 20
0.0
 30
0.0
  3
_OPEN30
  0
LINE
  8
0
  6
BYBLOCK
 62
       0
  5
20
 10
-1.0
 20
0.267949
 30
0.0
 11
0.0
 21
0.0
 31
0.0
  0
LINE
  8
0
  6
BYBLOCK
 62
       0
  5
21
 10
0.0
 20
0.0
 30
0.0
 11
-1.0
 21
-0.267949
 31
0.0
  0
LINE
  8
0
  6
BYBLOCK
 62
       0
  5
22
 10
0.0
 20
0.0
 30
0.0
 11
-1.0
 21
0.0
 31
0.0
  0
ENDBLK
  8
0
  6
BYBLOCK
 62
       0
  5
23
  0
ENDSEC
  0
SECTION
  2
ENTITIES
  0
POLYLINE
  8
0
  6
CONTINUOUS
 62
       2
  5
24
 66
       1
 10
0.0
 20
0.0
 30
0.0
  0
VERTEX
  8
0
  6
CONTINUOUS
 62
       2
  5
F8
 10
52.52625396
 20
37.27341981
 30
0.0
  0
VERTEX
  8
0
  6
CONTINUOUS
 62
       2
  5
F9
 10
48.35269761
 20
27.69227138
 30
0.0
  0
VERTEX
  8
0
  6
CONTINUOUS
 62
       2
  5
FA
 10
41.07637727
 20
27.69227138
 30
0.0
  0
SEQEND
  8
0
  6
CONTINUOUS
 62
       2
  5
FB
  0
INSERT
  8
0
  6
CONTINUOUS
 62
       2
  5
25
  2
_OPEN30
 10
52.52625396
 20
37.27341981
 30
0.0
 41
2.77
 42
2.77
 50
66.46201797
 43
2.77
  0
TEXT
  8
0
  6
CONTINUOUS
 62
       2
  5
26
 10
41.57637727
 20
29.69227126
 30
0.0
 40
3.20000005
  1
-2
 41
0.93749999
  7
MX_NOTE_STANDARD
 11
41.57637727
 21
31.29227129
 31
0.0
 73
       2
  0
LINE
  8
0
  6
CONTINUOUS
 62
       7
  5
27
 10
114.96904949
 20
18.17934763
 30
0.0
 11
114.96904949
 21
19.37934763
 31
0.0
  0
LINE
  8
0
  6
CONTINUOUS
 62
       7
  5
28
 10
85.05483588
 20
25.26513411
 30
0.0
 11
87.88326309
 21
28.09356115
 31
0.0
  0
LINE
  8
0
  6
CONTINUOUS
 62
       7
  5
29
 10
85.05483588
 20
28.09356115
 30
0.0
 11
87.88326309
 21
25.26513411
 31
0.0
  0
LINE
  8
0
  6
CONTINUOUS
 62
       7
  5
2A
 10
-64.41281018
 20
25.2651341
 30
0.0
 11
-61.58438297
 21
28.09356115
 31
0.0
  0
LINE
  8
0
  6
CONTINUOUS
 62
       7
  5
2B
 10
-64.41281017
 20
28.09356114
 30
0.0
 11
-61.58438297
 21
25.2651341
 31
0.0
  0
ARC
  8
0
  6
CONTINUOUS
 62
       7
  5
2C
 10
-62.99859657
 20
-57.93642367
 30
0.0
 40
13.75
 50
250.43684277
 51
289.56315717
  0
LINE
  8
0
  6
CONTINUOUS
 62
       7
  5
2D
 10
-67.54321312
 20
-70.72520638
 30
0.0
 11
-68.28915913
 21
-72.82433648
 31
0.0
  0
ARC
  8
0
  6
CONTINUOUS
 62
       7
  5
2E
 10
-72.71460924
 20
-67.80920862
 30
0.0
 40
1.0
 50
223.96989948
 51
323.56099497
  0
CIRCLE
  8
0
  6
CONTINUOUS
 62
       7
  5
2F
 10
-69.89889553
 20
-69.88809205
 30
0.0
 40
1.0
  0
ARC
  8
0
  6
CONTINUOUS
 62
       7
  5
30
 10
-69.89889553
 20
-69.88809205
 30
0.0
 40
2.5
 50
340.43684277
 51
143.56099497
  0
CIRCLE
  8
0
  6
CONTINUOUS
 62
       7
  5
31
 10
-56.09829761
 20
-69.88809205
 30
0.0
 40
1.0
  0
ARC
  8
0
  6
CONTINUOUS
 62
       7
  5
32
 10
-53.2825839
 20
-67.80920862
 30
0.0
 40
1.0
 50
216.43900503
 51
316.03010052
  0
LINE
  8
0
  6
CONTINUOUS
 62
       7
  5
33
 10
-58.45398002
 20
-70.72520638
 30
0.0
 11
-57.70803401
 21
-72.82433648
 31
0.0
  0
ARC
  8
0
  6
CONTINUOUS
 62
       7
  5
34
 10
-56.09829761
 20
-69.88809205
 30
0.0
 40
2.5
 50
36.43900503
 51
199.56315723
  0
ARC
  8
0
  6
CONTINUOUS
 62
       7
  5
35
 10
-62.99859657
 20
-58.43642367
 30
0.0
 40
14.5
 50
316.03010052
 51
223.96989948
  0
ARC
  8
0
  6
CONTINUOUS
 62
       7
  5
36
 10
-62.99859657
 20
-57.93642367
 30
0.0
 40
13.75
 50
310.41148756
 51
229.58851244
  0
CIRCLE
  8
0
  6
CONTINUOUS
 62
       7
  5
37
 10
-62.99859657
 20
-57.93642367
 30
0.0
 40
15.8
  0
CIRCLE
  8
0
  6
CONTINUOUS
 62
       7
  5
38
 10
-62.99859657
 20
-57.93642367
 30
0.0
 40
6.35
  0
LINE
  8
0
  6
CONTINUOUS
 62
       7
  5
39
 10
-63.49859657
 20
-49.89059033
 30
0.0
 11
-62.49859657
 21
-49.89059033
 31
0.0
  0
LINE
  8
0
  6
CONTINUOUS
 62
       7
  5
3A
 10
-61.99859657
 20
-45.34426341
 30
0.0
 11
-61.99859657
 21
-49.39059033
 31
0.0
  0
LINE
  8
0
  6
CONTINUOUS
 62
       7
  5
3B
 10
-63.99859657
 20
-45.34426341
 30
0.0
 11
-63.99859657
 21
-49.39059034
 31
0.0
  0
LINE
  8
0
  6
CONTINUOUS
 62
       7
  5
3C
 10
-62.49859657
 20
-49.89059033
 30
0.0
 11
-61.99859657
 21
-49.39059033
 31
0.0
  0
LINE
  8
0
  6
CONTINUOUS
 62
       7
  5
3D
 10
-63.49859657
 20
-49.89059033
 30
0.0
 11
-63.99859657
 21
-49.39059034
 31
0.0
  0
ARC
  8
0
  6
CONTINUOUS
 62
       7
  5
3E
 10
-60.99859657
 20
-45.34426341
 30
0.0
 40
1.0
 50
80.97515463
 51
180.0
  0
ARC
  8
0
  6
CONTINUOUS
 62
       7
  5
3F
 10
-64.99859657
 20
-45.34426341
 30
0.0
 40
1.0
 50
0.0
 51
99.02484537
  0
LINE
  8
0
  6
CONTINUOUS
 62
       7
  5
40
 10
-63.49859657
 20
-49.89059033
 30
0.0
 11
-63.49859657
 21
-44.19551758
 31
0.0
  0
LINE
  8
0
  6
CONTINUOUS
 62
       7
  5
41
 10
-62.49859657
 20
-49.89059033
 30
0.0
 11
-62.49859657
 21
-44.19551758
 31
0.0
  0
LINE
  8
0
  6
CONTINUOUS
 62
       7
  5
42
 10
-75.59075683
 20
-58.93642367
 30
0.0
 11
-71.5444299
 21
-58.93642367
 31
0.0
  0
ARC
  8
0
  6
CONTINUOUS
 62
       7
  5
43
 10
-75.59075683
 20
-59.93642367
 30
0.0
 40
1.0
 50
90.0
 51
189.02484537
  0
LINE
  8
0
  6
CONTINUOUS
 62
       7
  5
44
 10
-71.0444299
 20
-58.43642367
 30
0.0
 11
-76.73950265
 21
-58.43642367
 31
0.0
  0
LINE
  8
0
  6
CONTINUOUS
 62
       7
  5
45
 10
-75.59075683
 20
-56.93642367
 30
0.0
 11
-71.54442991
 21
-56.93642367
 31
0.0
  0
ARC
  8
0
  6
CONTINUOUS
 62
       7
  5
46
 10
-75.59075683
 20
-55.93642367
 30
0.0
 40
1.0
 50
170.97515463
 51
270.0
  0
LINE
  8
0
  6
CONTINUOUS
 62
       7
  5
47
 10
-71.0444299
 20
-57.43642367
 30
0.0
 11
-76.73950265
 21
-57.43642367
 31
0.0
  0
LINE
  8
0
  6
CONTINUOUS
 62
       7
  5
48
 10
-71.0444299
 20
-57.43642367
 30
0.0
 11
-71.54442991
 21
-56.93642367
 31
0.0
  0
LINE
  8
0
  6
CONTINUOUS
 62
       7
  5
49
 10
-71.0444299
 20
-58.43642367
 30
0.0
 11
-71.0444299
 21
-57.43642367
 31
0.0
  0
LINE
  8
0
  6
CONTINUOUS
 62
       7
  5
4A
 10
-71.0444299
 20
-58.43642367
 30
0.0
 11
-71.5444299
 21
-58.93642367
 31
0.0
  0
LINE
  8
0
  6
CONTINUOUS
 62
       7
  5
4B
 10
-61.99859657
 20
-70.52858393
 30
0.0
 11
-61.99859657
 21
-66.482257
 31
0.0
  0
ARC
  8
0
  6
CONTINUOUS
 62
       7
  5
4C
 10
-60.99859657
 20
-70.52858393
 30
0.0
 40
1.0
 50
180.0
 51
279.02484537
  0
LINE
  8
0
  6
CONTINUOUS
 62
       7
  5
4D
 10
-62.49859656
 20
-65.982257
 30
0.0
 11
-62.49859656
 21
-71.67732975
 31
0.0
  0
LINE
  8
0
  6
CONTINUOUS
 62
       7
  5
4E
 10
-63.99859657
 20
-70.52858393
 30
0.0
 11
-63.99859657
 21
-66.48225701
 31
0.0
  0
ARC
  8
0
  6
CONTINUOUS
 62
       7
  5
4F
 10
-64.99859657
 20
-70.52858393
 30
0.0
 40
1.0
 50
260.97515463
 51
0.0
  0
LINE
  8
0
  6
CONTINUOUS
 62
       7
  5
50
 10
-63.49859656
 20
-65.982257
 30
0.0
 11
-63.49859656
 21
-71.67732975
 31
0.0
  0
LINE
  8
0
  6
CONTINUOUS
 62
       7
  5
51
 10
-63.49859656
 20
-65.982257
 30
0.0
 11
-63.99859657
 21
-66.48225701
 31
0.0
  0
LINE
  8
0
  6
CONTINUOUS
 62
       7
  5
52
 10
-62.49859656
 20
-65.982257
 30
0.0
 11
-63.49859656
 21
-65.982257
 31
0.0
  0
LINE
  8
0
  6
CONTINUOUS
 62
       7
  5
53
 10
-62.49859656
 20
-65.982257
 30
0.0
 11
-61.99859657
 21
-66.482257
 31
0.0
  0
LINE
  8
0
  6
CONTINUOUS
 62
       7
  5
54
 10
-50.40643631
 20
-56.93642367
 30
0.0
 11
-54.45276324
 21
-56.93642367
 31
0.0
  0
ARC
  8
0
  6
CONTINUOUS
 62
       7
  5
55
 10
-50.40643631
 20
-55.93642367
 30
0.0
 40
1.0
 50
270.0
 51
9.02484537
  0
LINE
  8
0
  6
CONTINUOUS
 62
       7
  5
56
 10
-54.95276324
 20
-57.43642366
 30
0.0
 11
-49.25769049
 21
-57.43642366
 31
0.0
  0
LINE
  8
0
  6
CONTINUOUS
 62
       7
  5
57
 10
-50.40643631
 20
-58.93642367
 30
0.0
 11
-54.45276323
 21
-58.93642367
 31
0.0
  0
ARC
  8
0
  6
CONTINUOUS
 62
       7
  5
58
 10
-50.40643631
 20
-59.93642367
 30
0.0
 40
1.0
 50
350.97515463
 51
90.0
  0
LINE
  8
0
  6
CONTINUOUS
 62
       7
  5
59
 10
-54.95276324
 20
-58.43642366
 30
0.0
 11
-49.25769049
 21
-58.43642366
 31
0.0
  0
LINE
  8
0
  6
CONTINUOUS
 62
       7
  5
5A
 10
-54.95276324
 20
-58.43642366
 30
0.0
 11
-54.45276323
 21
-58.93642367
 31
0.0
  0
LINE
  8
0
  6
CONTINUOUS
 62
       7
  5
5B
 10
-54.95276324
 20
-57.43642366
 30
0.0
 11
-54.95276324
 21
-58.43642366
 31
0.0
  0
LINE
  8
0
  6
CONTINUOUS
 62
       7
  5
5C
 10
-54.95276324
 20
-57.43642366
 30
0.0
 11
-54.45276324
 21
-56.93642367
 31
0.0
  0
CIRCLE
  8
0
  6
CONTINUOUS
 62
       7
  5
5D
 10
-62.99859657
 20
-57.93642367
 30
0.0
 40
15.95
  0
CIRCLE
  8
0
  6
CONTINUOUS
 62
       7
  5
5E
 10
-42.99859657
 20
-77.93642367
 30
0.0
 40
2.75
  0
LINE
  8
0
  6
CONTINUOUS
 62
       2
  5
5F
 10
-37.99859657
 20
-77.93642367
 30
0.0
 11
-47.99859657
 21
-77.93642367
 31
0.0
  0
LINE
  8
0
  6
CONTINUOUS
 62
       2
  5
60
 10
-42.99859657
 20
-72.93642367
 30
0.0
 11
-42.99859657
 21
-82.93642367
 31
0.0
  0
CIRCLE
  8
0
  6
CONTINUOUS
 62
       7
  5
61
 10
-82.99859657
 20
-77.93642367
 30
0.0
 40
2.75
  0
LINE
  8
0
  6
CONTINUOUS
 62
       2
  5
62
 10
-82.99859657
 20
-82.93642367
 30
0.0
 11
-82.99859657
 21
-72.93642367
 31
0.0
  0
LINE
  8
0
  6
CONTINUOUS
 62
       2
  5
63
 10
-77.99859657
 20
-77.93642367
 30
0.0
 11
-87.99859657
 21
-77.93642367
 31
0.0
  0
CIRCLE
  8
0
  6
CONTINUOUS
 62
       7
  5
64
 10
-82.99859657
 20
-37.93642367
 30
0.0
 40
2.75
  0
LINE
  8
0
  6
CONTINUOUS
 62
       2
  5
65
 10
-87.99859657
 20
-37.93642367
 30
0.0
 11
-77.99859657
 21
-37.93642367
 31
0.0
  0
LINE
  8
0
  6
CONTINUOUS
 62
       2
  5
66
 10
-82.99859657
 20
-42.93642367
 30
0.0
 11
-82.99859657
 21
-32.93642367
 31
0.0
  0
CIRCLE
  8
0
  6
CONTINUOUS
 62
       7
  5
67
 10
-42.99859657
 20
-37.93642367
 30
0.0
 40
2.75
  0
LINE
  8
0
  6
CONTINUOUS
 62
       2
  5
68
 10
-42.99859657
 20
-32.93642367
 30
0.0
 11
-42.99859657
 21
-42.93642367
 31
0.0
  0
LINE
  8
0
  6
CONTINUOUS
 62
       2
  5
69
 10
-47.99859657
 20
-37.93642367
 30
0.0
 11
-37.99859657
 21
-37.93642367
 31
0.0
  0
CIRCLE
  8
0
  6
CONTINUOUS
 62
       7
  5
6A
 10
-62.99859657
 20
-57.93642367
 30
0.0
 40
19.85
  0
ARC
  8
0
  6
CONTINUOUS
 62
       7
  5
6B
 10
-42.49859657
 20
-78.43642367
 30
0.0
 40
8.0
 50
270.0
 51
0.0
  0
ARC
  8
0
  6
CONTINUOUS
 62
       7
  5
6C
 10
-83.49859657
 20
-78.43642367
 30
0.0
 40
8.0
 50
180.0
 51
270.0
  0
ARC
  8
0
  6
CONTINUOUS
 62
       7
  5
6D
 10
-83.49859657
 20
-37.43642367
 30
0.0
 40
8.0
 50
90.0
 51
180.0
  0
ARC
  8
0
  6
CONTINUOUS
 62
       7
  5
6E
 10
-42.49859657
 20
-37.43642367
 30
0.0
 40
8.0
 50
0.0
 51
90.0
  0
LINE
  8
0
  6
CONTINUOUS
 62
       7
  5
6F
 10
-91.49859657
 20
-37.43642367
 30
0.0
 11
-91.49859657
 21
-78.43642367
 31
0.0
  0
LINE
  8
0
  6
CONTINUOUS
 62
       7
  5
70
 10
-34.49859657
 20
-37.43642367
 30
0.0
 11
-34.49859657
 21
-78.43642367
 31
0.0
  0
LINE
  8
0
  6
CONTINUOUS
 62
       7
  5
71
 10
-83.49859657
 20
-86.43642367
 30
0.0
 11
-42.49859657
 21
-86.43642367
 31
0.0
  0
LINE
  8
0
  6
CONTINUOUS
 62
       7
  5
72
 10
-83.49859657
 20
-29.43642367
 30
0.0
 11
-42.49859657
 21
-29.43642367
 31
0.0
  0
LINE
  8
0
  6
CONTINUOUS
 62
       2
  5
73
 10
-95.49859657
 20
-57.93642367
 30
0.0
 11
-30.49859657
 21
-57.93642367
 31
0.0
  0
LINE
  8
0
  6
CONTINUOUS
 62
       2
  5
74
 10
-62.99859657
 20
-25.43642367
 30
0.0
 11
-62.99859657
 21
-90.43642367
 31
0.0
  0
LINE
  8
0
  6
CONTINUOUS
 62
       7
  5
75
 10
-74.99859657
 20
66.17934763
 30
0.0
 11
-74.99859657
 21
74.37934763
 31
0.0
  0
LINE
  8
0
  6
CONTINUOUS
 62
       7
  5
76
 10
-73.99859657
 20
75.37934763
 30
0.0
 11
-51.99859657
 21
75.37934763
 31
0.0
  0
LINE
  8
0
  6
CONTINUOUS
 62
       7
  5
77
 10
-73.99859657
 20
75.37934763
 30
0.0
 11
-74.99859657
 21
74.37934763
 31
0.0
  0
LINE
  8
0
  6
CONTINUOUS
 62
       7
  5
78
 10
-51.99859657
 20
75.37934763
 30
0.0
 11
-50.99859657
 21
74.37934763
 31
0.0
  0
LINE
  8
0
  6
CONTINUOUS
 62
       7
  5
79
 10
-50.99859657
 20
66.17934763
 30
0.0
 11
-50.99859657
 21
74.37934763
 31
0.0
  0
LINE
  8
0
  6
CONTINUOUS
 62
       7
  5
7A
 10
-81.24859657
 20
66.17934763
 30
0.0
 11
-44.74859657
 21
66.17934763
 31
0.0
  0
LINE
  8
0
  6
CONTINUOUS
 62
       7
  5
7B
 10
-83.99859657
 20
32.17934763
 30
0.0
 11
-83.99859657
 21
55.17934763
 31
0.0
  0
LINE
  8
0
  6
CONTINUOUS
 62
       7
  5
7C
 10
-41.99859657
 20
32.17934763
 30
0.0
 11
-41.99859657
 21
55.17934763
 31
0.0
  0
LINE
  8
0
  6
CONTINUOUS
 62
       2
  5
7D
 10
-87.82930723
 20
43.67934763
 30
0.0
 11
-39.19082945
 21
43.67934763
 31
0.0
  0
LINE
  8
0
  6
CONTINUOUS
 62
       7
  5
7E
 10
-83.99859657
 20
55.17934763
 30
0.0
 11
-41.99859657
 21
55.17934763
 31
0.0
  0
LINE
  8
0
  6
CONTINUOUS
 62
       7
  5
7F
 10
-83.99859657
 20
32.17934763
 30
0.0
 11
-41.99859657
 21
32.17934763
 31
0.0
  0
LINE
  8
0
  6
CONTINUOUS
 62
       7
  5
80
 10
-43.24859657
 20
32.17934763
 30
0.0
 11
-43.24859657
 21
64.67934763
 31
0.0
  0
LINE
  8
0
  6
CONTINUOUS
 62
       7
  5
81
 10
-82.74859657
 20
32.17934763
 30
0.0
 11
-82.74859657
 21
64.67934763
 31
0.0
  0
LINE
  8
0
  6
CONTINUOUS
 62
       2
  5
82
 10
-65.99859657
 20
60.67934763
 30
0.0
 11
-59.99859657
 21
60.67934763
 31
0.0
  0
LINE
  8
0
  6
CONTINUOUS
 62
       2
  5
83
 10
-43.04859657
 20
26.67934763
 30
0.0
 11
-36.57209576
 21
26.67934763
 31
0.0
  0
LINE
  8
0
  6
CONTINUOUS
 62
       7
  5
84
 10
-34.49859657
 20
18.17934763
 30
0.0
 11
-91.49859657
 21
18.17934763
 31
0.0
  0
LINE
  8
0
  6
CONTINUOUS
 62
       7
  5
85
 10
-42.04859657
 20
21.37934763
 30
0.0
 11
-42.04859657
 21
32.17934763
 31
0.0
  0
LINE
  8
0
  6
CONTINUOUS
 62
       7
  5
86
 10
-83.94859657
 20
21.37934763
 30
0.0
 11
-83.94859657
 21
32.17934763
 31
0.0
  0
LINE
  8
0
  6
CONTINUOUS
 62
       7
  5
87
 10
-91.49859657
 20
18.17934763
 30
0.0
 11
-91.49859657
 21
19.37934763
 31
0.0
  0
LINE
  8
0
  6
CONTINUOUS
 62
       7
  5
88
 10
-34.49859657
 20
18.17934763
 30
0.0
 11
-34.49859657
 21
19.37934763
 31
0.0
  0
LINE
  8
0
  6
CONTINUOUS
 62
       7
  5
89
 10
-34.49859657
 20
19.37934763
 30
0.0
 11
-62.99859657
 21
19.37934763
 31
0.0
  0
ARC
  8
0
  6
CONTINUOUS
 62
       7
  5
8A
 10
-40.04859657
 20
21.37934763
 30
0.0
 40
2.0
 50
180.0
 51
270.0
  0
ARC
  8
0
  6
CONTINUOUS
 62
       7
  5
8B
 10
-85.94859657
 20
21.37934763
 30
0.0
 40
2.0
 50
270.0
 51
0.0
  0
LINE
  8
0
  6
CONTINUOUS
 62
       7
  5
8C
 10
-62.99859657
 20
19.37934763
 30
0.0
 11
-91.49859657
 21
19.37934763
 31
0.0
  0
LINE
  8
0
  6
CONTINUOUS
 62
       7
  5
8D
 10
-41.04859657
 20
23.17934763
 30
0.0
 11
-41.04859657
 21
30.17934763
 31
0.0
  0
LINE
  8
0
  6
CONTINUOUS
 62
       7
  5
8E
 10
-38.44859657
 20
25.77934763
 30
0.0
 11
-38.44859657
 21
27.57934763
 31
0.0
  0
ARC
  8
0
  6
CONTINUOUS
 62
       7
  5
8F
 10
-41.04859657
 20
27.57934763
 30
0.0
 40
2.6
 50
0.0
 51
90.0
  0
ARC
  8
0
  6
CONTINUOUS
 62
       7
  5
90
 10
-41.04859657
 20
25.77934763
 30
0.0
 40
2.6
 50
270.0
 51
0.0
  0
LINE
  8
0
  6
CONTINUOUS
 62
       7
  5
91
 10
-42.0485966
 20
30.17934763
 30
0.0
 11
-41.0485966
 21
30.17934763
 31
0.0
  0
LINE
  8
0
  6
CONTINUOUS
 62
       7
  5
92
 10
-42.0485966
 20
23.17934763
 30
0.0
 11
-41.0485966
 21
23.17934763
 31
0.0
  0
LINE
  8
0
  6
CONTINUOUS
 62
       2
  5
93
 10
-82.94859657
 20
26.67934763
 30
0.0
 11
-89.42509738
 21
26.67934763
 31
0.0
  0
LINE
  8
0
  6
CONTINUOUS
 62
       7
  5
94
 10
-83.94859654
 20
30.17934763
 30
0.0
 11
-84.94859654
 21
30.17934763
 31
0.0
  0
LINE
  8
0
  6
CONTINUOUS
 62
       7
  5
95
 10
-83.94859654
 20
23.17934763
 30
0.0
 11
-84.94859654
 21
23.17934763
 31
0.0
  0
ARC
  8
0
  6
CONTINUOUS
 62
       7
  5
96
 10
-84.94859657
 20
25.77934763
 30
0.0
 40
2.6
 50
180.0
 51
270.0
  0
ARC
  8
0
  6
CONTINUOUS
 62
       7
  5
97
 10
-84.94859657
 20
27.57934763
 30
0.0
 40
2.6
 50
90.0
 51
180.0
  0
LINE
  8
0
  6
CONTINUOUS
 62
       7
  5
98
 10
-87.54859657
 20
25.77934763
 30
0.0
 11
-87.54859657
 21
27.57934763
 31
0.0
  0
LINE
  8
0
  6
CONTINUOUS
 62
       7
  5
99
 10
-84.94859657
 20
23.17934763
 30
0.0
 11
-84.94859657
 21
30.17934763
 31
0.0
  0
LINE
  8
0
  6
CONTINUOUS
 62
       7
  5
9A
 10
-39.44859663
 20
25.67934763
 30
0.0
 11
-38.44859657
 21
26.67934763
 31
0.0
  0
LINE
  8
0
  6
CONTINUOUS
 62
       7
  5
9B
 10
-39.44859663
 20
27.67934763
 30
0.0
 11
-38.44859657
 21
26.67934763
 31
0.0
  0
LINE
  8
0
  6
CONTINUOUS
 62
       7
  5
9C
 10
-86.54859651
 20
27.67934763
 30
0.0
 11
-87.54859657
 21
26.67934763
 31
0.0
  0
LINE
  8
0
  6
CONTINUOUS
 62
       7
  5
9D
 10
-86.54859651
 20
25.67934763
 30
0.0
 11
-87.54859657
 21
26.67934763
 31
0.0
  0
LINE
  8
0
  6
CONTINUOUS
 62
       2
  5
9E
 10
-67.49859657
 20
26.67934763
 30
0.0
 11
-58.49859657
 21
26.67934763
 31
0.0
  0
CIRCLE
  8
0
  6
CONTINUOUS
 62
       7
  5
9F
 10
-62.99859657
 20
26.67934763
 30
0.0
 40
3.5
  0
CIRCLE
  8
0
  6
CONTINUOUS
 62
       2
  5
A0
 10
-62.99859657
 20
43.67934763
 30
0.0
 40
6.42153815
  0
CIRCLE
  8
0
  6
CONTINUOUS
 62
       7
  5
A1
 10
-62.99859657
 20
43.67934763
 30
0.0
 40
5.75
  0
ARC
  8
0
  6
CONTINUOUS
 62
       7
  5
A2
 10
-62.99859657
 20
70.12588576
 30
0.0
 40
9.525
 50
33.47304042
 51
146.52695958
  0
CIRCLE
  8
0
  6
CONTINUOUS
 62
       2
  5
A3
 10
-62.99859657
 20
60.67934763
 30
0.0
 40
2.0
  0
CIRCLE
  8
0
  6
CONTINUOUS
 62
       7
  5
A4
 10
-62.99859657
 20
60.67934763
 30
0.0
 40
1.5
  0
LINE
  8
0
  6
CONTINUOUS
 62
       7
  5
A5
 10
-74.99859657
 20
74.37934763
 30
0.0
 11
-50.99859657
 21
74.37934763
 31
0.0
  0
LINE
  8
0
  6
CONTINUOUS
 62
       7
  5
A6
 10
98.46904949
 20
74.37934763
 30
0.0
 11
74.46904949
 21
74.37934763
 31
0.0
  0
ARC
  8
0
  6
CONTINUOUS
 62
       7
  5
A7
 10
86.46904949
 20
70.12588576
 30
0.0
 40
9.525
 50
33.47304042
 51
146.52695958
  0
CIRCLE
  8
0
  6
CONTINUOUS
 62
       7
  5
A8
 10
86.46904949
 20
43.67934763
 30
0.0
 40
5.75
  0
CIRCLE
  8
0
  6
CONTINUOUS
 62
       2
  5
A9
 10
86.46904949
 20
43.67934763
 30
0.0
 40
6.42153815
  0
CIRCLE
  8
0
  6
CONTINUOUS
 62
       7
  5
AA
 10
86.46904949
 20
26.67934763
 30
0.0
 40
3.5
  0
LINE
  8
0
  6
CONTINUOUS
 62
       2
  5
AB
 10
90.96904949
 20
26.67934763
 30
0.0
 11
81.96904949
 21
26.67934763
 31
0.0
  0
LINE
  8
0
  6
CONTINUOUS
 62
       7
  5
AC
 10
110.01904942
 20
25.67934763
 30
0.0
 11
111.01904948
 21
26.67934763
 31
0.0
  0
LINE
  8
0
  6
CONTINUOUS
 62
       7
  5
AD
 10
110.01904942
 20
27.67934763
 30
0.0
 11
111.01904948
 21
26.67934763
 31
0.0
  0
LINE
  8
0
  6
CONTINUOUS
 62
       7
  5
AE
 10
62.91904955
 20
27.67934763
 30
0.0
 11
61.91904949
 21
26.67934763
 31
0.0
  0
LINE
  8
0
  6
CONTINUOUS
 62
       7
  5
AF
 10
62.91904955
 20
25.67934763
 30
0.0
 11
61.91904949
 21
26.67934763
 31
0.0
  0
LINE
  8
0
  6
CONTINUOUS
 62
       7
  5
B0
 10
108.41904949
 20
23.17934763
 30
0.0
 11
108.41904949
 21
30.17934763
 31
0.0
  0
LINE
  8
0
  6
CONTINUOUS
 62
       7
  5
B1
 10
111.01904949
 20
25.77934763
 30
0.0
 11
111.01904949
 21
27.57934763
 31
0.0
  0
ARC
  8
0
  6
CONTINUOUS
 62
       7
  5
B2
 10
108.41904949
 20
27.57934763
 30
0.0
 40
2.6
 50
0.0
 51
90.0
  0
ARC
  8
0
  6
CONTINUOUS
 62
       7
  5
B3
 10
108.41904949
 20
25.77934763
 30
0.0
 40
2.6
 50
270.0
 51
0.0
  0
LINE
  8
0
  6
CONTINUOUS
 62
       7
  5
B4
 10
107.41904946
 20
23.17934763
 30
0.0
 11
108.41904946
 21
23.17934763
 31
0.0
  0
LINE
  8
0
  6
CONTINUOUS
 62
       7
  5
B5
 10
107.41904946
 20
30.17934763
 30
0.0
 11
108.41904946
 21
30.17934763
 31
0.0
  0
LINE
  8
0
  6
CONTINUOUS
 62
       2
  5
B6
 10
106.41904949
 20
26.67934763
 30
0.0
 11
112.8955503
 21
26.67934763
 31
0.0
  0
LINE
  8
0
  6
CONTINUOUS
 62
       7
  5
B7
 10
65.51904951
 20
23.17934763
 30
0.0
 11
64.51904951
 21
23.17934763
 31
0.0
  0
LINE
  8
0
  6
CONTINUOUS
 62
       7
  5
B8
 10
65.51904951
 20
30.17934763
 30
0.0
 11
64.51904951
 21
30.17934763
 31
0.0
  0
ARC
  8
0
  6
CONTINUOUS
 62
       7
  5
B9
 10
64.51904949
 20
25.77934763
 30
0.0
 40
2.6
 50
180.0
 51
270.0
  0
ARC
  8
0
  6
CONTINUOUS
 62
       7
  5
BA
 10
64.51904949
 20
27.57934763
 30
0.0
 40
2.6
 50
90.0
 51
180.0
  0
LINE
  8
0
  6
CONTINUOUS
 62
       7
  5
BB
 10
61.91904949
 20
25.77934763
 30
0.0
 11
61.91904949
 21
27.57934763
 31
0.0
  0
LINE
  8
0
  6
CONTINUOUS
 62
       7
  5
BC
 10
64.51904949
 20
23.17934763
 30
0.0
 11
64.51904949
 21
30.17934763
 31
0.0
  0
LINE
  8
0
  6
CONTINUOUS
 62
       7
  5
BD
 10
86.46904949
 20
19.37934763
 30
0.0
 11
114.96904949
 21
19.37934763
 31
0.0
  0
ARC
  8
0
  6
CONTINUOUS
 62
       7
  5
BE
 10
109.41904949
 20
21.37934763
 30
0.0
 40
2.0
 50
180.0
 51
270.0
  0
ARC
  8
0
  6
CONTINUOUS
 62
       7
  5
BF
 10
63.51904949
 20
21.37934763
 30
0.0
 40
2.0
 50
270.0
 51
0.0
  0
LINE
  8
0
  6
CONTINUOUS
 62
       7
  5
C0
 10
57.96904949
 20
19.37934763
 30
0.0
 11
86.46904949
 21
19.37934763
 31
0.0
  0
LINE
  8
0
  6
CONTINUOUS
 62
       7
  5
C1
 10
57.96904949
 20
18.17934763
 30
0.0
 11
57.96904949
 21
19.37934763
 31
0.0
  0
LINE
  8
0
  6
CONTINUOUS
 62
       7
  5
C2
 10
107.41904949
 20
21.37934763
 30
0.0
 11
107.41904949
 21
32.17934763
 31
0.0
  0
LINE
  8
0
  6
CONTINUOUS
 62
       7
  5
C3
 10
65.51904949
 20
21.37934763
 30
0.0
 11
65.51904949
 21
32.17934763
 31
0.0
  0
LINE
  8
0
  6
CONTINUOUS
 62
       7
  5
C4
 10
57.96904949
 20
18.17934763
 30
0.0
 11
114.96904949
 21
18.17934763
 31
0.0
  0
LINE
  8
0
  6
CONTINUOUS
 62
       2
  5
C5
 10
66.51904949
 20
26.67934763
 30
0.0
 11
60.04254868
 21
26.67934763
 31
0.0
  0
LINE
  8
0
  6
CONTINUOUS
 62
       7
  5
C6
 10
106.21904949
 20
55.17934763
 30
0.0
 11
106.21904949
 21
64.67934763
 31
0.0
  0
LINE
  8
0
  6
CONTINUOUS
 62
       7
  5
C7
 10
66.71904949
 20
32.17934763
 30
0.0
 11
66.71904949
 21
64.67934763
 31
0.0
  0
LINE
  8
0
  6
CONTINUOUS
 62
       7
  5
C8
 10
65.46904949
 20
32.17934763
 30
0.0
 11
107.46904949
 21
32.17934763
 31
0.0
  0
LINE
  8
0
  6
CONTINUOUS
 62
       7
  5
C9
 10
65.46904949
 20
55.17934763
 30
0.0
 11
107.46904949
 21
55.17934763
 31
0.0
  0
LINE
  8
0
  6
CONTINUOUS
 62
       2
  5
CA
 10
111.15122542
 20
43.67934763
 30
0.0
 11
43.2931031
 21
43.67934763
 31
0.0
  0
LINE
  8
0
  6
CONTINUOUS
 62
       7
  5
CB
 10
65.46904949
 20
32.17934763
 30
0.0
 11
65.46904949
 21
55.17934763
 31
0.0
  0
LINE
  8
0
  6
CONTINUOUS
 62
       7
  5
CC
 10
104.71904949
 20
66.17934763
 30
0.0
 11
68.21904949
 21
66.17934763
 31
0.0
  0
LINE
  8
0
  6
CONTINUOUS
 62
       7
  5
CD
 10
74.46904949
 20
66.17934763
 30
0.0
 11
74.46904949
 21
74.37934763
 31
0.0
  0
LINE
  8
0
  6
CONTINUOUS
 62
       7
  5
CE
 10
75.46904949
 20
75.37934763
 30
0.0
 11
74.46904949
 21
74.37934763
 31
0.0
  0
LINE
  8
0
  6
CONTINUOUS
 62
       7
  5
CF
 10
97.46904949
 20
75.37934763
 30
0.0
 11
98.46904949
 21
74.37934763
 31
0.0
  0
LINE
  8
0
  6
CONTINUOUS
 62
       7
  5
D0
 10
97.46904949
 20
75.37934763
 30
0.0
 11
75.46904949
 21
75.37934763
 31
0.0
  0
LINE
  8
0
  6
CONTINUOUS
 62
       7
  5
D1
 10
98.46904949
 20
66.17934763
 30
0.0
 11
98.46904949
 21
74.37934763
 31
0.0
  0
LINE
  8
0
  6
CONTINUOUS
 62
       2
  5
D2
 10
103.12743224
 20
60.67934763
 30
0.0
 11
109.21904949
 21
60.67934763
 31
0.0
  0
LINE
  8
0
  6
CONTINUOUS
 62
       2
  5
D3
 10
-62.99859657
 20
15.10902827
 30
0.0
 11
-62.99859657
 21
81.24249581
 31
0.0
  0
LINE
  8
0
  6
CONTINUOUS
 62
       2
  5
D4
 10
86.46904949
 20
15.10902827
 30
0.0
 11
86.46904949
 21
81.24249581
 31
0.0
  0
LINE
  8
0
  6
CONTINUOUS
 62
       7
  5
D5
 10
45.78182126
 20
49.71814073
 30
0.0
 11
45.78182126
 21
37.64055452
 31
0.0
  0
LINE
  8
0
  6
CONTINUOUS
 62
       7
  5
D6
 10
56.12664885
 20
48.45089935
 30
0.0
 11
56.12664885
 21
38.9077959
 31
0.0
  0
LINE
  8
0
  6
CONTINUOUS
 62
       2
  5
D7
 10
45.78182126
 20
49.3690028
 30
0.0
 11
55.2085454
 21
49.3690028
 31
0.0
  0
LINE
  8
0
  6
CONTINUOUS
 62
       7
  5
D8
 10
46.19561437
 20
50.42934763
 30
0.0
 11
54.60078678
 21
49.98969246
 31
0.0
  0
LINE
  8
0
  6
CONTINUOUS
 62
       7
  5
D9
 10
56.12664885
 20
48.45089935
 30
0.0
 11
54.60078678
 21
49.98969246
 31
0.0
  0
LINE
  8
0
  6
CONTINUOUS
 62
       7
  5
DA
 10
45.78182126
 20
49.71814073
 30
0.0
 11
46.19561437
 21
50.42934763
 31
0.0
  0
LINE
  8
0
  6
CONTINUOUS
 62
       7
  5
DB
 10
54.67837299
 20
49.97676142
 30
0.0
 11
54.67837299
 21
37.38193383
 31
0.0
  0
LINE
  8
0
  6
CONTINUOUS
 62
       2
  5
DC
 10
45.78182126
 20
37.98969246
 30
0.0
 11
55.2085454
 21
37.98969246
 31
0.0
  0
LINE
  8
0
  6
CONTINUOUS
 62
       7
  5
DD
 10
46.19561437
 20
36.94227866
 30
0.0
 11
54.60078678
 21
37.38193383
 31
0.0
  0
LINE
  8
0
  6
CONTINUOUS
 62
       7
  5
DE
 10
45.78182126
 20
37.64055452
 30
0.0
 11
46.19561437
 21
36.94227866
 31
0.0
  0
LINE
  8
0
  6
CONTINUOUS
 62
       7
  5
DF
 10
56.12664885
 20
38.9077959
 30
0.0
 11
54.60078678
 21
37.38193383
 31
0.0
  0
LINE
  8
0
  6
CONTINUOUS
 62
       7
  5
E0
 10
46.19561437
 20
50.42934763
 30
0.0
 11
46.19561437
 21
36.94227866
 31
0.0
  0
LINE
  8
0
  6
CONTINUOUS
 62
       7
  5
E1
 10
-71.49859657
 20
32.17934763
 30
0.0
 11
-71.49859657
 21
55.17934763
 31
0.0
  0
LINE
  8
0
  6
CONTINUOUS
 62
       7
  5
E2
 10
-54.49859657
 20
32.17934763
 30
0.0
 11
-54.49859657
 21
55.17934763
 31
0.0
  0
LINE
  8
0
  6
CONTINUOUS
 62
       7
  5
E3
 10
77.96904949
 20
32.17934763
 30
0.0
 11
77.96904949
 21
55.17934763
 31
0.0
  0
LINE
  8
0
  6
CONTINUOUS
 62
       7
  5
E4
 10
94.96904949
 20
32.17934763
 30
0.0
 11
94.96904949
 21
55.17934763
 31
0.0
  0
LINE
  8
0
  6
CONTINUOUS
 62
       7
  5
E5
 10
107.46904949
 20
32.17934763
 30
0.0
 11
107.46904949
 21
55.17934763
 31
0.0
  0
LINE
  8
0
  6
CONTINUOUS
 62
       7
  5
E6
 10
-81.24859657
 20
66.17934763
 30
0.0
 11
-82.74859657
 21
64.67934763
 31
0.0
  0
LINE
  8
0
  6
CONTINUOUS
 62
       7
  5
E7
 10
-44.74859657
 20
66.17934763
 30
0.0
 11
-43.24859657
 21
64.67934763
 31
0.0
  0
LINE
  8
0
  6
CONTINUOUS
 62
       7
  5
E8
 10
-82.74859657
 20
64.67934763
 30
0.0
 11
-43.24859657
 21
64.67934763
 31
0.0
  0
LINE
  8
0
  6
CONTINUOUS
 62
       2
  5
E9
 10
-79.65697932
 20
60.67934763
 30
0.0
 11
-85.74859657
 21
60.67934763
 31
0.0
  0
LINE
  8
0
  6
CONTINUOUS
 62
       2
  5
EA
 10
-46.34021381
 20
60.67934763
 30
0.0
 11
-40.24859657
 21
60.67934763
 31
0.0
  0
LINE
  8
0
  6
CONTINUOUS
 62
       2
  5
EB
 10
69.81066673
 20
60.67934763
 30
0.0
 11
63.71904949
 21
60.67934763
 31
0.0
  0
LINE
  8
0
  6
CONTINUOUS
 62
       2
  5
EC
 10
89.46904949
 20
60.67934763
 30
0.0
 11
83.46904949
 21
60.67934763
 31
0.0
  0
CIRCLE
  8
0
  6
CONTINUOUS
 62
       2
  5
ED
 10
86.46904949
 20
60.67934763
 30
0.0
 40
2.0
  0
CIRCLE
  8
0
  6
CONTINUOUS
 62
       7
  5
EE
 10
86.46904949
 20
60.67934763
 30
0.0
 40
1.5
  0
LINE
  8
0
  6
CONTINUOUS
 62
       7
  5
EF
 10
68.21904949
 20
66.17934763
 30
0.0
 11
66.71904949
 21
64.67934763
 31
0.0
  0
LINE
  8
0
  6
CONTINUOUS
 62
       7
  5
F0
 10
106.21904949
 20
64.67934763
 30
0.0
 11
104.71904949
 21
66.17934763
 31
0.0
  0
LINE
  8
0
  6
CONTINUOUS
 62
       7
  5
F1
 10
66.71904949
 20
64.67934763
 30
0.0
 11
106.21904949
 21
64.67934763
 31
0.0
  0
TEXT
  8
0
  6
CONTINUOUS
 62
       7
  5
F2
 10
-185.68181818
 20
115.3500061
 30
0.0
 40
4.5
  1
MODEL:250B
 41
1.09090909
  7
MX_NOTE_STANDARD
 11
-185.68181818
 21
117.6000061
 31
0.0
 73
       2
  0
LINE
  8
0
  6
CONTINUOUS
 62
       7
  5
F3
 10
-194.25
 20
132.6000061
 30
0.0
 11
194.80000305
 21
132.6000061
 31
0.0
  0
LINE
  8
0
  6
CONTINUOUS
 62
       7
  5
F4
 10
194.80000305
 20
132.6000061
 30
0.0
 11
194.80000305
 21
-133.5
 31
0.0
  0
LINE
  8
0
  6
CONTINUOUS
 62
       7
  5
F5
 10
-194.25
 20
132.6000061
 30
0.0
 11
-194.25
 21
-133.5
 31
0.0
  0
LINE
  8
0
  6
CONTINUOUS
 62
       7
  5
F6
 10
-194.25
 20
-133.5
 30
0.0
 11
194.80000305
 21
-133.5
 31
0.0
  0
ENDSEC
  0
EOF
