  0
SECTION
  2
HEADER
  9
$ACADVER
  1
AC1009
  9
$DWGCODEPAGE
  3
dos932
  9
$INSBASE
 10
0.0
 20
0.0
 30
0.0
  9
$EXTMIN
 10
-138.3999939
 20
-94.80000305
 30
0.0
  9
$EXTMAX
 10
138.3500061
 20
94.5
 30
0.0
  9
$LIMMIN
 10
-138.3999939
 20
-94.80000305
  9
$LIMMAX
 10
138.3500061
 20
94.5
  9
$ORTHOMODE
 70
       0
  9
$REGENMODE
 70
       1
  9
$FILLMODE
 70
       1
  9
$QTEXTMODE
 70
       0
  9
$MIRRTEXT
 70
       1
  9
$DRAGMODE
 70
       2
  9
$LTSCALE
 40
1.0
  9
$OSMODE
 70
       0
  9
$ATTMODE
 70
       1
  9
$TEXTSIZE
 40
3.20000005
  9
$TRACEWID
 40
0.05
  9
$TEXTSTYLE
  7
MX_NOTE_STANDARD
  9
$CLAYER
  8
0
  9
$CELTYPE
  6
CONTINUOUS
  9
$CECOLOR
 62
     256
  9
$DIMSCALE
 40
1.0
  9
$DIMASZ
 40
2.5
  9
$DIMEXO
 40
1.5
  9
$DIMDLI
 40
3.75
  9
$DIMRND
 40
0.0
  9
$DIMDLE
 40
0.0
  9
$DIMEXE
 40
1.5
  9
$DIMTP
 40
0.0
  9
$DIMTM
 40
0.0
  9
$DIMTXT
 40
3.20000005
  9
$DIMCEN
 40
2.5
  9
$DIMTSZ
 40
0.0
  9
$DIMTOL
 70
       0
  9
$DIMLIM
 70
       0
  9
$DIMTIH
 70
       0
  9
$DIMTOH
 70
       0
  9
$DIMSE1
 70
       0
  9
$DIMSE2
 70
       0
  9
$DIMTAD
 70
       1
  9
$DIMZIN
 70
       8
  9
$DIMBLK
  1

  9
$DIMASO
 70
       1
  9
$DIMSHO
 70
       1
  9
$DIMPOST
  1

  9
$DIMAPOST
  1

  9
$DIMALT
 70
       0
  9
$DIMALTD
 70
       4
  9
$DIMALTF
 40
0.03937008
  9
$DIMLFAC
 40
1.0
  9
$DIMTOFL
 70
       1
  9
$DIMTVP
 40
0.0
  9
$DIMTIX
 70
       0
  9
$DIMSOXD
 70
       0
  9
$DIMSAH
 70
       0
  9
$DIMBLK1
  1

  9
$DIMBLK2
  1

  9
$DIMSTYLE
  2
MXDIMSTYLE
  9
$DIMCLRD
 70
       0
  9
$DIMCLRE
 70
       0
  9
$DIMCLRT
 70
       0
  9
$DIMTFAC
 40
1.0
  9
$DIMGAP
 40
1.0
  9
$LUNITS
 70
       2
  9
$LUPREC
 70
       4
  9
$AXISMODE
 70
       0
  9
$AXISUNIT
 10
0.0
 20
0.0
  9
$SKETCHINC
 40
0.1
  9
$FILLETRAD
 40
0.0
  9
$AUNITS
 70
       0
  9
$AUPREC
 70
       0
  9
$MENU
  1
acad
  9
$ELEVATION
 40
0.0
  9
$PELEVATION
 40
0.0
  9
$THICKNESS
 40
0.0
  9
$LIMCHECK
 70
       0
  9
$BLIPMODE
 70
       1
  9
$CHAMFERA
 40
0.0
  9
$CHAMFERB
 40
0.0
  9
$SKPOLY
 70
       0
  9
$TDCREATE
 40
2453453.740833333
  9
$TDUPDATE
 40
2453453.740833333
  9
$TDINDWG
 40
0.0000000000
  9
$TDUSRTIMER
 40
0.0000000000
  9
$USRTIMER
 70
       1
  9
$ANGBASE
 50
0.0
  9
$ANGDIR
 70
       0
  9
$PDMODE
 70
       0
  9
$PDSIZE
 40
0.0
  9
$PLINEWID
 40
0.0
  9
$COORDS
 70
       1
  9
$SPLFRAME
 70
       0
  9
$SPLINETYPE
 70
       6
  9
$SPLINESEGS
 70
       8
  9
$ATTDIA
 70
       0
  9
$ATTREQ
 70
       1
  9
$HANDLING
 70
       1
  9
$HANDSEED
  5
1C9
  9
$SURFTAB1
 70
       6
  9
$SURFTAB2
 70
       6
  9
$SURFTYPE
 70
       6
  9
$SURFU
 70
       6
  9
$SURFV
 70
       6
  9
$UCSNAME
  2

  9
$UCSORG
 10
0.0
 20
0.0
 30
0.0
  9
$UCSXDIR
 10
1.0
 20
0.0
 30
0.0
  9
$UCSYDIR
 10
0.0
 20
1.0
 30
0.0
  9
$PUCSNAME
  2

  9
$PUCSORG
 10
0.0
 20
0.0
 30
0.0
  9
$PUCSXDIR
 10
1.0
 20
0.0
 30
0.0
  9
$PUCSYDIR
 10
0.0
 20
1.0
 30
0.0
  9
$USERI1
 70
       0
  9
$USERI2
 70
       0
  9
$USERI3
 70
       0
  9
$USERI4
 70
       0
  9
$USERI5
 70
       0
  9
$USERR1
 40
0.0
  9
$USERR2
 40
0.0
  9
$USERR3
 40
0.0
  9
$USERR4
 40
0.0
  9
$USERR5
 40
0.0
  9
$WORLDVIEW
 70
       1
  9
$SHADEDGE
 70
       3
  9
$SHADEDIF
 70
      70
  9
$TILEMODE
 70
       1
  9
$MAXACTVP
 70
      16
  9
$PINSBASE
 10
0.0
 20
0.0
 30
0.0
  9
$PLIMCHECK
 70
       0
  9
$PEXTMIN
 10
1.00000000E+20
 20
1.00000000E+20
 30
1.00000000E+20
  9
$PEXTMAX
 10
-1.00000000E+20
 20
-1.00000000E+20
 30
-1.00000000E+20
  9
$PLIMMIN
 10
0.0
 20
0.0
  9
$PLIMMAX
 10
12.0
 20
9.0
  9
$UNITMODE
 70
       0
  9
$VISRETAIN
 70
       0
  9
$PLINEGEN
 70
       1
  9
$PSLTSCALE
 70
       0
  9
$TREEDEPTH
 70
    3020
  9
$DWGCODEPAGE
  3
dos932
  0
ENDSEC
  0
SECTION
  2
TABLES
  0
TABLE
  2
VPORT
 70
       1
  0
VPORT
  2
*ACTIVE
 70
       0
 10
0.0
 20
0.0
 11
1.0
 21
1.0
 12
-0.0249939
 22
-0.15000153
 13
0.0
 23
0.0
 14
1.0
 24
1.0
 15
0.0
 25
0.0
 16
0.0
 26
0.0
 36
1.0
 17
0.0
 27
0.0
 37
0.0
 40
191.19300308
 41
1.73205081
 42
50.0
 43
0.0
 44
0.0
 50
0.0
 51
0.0
 71
       0
 72
     100
 73
       1
 74
       1
 75
       0
 76
       0
 77
       0
 78
       0
  0
ENDTAB
  0
TABLE
  2
LTYPE
 70
       3
  0
LTYPE
  2
CONTINUOUS
 70
      64
  3
Solid line
 72
      65
 73
       0
 40
0.0
  0
LTYPE
  2
DASHED
 70
      64
  3
Dashed __ __ __ __ __ __ __ __ __ __ __ __ __ _
 72
      65
 73
       2
 40
4.0
 49
2.0
 49
-2.0
  0
LTYPE
  2
PHANTOM
 70
      64
  3
Phantom ______  __  __  ______  __  __  ______
 72
      65
 73
       6
 40
30.0
 49
20.0
 49
-2.0
 49
2.0
 49
-2.0
 49
2.0
 49
-2.0
  0
ENDTAB
  0
TABLE
  2
LAYER
 70
       2
  0
LAYER
  2
0
 70
       0
 62
       7
  6
CONTINUOUS
  0
LAYER
  2
DEFPOINTS
 70
       0
 62
       7
  6
CONTINUOUS
  0
ENDTAB
  0
TABLE
  2
STYLE
 70
       1
  0
STYLE
  2
MX_NOTE_STANDARD
 70
       0
 40
0.0
 41
1.0
 50
0.0
 71
       0
 42
3.20000005
  3
txt.shx
  4
extfont.shx
  0
ENDTAB
  0
TABLE
  2
VIEW
 70
       0
  0
ENDTAB
  0
TABLE
  2
UCS
 70
       0
  0
ENDTAB
  0
TABLE
  2
APPID
 70
       1
  0
APPID
  2
ACAD
 70
       0
  0
ENDTAB
  0
TABLE
  2
DIMSTYLE
 70
       1
  0
DIMSTYLE
  2
MXDIMSTYLE
 70
       0
  3

  4

  5

  6

  7

 40
1.0
 41
2.5
 42
1.5
 43
3.75
 44
1.5
 45
0.0
 46
0.0
 47
0.0
 48
0.0
 71
       0
 72
       0
 73
       0
 74
       0
 75
       0
 76
       0
 77
       1
 78
       8
140
3.20000005
141
2.5
142
0.0
143
0.03937008
144
1.0
145
0.0
146
1.0
147
1.0
170
       0
171
       4
172
       1
173
       0
174
       0
175
       0
176
       0
177
       0
178
       0
  0
ENDTAB
  0
ENDSEC
  0
SECTION
  2
BLOCKS
  0
BLOCK
  8
0
  6
BYBLOCK
 62
       0
  5
1B5
  2
_OPEN30
 70
       2
 10
0.0
 20
0.0
 30
0.0
  3
_OPEN30
  0
LINE
  8
0
  6
BYBLOCK
 62
       0
  5
1B6
 10
-1.0
 20
0.267949
 30
0.0
 11
0.0
 21
0.0
 31
0.0
  0
LINE
  8
0
  6
BYBLOCK
 62
       0
  5
1B7
 10
0.0
 20
0.0
 30
0.0
 11
-1.0
 21
-0.267949
 31
0.0
  0
LINE
  8
0
  6
BYBLOCK
 62
       0
  5
1B8
 10
0.0
 20
0.0
 30
0.0
 11
-1.0
 21
0.0
 31
0.0
  0
ENDBLK
  8
0
  6
BYBLOCK
 62
       0
  5
1B9
  0
ENDSEC
  0
SECTION
  2
ENTITIES
  0
LINE
  8
0
  6
CONTINUOUS
 62
       7
  5
1E
 10
-67.69175436
 20
-2.26755984
 30
0.0
 11
-68.69175442
 21
-1.26755984
 31
0.0
  0
LINE
  8
0
  6
CONTINUOUS
 62
       7
  5
1F
 10
-67.69175436
 20
-0.26755984
 30
0.0
 11
-68.69175442
 21
-1.26755984
 31
0.0
  0
LINE
  8
0
  6
CONTINUOUS
 62
       7
  5
20
 10
-20.59175448
 20
-0.26755984
 30
0.0
 11
-19.59175442
 21
-1.26755984
 31
0.0
  0
LINE
  8
0
  6
CONTINUOUS
 62
       7
  5
21
 10
-20.59175448
 20
-2.26755984
 30
0.0
 11
-19.59175442
 21
-1.26755984
 31
0.0
  0
LINE
  8
0
  6
CONTINUOUS
 62
       7
  5
22
 10
-66.09175442
 20
-4.76755984
 30
0.0
 11
-66.09175442
 21
2.23244016
 31
0.0
  0
LINE
  8
0
  6
CONTINUOUS
 62
       7
  5
23
 10
-68.69175442
 20
-2.16755984
 30
0.0
 11
-68.69175442
 21
-0.36755984
 31
0.0
  0
ARC
  8
0
  6
CONTINUOUS
 62
       7
  5
24
 10
-66.09175442
 20
-0.36755984
 30
0.0
 40
2.6
 50
90.0
 51
180.0
  0
ARC
  8
0
  6
CONTINUOUS
 62
       7
  5
25
 10
-66.09175442
 20
-2.16755984
 30
0.0
 40
2.6
 50
180.0
 51
270.0
  0
LINE
  8
0
  6
CONTINUOUS
 62
       7
  5
26
 10
-65.09175439
 20
-4.76755984
 30
0.0
 11
-66.09175439
 21
-4.76755984
 31
0.0
  0
LINE
  8
0
  6
CONTINUOUS
 62
       7
  5
27
 10
-65.09175439
 20
2.23244016
 30
0.0
 11
-66.09175439
 21
2.23244016
 31
0.0
  0
LINE
  8
0
  6
CONTINUOUS
 62
       7
  5
28
 10
-23.19175445
 20
-4.76755984
 30
0.0
 11
-22.19175445
 21
-4.76755984
 31
0.0
  0
LINE
  8
0
  6
CONTINUOUS
 62
       7
  5
29
 10
-23.19175445
 20
2.23244016
 30
0.0
 11
-22.19175445
 21
2.23244016
 31
0.0
  0
ARC
  8
0
  6
CONTINUOUS
 62
       7
  5
2A
 10
-22.19175442
 20
-2.16755984
 30
0.0
 40
2.6
 50
270.0
 51
0.0
  0
ARC
  8
0
  6
CONTINUOUS
 62
       7
  5
2B
 10
-22.19175442
 20
-0.36755984
 30
0.0
 40
2.6
 50
0.0
 51
90.0
  0
LINE
  8
0
  6
CONTINUOUS
 62
       7
  5
2C
 10
-19.59175442
 20
-2.16755984
 30
0.0
 11
-19.59175442
 21
-0.36755984
 31
0.0
  0
LINE
  8
0
  6
CONTINUOUS
 62
       7
  5
2D
 10
-22.19175442
 20
-4.76755984
 30
0.0
 11
-22.19175442
 21
2.23244016
 31
0.0
  0
ARC
  8
0
  6
CONTINUOUS
 62
       7
  5
2E
 10
-67.09175442
 20
-6.56755984
 30
0.0
 40
2.0
 50
270.0
 51
0.0
  0
ARC
  8
0
  6
CONTINUOUS
 62
       7
  5
2F
 10
-21.19175442
 20
-6.56755984
 30
0.0
 40
2.0
 50
180.0
 51
270.0
  0
LINE
  8
0
  6
CONTINUOUS
 62
       7
  5
30
 10
-72.64175442
 20
-8.56755984
 30
0.0
 11
-15.64175442
 21
-8.56755984
 31
0.0
  0
LINE
  8
0
  6
CONTINUOUS
 62
       7
  5
31
 10
-15.64175442
 20
-9.76755984
 30
0.0
 11
-15.64175442
 21
-8.56755984
 31
0.0
  0
LINE
  8
0
  6
CONTINUOUS
 62
       7
  5
32
 10
-72.64175442
 20
-9.76755984
 30
0.0
 11
-72.64175442
 21
-8.56755984
 31
0.0
  0
LINE
  8
0
  6
CONTINUOUS
 62
       7
  5
33
 10
-65.09175442
 20
-6.56755984
 30
0.0
 11
-65.09175442
 21
4.23244016
 31
0.0
  0
LINE
  8
0
  6
CONTINUOUS
 62
       7
  5
34
 10
-23.19175442
 20
-6.56755984
 30
0.0
 11
-23.19175442
 21
4.23244016
 31
0.0
  0
LINE
  8
0
  6
CONTINUOUS
 62
       7
  5
35
 10
-15.64175442
 20
-9.76755984
 30
0.0
 11
-72.64175442
 21
-9.76755984
 31
0.0
  0
LINE
  8
0
  6
DASHED
 62
       2
  5
37
 10
-65.14175444
 20
8.98244016
 30
0.0
 11
-55.1417545
 21
9.33164785
 31
0.0
  0
LINE
  8
0
  6
DASHED
 62
       2
  5
38
 10
-65.14175444
 20
22.48244016
 30
0.0
 11
-55.1417545
 21
22.13323247
 31
0.0
  0
LINE
  8
0
  6
DASHED
 62
       7
  5
39
 10
-64.14175442
 20
9.98244016
 30
0.0
 11
-64.14175442
 21
21.48244016
 31
0.0
  0
LINE
  8
0
  6
DASHED
 62
       7
  5
3A
 10
-64.14175442
 20
9.98244016
 30
0.0
 11
-65.14175442
 21
8.98244016
 31
0.0
  0
LINE
  8
0
  6
DASHED
 62
       7
  5
3B
 10
-64.14175442
 20
21.48244016
 30
0.0
 11
-65.14175442
 21
22.48244016
 31
0.0
  0
LINE
  8
0
  6
DASHED
 62
       7
  5
3C
 10
-64.14175442
 20
9.98244016
 30
0.0
 11
-55.14175442
 21
9.98244016
 31
0.0
  0
LINE
  8
0
  6
DASHED
 62
       7
  5
3D
 10
-64.14175442
 20
21.48244016
 30
0.0
 11
-55.14175442
 21
21.48244016
 31
0.0
  0
LINE
  8
0
  6
CONTINUOUS
 62
       2
  5
3E
 10
-70.56825523
 20
-1.26755984
 30
0.0
 11
-63.11725491
 21
-1.26755984
 31
0.0
  0
LINE
  8
0
  6
CONTINUOUS
 62
       7
  5
3F
 10
-65.14175442
 20
4.23244016
 30
0.0
 11
-23.14175442
 21
4.23244016
 31
0.0
  0
LINE
  8
0
  6
CONTINUOUS
 62
       2
  5
40
 10
-87.66368341
 20
15.73244016
 30
0.0
 11
-20.3339873
 21
15.73244016
 31
0.0
  0
LINE
  8
0
  6
CONTINUOUS
 62
       7
  5
41
 10
-23.14175442
 20
4.23244016
 30
0.0
 11
-23.14175442
 21
27.23244016
 31
0.0
  0
LINE
  8
0
  6
CONTINUOUS
 62
       7
  5
42
 10
-65.14175442
 20
4.23244016
 30
0.0
 11
-65.14175442
 21
27.23244016
 31
0.0
  0
LINE
  8
0
  6
CONTINUOUS
 62
       2
  5
43
 10
-44.14175442
 20
-12.82977908
 30
0.0
 11
-44.14175442
 21
54.40855152
 31
0.0
  0
LINE
  8
0
  6
CONTINUOUS
 62
       7
  5
44
 10
-35.39175442
 20
38.23244016
 30
0.0
 11
-35.39175442
 21
40.23244016
 31
0.0
  0
LINE
  8
0
  6
CONTINUOUS
 62
       7
  5
45
 10
-52.89175442
 20
38.23244016
 30
0.0
 11
-52.89175442
 21
40.15397829
 31
0.0
  0
ARC
  8
0
  6
CONTINUOUS
 62
       7
  5
46
 10
-51.64175442
 20
49.15397829
 30
0.0
 40
4.0
 50
90.0
 51
180.0
  0
LINE
  8
0
  6
CONTINUOUS
 62
       7
  5
47
 10
-55.64175442
 20
40.15397829
 30
0.0
 11
-32.64175442
 21
40.15397829
 31
0.0
  0
LINE
  8
0
  6
CONTINUOUS
 62
       7
  5
48
 10
-55.64175442
 20
40.15397829
 30
0.0
 11
-55.64175442
 21
49.15397829
 31
0.0
  0
LINE
  8
0
  6
CONTINUOUS
 62
       7
  5
49
 10
-51.64175442
 20
53.15397829
 30
0.0
 11
-36.64175442
 21
53.15397829
 31
0.0
  0
LINE
  8
0
  6
CONTINUOUS
 62
       7
  5
4A
 10
-32.64175442
 20
40.15397829
 30
0.0
 11
-32.64175442
 21
49.15397829
 31
0.0
  0
ARC
  8
0
  6
CONTINUOUS
 62
       7
  5
4B
 10
-36.64175442
 20
49.15397829
 30
0.0
 40
4.0
 50
0.0
 51
90.0
  0
LINE
  8
0
  6
CONTINUOUS
 62
       2
  5
4C
 10
-80.23251777
 20
43.23244016
 30
0.0
 11
-68.07024563
 21
43.23244016
 31
0.0
  0
ARC
  8
0
  6
CONTINUOUS
 62
       7
  5
4D
 10
-78.14175442
 20
31.23244016
 30
0.0
 40
4.0
 50
180.0
 51
270.0
  0
LINE
  8
0
  6
CONTINUOUS
 62
       7
  5
4E
 10
-82.14175442
 20
57.23244016
 30
0.0
 11
-82.14175442
 21
31.23244016
 31
0.0
  0
LINE
  8
0
  6
CONTINUOUS
 62
       7
  5
4F
 10
-66.14175442
 20
57.23244016
 30
0.0
 11
-66.14175442
 21
38.23244016
 31
0.0
  0
LINE
  8
0
  6
CONTINUOUS
 62
       2
  5
50
 10
-74.14175442
 20
62.14004107
 30
0.0
 11
-74.14175442
 21
36.33608599
 31
0.0
  0
LINE
  8
0
  6
CONTINUOUS
 62
       7
  5
51
 10
-21.29175442
 20
27.23244016
 30
0.0
 11
-21.29175442
 21
38.23244016
 31
0.0
  0
LINE
  8
0
  6
CONTINUOUS
 62
       7
  5
52
 10
-66.14175442
 20
38.23244016
 30
0.0
 11
-21.29175442
 21
38.23244016
 31
0.0
  0
LINE
  8
0
  6
CONTINUOUS
 62
       7
  5
53
 10
-78.14175442
 20
27.23244016
 30
0.0
 11
-21.29175442
 21
27.23244016
 31
0.0
  0
ARC
  8
0
  6
CONTINUOUS
 62
       7
  5
54
 10
-19.5856417
 20
34.83945091
 30
0.0
 40
1.3
 50
15.88085001
 51
84.99999998
  0
LINE
  8
0
  6
CONTINUOUS
 62
       7
  5
55
 10
-19.47233923
 20
36.13450402
 30
0.0
 11
-20.59175439
 21
36.23244016
 31
0.0
  0
ARC
  8
0
  6
CONTINUOUS
 62
       7
  5
56
 10
-19.5856417
 20
30.62542941
 30
0.0
 40
1.3
 50
275.00000002
 51
344.11914999
  0
LINE
  8
0
  6
CONTINUOUS
 62
       7
  5
57
 10
-19.47233923
 20
29.3303763
 30
0.0
 11
-20.59175439
 21
29.23244016
 31
0.0
  0
ARC
  8
0
  6
CONTINUOUS
 62
       7
  5
58
 10
-26.99175442
 20
32.73244016
 30
0.0
 40
9.0
 50
344.11914999
 51
15.88085001
  0
LINE
  8
0
  6
CONTINUOUS
 62
       7
  5
59
 10
-20.59175442
 20
36.48244016
 30
0.0
 11
-20.59175442
 21
28.98244016
 31
0.0
  0
LINE
  8
0
  6
CONTINUOUS
 62
       2
  5
5A
 10
-43.74054542
 20
52.02879993
 30
0.0
 11
-45.50701844
 21
79.22496241
 31
0.0
  0
LINE
  8
0
  6
CONTINUOUS
 62
       7
  5
5B
 10
-82.14175442
 20
56.32879313
 30
0.0
 11
-84.55572925
 21
44.23010209
 31
0.0
  0
LINE
  8
0
  6
CONTINUOUS
 62
       7
  5
5C
 10
-84.55572925
 20
44.23010209
 30
0.0
 11
-86.51707007
 21
44.62143595
 31
0.0
  0
ARC
  8
0
  6
CONTINUOUS
 62
       7
  5
5D
 10
-80.11946567
 20
61.35365225
 30
0.0
 40
3.0
 50
93.71631382
 51
168.71631382
  0
ARC
  8
0
  6
CONTINUOUS
 62
       7
  5
5E
 10
-80.11946567
 20
61.35365225
 30
0.0
 40
1.0
 50
100.49705138
 51
168.71631382
  0
LINE
  8
0
  6
CONTINUOUS
 62
       7
  5
5F
 10
-81.10013608
 20
61.54931918
 30
0.0
 11
-81.21617014
 21
60.96776374
 31
0.0
  0
LINE
  8
0
  6
CONTINUOUS
 62
       7
  5
60
 10
-83.0614769
 20
61.94065303
 30
0.0
 11
-86.51707007
 21
44.62143595
 31
0.0
  0
LINE
  8
0
  6
CONTINUOUS
 62
       7
  5
61
 10
-23.65734062
 20
66.82483108
 30
0.0
 11
-23.73512036
 21
68.02230773
 31
0.0
  0
ARC
  8
0
  6
CONTINUOUS
 62
       7
  5
62
 10
-9.34325263
 20
62.44340609
 30
0.0
 40
6.5
 50
273.71631382
 51
58.34172337
  0
LINE
  8
0
  6
CONTINUOUS
 62
       7
  5
63
 10
-80.313915
 20
64.34734387
 30
0.0
 11
-77.40590598
 21
64.53622785
 31
0.0
  0
LINE
  8
0
  6
CONTINUOUS
 62
       2
  5
64
 10
-78.93653795
 20
57.23244016
 30
0.0
 11
-69.3472518
 21
57.23244016
 31
0.0
  0
LINE
  8
0
  6
CONTINUOUS
 62
       2
  5
65
 10
-16.16634888
 20
32.73244016
 30
0.0
 11
-23.08533841
 21
32.73244016
 31
0.0
  0
LINE
  8
0
  6
CONTINUOUS
 62
       2
  5
66
 10
-24.24101116
 20
61.47575162
 30
0.0
 11
5.44575541
 21
63.40399691
 31
0.0
  0
LINE
  8
0
  6
CONTINUOUS
 62
       2
  5
67
 10
-8.02521924
 20
42.1513043
 30
0.0
 11
-10.30467183
 21
77.24516781
 31
0.0
  0
ARC
  8
0
  6
CONTINUOUS
 62
       7
  5
68
 10
-9.34325263
 20
62.4434061
 30
0.0
 40
13.0
 50
213.71631385
 51
159.65636246
  0
ARC
  8
0
  6
CONTINUOUS
 62
       7
  5
69
 10
-12.45553172
 20
71.78879099
 30
0.0
 40
1.0
 50
3.71631382
 51
108.41922593
  0
ARC
  8
0
  6
CONTINUOUS
 62
       7
  5
6A
 10
-12.26178812
 20
68.80596459
 30
0.0
 40
1.0
 50
294.64114625
 51
3.71631382
  0
ARC
  8
0
  6
CONTINUOUS
 62
       7
  5
6B
 10
-11.22045956
 20
52.77393899
 30
0.0
 40
1.0
 50
259.0134017
 51
3.71631382
  0
ARC
  8
0
  6
CONTINUOUS
 62
       7
  5
6C
 10
-6.23097355
 20
53.0980212
 30
0.0
 40
1.0
 50
183.71631382
 51
288.41922593
  0
ARC
  8
0
  6
CONTINUOUS
 62
       7
  5
6D
 10
-6.42471714
 20
56.0808476
 30
0.0
 40
1.0
 50
171.02877199
 51
183.71631382
  0
ARC
  8
0
  6
CONTINUOUS
 62
       7
  5
6E
 10
-2.65661193
 20
60.37245557
 30
0.0
 40
1.0
 50
93.71631382
 51
106.4038559
  0
ARC
  8
0
  6
CONTINUOUS
 62
       7
  5
6F
 10
0.32621447
 20
60.56619917
 30
0.0
 40
1.0
 50
349.0134017
 51
93.71631382
  0
ARC
  8
0
  6
CONTINUOUS
 62
       7
  5
70
 10
0.00213226
 20
65.55568518
 30
0.0
 40
1.0
 50
273.71631382
 51
18.41922593
  0
ARC
  8
0
  6
CONTINUOUS
 62
       7
  5
71
 10
-2.98069414
 20
65.36194159
 30
0.0
 40
1.0
 50
261.02877156
 51
273.71631382
  0
ARC
  8
0
  6
CONTINUOUS
 62
       7
  5
72
 10
-7.2723021
 20
69.1300468
 30
0.0
 40
1.0
 50
183.71631382
 51
252.79148139
  0
ARC
  8
0
  6
CONTINUOUS
 62
       7
  5
73
 10
-7.4660457
 20
72.1128732
 30
0.0
 40
1.0
 50
79.0134017
 51
183.71631382
  0
ARC
  8
0
  6
CONTINUOUS
 62
       7
  5
74
 10
-9.34325263
 20
62.4434061
 30
0.0
 40
10.85
 50
220.52023102
 51
259.0134017
  0
ARC
  8
0
  6
CONTINUOUS
 62
       7
  5
75
 10
-9.34325263
 20
62.4434061
 30
0.0
 40
6.0
 50
114.64114625
 51
121.66920052
  0
ARC
  8
0
  6
CONTINUOUS
 62
       7
  5
76
 10
-9.34325263
 20
62.4434061
 30
0.0
 40
6.0
 50
65.76342711
 51
72.79148139
  0
ARC
  8
0
  6
CONTINUOUS
 62
       7
  5
77
 10
-9.34325263
 20
62.4434061
 30
0.0
 40
10.85
 50
288.41922593
 51
349.0134017
  0
ARC
  8
0
  6
CONTINUOUS
 62
       7
  5
78
 10
-9.34325263
 20
62.4434061
 30
0.0
 40
10.85
 50
18.41922593
 51
79.0134017
  0
LINE
  8
0
  6
CONTINUOUS
 62
       7
  5
79
 10
0.26139803
 20
61.56409637
 30
0.0
 11
-2.72142837
 21
61.37035277
 31
0.0
  0
LINE
  8
0
  6
CONTINUOUS
 62
       7
  5
7A
 10
0.06694871
 20
64.55778798
 30
0.0
 11
-2.9158777
 21
64.36404438
 31
0.0
  0
LINE
  8
0
  6
CONTINUOUS
 62
       7
  5
7B
 10
-11.26389092
 20
68.87078103
 30
0.0
 11
-11.45763452
 21
71.85360744
 31
0.0
  0
LINE
  8
0
  6
CONTINUOUS
 62
       7
  5
7C
 10
-8.27019931
 20
69.06523036
 30
0.0
 11
-8.46394291
 21
72.04805676
 31
0.0
  0
LINE
  8
0
  6
CONTINUOUS
 62
       7
  5
7D
 10
-10.22256236
 20
52.83875543
 30
0.0
 11
-10.41630596
 21
55.82158183
 31
0.0
  0
LINE
  8
0
  6
CONTINUOUS
 62
       7
  5
7E
 10
-7.22887075
 20
53.03320476
 30
0.0
 11
-7.42261435
 21
56.01603116
 31
0.0
  0
ARC
  8
0
  6
CONTINUOUS
 62
       7
  5
7F
 10
-9.34325263
 20
62.4434061
 30
0.0
 40
10.85
 50
108.41922593
 51
154.47563701
  0
ARC
  8
0
  6
CONTINUOUS
 62
       7
  5
80
 10
-9.34325263
 20
62.4434061
 30
0.0
 40
12.5
 50
215.04856535
 51
158.62893077
  0
ARC
  8
0
  6
CONTINUOUS
 62
       7
  5
81
 10
-44.13771137
 20
58.14346431
 30
0.0
 40
5.0
 50
246.95252887
 51
300.48009876
  0
LINE
  8
0
  6
CONTINUOUS
 62
       7
  5
82
 10
-47.92878322
 20
77.93936728
 30
0.0
 11
-42.9392972
 21
78.26344948
 31
0.0
  0
LINE
  8
0
  6
CONTINUOUS
 62
       7
  5
83
 10
-42.9392972
 20
78.26344948
 30
0.0
 11
-42.4216377
 21
78.0077896
 31
0.0
  0
LINE
  8
0
  6
CONTINUOUS
 62
       7
  5
84
 10
-47.92878322
 20
77.93936728
 30
0.0
 11
-48.40902093
 21
77.61889094
 31
0.0
  0
LINE
  8
0
  6
CONTINUOUS
 62
       7
  5
85
 10
-48.40902093
 20
77.61889094
 30
0.0
 11
-42.4216377
 21
78.0077896
 31
0.0
  0
LINE
  8
0
  6
CONTINUOUS
 62
       7
  5
86
 10
-50.48126968
 20
66.73258746
 30
0.0
 11
-50.74746017
 21
70.83078764
 31
0.0
  0
LINE
  8
0
  6
CONTINUOUS
 62
       7
  5
87
 10
-47.60058858
 20
66.91969641
 30
0.0
 11
-47.86677908
 21
71.0178966
 31
0.0
  0
LINE
  8
0
  6
CONTINUOUS
 62
       7
  5
88
 10
-49.68044765
 20
66.33708024
 30
0.0
 11
-50.48126968
 21
66.73258746
 31
0.0
  0
ARC
  8
0
  6
CONTINUOUS
 62
       7
  5
89
 10
-49.17764261
 20
68.93094739
 30
0.0
 40
2.55582275
 50
239.33206635
 51
308.10056129
  0
LINE
  8
0
  6
CONTINUOUS
 62
       7
  5
8A
 10
-38.95854529
 20
67.48102326
 30
0.0
 11
-39.22473579
 21
71.57922345
 31
0.0
  0
LINE
  8
0
  6
CONTINUOUS
 62
       7
  5
8B
 10
-41.83922639
 20
67.29391431
 30
0.0
 11
-42.10541689
 21
71.3921145
 31
0.0
  0
ARC
  8
0
  6
CONTINUOUS
 62
       7
  5
8C
 10
-45.31018019
 20
76.19449156
 30
0.0
 40
9.55341801
 50
256.12836004
 51
291.30426759
  0
ARC
  8
0
  6
CONTINUOUS
 62
       7
  5
8D
 10
-40.53559932
 20
69.49227425
 30
0.0
 40
2.55582275
 50
239.33206635
 51
308.10056129
  0
LINE
  8
0
  6
CONTINUOUS
 62
       7
  5
8E
 10
-39.70147561
 20
66.98524466
 30
0.0
 11
-38.95854529
 21
67.48102326
 31
0.0
  0
LINE
  8
0
  6
CONTINUOUS
 62
       7
  5
8F
 10
-50.00452986
 20
71.32656625
 30
0.0
 11
-50.74746017
 21
70.83078764
 31
0.0
  0
ARC
  8
0
  6
CONTINUOUS
 62
       7
  5
90
 10
-49.17040615
 20
68.81953666
 30
0.0
 40
2.55582275
 50
59.33206635
 51
128.10056129
  0
ARC
  8
0
  6
CONTINUOUS
 62
       7
  5
91
 10
-44.39582528
 20
62.11731934
 30
0.0
 40
9.55341801
 50
76.12836004
 51
111.30426759
  0
ARC
  8
0
  6
CONTINUOUS
 62
       7
  5
92
 10
-40.52836286
 20
69.38086352
 30
0.0
 40
2.55582275
 50
59.33206635
 51
128.10056129
  0
LINE
  8
0
  6
CONTINUOUS
 62
       7
  5
93
 10
-40.02555782
 20
71.97473067
 30
0.0
 11
-39.22473579
 21
71.57922345
 31
0.0
  0
LINE
  8
0
  6
CONTINUOUS
 62
       7
  5
94
 10
-50.00452986
 20
71.32656625
 30
0.0
 11
-40.02555782
 21
71.97473067
 31
0.0
  0
LINE
  8
0
  6
CONTINUOUS
 62
       2
  5
95
 10
-48.00873545
 20
71.45619914
 30
0.0
 11
-48.40902093
 21
77.61889094
 31
0.0
  0
LINE
  8
0
  6
CONTINUOUS
 62
       7
  5
96
 10
-47.50978685
 20
71.48860736
 30
0.0
 11
-47.92878322
 21
77.93936728
 31
0.0
  0
LINE
  8
0
  6
CONTINUOUS
 62
       7
  5
97
 10
-42.52030083
 20
71.81268957
 30
0.0
 11
-42.9392972
 21
78.26344948
 31
0.0
  0
LINE
  8
0
  6
CONTINUOUS
 62
       2
  5
98
 10
-42.02135223
 20
71.84509779
 30
0.0
 11
-42.4216377
 21
78.0077896
 31
0.0
  0
LINE
  8
0
  6
CONTINUOUS
 62
       7
  5
99
 10
-66.14175442
 20
52.24047461
 30
0.0
 11
-8.92194576
 21
55.95707427
 31
0.0
  0
LINE
  8
0
  6
CONTINUOUS
 62
       7
  5
9A
 10
-23.65734062
 20
66.82483108
 30
0.0
 11
-5.93171501
 21
67.97616409
 31
0.0
  0
CIRCLE
  8
0
  6
CONTINUOUS
 62
       7
  5
9B
 10
-9.34325263
 20
62.4434061
 30
0.0
 40
4.0
  0
CIRCLE
  8
0
  6
CONTINUOUS
 62
       7
  5
9C
 10
-74.14175442
 20
43.23244016
 30
0.0
 40
4.0
  0
CIRCLE
  8
0
  6
CONTINUOUS
 62
       7
  5
9D
 10
-74.14175442
 20
57.23244016
 30
0.0
 40
4.0
  0
LINE
  8
0
  6
CONTINUOUS
 62
       7
  5
9E
 10
-20.59175442
 20
36.48244016
 30
0.0
 11
-21.29175442
 21
36.48244016
 31
0.0
  0
LINE
  8
0
  6
CONTINUOUS
 62
       7
  5
9F
 10
-20.59175442
 20
28.98244016
 30
0.0
 11
-21.29175442
 21
28.98244016
 31
0.0
  0
LINE
  8
0
  6
CONTINUOUS
 62
       7
  5
A0
 10
-17.99175442
 20
32.73244016
 30
0.0
 11
-19.28225735
 21
31.44193723
 31
0.0
  0
LINE
  8
0
  6
CONTINUOUS
 62
       7
  5
A1
 10
-17.99175442
 20
32.73244016
 30
0.0
 11
-19.28225735
 21
34.02294309
 31
0.0
  0
ARC
  8
0
  6
CONTINUOUS
 62
       7
  5
A2
 10
-74.14175442
 20
57.23244016
 30
0.0
 40
8.0
 50
0.0
 51
180.0
  0
LINE
  8
0
  6
CONTINUOUS
 62
       7
  5
A3
 10
-71.84984949
 20
64.89711052
 30
0.0
 11
-23.73512036
 21
68.02230773
 31
0.0
  0
LINE
  8
0
  6
CONTINUOUS
 62
       7
  5
A4
 10
-66.14175442
 20
36.77487668
 30
0.0
 11
-66.14175442
 21
28.35826535
 31
0.0
  0
LINE
  8
0
  6
CONTINUOUS
 62
       2
  5
A5
 10
-39.18655832
 20
32.73244016
 30
0.0
 11
-49.127543
 21
32.73244016
 31
0.0
  0
CIRCLE
  8
0
  6
CONTINUOUS
 62
       7
  5
A6
 10
-44.14175442
 20
32.73244016
 30
0.0
 40
3.75
  0
CIRCLE
  8
0
  6
CONTINUOUS
 62
       7
  5
A7
 10
-44.14175442
 20
32.73244016
 30
0.0
 40
3.5
  0
LINE
  8
0
  6
CONTINUOUS
 62
       7
  5
A8
 10
-45.47179696
 20
31.40239762
 30
0.0
 11
-42.81171188
 21
34.0624827
 31
0.0
  0
LINE
  8
0
  6
CONTINUOUS
 62
       7
  5
A9
 10
-45.47179696
 20
34.0624827
 30
0.0
 11
-42.81171188
 21
31.40239762
 31
0.0
  0
CIRCLE
  8
0
  6
CONTINUOUS
 62
       7
  5
AA
 10
-44.14175442
 20
-1.26755984
 30
0.0
 40
3.5
  0
LINE
  8
0
  6
CONTINUOUS
 62
       7
  5
AB
 10
-45.47179696
 20
0.0624827
 30
0.0
 11
-42.81171188
 21
-2.59760238
 31
0.0
  0
LINE
  8
0
  6
CONTINUOUS
 62
       7
  5
AC
 10
-45.47179696
 20
-2.59760238
 30
0.0
 11
-42.81171188
 21
0.0624827
 31
0.0
  0
LINE
  8
0
  6
CONTINUOUS
 62
       2
  5
AD
 10
-24.60127591
 20
-1.26755984
 30
0.0
 11
-17.71525361
 21
-1.26755984
 31
0.0
  0
LINE
  8
0
  6
CONTINUOUS
 62
       2
  5
AE
 10
-49.127543
 20
-1.26755984
 30
0.0
 11
-39.03370022
 21
-1.26755984
 31
0.0
  0
CIRCLE
  8
0
  6
CONTINUOUS
 62
       7
  5
AF
 10
-44.14175442
 20
15.73244016
 30
0.0
 40
5.72249985
  0
CIRCLE
  8
0
  6
CONTINUOUS
 62
       2
  5
B0
 10
-44.14175442
 20
15.73244016
 30
0.0
 40
6.57849979
  0
LINE
  8
0
  6
CONTINUOUS
 62
       7
  5
B1
 10
-35.64175442
 20
4.23244016
 30
0.0
 11
-35.64175442
 21
27.23244016
 31
0.0
  0
LINE
  8
0
  6
CONTINUOUS
 62
       7
  5
B2
 10
-52.64175442
 20
4.23244016
 30
0.0
 11
-52.64175442
 21
27.23244016
 31
0.0
  0
LINE
  8
0
  6
CONTINUOUS
 62
       7
  5
B3
 10
-63.34175442
 20
4.23244016
 30
0.0
 11
-63.34175442
 21
27.23244016
 31
0.0
  0
LINE
  8
0
  6
CONTINUOUS
 62
       7
  5
B4
 10
-39.64175442
 20
5.13244016
 30
0.0
 11
-39.64175442
 21
8.33244016
 31
0.0
  0
LINE
  8
0
  6
CONTINUOUS
 62
       7
  5
B5
 10
-48.64175442
 20
5.13244016
 30
0.0
 11
-48.64175442
 21
8.33244016
 31
0.0
  0
LINE
  8
0
  6
CONTINUOUS
 62
       7
  5
B6
 10
-48.64175442
 20
8.33244016
 30
0.0
 11
-39.64175442
 21
8.33244016
 31
0.0
  0
LINE
  8
0
  6
CONTINUOUS
 62
       7
  5
B7
 10
-48.64175442
 20
5.13244016
 30
0.0
 11
-39.64175442
 21
5.13244016
 31
0.0
  0
LINE
  8
0
  6
CONTINUOUS
 62
       7
  5
B8
 10
-48.64175442
 20
26.33244016
 30
0.0
 11
-48.64175442
 21
23.13244016
 31
0.0
  0
LINE
  8
0
  6
CONTINUOUS
 62
       7
  5
B9
 10
-48.64175442
 20
23.13244016
 30
0.0
 11
-39.64175442
 21
23.13244016
 31
0.0
  0
LINE
  8
0
  6
CONTINUOUS
 62
       7
  5
BA
 10
-39.64175442
 20
26.33244016
 30
0.0
 11
-39.64175442
 21
23.13244016
 31
0.0
  0
LINE
  8
0
  6
CONTINUOUS
 62
       7
  5
BB
 10
-48.64175442
 20
26.33244016
 30
0.0
 11
-39.64175442
 21
26.33244016
 31
0.0
  0
LINE
  8
0
  6
CONTINUOUS
 62
       2
  5
BC
 10
-75.91891751
 20
-54.76755984
 30
0.0
 11
-11.53556301
 21
-54.76755984
 31
0.0
  0
LINE
  8
0
  6
CONTINUOUS
 62
       7
  5
BD
 10
-64.64175442
 20
-26.26755984
 30
0.0
 11
-23.64175442
 21
-26.26755984
 31
0.0
  0
LINE
  8
0
  6
CONTINUOUS
 62
       7
  5
BE
 10
-64.64175442
 20
-83.26755984
 30
0.0
 11
-23.64175442
 21
-83.26755984
 31
0.0
  0
LINE
  8
0
  6
CONTINUOUS
 62
       7
  5
BF
 10
-15.64175442
 20
-34.26755984
 30
0.0
 11
-15.64175442
 21
-75.26755984
 31
0.0
  0
LINE
  8
0
  6
CONTINUOUS
 62
       7
  5
C0
 10
-72.64175442
 20
-34.26755984
 30
0.0
 11
-72.64175442
 21
-75.26755984
 31
0.0
  0
ARC
  8
0
  6
CONTINUOUS
 62
       7
  5
C1
 10
-23.64175442
 20
-34.26755984
 30
0.0
 40
8.0
 50
0.0
 51
90.0
  0
ARC
  8
0
  6
CONTINUOUS
 62
       7
  5
C2
 10
-64.64175442
 20
-34.26755984
 30
0.0
 40
8.0
 50
90.0
 51
180.0
  0
ARC
  8
0
  6
CONTINUOUS
 62
       7
  5
C3
 10
-64.64175442
 20
-75.26755984
 30
0.0
 40
8.0
 50
180.0
 51
270.0
  0
ARC
  8
0
  6
CONTINUOUS
 62
       7
  5
C4
 10
-23.64175442
 20
-75.26755984
 30
0.0
 40
8.0
 50
270.0
 51
0.0
  0
CIRCLE
  8
0
  6
CONTINUOUS
 62
       7
  5
C5
 10
-44.14175442
 20
-54.76755984
 30
0.0
 40
19.85
  0
LINE
  8
0
  6
CONTINUOUS
 62
       2
  5
C6
 10
-28.93146847
 20
-34.76755984
 30
0.0
 11
-19.6493121
 21
-34.76755984
 31
0.0
  0
LINE
  8
0
  6
CONTINUOUS
 62
       2
  5
C7
 10
-24.14175442
 20
-30.47125354
 30
0.0
 11
-24.14175442
 21
-39.34629779
 31
0.0
  0
CIRCLE
  8
0
  6
CONTINUOUS
 62
       7
  5
C8
 10
-24.14175442
 20
-34.76755984
 30
0.0
 40
2.75
  0
LINE
  8
0
  6
CONTINUOUS
 62
       2
  5
C9
 10
-64.14175442
 20
-39.55727389
 30
0.0
 11
-64.14175442
 21
-30.27511752
 31
0.0
  0
LINE
  8
0
  6
CONTINUOUS
 62
       2
  5
CA
 10
-68.43806073
 20
-34.76755984
 30
0.0
 11
-59.56301648
 21
-34.76755984
 31
0.0
  0
CIRCLE
  8
0
  6
CONTINUOUS
 62
       7
  5
CB
 10
-64.14175442
 20
-34.76755984
 30
0.0
 40
2.75
  0
LINE
  8
0
  6
CONTINUOUS
 62
       2
  5
CC
 10
-59.35204037
 20
-74.76755984
 30
0.0
 11
-68.63419674
 21
-74.76755984
 31
0.0
  0
LINE
  8
0
  6
CONTINUOUS
 62
       2
  5
CD
 10
-64.14175442
 20
-79.06386615
 30
0.0
 11
-64.14175442
 21
-70.1888219
 31
0.0
  0
CIRCLE
  8
0
  6
CONTINUOUS
 62
       7
  5
CE
 10
-64.14175442
 20
-74.76755984
 30
0.0
 40
2.75
  0
LINE
  8
0
  6
CONTINUOUS
 62
       2
  5
CF
 10
-24.14175442
 20
-69.97784579
 30
0.0
 11
-24.14175442
 21
-79.26000216
 31
0.0
  0
LINE
  8
0
  6
CONTINUOUS
 62
       2
  5
D0
 10
-19.84544812
 20
-74.76755984
 30
0.0
 11
-28.72049237
 21
-74.76755984
 31
0.0
  0
CIRCLE
  8
0
  6
CONTINUOUS
 62
       7
  5
D1
 10
-24.14175442
 20
-74.76755984
 30
0.0
 40
2.75
  0
CIRCLE
  8
0
  6
CONTINUOUS
 62
       7
  5
D2
 10
-44.14175442
 20
-54.76755984
 30
0.0
 40
15.95
  0
LINE
  8
0
  6
CONTINUOUS
 62
       7
  5
D3
 10
-36.09592109
 20
-54.26755984
 30
0.0
 11
-35.59592109
 21
-53.76755984
 31
0.0
  0
LINE
  8
0
  6
CONTINUOUS
 62
       7
  5
D4
 10
-36.09592109
 20
-54.26755984
 30
0.0
 11
-36.09592109
 21
-55.26755984
 31
0.0
  0
LINE
  8
0
  6
CONTINUOUS
 62
       7
  5
D5
 10
-36.09592109
 20
-55.26755984
 30
0.0
 11
-35.59592108
 21
-55.76755984
 31
0.0
  0
LINE
  8
0
  6
CONTINUOUS
 62
       7
  5
D6
 10
-36.09592109
 20
-55.26755984
 30
0.0
 11
-30.40084834
 21
-55.26755984
 31
0.0
  0
ARC
  8
0
  6
CONTINUOUS
 62
       7
  5
D7
 10
-31.54959416
 20
-56.76755984
 30
0.0
 40
1.0
 50
350.97515463
 51
90.0
  0
LINE
  8
0
  6
CONTINUOUS
 62
       7
  5
D8
 10
-31.54959416
 20
-55.76755984
 30
0.0
 11
-35.59592108
 21
-55.76755984
 31
0.0
  0
LINE
  8
0
  6
CONTINUOUS
 62
       7
  5
D9
 10
-36.09592109
 20
-54.26755984
 30
0.0
 11
-30.40084834
 21
-54.26755984
 31
0.0
  0
ARC
  8
0
  6
CONTINUOUS
 62
       7
  5
DA
 10
-31.54959416
 20
-52.76755984
 30
0.0
 40
1.0
 50
270.0
 51
9.02484537
  0
LINE
  8
0
  6
CONTINUOUS
 62
       7
  5
DB
 10
-31.54959416
 20
-53.76755984
 30
0.0
 11
-35.59592109
 21
-53.76755984
 31
0.0
  0
LINE
  8
0
  6
CONTINUOUS
 62
       7
  5
DC
 10
-43.64175442
 20
-62.81339317
 30
0.0
 11
-43.14175442
 21
-63.31339317
 31
0.0
  0
LINE
  8
0
  6
CONTINUOUS
 62
       7
  5
DD
 10
-43.64175442
 20
-62.81339317
 30
0.0
 11
-44.64175442
 21
-62.81339317
 31
0.0
  0
LINE
  8
0
  6
CONTINUOUS
 62
       7
  5
DE
 10
-44.64175442
 20
-62.81339317
 30
0.0
 11
-45.14175442
 21
-63.31339318
 31
0.0
  0
LINE
  8
0
  6
CONTINUOUS
 62
       7
  5
DF
 10
-44.64175442
 20
-62.81339317
 30
0.0
 11
-44.64175442
 21
-68.50846592
 31
0.0
  0
ARC
  8
0
  6
CONTINUOUS
 62
       7
  5
E0
 10
-46.14175442
 20
-67.3597201
 30
0.0
 40
1.0
 50
260.97515463
 51
0.0
  0
LINE
  8
0
  6
CONTINUOUS
 62
       7
  5
E1
 10
-45.14175442
 20
-67.3597201
 30
0.0
 11
-45.14175442
 21
-63.31339318
 31
0.0
  0
LINE
  8
0
  6
CONTINUOUS
 62
       7
  5
E2
 10
-43.64175442
 20
-62.81339317
 30
0.0
 11
-43.64175442
 21
-68.50846592
 31
0.0
  0
ARC
  8
0
  6
CONTINUOUS
 62
       7
  5
E3
 10
-42.14175442
 20
-67.3597201
 30
0.0
 40
1.0
 50
180.0
 51
279.02484537
  0
LINE
  8
0
  6
CONTINUOUS
 62
       7
  5
E4
 10
-43.14175442
 20
-67.3597201
 30
0.0
 11
-43.14175442
 21
-63.31339317
 31
0.0
  0
LINE
  8
0
  6
CONTINUOUS
 62
       7
  5
E5
 10
-52.18758775
 20
-55.26755985
 30
0.0
 11
-52.68758775
 21
-55.76755984
 31
0.0
  0
LINE
  8
0
  6
CONTINUOUS
 62
       7
  5
E6
 10
-52.18758775
 20
-55.26755985
 30
0.0
 11
-52.18758775
 21
-54.26755985
 31
0.0
  0
LINE
  8
0
  6
CONTINUOUS
 62
       7
  5
E7
 10
-52.18758775
 20
-54.26755985
 30
0.0
 11
-52.68758776
 21
-53.76755984
 31
0.0
  0
LINE
  8
0
  6
CONTINUOUS
 62
       7
  5
E8
 10
-52.18758775
 20
-54.26755985
 30
0.0
 11
-57.88266051
 21
-54.26755985
 31
0.0
  0
ARC
  8
0
  6
CONTINUOUS
 62
       7
  5
E9
 10
-56.73391468
 20
-52.76755984
 30
0.0
 40
1.0
 50
170.97515463
 51
270.0
  0
LINE
  8
0
  6
CONTINUOUS
 62
       7
  5
EA
 10
-56.73391468
 20
-53.76755984
 30
0.0
 11
-52.68758776
 21
-53.76755984
 31
0.0
  0
LINE
  8
0
  6
CONTINUOUS
 62
       7
  5
EB
 10
-52.18758775
 20
-55.26755985
 30
0.0
 11
-57.8826605
 21
-55.26755985
 31
0.0
  0
ARC
  8
0
  6
CONTINUOUS
 62
       7
  5
EC
 10
-56.73391468
 20
-56.76755984
 30
0.0
 40
1.0
 50
90.0
 51
189.02484537
  0
LINE
  8
0
  6
CONTINUOUS
 62
       7
  5
ED
 10
-56.73391468
 20
-55.76755984
 30
0.0
 11
-52.68758775
 21
-55.76755984
 31
0.0
  0
LINE
  8
0
  6
CONTINUOUS
 62
       7
  5
EE
 10
-43.64175443
 20
-46.72172651
 30
0.0
 11
-43.64175443
 21
-41.02665376
 31
0.0
  0
LINE
  8
0
  6
CONTINUOUS
 62
       7
  5
EF
 10
-44.64175443
 20
-46.72172651
 30
0.0
 11
-44.64175443
 21
-41.02665376
 31
0.0
  0
ARC
  8
0
  6
CONTINUOUS
 62
       7
  5
F0
 10
-46.14175442
 20
-42.17539958
 30
0.0
 40
1.0
 50
0.0
 51
99.02484537
  0
ARC
  8
0
  6
CONTINUOUS
 62
       7
  5
F1
 10
-42.14175442
 20
-42.17539958
 30
0.0
 40
1.0
 50
80.97515463
 51
180.0
  0
LINE
  8
0
  6
CONTINUOUS
 62
       7
  5
F2
 10
-44.64175443
 20
-46.72172651
 30
0.0
 11
-45.14175442
 21
-46.22172651
 31
0.0
  0
LINE
  8
0
  6
CONTINUOUS
 62
       7
  5
F3
 10
-43.64175443
 20
-46.72172651
 30
0.0
 11
-43.14175442
 21
-46.2217265
 31
0.0
  0
LINE
  8
0
  6
CONTINUOUS
 62
       7
  5
F4
 10
-45.14175442
 20
-42.17539958
 30
0.0
 11
-45.14175442
 21
-46.22172651
 31
0.0
  0
LINE
  8
0
  6
CONTINUOUS
 62
       7
  5
F5
 10
-43.14175442
 20
-42.17539958
 30
0.0
 11
-43.14175442
 21
-46.2217265
 31
0.0
  0
LINE
  8
0
  6
CONTINUOUS
 62
       7
  5
F6
 10
-44.64175443
 20
-46.72172651
 30
0.0
 11
-43.64175443
 21
-46.72172651
 31
0.0
  0
CIRCLE
  8
0
  6
CONTINUOUS
 62
       7
  5
F7
 10
-44.14175442
 20
-54.76755984
 30
0.0
 40
6.35
  0
CIRCLE
  8
0
  6
CONTINUOUS
 62
       7
  5
F8
 10
-44.14175442
 20
-54.76755984
 30
0.0
 40
15.8
  0
ARC
  8
0
  6
CONTINUOUS
 62
       7
  5
F9
 10
-44.14175442
 20
-54.76755984
 30
0.0
 40
13.75
 50
310.41148756
 51
229.58851244
  0
ARC
  8
0
  6
CONTINUOUS
 62
       7
  5
FA
 10
-44.14175442
 20
-55.26755984
 30
0.0
 40
14.5
 50
316.03010052
 51
223.96989948
  0
ARC
  8
0
  6
CONTINUOUS
 62
       7
  5
FB
 10
-37.24145546
 20
-66.71922822
 30
0.0
 40
2.5
 50
36.43900503
 51
199.56315723
  0
LINE
  8
0
  6
CONTINUOUS
 62
       7
  5
FC
 10
-39.59713787
 20
-67.55634255
 30
0.0
 11
-38.85119186
 21
-69.65547265
 31
0.0
  0
ARC
  8
0
  6
CONTINUOUS
 62
       7
  5
FD
 10
-34.42574175
 20
-64.6403448
 30
0.0
 40
1.0
 50
216.43900503
 51
316.03010052
  0
CIRCLE
  8
0
  6
CONTINUOUS
 62
       7
  5
FE
 10
-37.24145546
 20
-66.71922822
 30
0.0
 40
1.0
  0
ARC
  8
0
  6
CONTINUOUS
 62
       7
  5
FF
 10
-51.04205338
 20
-66.71922822
 30
0.0
 40
2.5
 50
340.43684277
 51
143.56099497
  0
CIRCLE
  8
0
  6
CONTINUOUS
 62
       7
  5
100
 10
-51.04205338
 20
-66.71922822
 30
0.0
 40
1.0
  0
ARC
  8
0
  6
CONTINUOUS
 62
       7
  5
101
 10
-53.85776709
 20
-64.6403448
 30
0.0
 40
1.0
 50
223.96989948
 51
323.56099497
  0
LINE
  8
0
  6
CONTINUOUS
 62
       7
  5
102
 10
-48.68637097
 20
-67.55634255
 30
0.0
 11
-49.43231698
 21
-69.65547265
 31
0.0
  0
ARC
  8
0
  6
CONTINUOUS
 62
       7
  5
103
 10
-44.14175442
 20
-54.76755984
 30
0.0
 40
13.75
 50
250.43684277
 51
289.56315717
  0
LINE
  8
0
  6
CONTINUOUS
 62
       7
  5
104
 10
46.65824558
 20
4.23244016
 30
0.0
 11
46.65824558
 21
27.23244016
 31
0.0
  0
CIRCLE
  8
0
  6
DASHED
 62
       2
  5
105
 10
65.85824558
 20
15.73244016
 30
0.0
 40
6.57849979
  0
CIRCLE
  8
0
  6
DASHED
 62
       7
  5
106
 10
65.85824558
 20
15.73244016
 30
0.0
 40
5.72249985
  0
LINE
  8
0
  6
CONTINUOUS
 62
       2
  5
107
 10
60.872457
 20
-1.26755984
 30
0.0
 11
70.96629978
 21
-1.26755984
 31
0.0
  0
LINE
  8
0
  6
CONTINUOUS
 62
       2
  5
108
 10
85.39872409
 20
-1.26755984
 30
0.0
 11
92.28474639
 21
-1.26755984
 31
0.0
  0
LINE
  8
0
  6
CONTINUOUS
 62
       7
  5
109
 10
64.52820304
 20
-2.59760238
 30
0.0
 11
67.18828812
 21
0.0624827
 31
0.0
  0
LINE
  8
0
  6
CONTINUOUS
 62
       7
  5
10A
 10
64.52820304
 20
0.0624827
 30
0.0
 11
67.18828812
 21
-2.59760238
 31
0.0
  0
CIRCLE
  8
0
  6
CONTINUOUS
 62
       7
  5
10B
 10
65.85824558
 20
-1.26755984
 30
0.0
 40
3.5
  0
LINE
  8
0
  6
CONTINUOUS
 62
       7
  5
10C
 10
64.52820304
 20
34.0624827
 30
0.0
 11
67.18828812
 21
31.40239762
 31
0.0
  0
LINE
  8
0
  6
CONTINUOUS
 62
       7
  5
10D
 10
64.52820304
 20
31.40239762
 30
0.0
 11
67.18828812
 21
34.0624827
 31
0.0
  0
CIRCLE
  8
0
  6
CONTINUOUS
 62
       7
  5
10E
 10
65.85824558
 20
32.73244016
 30
0.0
 40
3.5
  0
CIRCLE
  8
0
  6
CONTINUOUS
 62
       7
  5
10F
 10
65.85824558
 20
32.73244016
 30
0.0
 40
3.75
  0
LINE
  8
0
  6
CONTINUOUS
 62
       2
  5
110
 10
70.81344168
 20
32.73244016
 30
0.0
 11
60.872457
 21
32.73244016
 31
0.0
  0
LINE
  8
0
  6
CONTINUOUS
 62
       7
  5
111
 10
92.00824558
 20
32.73244016
 30
0.0
 11
90.71774265
 21
34.02294309
 31
0.0
  0
LINE
  8
0
  6
CONTINUOUS
 62
       7
  5
112
 10
92.00824558
 20
32.73244016
 30
0.0
 11
90.71774265
 21
31.44193723
 31
0.0
  0
LINE
  8
0
  6
CONTINUOUS
 62
       7
  5
113
 10
89.40824558
 20
28.98244016
 30
0.0
 11
88.70824558
 21
28.98244016
 31
0.0
  0
LINE
  8
0
  6
CONTINUOUS
 62
       7
  5
114
 10
89.40824558
 20
36.48244016
 30
0.0
 11
88.70824558
 21
36.48244016
 31
0.0
  0
LINE
  8
0
  6
CONTINUOUS
 62
       2
  5
115
 10
93.83365112
 20
32.73244016
 30
0.0
 11
86.91466159
 21
32.73244016
 31
0.0
  0
LINE
  8
0
  6
CONTINUOUS
 62
       7
  5
116
 10
89.40824558
 20
36.48244016
 30
0.0
 11
89.40824558
 21
28.98244016
 31
0.0
  0
ARC
  8
0
  6
CONTINUOUS
 62
       7
  5
117
 10
83.00824558
 20
32.73244016
 30
0.0
 40
9.0
 50
344.11914999
 51
15.88085001
  0
LINE
  8
0
  6
CONTINUOUS
 62
       7
  5
118
 10
90.52766077
 20
29.3303763
 30
0.0
 11
89.40824561
 21
29.23244016
 31
0.0
  0
ARC
  8
0
  6
CONTINUOUS
 62
       7
  5
119
 10
90.4143583
 20
30.62542941
 30
0.0
 40
1.3
 50
275.00000002
 51
344.11914999
  0
LINE
  8
0
  6
CONTINUOUS
 62
       7
  5
11A
 10
90.52766077
 20
36.13450402
 30
0.0
 11
89.40824561
 21
36.23244016
 31
0.0
  0
ARC
  8
0
  6
CONTINUOUS
 62
       7
  5
11B
 10
90.4143583
 20
34.83945091
 30
0.0
 40
1.3
 50
15.88085001
 51
84.99999998
  0
LINE
  8
0
  6
CONTINUOUS
 62
       7
  5
11C
 10
43.00824558
 20
27.23244016
 30
0.0
 11
88.70824558
 21
27.23244016
 31
0.0
  0
LINE
  8
0
  6
CONTINUOUS
 62
       7
  5
11D
 10
43.00824558
 20
38.23244016
 30
0.0
 11
88.70824558
 21
38.23244016
 31
0.0
  0
LINE
  8
0
  6
CONTINUOUS
 62
       7
  5
11E
 10
88.70824558
 20
27.23244016
 30
0.0
 11
88.70824558
 21
38.23244016
 31
0.0
  0
LINE
  8
0
  6
CONTINUOUS
 62
       7
  5
11F
 10
61.15824558
 20
53.15397829
 30
0.0
 11
59.85824558
 21
53.15397829
 31
0.0
  0
ARC
  8
0
  6
CONTINUOUS
 62
       7
  5
120
 10
73.35824558
 20
49.15397829
 30
0.0
 40
4.0
 50
0.0
 51
90.0
  0
LINE
  8
0
  6
CONTINUOUS
 62
       7
  5
121
 10
70.55824558
 20
53.15397829
 30
0.0
 11
71.85824558
 21
53.15397829
 31
0.0
  0
LINE
  8
0
  6
CONTINUOUS
 62
       7
  5
122
 10
54.35824558
 20
40.15397829
 30
0.0
 11
77.35824558
 21
40.15397829
 31
0.0
  0
ARC
  8
0
  6
CONTINUOUS
 62
       7
  5
123
 10
58.35824558
 20
49.15397829
 30
0.0
 40
4.0
 50
90.0
 51
180.0
  0
LINE
  8
0
  6
CONTINUOUS
 62
       7
  5
124
 10
57.10824558
 20
38.23244016
 30
0.0
 11
57.10824558
 21
40.15397829
 31
0.0
  0
LINE
  8
0
  6
CONTINUOUS
 62
       7
  5
125
 10
74.60824558
 20
38.23244016
 30
0.0
 11
74.60824558
 21
40.23244016
 31
0.0
  0
LINE
  8
0
  6
CONTINUOUS
 62
       7
  5
126
 10
44.85824558
 20
4.23244016
 30
0.0
 11
44.85824558
 21
27.23244016
 31
0.0
  0
LINE
  8
0
  6
CONTINUOUS
 62
       7
  5
127
 10
86.85824558
 20
4.23244016
 30
0.0
 11
86.85824558
 21
27.23244016
 31
0.0
  0
LINE
  8
0
  6
CONTINUOUS
 62
       2
  5
128
 10
41.17606965
 20
15.73244016
 30
0.0
 11
89.6660127
 21
15.73244016
 31
0.0
  0
LINE
  8
0
  6
CONTINUOUS
 62
       7
  5
129
 10
44.85824558
 20
4.23244016
 30
0.0
 11
86.85824558
 21
4.23244016
 31
0.0
  0
LINE
  8
0
  6
CONTINUOUS
 62
       2
  5
12A
 10
39.43174477
 20
-1.26755984
 30
0.0
 11
46.88274509
 21
-1.26755984
 31
0.0
  0
LINE
  8
0
  6
DASHED
 62
       7
  5
12B
 10
45.85824558
 20
21.48244016
 30
0.0
 11
54.85824558
 21
21.48244016
 31
0.0
  0
LINE
  8
0
  6
DASHED
 62
       7
  5
12C
 10
45.85824558
 20
9.98244016
 30
0.0
 11
54.85824558
 21
9.98244016
 31
0.0
  0
LINE
  8
0
  6
DASHED
 62
       7
  5
12D
 10
45.85824558
 20
21.48244016
 30
0.0
 11
44.85824558
 21
22.48244016
 31
0.0
  0
LINE
  8
0
  6
DASHED
 62
       7
  5
12E
 10
45.85824558
 20
9.98244016
 30
0.0
 11
44.85824558
 21
8.98244016
 31
0.0
  0
LINE
  8
0
  6
DASHED
 62
       7
  5
12F
 10
45.85824558
 20
9.98244016
 30
0.0
 11
45.85824558
 21
21.48244016
 31
0.0
  0
LINE
  8
0
  6
DASHED
 62
       2
  5
130
 10
44.85824556
 20
22.48244016
 30
0.0
 11
54.8582455
 21
22.13323247
 31
0.0
  0
LINE
  8
0
  6
DASHED
 62
       2
  5
131
 10
44.85824556
 20
8.98244016
 30
0.0
 11
54.8582455
 21
9.33164785
 31
0.0
  0
LINE
  8
0
  6
CONTINUOUS
 62
       7
  5
132
 10
94.35824558
 20
-9.76755984
 30
0.0
 11
37.35824558
 21
-9.76755984
 31
0.0
  0
LINE
  8
0
  6
CONTINUOUS
 62
       7
  5
133
 10
86.80824558
 20
-6.56755984
 30
0.0
 11
86.80824558
 21
4.23244016
 31
0.0
  0
LINE
  8
0
  6
CONTINUOUS
 62
       7
  5
134
 10
44.90824558
 20
-6.56755984
 30
0.0
 11
44.90824558
 21
4.23244016
 31
0.0
  0
LINE
  8
0
  6
CONTINUOUS
 62
       7
  5
135
 10
37.35824558
 20
-9.76755984
 30
0.0
 11
37.35824558
 21
-8.56755984
 31
0.0
  0
LINE
  8
0
  6
CONTINUOUS
 62
       7
  5
136
 10
94.35824558
 20
-9.76755984
 30
0.0
 11
94.35824558
 21
-8.56755984
 31
0.0
  0
LINE
  8
0
  6
CONTINUOUS
 62
       7
  5
137
 10
37.35824558
 20
-8.56755984
 30
0.0
 11
94.35824558
 21
-8.56755984
 31
0.0
  0
ARC
  8
0
  6
CONTINUOUS
 62
       7
  5
138
 10
88.80824558
 20
-6.56755984
 30
0.0
 40
2.0
 50
180.0
 51
270.0
  0
ARC
  8
0
  6
CONTINUOUS
 62
       7
  5
139
 10
42.90824558
 20
-6.56755984
 30
0.0
 40
2.0
 50
270.0
 51
0.0
  0
LINE
  8
0
  6
CONTINUOUS
 62
       7
  5
13A
 10
87.80824558
 20
-4.76755984
 30
0.0
 11
87.80824558
 21
2.23244016
 31
0.0
  0
LINE
  8
0
  6
CONTINUOUS
 62
       7
  5
13B
 10
90.40824558
 20
-2.16755984
 30
0.0
 11
90.40824558
 21
-0.36755984
 31
0.0
  0
ARC
  8
0
  6
CONTINUOUS
 62
       7
  5
13C
 10
87.80824558
 20
-0.36755984
 30
0.0
 40
2.6
 50
0.0
 51
90.0
  0
ARC
  8
0
  6
CONTINUOUS
 62
       7
  5
13D
 10
87.80824558
 20
-2.16755984
 30
0.0
 40
2.6
 50
270.0
 51
0.0
  0
LINE
  8
0
  6
CONTINUOUS
 62
       7
  5
13E
 10
86.80824555
 20
2.23244016
 30
0.0
 11
87.80824555
 21
2.23244016
 31
0.0
  0
LINE
  8
0
  6
CONTINUOUS
 62
       7
  5
13F
 10
86.80824555
 20
-4.76755984
 30
0.0
 11
87.80824555
 21
-4.76755984
 31
0.0
  0
LINE
  8
0
  6
CONTINUOUS
 62
       7
  5
140
 10
44.90824561
 20
2.23244016
 30
0.0
 11
43.90824561
 21
2.23244016
 31
0.0
  0
LINE
  8
0
  6
CONTINUOUS
 62
       7
  5
141
 10
44.90824561
 20
-4.76755984
 30
0.0
 11
43.90824561
 21
-4.76755984
 31
0.0
  0
ARC
  8
0
  6
CONTINUOUS
 62
       7
  5
142
 10
43.90824558
 20
-2.16755984
 30
0.0
 40
2.6
 50
180.0
 51
270.0
  0
ARC
  8
0
  6
CONTINUOUS
 62
       7
  5
143
 10
43.90824558
 20
-0.36755984
 30
0.0
 40
2.6
 50
90.0
 51
180.0
  0
LINE
  8
0
  6
CONTINUOUS
 62
       7
  5
144
 10
41.30824558
 20
-2.16755984
 30
0.0
 11
41.30824558
 21
-0.36755984
 31
0.0
  0
LINE
  8
0
  6
CONTINUOUS
 62
       7
  5
145
 10
43.90824558
 20
-4.76755984
 30
0.0
 11
43.90824558
 21
2.23244016
 31
0.0
  0
LINE
  8
0
  6
CONTINUOUS
 62
       7
  5
146
 10
89.40824552
 20
-2.26755984
 30
0.0
 11
90.40824558
 21
-1.26755984
 31
0.0
  0
LINE
  8
0
  6
CONTINUOUS
 62
       7
  5
147
 10
89.40824552
 20
-0.26755984
 30
0.0
 11
90.40824558
 21
-1.26755984
 31
0.0
  0
LINE
  8
0
  6
CONTINUOUS
 62
       7
  5
148
 10
42.30824564
 20
-0.26755984
 30
0.0
 11
41.30824558
 21
-1.26755984
 31
0.0
  0
LINE
  8
0
  6
CONTINUOUS
 62
       7
  5
149
 10
42.30824564
 20
-2.26755984
 30
0.0
 11
41.30824558
 21
-1.26755984
 31
0.0
  0
LINE
  8
0
  6
CONTINUOUS
 62
       7
  5
14A
 10
85.05824558
 20
4.23244016
 30
0.0
 11
85.05824558
 21
27.23244016
 31
0.0
  0
LINE
  8
0
  6
DASHED
 62
       7
  5
14B
 10
85.85824558
 20
21.48244016
 30
0.0
 11
76.85824558
 21
21.48244016
 31
0.0
  0
LINE
  8
0
  6
DASHED
 62
       7
  5
14C
 10
85.85824558
 20
21.48244016
 30
0.0
 11
86.85824558
 21
22.48244016
 31
0.0
  0
LINE
  8
0
  6
DASHED
 62
       7
  5
14D
 10
85.85824558
 20
9.98244016
 30
0.0
 11
85.85824558
 21
21.48244016
 31
0.0
  0
LINE
  8
0
  6
DASHED
 62
       2
  5
14E
 10
86.85824559
 20
22.48244016
 30
0.0
 11
76.85824565
 21
22.13323247
 31
0.0
  0
LINE
  8
0
  6
DASHED
 62
       7
  5
14F
 10
85.85824558
 20
9.98244016
 30
0.0
 11
76.85824558
 21
9.98244016
 31
0.0
  0
LINE
  8
0
  6
DASHED
 62
       7
  5
150
 10
85.85824558
 20
9.98244016
 30
0.0
 11
86.85824558
 21
8.98244016
 31
0.0
  0
LINE
  8
0
  6
DASHED
 62
       2
  5
151
 10
86.85824559
 20
8.98244016
 30
0.0
 11
76.85824565
 21
9.33164785
 31
0.0
  0
LINE
  8
0
  6
CONTINUOUS
 62
       7
  5
152
 10
42.30824558
 20
36.48244016
 30
0.0
 11
42.30824558
 21
28.98244016
 31
0.0
  0
LINE
  8
0
  6
CONTINUOUS
 62
       7
  5
153
 10
43.00824558
 20
27.23244016
 30
0.0
 11
43.00824558
 21
38.23244016
 31
0.0
  0
ARC
  8
0
  6
CONTINUOUS
 62
       7
  5
154
 10
41.30213285
 20
34.83945091
 30
0.0
 40
1.3
 50
95.00000002
 51
164.11914999
  0
LINE
  8
0
  6
CONTINUOUS
 62
       7
  5
155
 10
41.18883039
 20
36.13450402
 30
0.0
 11
42.30824554
 21
36.23244016
 31
0.0
  0
ARC
  8
0
  6
CONTINUOUS
 62
       7
  5
156
 10
41.30213285
 20
30.62542941
 30
0.0
 40
1.3
 50
195.88085001
 51
264.99999998
  0
LINE
  8
0
  6
CONTINUOUS
 62
       7
  5
157
 10
41.18883039
 20
29.3303763
 30
0.0
 11
42.30824554
 21
29.23244016
 31
0.0
  0
ARC
  8
0
  6
CONTINUOUS
 62
       7
  5
158
 10
48.70824558
 20
32.73244016
 30
0.0
 40
9.0
 50
164.11914999
 51
195.88085001
  0
LINE
  8
0
  6
CONTINUOUS
 62
       2
  5
159
 10
37.88284003
 20
32.73244016
 30
0.0
 11
44.80182956
 21
32.73244016
 31
0.0
  0
LINE
  8
0
  6
CONTINUOUS
 62
       7
  5
15A
 10
42.30824558
 20
36.48244016
 30
0.0
 11
43.00824558
 21
36.48244016
 31
0.0
  0
LINE
  8
0
  6
CONTINUOUS
 62
       7
  5
15B
 10
39.70824558
 20
32.73244016
 30
0.0
 11
40.99874851
 21
31.44193723
 31
0.0
  0
LINE
  8
0
  6
CONTINUOUS
 62
       7
  5
15C
 10
39.70824558
 20
32.73244016
 30
0.0
 11
40.99874851
 21
34.02294309
 31
0.0
  0
LINE
  8
0
  6
CONTINUOUS
 62
       7
  5
15D
 10
42.30824558
 20
28.98244016
 30
0.0
 11
43.00824558
 21
28.98244016
 31
0.0
  0
LINE
  8
0
  6
CONTINUOUS
 62
       2
  5
15E
 10
65.85824558
 20
-12.82977908
 30
0.0
 11
65.85824558
 21
81.6620225
 31
0.0
  0
LINE
  8
0
  6
CONTINUOUS
 62
       7
  5
15F
 10
63.35824558
 20
78.10140838
 30
0.0
 11
68.35824558
 21
78.10140838
 31
0.0
  0
LINE
  8
0
  6
CONTINUOUS
 62
       7
  5
160
 10
68.35824558
 20
78.10140838
 30
0.0
 11
68.85824558
 21
77.81273325
 31
0.0
  0
LINE
  8
0
  6
CONTINUOUS
 62
       7
  5
161
 10
63.35824558
 20
78.10140838
 30
0.0
 11
62.85824558
 21
77.81273325
 31
0.0
  0
LINE
  8
0
  6
CONTINUOUS
 62
       7
  5
162
 10
62.85824558
 20
77.81273325
 30
0.0
 11
68.85824558
 21
77.81273325
 31
0.0
  0
LINE
  8
0
  6
CONTINUOUS
 62
       7
  5
163
 10
60.08474289
 20
67.08363723
 30
0.0
 11
60.08474289
 21
71.19047326
 31
0.0
  0
LINE
  8
0
  6
CONTINUOUS
 62
       7
  5
164
 10
60.35824558
 20
66.92573038
 30
0.0
 11
60.08474289
 21
67.08363723
 31
0.0
  0
ARC
  8
0
  6
CONTINUOUS
 62
       7
  5
165
 10
61.52811856
 20
69.19287799
 30
0.0
 40
2.55582275
 50
235.61575253
 51
242.75936967
  0
LINE
  8
0
  6
CONTINUOUS
 62
       7
  5
166
 10
71.63174827
 20
67.08363723
 30
0.0
 11
71.63174827
 21
71.19047326
 31
0.0
  0
ARC
  8
0
  6
CONTINUOUS
 62
       7
  5
167
 10
70.1883726
 20
69.19287799
 30
0.0
 40
2.55582275
 50
297.24063033
 51
304.38424747
  0
LINE
  8
0
  6
CONTINUOUS
 62
       7
  5
168
 10
71.35824558
 20
66.92573038
 30
0.0
 11
71.63174827
 21
67.08363723
 31
0.0
  0
LINE
  8
0
  6
CONTINUOUS
 62
       7
  5
169
 10
60.85824558
 20
71.63705524
 30
0.0
 11
60.08474289
 21
71.19047326
 31
0.0
  0
ARC
  8
0
  6
CONTINUOUS
 62
       7
  5
16A
 10
61.52811856
 20
69.0812325
 30
0.0
 40
2.55582275
 50
98.3209365
 51
124.38424747
  0
ARC
  8
0
  6
CONTINUOUS
 62
       7
  5
16B
 10
70.1883726
 20
69.0812325
 30
0.0
 40
2.55582275
 50
55.61575253
 51
81.6790635
  0
LINE
  8
0
  6
CONTINUOUS
 62
       7
  5
16C
 10
70.85824558
 20
71.63705524
 30
0.0
 11
71.63174827
 21
71.19047326
 31
0.0
  0
LINE
  8
0
  6
CONTINUOUS
 62
       7
  5
16D
 10
60.85824558
 20
71.63705524
 30
0.0
 11
61.15824558
 21
71.63705524
 31
0.0
  0
LINE
  8
0
  6
CONTINUOUS
 62
       2
  5
16E
 10
62.85824558
 20
75.4434061
 30
0.0
 11
62.85824558
 21
77.81273325
 31
0.0
  0
LINE
  8
0
  6
CONTINUOUS
 62
       7
  5
16F
 10
63.35824558
 20
75.4434061
 30
0.0
 11
63.35824558
 21
78.10140838
 31
0.0
  0
LINE
  8
0
  6
CONTINUOUS
 62
       7
  5
170
 10
68.35824558
 20
75.4434061
 30
0.0
 11
68.35824558
 21
78.10140838
 31
0.0
  0
LINE
  8
0
  6
CONTINUOUS
 62
       2
  5
171
 10
68.85824558
 20
75.4434061
 30
0.0
 11
68.85824558
 21
77.81273325
 31
0.0
  0
LINE
  8
0
  6
CONTINUOUS
 62
       7
  5
172
 10
61.15824558
 20
49.4434061
 30
0.0
 11
70.55824558
 21
49.4434061
 31
0.0
  0
LINE
  8
0
  6
CONTINUOUS
 62
       7
  5
173
 10
71.35824558
 20
57.4434061
 30
0.0
 11
71.35824558
 21
67.4434061
 31
0.0
  0
LINE
  8
0
  6
CONTINUOUS
 62
       7
  5
174
 10
70.55824558
 20
49.4434061
 30
0.0
 11
70.55824558
 21
75.4434061
 31
0.0
  0
LINE
  8
0
  6
CONTINUOUS
 62
       7
  5
175
 10
61.15824558
 20
49.4434061
 30
0.0
 11
61.15824558
 21
75.4434061
 31
0.0
  0
LINE
  8
0
  6
CONTINUOUS
 62
       7
  5
176
 10
70.55824558
 20
57.4434061
 30
0.0
 11
71.35824558
 21
57.4434061
 31
0.0
  0
LINE
  8
0
  6
CONTINUOUS
 62
       7
  5
177
 10
61.15824558
 20
75.4434061
 30
0.0
 11
70.55824558
 21
75.4434061
 31
0.0
  0
LINE
  8
0
  6
CONTINUOUS
 62
       2
  5
178
 10
52.02710788
 20
62.4434061
 30
0.0
 11
79.46117771
 21
62.4434061
 31
0.0
  0
LINE
  8
0
  6
CONTINUOUS
 62
       7
  5
179
 10
70.55824558
 20
67.4434061
 30
0.0
 11
71.35824558
 21
67.4434061
 31
0.0
  0
LINE
  8
0
  6
CONTINUOUS
 62
       7
  5
17A
 10
61.15824558
 20
67.4434061
 30
0.0
 11
60.35824558
 21
67.4434061
 31
0.0
  0
LINE
  8
0
  6
CONTINUOUS
 62
       7
  5
17B
 10
60.35824558
 20
57.4434061
 30
0.0
 11
60.35824558
 21
67.4434061
 31
0.0
  0
LINE
  8
0
  6
CONTINUOUS
 62
       7
  5
17C
 10
61.15824558
 20
57.4434061
 30
0.0
 11
60.35824558
 21
57.4434061
 31
0.0
  0
LINE
  8
0
  6
CONTINUOUS
 62
       7
  5
17D
 10
70.55824558
 20
71.63705524
 30
0.0
 11
70.85824558
 21
71.63705524
 31
0.0
  0
LINE
  8
0
  6
CONTINUOUS
 62
       7
  5
17E
 10
71.85824558
 20
51.225474
 30
0.0
 11
71.85824558
 21
66.82483108
 31
0.0
  0
LINE
  8
0
  6
CONTINUOUS
 62
       7
  5
17F
 10
59.85824558
 20
51.225474
 30
0.0
 11
59.85824558
 21
66.82483108
 31
0.0
  0
LINE
  8
0
  6
CONTINUOUS
 62
       7
  5
180
 10
73.35824558
 20
51.225474
 30
0.0
 11
73.35824558
 21
67.97616409
 31
0.0
  0
LINE
  8
0
  6
CONTINUOUS
 62
       7
  5
181
 10
58.35824558
 20
51.225474
 30
0.0
 11
58.35824558
 21
67.97616409
 31
0.0
  0
LINE
  8
0
  6
CONTINUOUS
 62
       7
  5
182
 10
58.35824558
 20
67.97616409
 30
0.0
 11
60.08474289
 21
67.97616409
 31
0.0
  0
LINE
  8
0
  6
CONTINUOUS
 62
       7
  5
183
 10
58.35824558
 20
51.225474
 30
0.0
 11
61.15824558
 21
51.225474
 31
0.0
  0
LINE
  8
0
  6
CONTINUOUS
 62
       7
  5
184
 10
59.85824558
 20
66.82483108
 30
0.0
 11
60.35824558
 21
66.82483108
 31
0.0
  0
LINE
  8
0
  6
CONTINUOUS
 62
       7
  5
185
 10
70.55824558
 20
51.225474
 30
0.0
 11
73.35824558
 21
51.225474
 31
0.0
  0
LINE
  8
0
  6
CONTINUOUS
 62
       7
  5
186
 10
71.63174827
 20
67.97616409
 30
0.0
 11
73.35824558
 21
67.97616409
 31
0.0
  0
LINE
  8
0
  6
CONTINUOUS
 62
       7
  5
187
 10
71.35824558
 20
66.82483108
 30
0.0
 11
71.85824558
 21
66.82483108
 31
0.0
  0
LINE
  8
0
  6
CONTINUOUS
 62
       7
  5
188
 10
54.35824558
 20
65.23244016
 30
0.0
 11
57.13886917
 21
65.23244016
 31
0.0
  0
LINE
  8
0
  6
CONTINUOUS
 62
       7
  5
189
 10
57.35824558
 20
53.02696164
 30
0.0
 11
57.35824558
 21
58.73530685
 31
0.0
  0
LINE
  8
0
  6
CONTINUOUS
 62
       7
  5
18A
 10
77.35824558
 20
38.23244016
 30
0.0
 11
77.35824558
 21
65.23244016
 31
0.0
  0
LINE
  8
0
  6
CONTINUOUS
 62
       7
  5
18B
 10
54.35824558
 20
38.23244016
 30
0.0
 11
54.35824558
 21
65.23244016
 31
0.0
  0
LINE
  8
0
  6
CONTINUOUS
 62
       7
  5
18C
 10
74.35824558
 20
65.23244016
 30
0.0
 11
77.35824558
 21
65.23244016
 31
0.0
  0
LINE
  8
0
  6
CONTINUOUS
 62
       2
  5
18D
 10
50.12921294
 20
43.23244016
 30
0.0
 11
81.71124419
 21
43.23244016
 31
0.0
  0
LINE
  8
0
  6
CONTINUOUS
 62
       2
  5
18E
 10
51.75343169
 20
57.23244016
 30
0.0
 11
79.63585356
 21
57.23244016
 31
0.0
  0
ARC
  8
0
  6
CONTINUOUS
 62
       7
  5
18F
 10
55.52491225
 20
43.23244016
 30
0.0
 40
4.16666667
 50
106.26020471
 51
253.73979529
  0
ARC
  8
0
  6
CONTINUOUS
 62
       7
  5
190
 10
76.19157891
 20
43.23244016
 30
0.0
 40
4.16666667
 50
286.26020471
 51
73.73979529
  0
LINE
  8
0
  6
CONTINUOUS
 62
       7
  5
191
 10
53.81984077
 20
61.23244016
 30
0.0
 11
54.35824558
 21
61.23244016
 31
0.0
  0
LINE
  8
0
  6
CONTINUOUS
 62
       7
  5
192
 10
53.81984077
 20
53.23244016
 30
0.0
 11
54.35824558
 21
53.23244016
 31
0.0
  0
ARC
  8
0
  6
CONTINUOUS
 62
       7
  5
193
 10
66.85824558
 20
57.23244016
 30
0.0
 40
14.0
 50
164.97388624
 51
195.02611376
  0
ARC
  8
0
  6
CONTINUOUS
 62
       7
  5
194
 10
53.81984077
 20
60.73244016
 30
0.0
 40
0.5
 50
90.0
 51
164.97388624
  0
ARC
  8
0
  6
CONTINUOUS
 62
       7
  5
195
 10
53.81984077
 20
53.73244016
 30
0.0
 40
0.5
 50
195.02611376
 51
270.0
  0
LINE
  8
0
  6
CONTINUOUS
 62
       7
  5
196
 10
77.35824558
 20
60.73244016
 30
0.0
 11
78.35824558
 21
60.73244016
 31
0.0
  0
LINE
  8
0
  6
CONTINUOUS
 62
       7
  5
197
 10
77.35824558
 20
53.73244016
 30
0.0
 11
78.35824558
 21
53.73244016
 31
0.0
  0
LINE
  8
0
  6
CONTINUOUS
 62
       7
  5
198
 10
78.35824558
 20
53.73244016
 30
0.0
 11
78.35824558
 21
60.73244016
 31
0.0
  0
LINE
  8
0
  6
CONTINUOUS
 62
       7
  5
199
 10
57.81984077
 20
66.4434061
 30
0.0
 11
58.35824558
 21
66.4434061
 31
0.0
  0
ARC
  8
0
  6
CONTINUOUS
 62
       7
  5
19A
 10
70.85824558
 20
62.4434061
 30
0.0
 40
14.0
 50
164.97388624
 51
195.02611376
  0
ARC
  8
0
  6
CONTINUOUS
 62
       7
  5
19B
 10
57.81984077
 20
65.9434061
 30
0.0
 40
0.5
 50
90.0
 51
164.97388624
  0
LINE
  8
0
  6
CONTINUOUS
 62
       7
  5
19C
 10
57.81984077
 20
58.4434061
 30
0.0
 11
58.35824558
 21
58.4434061
 31
0.0
  0
ARC
  8
0
  6
CONTINUOUS
 62
       7
  5
19D
 10
57.81984077
 20
58.9434061
 30
0.0
 40
0.5
 50
195.02611376
 51
270.0
  0
LINE
  8
0
  6
CONTINUOUS
 62
       7
  5
19E
 10
73.35824558
 20
65.9434061
 30
0.0
 11
74.35824558
 21
65.9434061
 31
0.0
  0
LINE
  8
0
  6
CONTINUOUS
 62
       7
  5
19F
 10
73.35824558
 20
58.9434061
 30
0.0
 11
74.35824558
 21
58.9434061
 31
0.0
  0
LINE
  8
0
  6
CONTINUOUS
 62
       7
  5
1A0
 10
59.85824558
 20
64.7434061
 30
0.0
 11
60.35824558
 21
64.7434061
 31
0.0
  0
LINE
  8
0
  6
CONTINUOUS
 62
       7
  5
1A1
 10
59.85824558
 20
60.1434061
 30
0.0
 11
60.35824558
 21
60.1434061
 31
0.0
  0
LINE
  8
0
  6
CONTINUOUS
 62
       7
  5
1A2
 10
71.35824558
 20
64.7434061
 30
0.0
 11
71.85824558
 21
64.7434061
 31
0.0
  0
LINE
  8
0
  6
CONTINUOUS
 62
       7
  5
1A3
 10
71.35824558
 20
60.1434061
 30
0.0
 11
71.85824558
 21
60.1434061
 31
0.0
  0
LINE
  8
0
  6
CONTINUOUS
 62
       7
  5
1A4
 10
74.35824558
 20
53.02696164
 30
0.0
 11
74.35824558
 21
65.9434061
 31
0.0
  0
ARC
  8
0
  6
PHANTOM
 62
       2
  5
1A6
 10
-9.34325263
 20
58.9434061
 30
0.0
 40
13.0
 50
239.26924523
 51
307.92818318
  0
ARC
  8
0
  6
PHANTOM
 62
       2
  5
1A7
 10
-9.34325263
 20
57.4434061
 30
0.0
 40
13.0
 50
238.17443399
 51
308.78525756
  0
LINE
  8
0
  6
CONTINUOUS
 62
       7
  5
1A8
 10
-84.94754349
 20
22.48244016
 30
0.0
 11
-84.94754349
 21
8.99537119
 31
0.0
  0
LINE
  8
0
  6
CONTINUOUS
 62
       7
  5
1A9
 10
-75.016509
 20
10.96088844
 30
0.0
 11
-76.54237107
 21
9.43502637
 31
0.0
  0
LINE
  8
0
  6
CONTINUOUS
 62
       7
  5
1AA
 10
-85.36133659
 20
9.69364706
 30
0.0
 11
-84.94754349
 21
8.99537119
 31
0.0
  0
LINE
  8
0
  6
CONTINUOUS
 62
       7
  5
1AB
 10
-84.94754349
 20
8.99537119
 30
0.0
 11
-76.54237107
 21
9.43502637
 31
0.0
  0
LINE
  8
0
  6
CONTINUOUS
 62
       2
  5
1AC
 10
-85.36133659
 20
10.04278499
 30
0.0
 11
-75.93461245
 21
10.04278499
 31
0.0
  0
LINE
  8
0
  6
CONTINUOUS
 62
       7
  5
1AD
 10
-76.46478486
 20
22.02985395
 30
0.0
 11
-76.46478486
 21
9.43502637
 31
0.0
  0
LINE
  8
0
  6
CONTINUOUS
 62
       7
  5
1AE
 10
-85.36133659
 20
21.77123326
 30
0.0
 11
-84.94754349
 21
22.48244016
 31
0.0
  0
LINE
  8
0
  6
CONTINUOUS
 62
       7
  5
1AF
 10
-75.016509
 20
20.50399188
 30
0.0
 11
-76.54237107
 21
22.04278499
 31
0.0
  0
LINE
  8
0
  6
CONTINUOUS
 62
       7
  5
1B0
 10
-84.94754349
 20
22.48244016
 30
0.0
 11
-76.54237107
 21
22.04278499
 31
0.0
  0
LINE
  8
0
  6
CONTINUOUS
 62
       2
  5
1B1
 10
-85.36133659
 20
21.42209533
 30
0.0
 11
-75.93461245
 21
21.42209533
 31
0.0
  0
LINE
  8
0
  6
CONTINUOUS
 62
       7
  5
1B2
 10
-75.016509
 20
20.50399188
 30
0.0
 11
-75.016509
 21
10.96088844
 31
0.0
  0
LINE
  8
0
  6
CONTINUOUS
 62
       7
  5
1B3
 10
-85.36133659
 20
21.77123326
 30
0.0
 11
-85.36133659
 21
9.69364706
 31
0.0
  0
POLYLINE
  8
0
  6
CONTINUOUS
 62
       7
  5
1BA
 66
       1
 10
0.0
 20
0.0
 30
0.0
  0
VERTEX
  8
0
  6
CONTINUOUS
 62
       7
  5
1C4
 10
-78.6169039
 20
9.32651234
 30
0.0
  0
VERTEX
  8
0
  6
CONTINUOUS
 62
       7
  5
1C5
 10
-82.79046025
 20
-0.25463608
 30
0.0
  0
VERTEX
  8
0
  6
CONTINUOUS
 62
       7
  5
1C6
 10
-90.06678058
 20
-0.25463608
 30
0.0
  0
SEQEND
  8
0
  6
CONTINUOUS
 62
       7
  5
1C7
  0
INSERT
  8
0
  6
CONTINUOUS
 62
       7
  5
1BB
  2
_OPEN30
 10
-78.6169039
 20
9.32651234
 30
0.0
 41
2.77
 42
2.77
 50
66.46201797
 43
2.77
  0
TEXT
  8
0
  6
CONTINUOUS
 62
       7
  5
1BC
 10
-89.56678058
 20
1.7453638
 30
0.0
 40
3.20000005
  1
-2
 41
0.93749999
  7
MX_NOTE_STANDARD
 11
-89.56678058
 21
3.34536382
 31
0.0
 73
       2
  0
LINE
  8
0
  6
CONTINUOUS
 62
       2
  5
1BD
 10
-44.14175442
 20
-23.98071414
 30
0.0
 11
-44.14175442
 21
-87.10868289
 31
0.0
  0
LINE
  8
0
  6
CONTINUOUS
 62
       7
  5
1BE
 10
-138.3999939
 20
94.5
 30
0.0
 11
138.3500061
 21
94.5
 31
0.0
  0
LINE
  8
0
  6
CONTINUOUS
 62
       7
  5
1BF
 10
138.3500061
 20
94.5
 30
0.0
 11
138.3500061
 21
-94.80000305
 31
0.0
  0
LINE
  8
0
  6
CONTINUOUS
 62
       7
  5
1C0
 10
-138.3999939
 20
-94.80000305
 30
0.0
 11
138.3500061
 21
-94.80000305
 31
0.0
  0
LINE
  8
0
  6
CONTINUOUS
 62
       7
  5
1C1
 10
-138.3999939
 20
94.5
 30
0.0
 11
-138.3999939
 21
-94.80000305
 31
0.0
  0
TEXT
  8
0
  6
CONTINUOUS
 62
       7
  5
1C2
 10
-129.41817573
 20
82.89999998
 30
0.0
 40
3.20000005
  1
MODEL:250C
 41
1.09090909
  7
MX_NOTE_STANDARD
 11
-129.41817573
 21
84.5
 31
0.0
 73
       2
  0
ENDSEC
  0
EOF
