  0
SECTION
  2
HEADER
  9
$ACADVER
  1
AC1009
  9
$DWGCODEPAGE
  3
dos932
  9
$INSBASE
 10
0.0
 20
0.0
 30
0.0
  9
$EXTMIN
 10
-281.25
 20
-195.0
 30
0.0
  9
$EXTMAX
 10
282.09985352
 20
195.5
 30
0.0
  9
$LIMMIN
 10
-297.0
 20
-210.0
  9
$LIMMAX
 10
297.0
 20
210.0
  9
$ORTHOMODE
 70
       0
  9
$REGENMODE
 70
       1
  9
$FILLMODE
 70
       1
  9
$QTEXTMODE
 70
       0
  9
$MIRRTEXT
 70
       1
  9
$DRAGMODE
 70
       2
  9
$LTSCALE
 40
1.0
  9
$OSMODE
 70
       0
  9
$ATTMODE
 70
       1
  9
$TEXTSIZE
 40
3.20000005
  9
$TRACEWID
 40
0.05
  9
$TEXTSTYLE
  7
MX_NOTE_STANDARD
  9
$CLAYER
  8
0
  9
$CELTYPE
  6
CONTINUOUS
  9
$CECOLOR
 62
     256
  9
$DIMSCALE
 40
1.0
  9
$DIMASZ
 40
2.5
  9
$DIMEXO
 40
1.5
  9
$DIMDLI
 40
3.75
  9
$DIMRND
 40
0.0
  9
$DIMDLE
 40
0.0
  9
$DIMEXE
 40
1.5
  9
$DIMTP
 40
0.0
  9
$DIMTM
 40
0.0
  9
$DIMTXT
 40
3.20000005
  9
$DIMCEN
 40
2.5
  9
$DIMTSZ
 40
0.0
  9
$DIMTOL
 70
       0
  9
$DIMLIM
 70
       0
  9
$DIMTIH
 70
       0
  9
$DIMTOH
 70
       0
  9
$DIMSE1
 70
       0
  9
$DIMSE2
 70
       0
  9
$DIMTAD
 70
       1
  9
$DIMZIN
 70
       8
  9
$DIMBLK
  1

  9
$DIMASO
 70
       1
  9
$DIMSHO
 70
       1
  9
$DIMPOST
  1

  9
$DIMAPOST
  1

  9
$DIMALT
 70
       0
  9
$DIMALTD
 70
       4
  9
$DIMALTF
 40
0.03937008
  9
$DIMLFAC
 40
1.0
  9
$DIMTOFL
 70
       1
  9
$DIMTVP
 40
0.0
  9
$DIMTIX
 70
       0
  9
$DIMSOXD
 70
       0
  9
$DIMSAH
 70
       1
  9
$DIMBLK1
  1
_OPEN30
  9
$DIMBLK2
  1
_OPEN30
  9
$DIMSTYLE
  2
MXDIMSTYLE
  9
$DIMCLRD
 70
       0
  9
$DIMCLRE
 70
       0
  9
$DIMCLRT
 70
       0
  9
$DIMTFAC
 40
1.0
  9
$DIMGAP
 40
1.0
  9
$LUNITS
 70
       2
  9
$LUPREC
 70
       4
  9
$AXISMODE
 70
       0
  9
$AXISUNIT
 10
0.0
 20
0.0
  9
$SKETCHINC
 40
0.1
  9
$FILLETRAD
 40
0.0
  9
$AUNITS
 70
       0
  9
$AUPREC
 70
       0
  9
$MENU
  1
acad
  9
$ELEVATION
 40
0.0
  9
$PELEVATION
 40
0.0
  9
$THICKNESS
 40
0.0
  9
$LIMCHECK
 70
       0
  9
$BLIPMODE
 70
       1
  9
$CHAMFERA
 40
0.0
  9
$CHAMFERB
 40
0.0
  9
$SKPOLY
 70
       0
  9
$TDCREATE
 40
2453819.463206018
  9
$TDUPDATE
 40
2453819.463206018
  9
$TDINDWG
 40
0.0000000000
  9
$TDUSRTIMER
 40
0.0000000000
  9
$USRTIMER
 70
       1
  9
$ANGBASE
 50
0.0
  9
$ANGDIR
 70
       0
  9
$PDMODE
 70
       0
  9
$PDSIZE
 40
0.0
  9
$PLINEWID
 40
0.0
  9
$COORDS
 70
       1
  9
$SPLFRAME
 70
       0
  9
$SPLINETYPE
 70
       6
  9
$SPLINESEGS
 70
       8
  9
$ATTDIA
 70
       0
  9
$ATTREQ
 70
       1
  9
$HANDLING
 70
       1
  9
$HANDSEED
  5
120
  9
$SURFTAB1
 70
       6
  9
$SURFTAB2
 70
       6
  9
$SURFTYPE
 70
       6
  9
$SURFU
 70
       6
  9
$SURFV
 70
       6
  9
$UCSNAME
  2

  9
$UCSORG
 10
0.0
 20
0.0
 30
0.0
  9
$UCSXDIR
 10
1.0
 20
0.0
 30
0.0
  9
$UCSYDIR
 10
0.0
 20
1.0
 30
0.0
  9
$PUCSNAME
  2

  9
$PUCSORG
 10
0.0
 20
0.0
 30
0.0
  9
$PUCSXDIR
 10
1.0
 20
0.0
 30
0.0
  9
$PUCSYDIR
 10
0.0
 20
1.0
 30
0.0
  9
$USERI1
 70
       0
  9
$USERI2
 70
       0
  9
$USERI3
 70
       0
  9
$USERI4
 70
       0
  9
$USERI5
 70
       0
  9
$USERR1
 40
0.0
  9
$USERR2
 40
0.0
  9
$USERR3
 40
0.0
  9
$USERR4
 40
0.0
  9
$USERR5
 40
0.0
  9
$WORLDVIEW
 70
       1
  9
$SHADEDGE
 70
       3
  9
$SHADEDIF
 70
      70
  9
$TILEMODE
 70
       1
  9
$MAXACTVP
 70
      16
  9
$PINSBASE
 10
0.0
 20
0.0
 30
0.0
  9
$PLIMCHECK
 70
       0
  9
$PEXTMIN
 10
1.00000000E+20
 20
1.00000000E+20
 30
1.00000000E+20
  9
$PEXTMAX
 10
-1.00000000E+20
 20
-1.00000000E+20
 30
-1.00000000E+20
  9
$PLIMMIN
 10
0.0
 20
0.0
  9
$PLIMMAX
 10
12.0
 20
9.0
  9
$UNITMODE
 70
       0
  9
$VISRETAIN
 70
       0
  9
$PLINEGEN
 70
       1
  9
$PSLTSCALE
 70
       0
  9
$TREEDEPTH
 70
    3020
  0
ENDSEC
  0
SECTION
  2
TABLES
  0
TABLE
  2
VPORT
 70
       1
  0
VPORT
  2
*ACTIVE
 70
       0
 10
0.0
 20
0.0
 11
1.0
 21
1.0
 12
0.0
 22
0.0
 13
0.0
 23
0.0
 14
1.0
 24
1.0
 15
0.0
 25
0.0
 16
0.0
 26
0.0
 36
1.0
 17
0.0
 27
0.0
 37
0.0
 40
424.2
 41
1.73205081
 42
50.0
 43
0.0
 44
0.0
 50
0.0
 51
0.0
 71
       0
 72
     100
 73
       1
 74
       1
 75
       0
 76
       0
 77
       0
 78
       0
  0
ENDTAB
  0
TABLE
  2
LTYPE
 70
       2
  0
LTYPE
  2
CONTINUOUS
 70
      64
  3
Solid line
 72
      65
 73
       0
 40
0.0
  0
LTYPE
  2
PHANTOM
 70
      64
  3
Phantom ______  __  __  ______  __  __  ______
 72
      65
 73
       6
 40
63.5
 49
31.75
 49
-6.35
 49
6.35
 49
-6.35
 49
6.35
 49
-6.35
  0
ENDTAB
  0
TABLE
  2
LAYER
 70
       2
  0
LAYER
  2
0
 70
       0
 62
       7
  6
CONTINUOUS
  0
LAYER
  2
DEFPOINTS
 70
       0
 62
       7
  6
CONTINUOUS
  0
ENDTAB
  0
TABLE
  2
STYLE
 70
       1
  0
STYLE
  2
MX_NOTE_STANDARD
 70
       0
 40
0.0
 41
1.0
 50
0.0
 71
       0
 42
3.20000005
  3
txt.shx
  4
extfont.shx
  0
ENDTAB
  0
TABLE
  2
VIEW
 70
       0
  0
ENDTAB
  0
TABLE
  2
UCS
 70
       0
  0
ENDTAB
  0
TABLE
  2
APPID
 70
       1
  0
APPID
  2
ACAD
 70
       0
  0
ENDTAB
  0
TABLE
  2
DIMSTYLE
 70
       1
  0
DIMSTYLE
  2
MXDIMSTYLE
 70
       0
  3

  4

  5

  6
_OPEN30
  7
_OPEN30
 40
1.0
 41
2.5
 42
1.5
 43
3.75
 44
1.5
 45
0.0
 46
0.0
 47
0.0
 48
0.0
 71
       0
 72
       0
 73
       0
 74
       0
 75
       0
 76
       0
 77
       1
 78
       8
140
3.20000005
141
2.5
142
0.0
143
0.03937008
144
1.0
145
0.0
146
1.0
147
1.0
170
       0
171
       4
172
       1
173
       1
174
       0
175
       0
176
       0
177
       0
178
       0
  0
ENDTAB
  0
ENDSEC
  0
SECTION
  2
BLOCKS
  0
BLOCK
  8
0
  6
BYBLOCK
 62
       0
  5
1F
  2
_OPEN30
 70
       2
 10
0.0
 20
0.0
 30
0.0
  3
_OPEN30
  0
LINE
  8
0
  6
BYBLOCK
 62
       0
  5
20
 10
-1.0
 20
0.267949
 30
0.0
 11
0.0
 21
0.0
 31
0.0
  0
LINE
  8
0
  6
BYBLOCK
 62
       0
  5
21
 10
0.0
 20
0.0
 30
0.0
 11
-1.0
 21
-0.267949
 31
0.0
  0
LINE
  8
0
  6
BYBLOCK
 62
       0
  5
22
 10
0.0
 20
0.0
 30
0.0
 11
-1.0
 21
0.0
 31
0.0
  0
ENDBLK
  8
0
  6
BYBLOCK
 62
       0
  5
23
  0
ENDSEC
  0
SECTION
  2
ENTITIES
  0
ARC
  8
0
  6
CONTINUOUS
 62
     254
  5
24
 10
-99.66335096
 20
-100.37008506
 30
0.0
 40
1.5
 50
285.17679122
 51
194.82320872
  0
ARC
  8
0
  6
CONTINUOUS
 62
     254
  5
25
 10
-84.80625699
 20
-100.37008508
 30
0.0
 40
1.5
 50
345.17679122
 51
254.82320859
  0
ARC
  8
0
  6
CONTINUOUS
 62
     254
  5
26
 10
-99.66335096
 20
-100.37008506
 30
0.0
 40
3.0
 50
341.64947674
 51
141.80264705
  0
ARC
  8
0
  6
CONTINUOUS
 62
     254
  5
27
 10
-84.80625699
 20
-100.37008508
 30
0.0
 40
3.0
 50
38.19735282
 51
198.35052314
  0
ARC
  8
0
  6
CONTINUOUS
 62
     254
  5
28
 10
-92.23480396
 20
-88.50346425
 30
0.0
 40
14.0
 50
314.34799265
 51
225.65200722
  0
CIRCLE
  8
0
  6
CONTINUOUS
 62
     254
  5
29
 10
-92.23480396
 20
-87.50346425
 30
0.0
 40
15.95
  0
CIRCLE
  8
0
  6
CONTINUOUS
 62
     254
  5
2A
 10
-92.23480396
 20
-87.50346425
 30
0.0
 40
21.0
  0
LINE
  8
0
  6
CONTINUOUS
 62
     116
  5
2B
 10
-79.15478257
 20
-67.50346425
 30
0.0
 11
-65.76664148
 21
-67.50346425
 31
0.0
  0
LINE
  8
0
  6
CONTINUOUS
 62
     116
  5
2C
 10
-112.23480396
 20
-101.04177724
 30
0.0
 11
-112.23480396
 21
-113.73980796
 31
0.0
  0
LINE
  8
0
  6
CONTINUOUS
 62
     116
  5
2D
 10
-79.15478257
 20
-107.50346425
 30
0.0
 11
-65.76664148
 21
-107.50346425
 31
0.0
  0
LINE
  8
0
  6
CONTINUOUS
 62
     116
  5
2E
 10
-72.23480396
 20
-101.04177724
 30
0.0
 11
-72.23480396
 21
-113.73980796
 31
0.0
  0
CIRCLE
  8
0
  6
CONTINUOUS
 62
     254
  5
2F
 10
-72.23480396
 20
-67.50346425
 30
0.0
 40
2.75
  0
CIRCLE
  8
0
  6
CONTINUOUS
 62
     254
  5
30
 10
-112.23480396
 20
-67.50346425
 30
0.0
 40
2.75
  0
CIRCLE
  8
0
  6
CONTINUOUS
 62
     254
  5
31
 10
-112.23480396
 20
-107.50346425
 30
0.0
 40
2.75
  0
CIRCLE
  8
0
  6
CONTINUOUS
 62
     254
  5
32
 10
-72.23480396
 20
-107.50346425
 30
0.0
 40
2.75
  0
ARC
  8
0
  6
CONTINUOUS
 62
     254
  5
33
 10
-112.73480396
 20
-108.00346425
 30
0.0
 40
8.0
 50
180.0
 51
270.0
  0
ARC
  8
0
  6
CONTINUOUS
 62
     254
  5
34
 10
-112.73480396
 20
-67.00346425
 30
0.0
 40
8.0
 50
90.0
 51
180.0
  0
ARC
  8
0
  6
CONTINUOUS
 62
     254
  5
35
 10
-71.73480396
 20
-67.00346425
 30
0.0
 40
8.0
 50
0.0
 51
90.0
  0
ARC
  8
0
  6
CONTINUOUS
 62
     254
  5
36
 10
-71.73480396
 20
-108.00346425
 30
0.0
 40
8.0
 50
270.0
 51
0.0
  0
LINE
  8
0
  6
CONTINUOUS
 62
     116
  5
37
 10
-112.23480396
 20
-61.84350849
 30
0.0
 11
-112.23480396
 21
-74.12747299
 31
0.0
  0
LINE
  8
0
  6
CONTINUOUS
 62
     116
  5
38
 10
-72.23480396
 20
-61.84350849
 30
0.0
 11
-72.23480396
 21
-74.12747299
 31
0.0
  0
LINE
  8
0
  6
CONTINUOUS
 62
     116
  5
39
 10
-118.35305132
 20
-107.50346425
 30
0.0
 11
-105.93106475
 21
-107.50346425
 31
0.0
  0
LINE
  8
0
  6
CONTINUOUS
 62
     116
  5
3A
 10
-118.35305132
 20
-67.50346425
 30
0.0
 11
-105.93106475
 21
-67.50346425
 31
0.0
  0
LINE
  8
0
  6
CONTINUOUS
 62
     254
  5
3B
 10
-112.73480395
 20
-116.00346425
 30
0.0
 11
-71.73480395
 21
-116.00346425
 31
0.0
  0
LINE
  8
0
  6
CONTINUOUS
 62
     254
  5
3C
 10
-112.73480395
 20
-59.00346425
 30
0.0
 11
-71.73480395
 21
-59.00346425
 31
0.0
  0
LINE
  8
0
  6
CONTINUOUS
 62
     254
  5
3D
 10
-120.73480396
 20
-67.00346429
 30
0.0
 11
-120.73480396
 21
-108.00346425
 31
0.0
  0
LINE
  8
0
  6
CONTINUOUS
 62
     254
  5
3E
 10
-63.73480396
 20
-67.00346429
 30
0.0
 11
-63.73480396
 21
-108.00346429
 31
0.0
  0
LINE
  8
0
  6
CONTINUOUS
 62
     116
  5
3F
 10
-126.49635363
 20
-87.50346425
 30
0.0
 11
-57.68360233
 21
-87.50346425
 31
0.0
  0
LINE
  8
0
  6
CONTINUOUS
 62
     254
  5
40
 10
-87.65370169
 20
-101.31457368
 30
0.0
 11
-87.21327292
 21
-102.64237854
 31
0.0
  0
LINE
  8
0
  6
CONTINUOUS
 62
     254
  5
41
 10
-96.81590627
 20
-101.31457367
 30
0.0
 11
-97.25633504
 21
-102.64237853
 31
0.0
  0
CIRCLE
  8
0
  6
CONTINUOUS
 62
     254
  5
42
 10
-92.23480396
 20
-87.50346425
 30
0.0
 40
19.5
  0
LINE
  8
0
  6
CONTINUOUS
 62
     116
  5
43
 10
-92.23480396
 20
-54.52833862
 30
0.0
 11
-92.23480396
 21
-119.6747571
 31
0.0
  0
LINE
  8
0
  6
CONTINUOUS
 62
     254
  5
44
 10
-42.9888337
 20
22.79432588
 30
0.0
 11
-42.9888337
 21
33.20874553
 31
0.0
  0
LINE
  8
0
  6
CONTINUOUS
 62
     254
  5
45
 10
-42.51990409
 20
32.39653569
 30
0.0
 11
-42.9888337
 21
33.20874559
 31
0.0
  0
LINE
  8
0
  6
CONTINUOUS
 62
     254
  5
46
 10
-42.51990409
 20
23.59653581
 30
0.0
 11
-42.9888337
 21
22.78432591
 31
0.0
  0
POLYLINE
  8
0
  6
CONTINUOUS
 62
       7
  5
47
 66
       1
 10
0.0
 20
0.0
 30
0.0
  0
VERTEX
  8
0
  6
CONTINUOUS
 62
       7
  5
11B
 10
-46.49391012
 20
22.97766837
 30
0.0
  0
VERTEX
  8
0
  6
CONTINUOUS
 62
       7
  5
11C
 10
-42.18003255
 20
4.43800027
 30
0.0
  0
VERTEX
  8
0
  6
CONTINUOUS
 62
       7
  5
11D
 10
-31.61952311
 20
4.43800027
 30
0.0
  0
SEQEND
  8
0
  6
CONTINUOUS
 62
       7
  5
11E
  0
INSERT
  8
0
  6
CONTINUOUS
 62
       7
  5
48
  2
_OPEN30
 10
-46.49391012
 20
22.97766837
 30
0.0
 41
2.77
 42
2.77
 50
103.09871493
 43
2.77
  0
TEXT
  8
0
  6
CONTINUOUS
 62
       7
  5
49
 10
-39.86952311
 20
6.84425003
 30
0.0
 40
4.5
  1
-2
  7
MX_NOTE_STANDARD
 11
-39.86952311
 21
9.09425003
 31
0.0
 73
       2
  0
LINE
  8
0
  6
CONTINUOUS
 62
     254
  5
4A
 10
-42.51990417
 20
32.39653582
 30
0.0
 11
-42.51990417
 21
23.59653568
 31
0.0
  0
LINE
  8
0
  6
CONTINUOUS
 62
     254
  5
4B
 10
-50.51990417
 20
31.68653575
 30
0.0
 11
-50.51990417
 21
24.30653575
 31
0.0
  0
LINE
  8
0
  6
CONTINUOUS
 62
     116
  5
4C
 10
-42.51990417
 20
32.39653575
 30
0.0
 11
-49.80990417
 21
32.39653575
 31
0.0
  0
LINE
  8
0
  6
CONTINUOUS
 62
     254
  5
4D
 10
-42.9888337
 20
33.20874559
 30
0.0
 11
-49.33990417
 21
32.87653575
 31
0.0
  0
LINE
  8
0
  6
CONTINUOUS
 62
     254
  5
4E
 10
-50.51990417
 20
31.68653575
 30
0.0
 11
-49.33990417
 21
32.87653575
 31
0.0
  0
LINE
  8
0
  6
CONTINUOUS
 62
     254
  5
4F
 10
-49.39990417
 20
32.86653575
 30
0.0
 11
-49.39990417
 21
23.12653575
 31
0.0
  0
LINE
  8
0
  6
CONTINUOUS
 62
     116
  5
50
 10
-42.51990417
 20
23.59653575
 30
0.0
 11
-49.80990417
 21
23.59653575
 31
0.0
  0
LINE
  8
0
  6
CONTINUOUS
 62
     254
  5
51
 10
-42.98322944
 20
22.79403277
 30
0.0
 11
-49.33990417
 21
23.12653575
 31
0.0
  0
LINE
  8
0
  6
CONTINUOUS
 62
     254
  5
52
 10
-50.51990417
 20
24.30653575
 30
0.0
 11
-49.33990417
 21
23.12653575
 31
0.0
  0
LINE
  8
0
  6
CONTINUOUS
 62
     116
  5
53
 10
-117.59826156
 20
27.99653575
 30
0.0
 11
-38.14778766
 21
27.99653575
 31
0.0
  0
LINE
  8
0
  6
CONTINUOUS
 62
     254
  5
54
 10
85.61519604
 20
91.99653575
 30
0.0
 11
85.61519604
 21
66.03573272
 31
0.0
  0
LINE
  8
0
  6
CONTINUOUS
 62
     254
  5
55
 10
69.11519604
 20
92.03573272
 30
0.0
 11
69.11519604
 21
66.03573272
 31
0.0
  0
LINE
  8
0
  6
CONTINUOUS
 62
     254
  5
56
 10
65.11519604
 20
91.03573272
 30
0.0
 11
65.11519604
 21
67.03573272
 31
0.0
  0
ARC
  8
0
  6
CONTINUOUS
 62
     254
  5
57
 10
66.11519604
 20
91.03573272
 30
0.0
 40
1.0
 50
90.0
 51
180.0
  0
ARC
  8
0
  6
CONTINUOUS
 62
     254
  5
58
 10
66.11519604
 20
67.03573272
 30
0.0
 40
1.0
 50
180.0
 51
270.0
  0
LINE
  8
0
  6
CONTINUOUS
 62
     254
  5
59
 10
65.11519604
 20
86.53573272
 30
0.0
 11
63.11519604
 21
86.53573272
 31
0.0
  0
LINE
  8
0
  6
CONTINUOUS
 62
     254
  5
5A
 10
65.11519604
 20
71.53573272
 30
0.0
 11
63.11519604
 21
71.53573272
 31
0.0
  0
LINE
  8
0
  6
CONTINUOUS
 62
     254
  5
5B
 10
62.11519604
 20
85.53573272
 30
0.0
 11
62.11519604
 21
72.53573272
 31
0.0
  0
ARC
  8
0
  6
CONTINUOUS
 62
     254
  5
5C
 10
63.11519604
 20
85.53573272
 30
0.0
 40
1.0
 50
90.0
 51
180.0
  0
ARC
  8
0
  6
CONTINUOUS
 62
     254
  5
5D
 10
63.11519604
 20
72.53573272
 30
0.0
 40
1.0
 50
180.0
 51
270.0
  0
LINE
  8
0
  6
CONTINUOUS
 62
     254
  5
5E
 10
62.11519604
 20
83.03573272
 30
0.0
 11
51.64236569
 21
83.03573272
 31
0.0
  0
LINE
  8
0
  6
CONTINUOUS
 62
     254
  5
5F
 10
62.11519604
 20
80.53573272
 30
0.0
 11
52.08318314
 21
80.53573272
 31
0.0
  0
LINE
  8
0
  6
CONTINUOUS
 62
     254
  5
60
 10
62.11519604
 20
77.53573272
 30
0.0
 11
52.61216409
 21
77.53573272
 31
0.0
  0
LINE
  8
0
  6
CONTINUOUS
 62
     254
  5
61
 10
62.11519604
 20
75.03573272
 30
0.0
 11
53.05298154
 21
75.03573272
 31
0.0
  0
LINE
  8
0
  6
PHANTOM
 62
     116
  5
63
 10
53.8034784
 20
70.77945355
 30
0.0
 11
50.92720728
 21
87.09159759
 31
0.0
  0
LINE
  8
0
  6
PHANTOM
 62
     116
  5
64
 10
50.84905515
 20
70.25850884
 30
0.0
 11
47.97278399
 21
86.57065324
 31
0.0
  0
LINE
  8
0
  6
CONTINUOUS
 62
     254
  5
65
 10
48.59608585
 20
83.03573272
 30
0.0
 11
31.37858923
 21
83.03573272
 31
0.0
  0
LINE
  8
0
  6
CONTINUOUS
 62
     254
  5
66
 10
49.0369033
 20
80.53573272
 30
0.0
 11
31.37858923
 21
80.53573272
 31
0.0
  0
LINE
  8
0
  6
CONTINUOUS
 62
     254
  5
67
 10
49.56588424
 20
77.53573272
 30
0.0
 11
31.37858923
 21
77.53573272
 31
0.0
  0
LINE
  8
0
  6
CONTINUOUS
 62
     254
  5
68
 10
50.00670169
 20
75.03573272
 30
0.0
 11
31.37858923
 21
75.03573272
 31
0.0
  0
LINE
  8
0
  6
CONTINUOUS
 62
     254
  5
69
 10
31.37858923
 20
75.03573278
 30
0.0
 11
31.37858923
 21
77.53573272
 31
0.0
  0
LINE
  8
0
  6
CONTINUOUS
 62
     254
  5
6A
 10
31.37858923
 20
82.28573272
 30
0.0
 11
21.37858923
 21
82.28573272
 31
0.0
  0
LINE
  8
0
  6
CONTINUOUS
 62
     254
  5
6B
 10
31.37858923
 20
81.28573272
 30
0.0
 11
21.37858923
 21
81.28573272
 31
0.0
  0
LINE
  8
0
  6
CONTINUOUS
 62
     254
  5
6C
 10
31.37858923
 20
76.78573272
 30
0.0
 11
21.37858923
 21
76.78573272
 31
0.0
  0
LINE
  8
0
  6
CONTINUOUS
 62
     254
  5
6D
 10
31.37858923
 20
75.78573272
 30
0.0
 11
21.37858923
 21
75.78573272
 31
0.0
  0
LINE
  8
0
  6
CONTINUOUS
 62
     254
  5
6E
 10
31.37858923
 20
80.53573272
 30
0.0
 11
31.37858923
 21
83.03573278
 31
0.0
  0
LINE
  8
0
  6
CONTINUOUS
 62
     254
  5
6F
 10
21.37858923
 20
82.28573272
 30
0.0
 11
21.37858923
 21
81.28573272
 31
0.0
  0
LINE
  8
0
  6
CONTINUOUS
 62
     254
  5
70
 10
21.37858923
 20
76.78573272
 30
0.0
 11
21.37858923
 21
75.78573272
 31
0.0
  0
LINE
  8
0
  6
CONTINUOUS
 62
     116
  5
71
 10
113.3156916
 20
79.01909736
 30
0.0
 11
10.96300339
 21
78.93573272
 31
0.0
  0
LINE
  8
0
  6
CONTINUOUS
 62
     254
  5
72
 10
85.61519604
 20
66.03573272
 30
0.0
 11
66.11519604
 21
66.03573272
 31
0.0
  0
LINE
  8
0
  6
CONTINUOUS
 62
     254
  5
73
 10
85.61519604
 20
92.03573272
 30
0.0
 11
66.11519604
 21
92.03573272
 31
0.0
  0
LINE
  8
0
  6
CONTINUOUS
 62
     254
  5
74
 10
79.26519608
 20
2.49653575
 30
0.0
 11
136.26519608
 21
2.49653575
 31
0.0
  0
LINE
  8
0
  6
CONTINUOUS
 62
     254
  5
75
 10
79.26519604
 20
2.49653575
 30
0.0
 11
79.26519604
 21
3.69653575
 31
0.0
  0
LINE
  8
0
  6
CONTINUOUS
 62
     254
  5
76
 10
79.26519604
 20
3.69653575
 30
0.0
 11
136.26519604
 21
3.69653575
 31
0.0
  0
LINE
  8
0
  6
CONTINUOUS
 62
     254
  5
77
 10
86.71519604
 20
5.69653575
 30
0.0
 11
86.71519604
 21
39.49653575
 31
0.0
  0
LINE
  8
0
  6
CONTINUOUS
 62
     254
  5
78
 10
128.81519604
 20
5.69653575
 30
0.0
 11
128.81519604
 21
39.49653575
 31
0.0
  0
ARC
  8
0
  6
CONTINUOUS
 62
     254
  5
79
 10
130.81519604
 20
5.69653575
 30
0.0
 40
2.0
 50
180.0
 51
270.0
  0
ARC
  8
0
  6
CONTINUOUS
 62
     254
  5
7A
 10
84.71519604
 20
5.69653575
 30
0.0
 40
2.0
 50
270.0
 51
0.0
  0
LINE
  8
0
  6
CONTINUOUS
 62
     254
  5
7B
 10
86.71519604
 20
16.49653575
 30
0.0
 11
128.81519604
 21
16.49653575
 31
0.0
  0
LINE
  8
0
  6
CONTINUOUS
 62
     116
  5
7C
 10
81.61724109
 20
10.99653575
 30
0.0
 11
88.45053369
 21
10.99653575
 31
0.0
  0
LINE
  8
0
  6
CONTINUOUS
 62
     254
  5
7D
 10
86.71519604
 20
39.49653575
 30
0.0
 11
128.81519604
 21
39.49653575
 31
0.0
  0
LINE
  8
0
  6
CONTINUOUS
 62
     254
  5
7E
 10
100.26519604
 20
16.49653575
 30
0.0
 11
100.26519604
 21
39.49653575
 31
0.0
  0
LINE
  8
0
  6
CONTINUOUS
 62
     254
  5
7F
 10
115.26519604
 20
16.49653575
 30
0.0
 11
115.26519604
 21
39.49653575
 31
0.0
  0
LINE
  8
0
  6
CONTINUOUS
 62
     254
  5
80
 10
128.41519604
 20
39.49653575
 30
0.0
 11
128.41519604
 21
108.99653575
 31
0.0
  0
LINE
  8
0
  6
CONTINUOUS
 62
     254
  5
81
 10
87.11519604
 20
39.49653575
 30
0.0
 11
87.11519604
 21
59.05286508
 31
0.0
  0
LINE
  8
0
  6
CONTINUOUS
 62
     254
  5
82
 10
92.11519604
 20
113.99653575
 30
0.0
 11
123.41519604
 21
113.99653575
 31
0.0
  0
ARC
  8
0
  6
CONTINUOUS
 62
     254
  5
83
 10
123.41519604
 20
108.99653575
 30
0.0
 40
5.0
 50
0.0
 51
90.0
  0
ARC
  8
0
  6
CONTINUOUS
 62
     254
  5
84
 10
92.11519604
 20
108.99653575
 30
0.0
 40
5.0
 50
90.0
 51
180.0
  0
LINE
  8
0
  6
CONTINUOUS
 62
     116
  5
85
 10
102.94640785
 20
44.99653575
 30
0.0
 11
113.03891619
 21
44.99653575
 31
0.0
  0
LINE
  8
0
  6
CONTINUOUS
 62
     116
  5
86
 10
80.54658982
 20
78.99653575
 30
0.0
 11
101.53900718
 21
78.99653575
 31
0.0
  0
ARC
  8
0
  6
CONTINUOUS
 62
     254
  5
87
 10
85.61519604
 20
78.99653575
 30
0.0
 40
20.0
 50
274.3012223
 51
342.6010327
  0
LINE
  8
0
  6
CONTINUOUS
 62
     254
  5
88
 10
85.61519604
 20
91.99653575
 30
0.0
 11
87.11519604
 21
98.94020643
 31
0.0
  0
LINE
  8
0
  6
CONTINUOUS
 62
     254
  5
89
 10
85.61519604
 20
65.99653575
 30
0.0
 11
87.11519604
 21
59.05286508
 31
0.0
  0
LINE
  8
0
  6
CONTINUOUS
 62
     254
  5
8A
 10
87.11519604
 20
108.99653575
 30
0.0
 11
87.11519604
 21
98.94020643
 31
0.0
  0
ARC
  8
0
  6
CONTINUOUS
 62
     254
  5
8B
 10
85.61519604
 20
78.99653575
 30
0.0
 40
20.0
 50
18.59736067
 51
85.6987777
  0
LINE
  8
0
  6
CONTINUOUS
 62
     254
  5
8C
 10
127.81519604
 20
16.49653575
 30
0.0
 11
127.81519604
 21
39.49653575
 31
0.0
  0
LINE
  8
0
  6
CONTINUOUS
 62
     254
  5
8D
 10
87.71519604
 20
16.49653575
 30
0.0
 11
87.71519604
 21
39.49653575
 31
0.0
  0
LINE
  8
0
  6
CONTINUOUS
 62
     116
  5
8E
 10
127.77702873
 20
10.99653575
 30
0.0
 11
133.00109748
 21
10.99653575
 31
0.0
  0
LINE
  8
0
  6
CONTINUOUS
 62
     116
  5
8F
 10
102.85454045
 20
10.99653575
 30
0.0
 11
112.8000323
 21
10.99653575
 31
0.0
  0
CIRCLE
  8
0
  6
CONTINUOUS
 62
     254
  5
90
 10
107.76519604
 20
10.99653575
 30
0.0
 40
3.5
  0
LINE
  8
0
  6
CONTINUOUS
 62
     254
  5
91
 10
129.81519604
 20
7.49653575
 30
0.0
 11
129.81519604
 21
14.49653575
 31
0.0
  0
LINE
  8
0
  6
CONTINUOUS
 62
     254
  5
92
 10
132.41519604
 20
10.09653575
 30
0.0
 11
132.41519604
 21
11.89653575
 31
0.0
  0
LINE
  8
0
  6
CONTINUOUS
 62
     254
  5
93
 10
128.81519604
 20
14.49653575
 30
0.0
 11
129.81519604
 21
14.49653575
 31
0.0
  0
LINE
  8
0
  6
CONTINUOUS
 62
     254
  5
94
 10
128.81519604
 20
7.49653575
 30
0.0
 11
129.81519604
 21
7.49653575
 31
0.0
  0
ARC
  8
0
  6
CONTINUOUS
 62
     254
  5
95
 10
129.81519604
 20
11.89653575
 30
0.0
 40
2.6
 50
0.0
 51
90.0
  0
ARC
  8
0
  6
CONTINUOUS
 62
     254
  5
96
 10
129.81519604
 20
10.09653575
 30
0.0
 40
2.6
 50
270.0
 51
0.0
  0
LINE
  8
0
  6
CONTINUOUS
 62
     254
  5
97
 10
85.71519604
 20
7.49653575
 30
0.0
 11
85.71519604
 21
14.49653575
 31
0.0
  0
LINE
  8
0
  6
CONTINUOUS
 62
     254
  5
98
 10
86.71519604
 20
14.49653575
 30
0.0
 11
85.71519604
 21
14.49653575
 31
0.0
  0
ARC
  8
0
  6
CONTINUOUS
 62
     254
  5
99
 10
85.71519604
 20
11.89653575
 30
0.0
 40
2.6
 50
90.0
 51
180.0
  0
LINE
  8
0
  6
CONTINUOUS
 62
     254
  5
9A
 10
86.71519604
 20
7.49653575
 30
0.0
 11
85.71519604
 21
7.49653575
 31
0.0
  0
ARC
  8
0
  6
CONTINUOUS
 62
     254
  5
9B
 10
85.71519604
 20
10.09653575
 30
0.0
 40
2.6
 50
180.0
 51
270.0
  0
LINE
  8
0
  6
CONTINUOUS
 62
     254
  5
9C
 10
83.11519604
 20
10.09653575
 30
0.0
 11
83.11519604
 21
11.89653575
 31
0.0
  0
LINE
  8
0
  6
CONTINUOUS
 62
     254
  5
9D
 10
106.35098242
 20
9.58232218
 30
0.0
 11
109.17940962
 21
12.41074925
 31
0.0
  0
LINE
  8
0
  6
CONTINUOUS
 62
     254
  5
9E
 10
106.35098242
 20
12.41074925
 30
0.0
 11
109.17940958
 21
9.58232209
 31
0.0
  0
LINE
  8
0
  6
CONTINUOUS
 62
     254
  5
9F
 10
130.81519603
 20
12.59653574
 30
0.0
 11
132.41519606
 21
10.99653571
 31
0.0
  0
LINE
  8
0
  6
CONTINUOUS
 62
     254
  5
A0
 10
130.81519603
 20
9.39653569
 30
0.0
 11
132.41519606
 21
10.99653571
 31
0.0
  0
LINE
  8
0
  6
CONTINUOUS
 62
     254
  5
A1
 10
83.11519598
 20
10.99653571
 30
0.0
 11
84.71519604
 21
12.59653577
 31
0.0
  0
LINE
  8
0
  6
CONTINUOUS
 62
     254
  5
A2
 10
83.11519598
 20
10.99653571
 30
0.0
 11
84.71519604
 21
9.39653566
 31
0.0
  0
CIRCLE
  8
0
  6
CONTINUOUS
 62
     254
  5
A3
 10
107.76519602
 20
44.99653575
 30
0.0
 40
3.5
  0
LINE
  8
0
  6
CONTINUOUS
 62
     254
  5
A4
 10
106.3509824
 20
43.58232218
 30
0.0
 11
109.1794096
 21
46.41074925
 31
0.0
  0
LINE
  8
0
  6
CONTINUOUS
 62
     254
  5
A5
 10
106.3509824
 20
46.41074925
 30
0.0
 11
109.17940956
 21
43.58232209
 31
0.0
  0
LINE
  8
0
  6
CONTINUOUS
 62
     116
  5
A6
 10
127.37702873
 20
44.99653575
 30
0.0
 11
132.60109748
 21
44.99653575
 31
0.0
  0
ARC
  8
0
  6
CONTINUOUS
 62
     254
  5
A7
 10
129.41519604
 20
45.89653575
 30
0.0
 40
2.6
 50
0.0
 51
90.0
  0
LINE
  8
0
  6
CONTINUOUS
 62
     254
  5
A8
 10
128.41519604
 20
48.49653575
 30
0.0
 11
129.41519604
 21
48.49653575
 31
0.0
  0
LINE
  8
0
  6
CONTINUOUS
 62
     254
  5
A9
 10
129.41519604
 20
41.49653575
 30
0.0
 11
129.41519604
 21
48.49653575
 31
0.0
  0
LINE
  8
0
  6
CONTINUOUS
 62
     254
  5
AA
 10
128.41519604
 20
41.49653575
 30
0.0
 11
129.41519604
 21
41.49653575
 31
0.0
  0
LINE
  8
0
  6
CONTINUOUS
 62
     254
  5
AB
 10
130.41519603
 20
43.39653569
 30
0.0
 11
132.01519606
 21
44.99653571
 31
0.0
  0
LINE
  8
0
  6
CONTINUOUS
 62
     254
  5
AC
 10
130.41519603
 20
46.59653574
 30
0.0
 11
132.01519606
 21
44.99653571
 31
0.0
  0
ARC
  8
0
  6
CONTINUOUS
 62
     254
  5
AD
 10
129.41519604
 20
44.09653575
 30
0.0
 40
2.6
 50
270.0
 51
0.0
  0
LINE
  8
0
  6
CONTINUOUS
 62
     254
  5
AE
 10
132.01519604
 20
44.09653575
 30
0.0
 11
132.01519604
 21
45.89653575
 31
0.0
  0
LINE
  8
0
  6
CONTINUOUS
 62
     116
  5
AF
 10
83.8840779
 20
53.49653575
 30
0.0
 11
88.67278382
 21
53.49653575
 31
0.0
  0
LINE
  8
0
  6
CONTINUOUS
 62
     254
  5
B0
 10
85.61519604
 20
48.99653575
 30
0.0
 11
85.61519604
 21
57.99653575
 31
0.0
  0
LINE
  8
0
  6
CONTINUOUS
 62
     254
  5
B1
 10
85.61519598
 20
57.99653575
 30
0.0
 11
87.11519604
 21
57.99653575
 31
0.0
  0
LINE
  8
0
  6
CONTINUOUS
 62
     254
  5
B2
 10
85.61519598
 20
48.99653575
 30
0.0
 11
87.11519604
 21
48.99653575
 31
0.0
  0
CIRCLE
  8
0
  6
CONTINUOUS
 62
     116
  5
B3
 10
107.76519604
 20
27.99653575
 30
0.0
 40
5.5
  0
CIRCLE
  8
0
  6
CONTINUOUS
 62
     254
  5
B4
 10
107.76519604
 20
27.99653575
 30
0.0
 40
4.5
  0
LINE
  8
0
  6
CONTINUOUS
 62
     116
  5
B5
 10
83.71519604
 20
27.99653575
 30
0.0
 11
131.81519604
 21
27.99653575
 31
0.0
  0
LINE
  8
0
  6
CONTINUOUS
 62
     116
  5
B6
 10
107.76519604
 20
137.22114794
 30
0.0
 11
107.76519604
 21
-3.66283925
 31
0.0
  0
LINE
  8
0
  6
CONTINUOUS
 62
     254
  5
B7
 10
94.17406141
 20
123.19653575
 30
0.0
 11
94.76898432
 21
129.99653575
 31
0.0
  0
LINE
  8
0
  6
CONTINUOUS
 62
     254
  5
B8
 10
121.35633067
 20
123.19653575
 30
0.0
 11
120.76140775
 21
129.99653575
 31
0.0
  0
LINE
  8
0
  6
CONTINUOUS
 62
     254
  5
B9
 10
93.26519604
 20
123.19653575
 30
0.0
 11
122.26519604
 21
123.19653575
 31
0.0
  0
ARC
  8
0
  6
CONTINUOUS
 62
     254
  5
BA
 10
122.26519604
 20
122.69653575
 30
0.0
 40
0.5
 50
0.0
 51
90.0
  0
ARC
  8
0
  6
CONTINUOUS
 62
     254
  5
BB
 10
93.26519604
 20
122.69653575
 30
0.0
 40
0.5
 50
90.0
 51
180.0
  0
LINE
  8
0
  6
CONTINUOUS
 62
     254
  5
BC
 10
122.76519604
 20
122.69653575
 30
0.0
 11
122.76519604
 21
113.99653575
 31
0.0
  0
LINE
  8
0
  6
CONTINUOUS
 62
     254
  5
BD
 10
92.76519604
 20
122.69653575
 30
0.0
 11
92.76519604
 21
113.99653575
 31
0.0
  0
ARC
  8
0
  6
CONTINUOUS
 62
     254
  5
BE
 10
-106.28410418
 20
123.69653575
 30
0.0
 40
0.5
 50
270.0
 51
355.00000002
  0
ARC
  8
0
  6
CONTINUOUS
 62
     254
  5
BF
 10
-78.18550374
 20
123.69653575
 30
0.0
 40
0.5
 50
185.00000004
 51
270.0
  0
ARC
  8
0
  6
CONTINUOUS
 62
     254
  5
C0
 10
-106.73480396
 20
122.69653575
 30
0.0
 40
0.5
 50
90.0
 51
180.0
  0
ARC
  8
0
  6
CONTINUOUS
 62
     254
  5
C1
 10
-77.73480396
 20
122.69653575
 30
0.0
 40
0.5
 50
0.0
 51
90.0
  0
LINE
  8
0
  6
CONTINUOUS
 62
     254
  5
C2
 10
-105.78600683
 20
123.65295788
 30
0.0
 11
-105.23101568
 21
129.99653575
 31
0.0
  0
LINE
  8
0
  6
CONTINUOUS
 62
     254
  5
C3
 10
-78.68360109
 20
123.65295788
 30
0.0
 11
-79.23859225
 21
129.99653575
 31
0.0
  0
LINE
  8
0
  6
CONTINUOUS
 62
     254
  5
C4
 10
-106.73480396
 20
123.19653575
 30
0.0
 11
-77.73480396
 21
123.19653575
 31
0.0
  0
ARC
  8
0
  6
CONTINUOUS
 62
     254
  5
C5
 10
-76.58480396
 20
108.99653575
 30
0.0
 40
5.0
 50
0.0
 51
90.0
  0
ARC
  8
0
  6
CONTINUOUS
 62
     254
  5
C6
 10
-107.88480396
 20
108.99653575
 30
0.0
 40
5.0
 50
90.0
 51
180.0
  0
LINE
  8
0
  6
CONTINUOUS
 62
     254
  5
C7
 10
-107.88480396
 20
113.99653575
 30
0.0
 11
-76.58480396
 21
113.99653575
 31
0.0
  0
LINE
  8
0
  6
CONTINUOUS
 62
     116
  5
C8
 10
-108.67724035
 20
78.99653575
 30
0.0
 11
-74.70690084
 21
78.99653575
 31
0.0
  0
CIRCLE
  8
0
  6
CONTINUOUS
 62
     254
  5
C9
 10
-92.23480396
 20
78.99653575
 30
0.0
 40
13.0
  0
CIRCLE
  8
0
  6
CONTINUOUS
 62
     254
  5
CA
 10
-92.23480396
 20
78.99653575
 30
0.0
 40
7.5
  0
LINE
  8
0
  6
CONTINUOUS
 62
     116
  5
CB
 10
-97.38102237
 20
81.74653575
 30
0.0
 11
-87.4650433
 21
81.74653575
 31
0.0
  0
LINE
  8
0
  6
CONTINUOUS
 62
     116
  5
CC
 10
-97.38102237
 20
76.24653575
 30
0.0
 11
-87.4650433
 21
76.24653575
 31
0.0
  0
CIRCLE
  8
0
  6
CONTINUOUS
 62
     254
  5
CD
 10
-92.23480396
 20
76.24653575
 30
0.0
 40
2.5
  0
CIRCLE
  8
0
  6
CONTINUOUS
 62
     254
  5
CE
 10
-92.23480396
 20
81.74653575
 30
0.0
 40
2.5
  0
ARC
  8
0
  6
CONTINUOUS
 62
     254
  5
CF
 10
-92.23480396
 20
78.99653575
 30
0.0
 40
20.0
 50
14.47751219
 51
165.52248781
  0
CIRCLE
  8
0
  6
CONTINUOUS
 62
     254
  5
D0
 10
-92.23480396
 20
81.74653575
 30
0.0
 40
1.0
  0
CIRCLE
  8
0
  6
CONTINUOUS
 62
     254
  5
D1
 10
-92.23480396
 20
76.24653575
 30
0.0
 40
1.0
  0
LINE
  8
0
  6
CONTINUOUS
 62
     254
  5
D2
 10
-77.23480396
 20
122.69653575
 30
0.0
 11
-77.23480396
 21
113.86512367
 31
0.0
  0
LINE
  8
0
  6
CONTINUOUS
 62
     254
  5
D3
 10
-107.23480396
 20
122.69653575
 30
0.0
 11
-107.23480396
 21
113.99653575
 31
0.0
  0
ARC
  8
0
  6
CONTINUOUS
 62
     254
  5
D4
 10
-92.23480396
 20
78.99653575
 30
0.0
 40
20.0
 50
194.47751219
 51
345.52248781
  0
LINE
  8
0
  6
CONTINUOUS
 62
     254
  5
D5
 10
-71.58480396
 20
39.39653575
 30
0.0
 11
-71.58480396
 21
108.99653575
 31
0.0
  0
LINE
  8
0
  6
CONTINUOUS
 62
     254
  5
D6
 10
-112.88480396
 20
108.99653575
 30
0.0
 11
-112.88480396
 21
39.49653575
 31
0.0
  0
LINE
  8
0
  6
CONTINUOUS
 62
     116
  5
D7
 10
-92.23480396
 20
137.22114794
 30
0.0
 11
-92.23480396
 21
-3.66283925
 31
0.0
  0
CIRCLE
  8
0
  6
CONTINUOUS
 62
     254
  5
D8
 10
-92.23480396
 20
27.99653575
 30
0.0
 40
4.5
  0
CIRCLE
  8
0
  6
CONTINUOUS
 62
     116
  5
D9
 10
-92.23480396
 20
27.99653575
 30
0.0
 40
5.5
  0
LINE
  8
0
  6
CONTINUOUS
 62
     116
  5
DA
 10
-73.4798398
 20
10.99653575
 30
0.0
 11
-66.53013683
 21
10.99653575
 31
0.0
  0
LINE
  8
0
  6
CONTINUOUS
 62
     254
  5
DB
 10
-112.93480398
 20
41.49653575
 30
0.0
 11
-113.93480398
 21
41.49653575
 31
0.0
  0
LINE
  8
0
  6
CONTINUOUS
 62
     254
  5
DC
 10
-116.53480403
 20
44.99653571
 30
0.0
 11
-114.93480398
 21
43.39653566
 31
0.0
  0
ARC
  8
0
  6
CONTINUOUS
 62
     254
  5
DD
 10
-113.93480398
 20
44.09653575
 30
0.0
 40
2.6
 50
180.0
 51
270.0
  0
ARC
  8
0
  6
CONTINUOUS
 62
     254
  5
DE
 10
-113.93480398
 20
45.89653575
 30
0.0
 40
2.6
 50
90.0
 51
180.0
  0
LINE
  8
0
  6
CONTINUOUS
 62
     254
  5
DF
 10
-116.53480403
 20
44.99653571
 30
0.0
 11
-114.93480398
 21
46.59653577
 31
0.0
  0
LINE
  8
0
  6
CONTINUOUS
 62
     254
  5
E0
 10
-116.53480398
 20
44.09653575
 30
0.0
 11
-116.53480398
 21
45.89653575
 31
0.0
  0
LINE
  8
0
  6
CONTINUOUS
 62
     254
  5
E1
 10
-112.93480398
 20
48.49653575
 30
0.0
 11
-113.93480398
 21
48.49653575
 31
0.0
  0
LINE
  8
0
  6
CONTINUOUS
 62
     254
  5
E2
 10
-113.93480398
 20
41.49653575
 30
0.0
 11
-113.93480398
 21
48.49653575
 31
0.0
  0
LINE
  8
0
  6
CONTINUOUS
 62
     254
  5
E3
 10
-67.93480398
 20
44.09653575
 30
0.0
 11
-67.93480398
 21
45.89653575
 31
0.0
  0
LINE
  8
0
  6
CONTINUOUS
 62
     254
  5
E4
 10
-71.53480398
 20
41.49653575
 30
0.0
 11
-70.53480398
 21
41.49653575
 31
0.0
  0
LINE
  8
0
  6
CONTINUOUS
 62
     254
  5
E5
 10
-70.53480398
 20
41.49653575
 30
0.0
 11
-70.53480398
 21
48.49653575
 31
0.0
  0
LINE
  8
0
  6
CONTINUOUS
 62
     254
  5
E6
 10
-69.53480399
 20
43.39653569
 30
0.0
 11
-67.93480396
 21
44.99653571
 31
0.0
  0
ARC
  8
0
  6
CONTINUOUS
 62
     254
  5
E7
 10
-70.53480398
 20
44.09653575
 30
0.0
 40
2.6
 50
270.0
 51
0.0
  0
LINE
  8
0
  6
CONTINUOUS
 62
     254
  5
E8
 10
-69.53480399
 20
46.59653574
 30
0.0
 11
-67.93480396
 21
44.99653571
 31
0.0
  0
LINE
  8
0
  6
CONTINUOUS
 62
     254
  5
E9
 10
-71.53480398
 20
48.49653575
 30
0.0
 11
-70.53480398
 21
48.49653575
 31
0.0
  0
ARC
  8
0
  6
CONTINUOUS
 62
     254
  5
EA
 10
-70.53480398
 20
45.89653575
 30
0.0
 40
2.6
 50
0.0
 51
90.0
  0
LINE
  8
0
  6
CONTINUOUS
 62
     116
  5
EB
 10
-96.8308418
 20
10.99653575
 30
0.0
 11
-87.51823981
 21
10.99653575
 31
0.0
  0
LINE
  8
0
  6
CONTINUOUS
 62
     116
  5
EC
 10
-118.38275893
 20
10.99653575
 30
0.0
 11
-111.54946633
 21
10.99653575
 31
0.0
  0
LINE
  8
0
  6
CONTINUOUS
 62
     254
  5
ED
 10
-113.28480398
 20
7.49653575
 30
0.0
 11
-114.28480398
 21
7.49653575
 31
0.0
  0
LINE
  8
0
  6
CONTINUOUS
 62
     254
  5
EE
 10
-116.88480403
 20
10.99653571
 30
0.0
 11
-115.28480398
 21
9.39653566
 31
0.0
  0
ARC
  8
0
  6
CONTINUOUS
 62
     254
  5
EF
 10
-114.28480398
 20
10.09653575
 30
0.0
 40
2.6
 50
180.0
 51
270.0
  0
ARC
  8
0
  6
CONTINUOUS
 62
     254
  5
F0
 10
-114.28480398
 20
11.89653575
 30
0.0
 40
2.6
 50
90.0
 51
180.0
  0
LINE
  8
0
  6
CONTINUOUS
 62
     254
  5
F1
 10
-116.88480403
 20
10.99653571
 30
0.0
 11
-115.28480398
 21
12.59653577
 31
0.0
  0
LINE
  8
0
  6
CONTINUOUS
 62
     254
  5
F2
 10
-116.88480398
 20
10.09653575
 30
0.0
 11
-116.88480398
 21
11.89653575
 31
0.0
  0
LINE
  8
0
  6
CONTINUOUS
 62
     254
  5
F3
 10
-113.28480398
 20
14.49653575
 30
0.0
 11
-114.28480398
 21
14.49653575
 31
0.0
  0
LINE
  8
0
  6
CONTINUOUS
 62
     254
  5
F4
 10
-114.28480398
 20
7.49653575
 30
0.0
 11
-114.28480398
 21
14.49653575
 31
0.0
  0
LINE
  8
0
  6
CONTINUOUS
 62
     254
  5
F5
 10
-71.18480398
 20
7.49653575
 30
0.0
 11
-70.18480398
 21
7.49653575
 31
0.0
  0
LINE
  8
0
  6
CONTINUOUS
 62
     254
  5
F6
 10
-69.18480399
 20
9.39653569
 30
0.0
 11
-67.58480396
 21
10.99653571
 31
0.0
  0
ARC
  8
0
  6
CONTINUOUS
 62
     254
  5
F7
 10
-70.18480398
 20
10.09653575
 30
0.0
 40
2.6
 50
270.0
 51
0.0
  0
ARC
  8
0
  6
CONTINUOUS
 62
     254
  5
F8
 10
-70.18480398
 20
11.89653575
 30
0.0
 40
2.6
 50
0.0
 51
90.0
  0
LINE
  8
0
  6
CONTINUOUS
 62
     254
  5
F9
 10
-69.18480399
 20
12.59653574
 30
0.0
 11
-67.58480396
 21
10.99653571
 31
0.0
  0
LINE
  8
0
  6
CONTINUOUS
 62
     254
  5
FA
 10
-71.18480398
 20
14.49653575
 30
0.0
 11
-70.18480398
 21
14.49653575
 31
0.0
  0
LINE
  8
0
  6
CONTINUOUS
 62
     254
  5
FB
 10
-67.58480398
 20
10.09653575
 30
0.0
 11
-67.58480398
 21
11.89653575
 31
0.0
  0
LINE
  8
0
  6
CONTINUOUS
 62
     254
  5
FC
 10
-70.18480398
 20
7.49653575
 30
0.0
 11
-70.18480398
 21
14.49653575
 31
0.0
  0
LINE
  8
0
  6
CONTINUOUS
 62
     254
  5
FD
 10
-93.64901746
 20
12.41074925
 30
0.0
 11
-90.8205903
 21
9.58232209
 31
0.0
  0
LINE
  8
0
  6
CONTINUOUS
 62
     254
  5
FE
 10
-93.64901746
 20
9.58232218
 30
0.0
 11
-90.82059027
 21
12.41074925
 31
0.0
  0
CIRCLE
  8
0
  6
CONTINUOUS
 62
     254
  5
FF
 10
-92.23480385
 20
10.99653575
 30
0.0
 40
3.5
  0
CIRCLE
  8
0
  6
CONTINUOUS
 62
     254
  5
100
 10
-92.23480396
 20
53.49653575
 30
0.0
 40
1.4
  0
CIRCLE
  8
0
  6
CONTINUOUS
 62
     254
  5
101
 10
-92.23480396
 20
53.49653575
 30
0.0
 40
4.5
  0
LINE
  8
0
  6
CONTINUOUS
 62
     116
  5
102
 10
-98.35977645
 20
53.49653575
 30
0.0
 11
-86.40628733
 21
53.49653575
 31
0.0
  0
LINE
  8
0
  6
CONTINUOUS
 62
     116
  5
103
 10
-73.4798398
 20
44.99653575
 30
0.0
 11
-66.53013683
 21
44.99653575
 31
0.0
  0
LINE
  8
0
  6
CONTINUOUS
 62
     254
  5
104
 10
-84.73480396
 20
16.49653571
 30
0.0
 11
-84.73480396
 21
39.49653571
 31
0.0
  0
LINE
  8
0
  6
CONTINUOUS
 62
     254
  5
105
 10
-99.73480396
 20
16.49653571
 30
0.0
 11
-99.73480396
 21
39.49653571
 31
0.0
  0
LINE
  8
0
  6
CONTINUOUS
 62
     254
  5
106
 10
-72.23480396
 20
16.49653575
 30
0.0
 11
-72.23480396
 21
39.49653575
 31
0.0
  0
LINE
  8
0
  6
CONTINUOUS
 62
     254
  5
107
 10
-63.73480396
 20
2.49653571
 30
0.0
 11
-63.73480396
 21
3.69653576
 31
0.0
  0
LINE
  8
0
  6
CONTINUOUS
 62
     254
  5
108
 10
-120.73480396
 20
2.49653571
 30
0.0
 11
-120.73480396
 21
3.69653575
 31
0.0
  0
ARC
  8
0
  6
CONTINUOUS
 62
     254
  5
109
 10
-115.23480396
 20
5.69653575
 30
0.0
 40
2.0
 50
270.0
 51
0.0
  0
ARC
  8
0
  6
CONTINUOUS
 62
     254
  5
10A
 10
-69.23480396
 20
5.69653575
 30
0.0
 40
2.0
 50
180.0
 51
270.0
  0
LINE
  8
0
  6
CONTINUOUS
 62
     254
  5
10B
 10
-71.23480396
 20
5.69653576
 30
0.0
 11
-71.23480396
 21
39.49653575
 31
0.0
  0
LINE
  8
0
  6
CONTINUOUS
 62
     254
  5
10C
 10
-113.23480396
 20
5.69653576
 30
0.0
 11
-113.23480396
 21
39.49653575
 31
0.0
  0
LINE
  8
0
  6
CONTINUOUS
 62
     254
  5
10D
 10
-120.73480399
 20
3.69653575
 30
0.0
 11
-63.73480399
 21
3.69653575
 31
0.0
  0
LINE
  8
0
  6
CONTINUOUS
 62
     254
  5
10E
 10
-120.73480399
 20
2.49653575
 30
0.0
 11
-63.73480399
 21
2.49653575
 31
0.0
  0
LINE
  8
0
  6
CONTINUOUS
 62
     254
  5
10F
 10
-113.23480399
 20
16.49653575
 30
0.0
 11
-71.23480399
 21
16.49653575
 31
0.0
  0
LINE
  8
0
  6
CONTINUOUS
 62
     116
  5
110
 10
-118.07691307
 20
44.99653575
 30
0.0
 11
-110.73024775
 21
44.99653575
 31
0.0
  0
LINE
  8
0
  6
CONTINUOUS
 62
     254
  5
111
 10
-113.23480399
 20
39.49653575
 30
0.0
 11
-71.23480399
 21
39.49653575
 31
0.0
  0
LINE
  8
0
  6
CONTINUOUS
 62
     254
  5
112
 10
94.76898432
 20
129.99653575
 30
0.0
 11
120.76140775
 21
129.99653575
 31
0.0
  0
LINE
  8
0
  6
CONTINUOUS
 62
     254
  5
113
 10
136.26519604
 20
3.69653575
 30
0.0
 11
136.26519604
 21
2.49653575
 31
0.0
  0
LINE
  8
0
  6
CONTINUOUS
 62
     254
  5
114
 10
-105.23101568
 20
129.99653575
 30
0.0
 11
-79.23859225
 21
129.99653575
 31
0.0
  0
TEXT
  8
0
  6
CONTINUOUS
 62
       7
  5
115
 10
-268.22542379
 20
167.3499999
 30
0.0
 40
6.30000019
  1
MODEL:250E1
 41
1.11864407
  7
MX_NOTE_STANDARD
 11
-268.22542379
 21
170.5
 31
0.0
 73
       2
  0
LINE
  8
0
  6
CONTINUOUS
 62
     254
  5
116
 10
282.09985352
 20
195.5
 30
0.0
 11
282.09985352
 21
-195.0
 31
0.0
  0
LINE
  8
0
  6
CONTINUOUS
 62
     254
  5
117
 10
-281.25
 20
195.5
 30
0.0
 11
282.09985352
 21
195.5
 31
0.0
  0
LINE
  8
0
  6
CONTINUOUS
 62
     254
  5
118
 10
-281.25
 20
195.5
 30
0.0
 11
-281.25
 21
-195.0
 31
0.0
  0
LINE
  8
0
  6
CONTINUOUS
 62
     254
  5
119
 10
-281.25
 20
-195.0
 30
0.0
 11
282.09985352
 21
-195.0
 31
0.0
  0
ENDSEC
  0
EOF
