  0
SECTION
  2
HEADER
  9
$ACADVER
  1
AC1009
  9
$DWGCODEPAGE
  3
dos932
  9
$INSBASE
 10
0.0
 20
0.0
 30
0.0
  9
$EXTMIN
 10
-194.25
 20
-133.5
 30
0.0
  9
$EXTMAX
 10
194.80000305
 20
132.6000061
 30
0.0
  9
$LIMMIN
 10
-210.0
 20
-148.5
  9
$LIMMAX
 10
210.0
 20
148.5
  9
$ORTHOMODE
 70
       0
  9
$REGENMODE
 70
       1
  9
$FILLMODE
 70
       1
  9
$QTEXTMODE
 70
       0
  9
$MIRRTEXT
 70
       1
  9
$DRAGMODE
 70
       2
  9
$LTSCALE
 40
1.0
  9
$OSMODE
 70
       0
  9
$ATTMODE
 70
       1
  9
$TEXTSIZE
 40
3.20000005
  9
$TRACEWID
 40
0.05
  9
$TEXTSTYLE
  7
MX_NOTE_STANDARD
  9
$CLAYER
  8
0
  9
$CELTYPE
  6
CONTINUOUS
  9
$CECOLOR
 62
     256
  9
$DIMSCALE
 40
1.0
  9
$DIMASZ
 40
2.5
  9
$DIMEXO
 40
1.5
  9
$DIMDLI
 40
3.75
  9
$DIMRND
 40
0.0
  9
$DIMDLE
 40
0.0
  9
$DIMEXE
 40
1.5
  9
$DIMTP
 40
0.0
  9
$DIMTM
 40
0.0
  9
$DIMTXT
 40
3.20000005
  9
$DIMCEN
 40
2.5
  9
$DIMTSZ
 40
0.0
  9
$DIMTOL
 70
       0
  9
$DIMLIM
 70
       0
  9
$DIMTIH
 70
       0
  9
$DIMTOH
 70
       0
  9
$DIMSE1
 70
       0
  9
$DIMSE2
 70
       0
  9
$DIMTAD
 70
       1
  9
$DIMZIN
 70
       8
  9
$DIMBLK
  1

  9
$DIMASO
 70
       1
  9
$DIMSHO
 70
       1
  9
$DIMPOST
  1

  9
$DIMAPOST
  1

  9
$DIMALT
 70
       0
  9
$DIMALTD
 70
       4
  9
$DIMALTF
 40
0.03937008
  9
$DIMLFAC
 40
1.0
  9
$DIMTOFL
 70
       1
  9
$DIMTVP
 40
0.0
  9
$DIMTIX
 70
       0
  9
$DIMSOXD
 70
       0
  9
$DIMSAH
 70
       1
  9
$DIMBLK1
  1
_OPEN30
  9
$DIMBLK2
  1
_OPEN30
  9
$DIMSTYLE
  2
MXDIMSTYLE
  9
$DIMCLRD
 70
       0
  9
$DIMCLRE
 70
       0
  9
$DIMCLRT
 70
       0
  9
$DIMTFAC
 40
1.0
  9
$DIMGAP
 40
1.0
  9
$LUNITS
 70
       2
  9
$LUPREC
 70
       4
  9
$AXISMODE
 70
       0
  9
$AXISUNIT
 10
0.0
 20
0.0
  9
$SKETCHINC
 40
0.1
  9
$FILLETRAD
 40
0.0
  9
$AUNITS
 70
       0
  9
$AUPREC
 70
       0
  9
$MENU
  1
acad
  9
$ELEVATION
 40
0.0
  9
$PELEVATION
 40
0.0
  9
$THICKNESS
 40
0.0
  9
$LIMCHECK
 70
       0
  9
$BLIPMODE
 70
       1
  9
$CHAMFERA
 40
0.0
  9
$CHAMFERB
 40
0.0
  9
$SKPOLY
 70
       0
  9
$TDCREATE
 40
2454068.406724537
  9
$TDUPDATE
 40
2454068.406724537
  9
$TDINDWG
 40
0.0000000000
  9
$TDUSRTIMER
 40
0.0000000000
  9
$USRTIMER
 70
       1
  9
$ANGBASE
 50
0.0
  9
$ANGDIR
 70
       0
  9
$PDMODE
 70
       0
  9
$PDSIZE
 40
0.0
  9
$PLINEWID
 40
0.0
  9
$COORDS
 70
       1
  9
$SPLFRAME
 70
       0
  9
$SPLINETYPE
 70
       6
  9
$SPLINESEGS
 70
       8
  9
$ATTDIA
 70
       0
  9
$ATTREQ
 70
       1
  9
$HANDLING
 70
       1
  9
$HANDSEED
  5
216
  9
$SURFTAB1
 70
       6
  9
$SURFTAB2
 70
       6
  9
$SURFTYPE
 70
       6
  9
$SURFU
 70
       6
  9
$SURFV
 70
       6
  9
$UCSNAME
  2

  9
$UCSORG
 10
0.0
 20
0.0
 30
0.0
  9
$UCSXDIR
 10
1.0
 20
0.0
 30
0.0
  9
$UCSYDIR
 10
0.0
 20
1.0
 30
0.0
  9
$PUCSNAME
  2

  9
$PUCSORG
 10
0.0
 20
0.0
 30
0.0
  9
$PUCSXDIR
 10
1.0
 20
0.0
 30
0.0
  9
$PUCSYDIR
 10
0.0
 20
1.0
 30
0.0
  9
$USERI1
 70
       0
  9
$USERI2
 70
       0
  9
$USERI3
 70
       0
  9
$USERI4
 70
       0
  9
$USERI5
 70
       0
  9
$USERR1
 40
0.0
  9
$USERR2
 40
0.0
  9
$USERR3
 40
0.0
  9
$USERR4
 40
0.0
  9
$USERR5
 40
0.0
  9
$WORLDVIEW
 70
       1
  9
$SHADEDGE
 70
       3
  9
$SHADEDIF
 70
      70
  9
$TILEMODE
 70
       1
  9
$MAXACTVP
 70
      16
  9
$PINSBASE
 10
0.0
 20
0.0
 30
0.0
  9
$PLIMCHECK
 70
       0
  9
$PEXTMIN
 10
1.00000000E+20
 20
1.00000000E+20
 30
1.00000000E+20
  9
$PEXTMAX
 10
-1.00000000E+20
 20
-1.00000000E+20
 30
-1.00000000E+20
  9
$PLIMMIN
 10
0.0
 20
0.0
  9
$PLIMMAX
 10
12.0
 20
9.0
  9
$UNITMODE
 70
       0
  9
$VISRETAIN
 70
       0
  9
$PLINEGEN
 70
       1
  9
$PSLTSCALE
 70
       0
  9
$TREEDEPTH
 70
    3020
  0
ENDSEC
  0
SECTION
  2
TABLES
  0
TABLE
  2
VPORT
 70
       1
  0
VPORT
  2
*ACTIVE
 70
       0
 10
0.0
 20
0.0
 11
1.0
 21
1.0
 12
0.0
 22
0.0
 13
0.0
 23
0.0
 14
1.0
 24
1.0
 15
0.0
 25
0.0
 16
0.0
 26
0.0
 36
1.0
 17
0.0
 27
0.0
 37
0.0
 40
299.97
 41
1.73205081
 42
50.0
 43
0.0
 44
0.0
 50
0.0
 51
0.0
 71
       0
 72
     100
 73
       1
 74
       1
 75
       0
 76
       0
 77
       0
 78
       0
  0
ENDTAB
  0
TABLE
  2
LTYPE
 70
       1
  0
LTYPE
  2
CONTINUOUS
 70
      64
  3
Solid line
 72
      65
 73
       0
 40
0.0
  0
ENDTAB
  0
TABLE
  2
LAYER
 70
       2
  0
LAYER
  2
0
 70
       0
 62
       7
  6
CONTINUOUS
  0
LAYER
  2
DEFPOINTS
 70
       0
 62
       7
  6
CONTINUOUS
  0
ENDTAB
  0
TABLE
  2
STYLE
 70
       1
  0
STYLE
  2
MX_NOTE_STANDARD
 70
       0
 40
0.0
 41
1.0
 50
0.0
 71
       0
 42
3.20000005
  3
txt.shx
  4
extfont.shx
  0
ENDTAB
  0
TABLE
  2
VIEW
 70
       0
  0
ENDTAB
  0
TABLE
  2
UCS
 70
       0
  0
ENDTAB
  0
TABLE
  2
APPID
 70
       1
  0
APPID
  2
ACAD
 70
       0
  0
ENDTAB
  0
TABLE
  2
DIMSTYLE
 70
       1
  0
DIMSTYLE
  2
MXDIMSTYLE
 70
       0
  3

  4

  5

  6
_OPEN30
  7
_OPEN30
 40
1.0
 41
2.5
 42
1.5
 43
3.75
 44
1.5
 45
0.0
 46
0.0
 47
0.0
 48
0.0
 71
       0
 72
       0
 73
       0
 74
       0
 75
       0
 76
       0
 77
       1
 78
       8
140
3.20000005
141
2.5
142
0.0
143
0.03937008
144
1.0
145
0.0
146
1.0
147
1.0
170
       0
171
       4
172
       1
173
       1
174
       0
175
       0
176
       0
177
       0
178
       0
  0
ENDTAB
  0
ENDSEC
  0
SECTION
  2
BLOCKS
  0
BLOCK
  8
0
  6
BYBLOCK
 62
       0
  5
1F
  2
_OPEN30
 70
       2
 10
0.0
 20
0.0
 30
0.0
  3
_OPEN30
  0
LINE
  8
0
  6
BYBLOCK
 62
       0
  5
20
 10
-1.0
 20
0.267949
 30
0.0
 11
0.0
 21
0.0
 31
0.0
  0
LINE
  8
0
  6
BYBLOCK
 62
       0
  5
21
 10
0.0
 20
0.0
 30
0.0
 11
-1.0
 21
-0.267949
 31
0.0
  0
LINE
  8
0
  6
BYBLOCK
 62
       0
  5
22
 10
0.0
 20
0.0
 30
0.0
 11
-1.0
 21
0.0
 31
0.0
  0
ENDBLK
  8
0
  6
BYBLOCK
 62
       0
  5
23
  0
ENDSEC
  0
SECTION
  2
ENTITIES
  0
LINE
  8
0
  6
CONTINUOUS
 62
       7
  5
24
 10
33.5
 20
23.45582953
 30
0.0
 11
44.0
 21
23.45582953
 31
0.0
  0
LINE
  8
0
  6
CONTINUOUS
 62
       7
  5
25
 10
-16.0
 20
24.45582953
 30
0.0
 11
-16.0
 21
82.45582953
 31
0.0
  0
ARC
  8
0
  6
CONTINUOUS
 62
       7
  5
26
 10
108.70070785
 20
41.45582953
 30
0.0
 40
16.0
 50
41.8103149
 51
318.1896851
  0
LINE
  8
0
  6
CONTINUOUS
 62
       7
  5
27
 10
-75.61737819
 20
-5.54417068
 30
0.0
 11
-75.61737819
 21
3.45582932
 31
0.0
  0
LINE
  8
0
  6
CONTINUOUS
 62
       7
  5
28
 10
-129.11737822
 20
94.45582932
 30
0.0
 11
-112.11737822
 21
94.45582932
 31
0.0
  0
LINE
  8
0
  6
CONTINUOUS
 62
       7
  5
29
 10
-165.61737822
 20
-5.54417068
 30
0.0
 11
-165.61737822
 21
3.45582932
 31
0.0
  0
LINE
  8
0
  6
CONTINUOUS
 62
       7
  5
2A
 10
-164.61737822
 20
4.45582932
 30
0.0
 11
-135.56862744
 21
4.45582932
 31
0.0
  0
LINE
  8
0
  6
CONTINUOUS
 62
       2
  5
2B
 10
-136.61737822
 20
23.3433224
 30
0.0
 11
-136.61737822
 21
73.80586367
 31
0.0
  0
LINE
  8
0
  6
CONTINUOUS
 62
       2
  5
2C
 10
-104.61737822
 20
23.3433224
 30
0.0
 11
-104.61737822
 21
73.87971641
 31
0.0
  0
LINE
  8
0
  6
CONTINUOUS
 62
       2
  5
2D
 10
-129.7942508
 20
9.45582932
 30
0.0
 11
-110.61321541
 21
9.45582932
 31
0.0
  0
CIRCLE
  8
0
  6
CONTINUOUS
 62
       7
  5
2E
 10
-120.61737822
 20
9.45582932
 30
0.0
 40
5.5
  0
CIRCLE
  8
0
  6
CONTINUOUS
 62
       7
  5
2F
 10
-120.61737822
 20
9.45582932
 30
0.0
 40
6.5
  0
LINE
  8
0
  6
CONTINUOUS
 62
       2
  5
30
 10
-145.73616434
 20
62.45582932
 30
0.0
 11
-127.71609477
 21
62.45582932
 31
0.0
  0
LINE
  8
0
  6
CONTINUOUS
 62
       7
  5
31
 10
-136.61737822
 20
72.45582932
 30
0.0
 11
-132.44953779
 21
72.45582932
 31
0.0
  0
LINE
  8
0
  6
CONTINUOUS
 62
       7
  5
32
 10
-161.61737822
 20
41.45582932
 30
0.0
 11
-161.61737822
 21
4.45582932
 31
0.0
  0
LINE
  8
0
  6
CONTINUOUS
 62
       7
  5
33
 10
-79.61737822
 20
41.45582932
 30
0.0
 11
-79.61737822
 21
4.45582932
 31
0.0
  0
LINE
  8
0
  6
CONTINUOUS
 62
       7
  5
34
 10
-161.61737822
 20
24.45582932
 30
0.0
 11
-79.61737822
 21
24.45582932
 31
0.0
  0
LINE
  8
0
  6
CONTINUOUS
 62
       7
  5
35
 10
-106.66488134
 20
5.4058917
 30
0.0
 11
-107.32986263
 21
18.7055174
 31
0.0
  0
LINE
  8
0
  6
CONTINUOUS
 62
       7
  5
36
 10
-134.56987511
 20
5.4058917
 30
0.0
 11
-133.90489382
 21
18.7055174
 31
0.0
  0
LINE
  8
0
  6
CONTINUOUS
 62
       7
  5
37
 10
-128.91113213
 20
23.45582932
 30
0.0
 11
-112.32362432
 21
23.45582932
 31
0.0
  0
ARC
  8
0
  6
CONTINUOUS
 62
       7
  5
38
 10
-128.91113213
 20
18.45582932
 30
0.0
 40
5.0
 50
90.0
 51
177.13759477
  0
ARC
  8
0
  6
CONTINUOUS
 62
       7
  5
39
 10
-112.32362432
 20
18.45582932
 30
0.0
 40
5.0
 50
2.86240523
 51
90.0
  0
LINE
  8
0
  6
CONTINUOUS
 62
       7
  5
3A
 10
-105.666129
 20
4.45582932
 30
0.0
 11
-76.61737822
 21
4.45582932
 31
0.0
  0
ARC
  8
0
  6
CONTINUOUS
 62
       7
  5
3B
 10
-164.61737822
 20
3.45582932
 30
0.0
 40
1.0
 50
90.0
 51
180.0
  0
ARC
  8
0
  6
CONTINUOUS
 62
       7
  5
3C
 10
-105.666129
 20
5.45582932
 30
0.0
 40
1.0
 50
182.86240523
 51
270.0
  0
ARC
  8
0
  6
CONTINUOUS
 62
       7
  5
3D
 10
-135.56862744
 20
5.45582932
 30
0.0
 40
1.0
 50
270.0
 51
357.13759477
  0
LINE
  8
0
  6
CONTINUOUS
 62
       7
  5
3E
 10
-161.61737822
 20
41.45582932
 30
0.0
 11
-152.61737822
 21
41.45582932
 31
0.0
  0
LINE
  8
0
  6
CONTINUOUS
 62
       7
  5
3F
 10
-123.20097036
 20
31.45582932
 30
0.0
 11
-118.03378609
 21
31.45582932
 31
0.0
  0
LINE
  8
0
  6
CONTINUOUS
 62
       7
  5
40
 10
-147.61737822
 20
53.07477936
 30
0.0
 11
-147.61737822
 21
86.45582932
 31
0.0
  0
LINE
  8
0
  6
CONTINUOUS
 62
       7
  5
41
 10
-93.61737822
 20
53.07477936
 30
0.0
 11
-93.61737822
 21
86.45582932
 31
0.0
  0
LINE
  8
0
  6
CONTINUOUS
 62
       7
  5
42
 10
-88.61737822
 20
41.45582932
 30
0.0
 11
-79.61737822
 21
41.45582932
 31
0.0
  0
ARC
  8
0
  6
CONTINUOUS
 62
       7
  5
43
 10
-136.61737822
 20
62.45582932
 30
0.0
 40
10.0
 50
90.0
 51
180.0
  0
ARC
  8
0
  6
CONTINUOUS
 62
       7
  5
44
 10
-104.61737822
 20
62.45582932
 30
0.0
 40
10.0
 50
0.0
 51
90.0
  0
LINE
  8
0
  6
CONTINUOUS
 62
       7
  5
45
 10
-146.61737822
 20
54.87223718
 30
0.0
 11
-146.61737822
 21
62.45582932
 31
0.0
  0
LINE
  8
0
  6
CONTINUOUS
 62
       7
  5
46
 10
-94.61737822
 20
54.87223718
 30
0.0
 11
-94.61737822
 21
62.45582932
 31
0.0
  0
ARC
  8
0
  6
CONTINUOUS
 62
       7
  5
47
 10
-120.61737822
 20
72.45582932
 30
0.0
 40
10.0
 50
9.59406823
 51
170.40593177
  0
LINE
  8
0
  6
CONTINUOUS
 62
       2
  5
48
 10
-127.73054346
 20
72.45582932
 30
0.0
 11
-113.56147849
 21
72.45582932
 31
0.0
  0
LINE
  8
0
  6
CONTINUOUS
 62
       7
  5
49
 10
-108.78521866
 20
72.45582932
 30
0.0
 11
-104.61737822
 21
72.45582932
 31
0.0
  0
ARC
  8
0
  6
CONTINUOUS
 62
       7
  5
4A
 10
-108.78521866
 20
74.45582932
 30
0.0
 40
2.0
 50
189.59406823
 51
270.0
  0
ARC
  8
0
  6
CONTINUOUS
 62
       7
  5
4B
 10
-132.44953779
 20
74.45582932
 30
0.0
 40
2.0
 50
270.0
 51
350.40593177
  0
ARC
  8
0
  6
CONTINUOUS
 62
       7
  5
4C
 10
-92.61737822
 20
54.87223718
 30
0.0
 40
2.0
 50
180.0
 51
228.1896851
  0
ARC
  8
0
  6
CONTINUOUS
 62
       7
  5
4D
 10
-148.61737822
 20
54.87223718
 30
0.0
 40
2.0
 50
311.8103149
 51
0.0
  0
ARC
  8
0
  6
CONTINUOUS
 62
       7
  5
4E
 10
-123.20097036
 20
29.45582932
 30
0.0
 40
2.0
 50
90.0
 51
138.1896851
  0
ARC
  8
0
  6
CONTINUOUS
 62
       7
  5
4F
 10
-118.03378609
 20
29.45582932
 30
0.0
 40
2.0
 50
41.8103149
 51
90.0
  0
ARC
  8
0
  6
CONTINUOUS
 62
       7
  5
50
 10
-120.61737822
 20
72.45582932
 30
0.0
 40
10.0
 50
250.1768192
 51
289.8231808
  0
ARC
  8
0
  6
CONTINUOUS
 62
       7
  5
51
 10
-104.61737822
 20
62.45582932
 30
0.0
 40
10.0
 50
186.16605278
 51
211.18862233
  0
ARC
  8
0
  6
CONTINUOUS
 62
       7
  5
52
 10
-136.61737822
 20
62.45582932
 30
0.0
 40
10.0
 50
328.81137767
 51
353.83394722
  0
ARC
  8
0
  6
CONTINUOUS
 62
       7
  5
53
 10
-136.61737822
 20
41.45582932
 30
0.0
 40
16.0
 50
27.26604445
 51
55.22805597
  0
ARC
  8
0
  6
CONTINUOUS
 62
       7
  5
54
 10
-136.61737822
 20
41.45582932
 30
0.0
 40
16.0
 50
131.8103149
 51
318.1896851
  0
ARC
  8
0
  6
CONTINUOUS
 62
       7
  5
55
 10
-104.61737822
 20
41.45582932
 30
0.0
 40
16.0
 50
124.77194403
 51
152.73395555
  0
ARC
  8
0
  6
CONTINUOUS
 62
       7
  5
56
 10
-104.61737822
 20
41.45582932
 30
0.0
 40
16.0
 50
221.8103149
 51
48.1896851
  0
ARC
  8
0
  6
CONTINUOUS
 62
       7
  5
57
 10
-124.68680089
 20
61.16690558
 30
0.0
 40
2.0
 50
70.1768192
 51
173.83394722
  0
ARC
  8
0
  6
CONTINUOUS
 62
       7
  5
58
 10
-116.54795556
 20
61.16690558
 30
0.0
 40
2.0
 50
6.16605278
 51
109.8231808
  0
ARC
  8
0
  6
CONTINUOUS
 62
       7
  5
59
 10
-126.35177288
 20
56.2415436
 30
0.0
 40
2.0
 50
148.81137767
 51
235.22805597
  0
ARC
  8
0
  6
CONTINUOUS
 62
       7
  5
5A
 10
-114.88298357
 20
56.2415436
 30
0.0
 40
2.0
 50
304.77194403
 51
31.18862233
  0
ARC
  8
0
  6
CONTINUOUS
 62
       7
  5
5B
 10
-120.61737822
 20
49.70204057
 30
0.0
 40
2.0
 50
207.26604445
 51
332.73395555
  0
CIRCLE
  8
0
  6
CONTINUOUS
 62
       7
  5
5C
 10
-136.61737822
 20
41.45582932
 30
0.0
 40
12.0
  0
CIRCLE
  8
0
  6
CONTINUOUS
 62
       7
  5
5D
 10
-104.61737822
 20
41.45582932
 30
0.0
 40
12.0
  0
CIRCLE
  8
0
  6
CONTINUOUS
 62
       7
  5
5E
 10
-120.61737822
 20
72.45582932
 30
0.0
 40
5.5
  0
CIRCLE
  8
0
  6
CONTINUOUS
 62
       2
  5
5F
 10
-120.61737822
 20
72.45582932
 30
0.0
 40
6.5
  0
LINE
  8
0
  6
CONTINUOUS
 62
       7
  5
60
 10
-147.61737826
 20
82.45582932
 30
0.0
 11
-93.61737826
 21
82.45582932
 31
0.0
  0
LINE
  8
0
  6
CONTINUOUS
 62
       7
  5
61
 10
-147.61737826
 20
86.45582932
 30
0.0
 11
-93.61737826
 21
86.45582932
 31
0.0
  0
LINE
  8
0
  6
CONTINUOUS
 62
       7
  5
62
 10
-129.11737822
 20
86.45582932
 30
0.0
 11
-129.11737822
 21
94.45582932
 31
0.0
  0
LINE
  8
0
  6
CONTINUOUS
 62
       7
  5
63
 10
-112.11737822
 20
86.45582932
 30
0.0
 11
-112.11737822
 21
94.45582932
 31
0.0
  0
LINE
  8
0
  6
CONTINUOUS
 62
       2
  5
64
 10
-142.61737822
 20
79.8683051
 30
0.0
 11
-142.61737822
 21
94.36733649
 31
0.0
  0
LINE
  8
0
  6
CONTINUOUS
 62
       2
  5
65
 10
-98.61737822
 20
79.8683051
 30
0.0
 11
-98.61737822
 21
94.36733649
 31
0.0
  0
LINE
  8
0
  6
CONTINUOUS
 62
       7
  5
66
 10
-102.11737822
 20
86.45582932
 30
0.0
 11
-102.11737822
 21
87.45582932
 31
0.0
  0
LINE
  8
0
  6
CONTINUOUS
 62
       7
  5
67
 10
-95.11737822
 20
86.45582932
 30
0.0
 11
-95.11737822
 21
87.45582932
 31
0.0
  0
LINE
  8
0
  6
CONTINUOUS
 62
       7
  5
68
 10
-98.61737821
 20
90.05582934
 30
0.0
 11
-100.10010586
 21
88.5731017
 31
0.0
  0
LINE
  8
0
  6
CONTINUOUS
 62
       7
  5
69
 10
-98.61737824
 20
90.05582934
 30
0.0
 11
-97.13465059
 21
88.5731017
 31
0.0
  0
ARC
  8
0
  6
CONTINUOUS
 62
       7
  5
6A
 10
-97.71737822
 20
87.45582932
 30
0.0
 40
2.6
 50
0.0
 51
90.0
  0
ARC
  8
0
  6
CONTINUOUS
 62
       7
  5
6B
 10
-99.51737822
 20
87.45582932
 30
0.0
 40
2.6
 50
90.0
 51
180.0
  0
LINE
  8
0
  6
CONTINUOUS
 62
       7
  5
6C
 10
-99.51737822
 20
90.05582932
 30
0.0
 11
-97.71737822
 21
90.05582932
 31
0.0
  0
LINE
  8
0
  6
CONTINUOUS
 62
       7
  5
6D
 10
-102.11737822
 20
87.45582932
 30
0.0
 11
-95.11737822
 21
87.45582932
 31
0.0
  0
LINE
  8
0
  6
CONTINUOUS
 62
       7
  5
6E
 10
-146.11737822
 20
86.45582932
 30
0.0
 11
-146.11737822
 21
87.45582932
 31
0.0
  0
LINE
  8
0
  6
CONTINUOUS
 62
       7
  5
6F
 10
-139.11737822
 20
86.45582932
 30
0.0
 11
-139.11737822
 21
87.45582932
 31
0.0
  0
LINE
  8
0
  6
CONTINUOUS
 62
       7
  5
70
 10
-142.61737821
 20
90.05582934
 30
0.0
 11
-144.10010586
 21
88.5731017
 31
0.0
  0
LINE
  8
0
  6
CONTINUOUS
 62
       7
  5
71
 10
-142.61737824
 20
90.05582934
 30
0.0
 11
-141.13465059
 21
88.5731017
 31
0.0
  0
ARC
  8
0
  6
CONTINUOUS
 62
       7
  5
72
 10
-141.71737822
 20
87.45582932
 30
0.0
 40
2.6
 50
0.0
 51
90.0
  0
ARC
  8
0
  6
CONTINUOUS
 62
       7
  5
73
 10
-143.51737822
 20
87.45582932
 30
0.0
 40
2.6
 50
90.0
 51
180.0
  0
LINE
  8
0
  6
CONTINUOUS
 62
       7
  5
74
 10
-143.51737822
 20
90.05582932
 30
0.0
 11
-141.71737822
 21
90.05582932
 31
0.0
  0
LINE
  8
0
  6
CONTINUOUS
 62
       7
  5
75
 10
-146.11737822
 20
87.45582932
 30
0.0
 11
-139.11737822
 21
87.45582932
 31
0.0
  0
LINE
  8
0
  6
CONTINUOUS
 62
       7
  5
76
 10
-143.61737822
 20
58.41437743
 30
0.0
 11
-136.61737822
 21
54.37292555
 31
0.0
  0
LINE
  8
0
  6
CONTINUOUS
 62
       7
  5
77
 10
-136.61737822
 20
54.37292555
 30
0.0
 11
-129.61737822
 21
58.41437743
 31
0.0
  0
LINE
  8
0
  6
CONTINUOUS
 62
       7
  5
78
 10
-129.61737822
 20
58.41437743
 30
0.0
 11
-129.61737822
 21
66.4972812
 31
0.0
  0
LINE
  8
0
  6
CONTINUOUS
 62
       7
  5
79
 10
-136.61737822
 20
70.53873309
 30
0.0
 11
-143.61737822
 21
66.4972812
 31
0.0
  0
LINE
  8
0
  6
CONTINUOUS
 62
       7
  5
7A
 10
-143.61737822
 20
66.4972812
 30
0.0
 11
-143.61737822
 21
58.41437743
 31
0.0
  0
LINE
  8
0
  6
CONTINUOUS
 62
       7
  5
7B
 10
-136.61737822
 20
70.53873309
 30
0.0
 11
-129.61737822
 21
66.4972812
 31
0.0
  0
CIRCLE
  8
0
  6
CONTINUOUS
 62
       7
  5
7C
 10
-136.61737822
 20
62.45582932
 30
0.0
 40
7.0
  0
LINE
  8
0
  6
CONTINUOUS
 62
       7
  5
7D
 10
-104.61737822
 20
70.53873309
 30
0.0
 11
-97.61737822
 21
66.4972812
 31
0.0
  0
CIRCLE
  8
0
  6
CONTINUOUS
 62
       7
  5
7E
 10
-104.61737822
 20
62.45582932
 30
0.0
 40
7.0
  0
LINE
  8
0
  6
CONTINUOUS
 62
       7
  5
7F
 10
-111.61737822
 20
58.41437743
 30
0.0
 11
-111.61737822
 21
66.4972812
 31
0.0
  0
LINE
  8
0
  6
CONTINUOUS
 62
       7
  5
80
 10
-104.61737822
 20
70.53873309
 30
0.0
 11
-111.61737822
 21
66.4972812
 31
0.0
  0
LINE
  8
0
  6
CONTINUOUS
 62
       7
  5
81
 10
-104.61737822
 20
54.37292555
 30
0.0
 11
-111.61737822
 21
58.41437743
 31
0.0
  0
LINE
  8
0
  6
CONTINUOUS
 62
       7
  5
82
 10
-97.61737822
 20
58.41437743
 30
0.0
 11
-104.61737822
 21
54.37292555
 31
0.0
  0
LINE
  8
0
  6
CONTINUOUS
 62
       7
  5
83
 10
-97.61737822
 20
66.4972812
 30
0.0
 11
-97.61737822
 21
58.41437743
 31
0.0
  0
LINE
  8
0
  6
CONTINUOUS
 62
       2
  5
84
 10
-112.79784046
 20
62.45582932
 30
0.0
 11
-96.10712029
 21
62.45582932
 31
0.0
  0
CIRCLE
  8
0
  6
CONTINUOUS
 62
       7
  5
85
 10
-136.61737822
 20
41.45582932
 30
0.0
 40
6.18578644
  0
ARC
  8
0
  6
CONTINUOUS
 62
       7
  5
86
 10
-136.61737822
 20
41.95582932
 30
0.0
 40
11.0
 50
304.41103893
 51
235.58896107
  0
ARC
  8
0
  6
CONTINUOUS
 62
       7
  5
87
 10
-132.61737822
 20
31.70887855
 30
0.0
 40
2.0
 50
39.32813926
 51
196.10777769
  0
LINE
  8
0
  6
CONTINUOUS
 62
       7
  5
88
 10
-134.24406212
 20
29.69286325
 30
0.0
 11
-134.53886123
 21
31.15398841
 31
0.0
  0
ARC
  8
0
  6
CONTINUOUS
 62
       7
  5
89
 10
-130.6835556
 20
33.29328067
 30
0.0
 40
0.5
 50
219.32813926
 51
304.41103893
  0
CIRCLE
  8
0
  6
CONTINUOUS
 62
       7
  5
8A
 10
-132.61737822
 20
31.70887855
 30
0.0
 40
1.0
  0
ARC
  8
0
  6
CONTINUOUS
 62
       7
  5
8B
 10
-140.61737822
 20
31.70887855
 30
0.0
 40
2.0
 50
343.89222231
 51
140.67186074
  0
ARC
  8
0
  6
CONTINUOUS
 62
       7
  5
8C
 10
-142.55120085
 20
33.29328067
 30
0.0
 40
0.5
 50
235.58896107
 51
320.67186074
  0
LINE
  8
0
  6
CONTINUOUS
 62
       7
  5
8D
 10
-138.99069433
 20
29.69286325
 30
0.0
 11
-138.69589522
 21
31.15398841
 31
0.0
  0
CIRCLE
  8
0
  6
CONTINUOUS
 62
       7
  5
8E
 10
-140.61737822
 20
31.70887855
 30
0.0
 40
1.0
  0
CIRCLE
  8
0
  6
CONTINUOUS
 62
       7
  5
8F
 10
-104.61737822
 20
41.45582932
 30
0.0
 40
6.18578644
  0
ARC
  8
0
  6
CONTINUOUS
 62
       7
  5
90
 10
-104.61737822
 20
41.95582932
 30
0.0
 40
11.0
 50
304.41103893
 51
235.58896107
  0
ARC
  8
0
  6
CONTINUOUS
 62
       7
  5
91
 10
-108.61737822
 20
31.70887855
 30
0.0
 40
2.0
 50
343.89222231
 51
140.67186074
  0
CIRCLE
  8
0
  6
CONTINUOUS
 62
       7
  5
92
 10
-108.61737822
 20
31.70887855
 30
0.0
 40
1.0
  0
LINE
  8
0
  6
CONTINUOUS
 62
       7
  5
93
 10
-106.99069433
 20
29.69286325
 30
0.0
 11
-106.69589522
 21
31.15398841
 31
0.0
  0
ARC
  8
0
  6
CONTINUOUS
 62
       7
  5
94
 10
-100.61737822
 20
31.70887855
 30
0.0
 40
2.0
 50
39.32813926
 51
196.10777769
  0
ARC
  8
0
  6
CONTINUOUS
 62
       7
  5
95
 10
-98.6835556
 20
33.29328067
 30
0.0
 40
0.5
 50
219.32813926
 51
304.41103893
  0
CIRCLE
  8
0
  6
CONTINUOUS
 62
       7
  5
96
 10
-100.61737822
 20
31.70887855
 30
0.0
 40
1.0
  0
ARC
  8
0
  6
CONTINUOUS
 62
       7
  5
97
 10
-110.55120085
 20
33.29328067
 30
0.0
 40
0.5
 50
235.58896107
 51
320.67186074
  0
LINE
  8
0
  6
CONTINUOUS
 62
       7
  5
98
 10
-102.24406212
 20
29.69286325
 30
0.0
 11
-102.53886123
 21
31.15398841
 31
0.0
  0
LINE
  8
0
  6
CONTINUOUS
 62
       2
  5
99
 10
-86.61737822
 20
38.53874296
 30
0.0
 11
-86.61737822
 21
48.90460962
 31
0.0
  0
LINE
  8
0
  6
CONTINUOUS
 62
       7
  5
9A
 10
-88.6878459
 20
42.95582932
 30
0.0
 11
-80.51737822
 21
42.95582932
 31
0.0
  0
LINE
  8
0
  6
CONTINUOUS
 62
       7
  5
9B
 10
-87.96737822
 20
46.85582932
 30
0.0
 11
-85.26737822
 21
46.85582932
 31
0.0
  0
ARC
  8
0
  6
CONTINUOUS
 62
       7
  5
9C
 10
-85.26737822
 20
42.95582932
 30
0.0
 40
3.9
 50
0.0
 51
90.0
  0
ARC
  8
0
  6
CONTINUOUS
 62
       7
  5
9D
 10
-87.96737822
 20
42.95582932
 30
0.0
 40
3.9
 50
90.0
 51
112.40463731
  0
LINE
  8
0
  6
CONTINUOUS
 62
       7
  5
9E
 10
-80.51737822
 20
41.45582932
 30
0.0
 11
-80.51737822
 21
42.95582932
 31
0.0
  0
LINE
  8
0
  6
CONTINUOUS
 62
       7
  5
9F
 10
-86.61737814
 20
46.85582906
 30
0.0
 11
-84.76751056
 21
45.00596148
 31
0.0
  0
LINE
  8
0
  6
CONTINUOUS
 62
       7
  5
A0
 10
-86.61737831
 20
46.85582906
 30
0.0
 11
-88.46724589
 21
45.00596148
 31
0.0
  0
ARC
  8
0
  6
CONTINUOUS
 62
       7
  5
A1
 10
-153.26737822
 20
42.95582932
 30
0.0
 40
3.9
 50
67.59536269
 51
90.0
  0
LINE
  8
0
  6
CONTINUOUS
 62
       7
  5
A2
 10
-153.26737822
 20
46.85582932
 30
0.0
 11
-155.96737822
 21
46.85582932
 31
0.0
  0
LINE
  8
0
  6
CONTINUOUS
 62
       7
  5
A3
 10
-154.61737814
 20
46.85582906
 30
0.0
 11
-152.76751056
 21
45.00596148
 31
0.0
  0
LINE
  8
0
  6
CONTINUOUS
 62
       7
  5
A4
 10
-154.61737831
 20
46.85582906
 30
0.0
 11
-156.46724589
 21
45.00596148
 31
0.0
  0
ARC
  8
0
  6
CONTINUOUS
 62
       7
  5
A5
 10
-155.96737822
 20
42.95582932
 30
0.0
 40
3.9
 50
90.0
 51
180.0
  0
LINE
  8
0
  6
CONTINUOUS
 62
       7
  5
A6
 10
-152.54691055
 20
42.95582932
 30
0.0
 11
-160.71737822
 21
42.95582932
 31
0.0
  0
LINE
  8
0
  6
CONTINUOUS
 62
       7
  5
A7
 10
-160.71737822
 20
41.45582932
 30
0.0
 11
-160.71737822
 21
42.95582932
 31
0.0
  0
LINE
  8
0
  6
CONTINUOUS
 62
       2
  5
A8
 10
-154.61737822
 20
38.53874296
 30
0.0
 11
-154.61737822
 21
48.90460962
 31
0.0
  0
LINE
  8
0
  6
CONTINUOUS
 62
       2
  5
A9
 10
-157.61737822
 20
41.45582932
 30
0.0
 11
-83.61737822
 21
41.45582932
 31
0.0
  0
ARC
  8
0
  6
CONTINUOUS
 62
       7
  5
AA
 10
-76.61737822
 20
3.45582932
 30
0.0
 40
1.0
 50
0.0
 51
90.0
  0
LINE
  8
0
  6
CONTINUOUS
 62
       2
  5
AB
 10
-120.61737822
 20
-10.54417068
 30
0.0
 11
-120.61737822
 21
99.45582932
 31
0.0
  0
LINE
  8
0
  6
CONTINUOUS
 62
       7
  5
AC
 10
-165.61737826
 20
-5.54417068
 30
0.0
 11
-75.61737822
 21
-5.54417068
 31
0.0
  0
CIRCLE
  8
0
  6
CONTINUOUS
 62
       2
  5
AD
 10
10.0
 20
-46.0
 30
0.0
 40
3.5
  0
LINE
  8
0
  6
CONTINUOUS
 62
       2
  5
AE
 10
48.17635025
 20
-80.0
 30
0.0
 11
-30.54313832
 21
-80.0
 31
0.0
  0
LINE
  8
0
  6
CONTINUOUS
 62
       7
  5
AF
 10
30.0
 20
-35.0
 30
0.0
 11
-10.0
 21
-35.0
 31
0.0
  0
LINE
  8
0
  6
CONTINUOUS
 62
       2
  5
B0
 10
31.0
 20
-42.0
 30
0.0
 11
19.0
 21
-42.0
 31
0.0
  0
LINE
  8
0
  6
CONTINUOUS
 62
       7
  5
B1
 10
45.0
 20
-46.0
 30
0.0
 11
32.0
 21
-46.0
 31
0.0
  0
CIRCLE
  8
0
  6
CONTINUOUS
 62
       7
  5
B2
 10
25.0
 20
-42.0
 30
0.0
 40
3.5
  0
CIRCLE
  8
0
  6
CONTINUOUS
 62
       7
  5
B3
 10
-5.0
 20
-42.0
 30
0.0
 40
3.5
  0
CIRCLE
  8
0
  6
CONTINUOUS
 62
       7
  5
B4
 10
10.0
 20
-46.0
 30
0.0
 40
2.4
  0
ARC
  8
0
  6
CONTINUOUS
 62
       7
  5
B5
 10
-10.0
 20
-37.0
 30
0.0
 40
2.0
 50
90.0
 51
180.0
  0
ARC
  8
0
  6
CONTINUOUS
 62
       7
  5
B6
 10
30.0
 20
-37.0
 30
0.0
 40
2.0
 50
0.0
 51
90.0
  0
LINE
  8
0
  6
CONTINUOUS
 62
       2
  5
B7
 10
-5.0
 20
-48.0
 30
0.0
 11
-5.0
 21
-36.0
 31
0.0
  0
LINE
  8
0
  6
CONTINUOUS
 62
       2
  5
B8
 10
25.0
 20
-48.0
 30
0.0
 11
25.0
 21
-36.0
 31
0.0
  0
LINE
  8
0
  6
CONTINUOUS
 62
       2
  5
B9
 10
1.0
 20
-42.0
 30
0.0
 11
-11.0
 21
-42.0
 31
0.0
  0
LINE
  8
0
  6
CONTINUOUS
 62
       7
  5
BA
 10
-12.0
 20
-66.0
 30
0.0
 11
-12.0
 21
-37.0
 31
0.0
  0
LINE
  8
0
  6
CONTINUOUS
 62
       7
  5
BB
 10
32.0
 20
-46.0
 30
0.0
 11
32.0
 21
-37.0
 31
0.0
  0
LINE
  8
0
  6
CONTINUOUS
 62
       2
  5
BC
 10
16.0
 20
-46.0
 30
0.0
 11
4.0
 21
-46.0
 31
0.0
  0
ARC
  8
0
  6
CONTINUOUS
 62
       7
  5
BD
 10
45.0
 20
-47.0
 30
0.0
 40
1.0
 50
0.0
 51
90.0
  0
LINE
  8
0
  6
CONTINUOUS
 62
       7
  5
BE
 10
45.0
 20
-74.0
 30
0.0
 11
43.5
 21
-74.0
 31
0.0
  0
LINE
  8
0
  6
CONTINUOUS
 62
       7
  5
BF
 10
46.0
 20
-73.0
 30
0.0
 11
46.0
 21
-47.0
 31
0.0
  0
ARC
  8
0
  6
CONTINUOUS
 62
       7
  5
C0
 10
43.5
 20
-75.0
 30
0.0
 40
1.0
 50
90.0
 51
180.0
  0
ARC
  8
0
  6
CONTINUOUS
 62
       7
  5
C1
 10
45.0
 20
-73.0
 30
0.0
 40
1.0
 50
270.0
 51
0.0
  0
LINE
  8
0
  6
CONTINUOUS
 62
       7
  5
C2
 10
-12.0
 20
-66.0
 30
0.0
 11
-25.0
 21
-66.0
 31
0.0
  0
ARC
  8
0
  6
CONTINUOUS
 62
       7
  5
C3
 10
-25.0
 20
-67.0
 30
0.0
 40
1.0
 50
90.0
 51
180.0
  0
LINE
  8
0
  6
CONTINUOUS
 62
       7
  5
C4
 10
42.5
 20
-69.41742431
 30
0.0
 11
42.5
 21
-53.37298335
 31
0.0
  0
LINE
  8
0
  6
CONTINUOUS
 62
       7
  5
C5
 10
38.62701665
 20
-49.5
 30
0.0
 11
25.0
 21
-49.5
 31
0.0
  0
LINE
  8
0
  6
CONTINUOUS
 62
       7
  5
C6
 10
16.5
 20
-38.5
 30
0.0
 11
3.5
 21
-38.5
 31
0.0
  0
LINE
  8
0
  6
CONTINUOUS
 62
       7
  5
C7
 10
-11.5
 20
-69.5
 30
0.0
 11
-18.62701665
 21
-69.5
 31
0.0
  0
ARC
  8
0
  6
CONTINUOUS
 62
       7
  5
C8
 10
42.5
 20
-49.5
 30
0.0
 40
3.0
 50
194.47751219
 51
255.52248781
  0
ARC
  8
0
  6
CONTINUOUS
 62
       7
  5
C9
 10
38.62701665
 20
-50.5
 30
0.0
 40
1.0
 50
14.47751219
 51
90.0
  0
ARC
  8
0
  6
CONTINUOUS
 62
       7
  5
CA
 10
41.5
 20
-53.37298335
 30
0.0
 40
1.0
 50
360.0
 51
75.52248781
  0
ARC
  8
0
  6
CONTINUOUS
 62
       7
  5
CB
 10
-22.5
 20
-69.5
 30
0.0
 40
3.0
 50
284.47751219
 51
345.52248781
  0
ARC
  8
0
  6
CONTINUOUS
 62
       7
  5
CC
 10
-18.62701665
 20
-70.5
 30
0.0
 40
1.0
 50
90.0
 51
165.52248781
  0
ARC
  8
0
  6
CONTINUOUS
 62
       7
  5
CD
 10
-21.5
 20
-73.37298335
 30
0.0
 40
1.0
 50
104.47751219
 51
180.0
  0
ARC
  8
0
  6
CONTINUOUS
 62
       7
  5
CE
 10
25.0
 20
-42.0
 30
0.0
 40
7.5
 50
180.0
 51
270.0
  0
ARC
  8
0
  6
CONTINUOUS
 62
       7
  5
CF
 10
-5.0
 20
-42.0
 30
0.0
 40
7.5
 50
270.0
 51
0.0
  0
LINE
  8
0
  6
CONTINUOUS
 62
       7
  5
D0
 10
17.5
 20
-42.0
 30
0.0
 11
17.5
 21
-39.5
 31
0.0
  0
ARC
  8
0
  6
CONTINUOUS
 62
       7
  5
D1
 10
16.5
 20
-39.5
 30
0.0
 40
1.0
 50
0.0
 51
90.0
  0
LINE
  8
0
  6
CONTINUOUS
 62
       7
  5
D2
 10
2.5
 20
-42.0
 30
0.0
 11
2.5
 21
-39.5
 31
0.0
  0
LINE
  8
0
  6
CONTINUOUS
 62
       7
  5
D3
 10
-5.0
 20
-49.5
 30
0.0
 11
-7.5
 21
-49.5
 31
0.0
  0
ARC
  8
0
  6
CONTINUOUS
 62
       7
  5
D4
 10
3.5
 20
-39.5
 30
0.0
 40
1.0
 50
90.0
 51
180.0
  0
ARC
  8
0
  6
CONTINUOUS
 62
       7
  5
D5
 10
-7.5
 20
-50.5
 30
0.0
 40
1.0
 50
90.0
 51
180.0
  0
ARC
  8
0
  6
CONTINUOUS
 62
       7
  5
D6
 10
-11.5
 20
-66.5
 30
0.0
 40
3.0
 50
270.0
 51
0.0
  0
LINE
  8
0
  6
CONTINUOUS
 62
       7
  5
D7
 10
11.0
 20
-72.0
 30
0.0
 11
11.0
 21
-49.87298335
 31
0.0
  0
LINE
  8
0
  6
CONTINUOUS
 62
       7
  5
D8
 10
9.0
 20
-70.0
 30
0.0
 11
-5.03303739
 21
-70.0
 31
0.0
  0
ARC
  8
0
  6
CONTINUOUS
 62
       7
  5
D9
 10
10.0
 20
-46.0
 30
0.0
 40
4.0
 50
284.47751219
 51
149.95904458
  0
LINE
  8
0
  6
CONTINUOUS
 62
       7
  5
DA
 10
-8.5
 20
-70.0
 30
0.0
 11
6.53732888
 21
-43.99752435
 31
0.0
  0
LINE
  8
0
  6
CONTINUOUS
 62
       7
  5
DB
 10
18.0
 20
-74.0
 30
0.0
 11
13.0
 21
-74.0
 31
0.0
  0
ARC
  8
0
  6
CONTINUOUS
 62
       7
  5
DC
 10
-5.03303739
 20
-68.0
 30
0.0
 40
2.0
 50
149.95904458
 51
270.0
  0
LINE
  8
0
  6
CONTINUOUS
 62
       7
  5
DD
 10
18.0
 20
-66.0
 30
0.0
 11
13.0
 21
-66.0
 31
0.0
  0
ARC
  8
0
  6
CONTINUOUS
 62
       7
  5
DE
 10
9.0
 20
-68.0
 30
0.0
 40
2.0
 50
270.0
 51
0.0
  0
LINE
  8
0
  6
CONTINUOUS
 62
       7
  5
DF
 10
28.0
 20
-72.0
 30
0.0
 11
28.0
 21
-51.5
 31
0.0
  0
LINE
  8
0
  6
CONTINUOUS
 62
       7
  5
E0
 10
26.0
 20
-70.0
 30
0.0
 11
20.0
 21
-70.0
 31
0.0
  0
ARC
  8
0
  6
CONTINUOUS
 62
       7
  5
E1
 10
42.5
 20
-74.0
 30
0.0
 40
3.0
 50
113.57817848
 51
180.0
  0
LINE
  8
0
  6
CONTINUOUS
 62
       7
  5
E2
 10
39.5
 20
-74.0
 30
0.0
 11
39.5
 21
-74.08392022
 31
0.0
  0
ARC
  8
0
  6
CONTINUOUS
 62
       7
  5
E3
 10
40.5
 20
-69.41742431
 30
0.0
 40
2.0
 50
293.57817848
 51
0.0
  0
ARC
  8
0
  6
CONTINUOUS
 62
       7
  5
E4
 10
37.0
 20
-74.08392022
 30
0.0
 40
2.5
 50
279.59406823
 51
0.0
  0
LINE
  8
0
  6
CONTINUOUS
 62
       7
  5
E5
 10
26.0
 20
-54.0
 30
0.0
 11
13.0
 21
-54.0
 31
0.0
  0
ARC
  8
0
  6
CONTINUOUS
 62
       7
  5
E6
 10
26.0
 20
-51.5
 30
0.0
 40
2.0
 50
0.0
 51
90.0
  0
ARC
  8
0
  6
CONTINUOUS
 62
       7
  5
E7
 10
26.0
 20
-52.0
 30
0.0
 40
2.0
 50
270.0
 51
0.0
  0
ARC
  8
0
  6
CONTINUOUS
 62
       7
  5
E8
 10
13.0
 20
-56.0
 30
0.0
 40
2.0
 50
90.0
 51
180.0
  0
ARC
  8
0
  6
CONTINUOUS
 62
       7
  5
E9
 10
13.0
 20
-64.0
 30
0.0
 40
2.0
 50
180.0
 51
270.0
  0
ARC
  8
0
  6
CONTINUOUS
 62
       7
  5
EA
 10
13.0
 20
-72.0
 30
0.0
 40
2.0
 50
180.0
 51
270.0
  0
ARC
  8
0
  6
CONTINUOUS
 62
       7
  5
EB
 10
20.0
 20
-72.0
 30
0.0
 40
2.0
 50
90.0
 51
180.0
  0
LINE
  8
0
  6
CONTINUOUS
 62
       7
  5
EC
 10
38.18777011
 20
-74.0
 30
0.0
 11
30.0
 21
-74.0
 31
0.0
  0
ARC
  8
0
  6
CONTINUOUS
 62
       7
  5
ED
 10
26.0
 20
-72.0
 30
0.0
 40
2.0
 50
0.0
 51
90.0
  0
ARC
  8
0
  6
CONTINUOUS
 62
       7
  5
EE
 10
30.0
 20
-72.0
 30
0.0
 40
2.0
 50
180.0
 51
270.0
  0
ARC
  8
0
  6
CONTINUOUS
 62
       7
  5
EF
 10
38.18777011
 20
-75.0
 30
0.0
 40
1.0
 50
322.35842858
 51
90.0
  0
ARC
  8
0
  6
CONTINUOUS
 62
       7
  5
F0
 10
38.18777011
 20
-85.0
 30
0.0
 40
1.0
 50
270.0
 51
37.64157142
  0
ARC
  8
0
  6
CONTINUOUS
 62
       7
  5
F1
 10
30.0
 20
-88.0
 30
0.0
 40
2.0
 50
90.0
 51
180.0
  0
ARC
  8
0
  6
CONTINUOUS
 62
       7
  5
F2
 10
26.0
 20
-88.0
 30
0.0
 40
2.0
 50
270.0
 51
0.0
  0
LINE
  8
0
  6
CONTINUOUS
 62
       7
  5
F3
 10
38.18777011
 20
-86.0
 30
0.0
 11
30.0
 21
-86.0
 31
0.0
  0
ARC
  8
0
  6
CONTINUOUS
 62
       7
  5
F4
 10
20.0
 20
-88.0
 30
0.0
 40
2.0
 50
180.0
 51
270.0
  0
ARC
  8
0
  6
CONTINUOUS
 62
       7
  5
F5
 10
13.0
 20
-88.0
 30
0.0
 40
2.0
 50
90.0
 51
180.0
  0
ARC
  8
0
  6
CONTINUOUS
 62
       7
  5
F6
 10
13.0
 20
-96.0
 30
0.0
 40
2.0
 50
90.0
 51
180.0
  0
ARC
  8
0
  6
CONTINUOUS
 62
       7
  5
F7
 10
13.0
 20
-104.0
 30
0.0
 40
2.0
 50
180.0
 51
270.0
  0
ARC
  8
0
  6
CONTINUOUS
 62
       7
  5
F8
 10
26.0
 20
-108.0
 30
0.0
 40
2.0
 50
0.0
 51
90.0
  0
ARC
  8
0
  6
CONTINUOUS
 62
       7
  5
F9
 10
26.0
 20
-108.5
 30
0.0
 40
2.0
 50
270.0
 51
0.0
  0
LINE
  8
0
  6
CONTINUOUS
 62
       7
  5
FA
 10
26.0
 20
-106.0
 30
0.0
 11
13.0
 21
-106.0
 31
0.0
  0
ARC
  8
0
  6
CONTINUOUS
 62
       7
  5
FB
 10
37.0
 20
-85.91607978
 30
0.0
 40
2.5
 50
0.0
 51
80.40593177
  0
ARC
  8
0
  6
CONTINUOUS
 62
       7
  5
FC
 10
40.5
 20
-90.58257569
 30
0.0
 40
2.0
 50
0.0
 51
66.42182152
  0
LINE
  8
0
  6
CONTINUOUS
 62
       7
  5
FD
 10
39.5
 20
-86.0
 30
0.0
 11
39.5
 21
-85.91607978
 31
0.0
  0
ARC
  8
0
  6
CONTINUOUS
 62
       7
  5
FE
 10
42.5
 20
-86.0
 30
0.0
 40
3.0
 50
180.0
 51
246.42182152
  0
ARC
  8
0
  6
CONTINUOUS
 62
       7
  5
FF
 10
38.0
 20
-80.0
 30
0.0
 40
3.5
 50
99.59406823
 51
260.40593177
  0
LINE
  8
0
  6
CONTINUOUS
 62
       7
  5
100
 10
26.0
 20
-90.0
 30
0.0
 11
20.0
 21
-90.0
 31
0.0
  0
LINE
  8
0
  6
CONTINUOUS
 62
       7
  5
101
 10
28.0
 20
-88.0
 30
0.0
 11
28.0
 21
-108.5
 31
0.0
  0
ARC
  8
0
  6
CONTINUOUS
 62
       7
  5
102
 10
9.0
 20
-92.0
 30
0.0
 40
2.0
 50
0.0
 51
90.0
  0
LINE
  8
0
  6
CONTINUOUS
 62
       7
  5
103
 10
18.0
 20
-94.0
 30
0.0
 11
13.0
 21
-94.0
 31
0.0
  0
LINE
  8
0
  6
CONTINUOUS
 62
       7
  5
104
 10
18.0
 20
-94.0
 30
0.0
 11
18.0
 21
-66.0
 31
0.0
  0
ARC
  8
0
  6
CONTINUOUS
 62
       7
  5
105
 10
-5.03303739
 20
-92.0
 30
0.0
 40
2.0
 50
90.0
 51
210.04095542
  0
LINE
  8
0
  6
CONTINUOUS
 62
       7
  5
106
 10
18.0
 20
-86.0
 30
0.0
 11
13.0
 21
-86.0
 31
0.0
  0
LINE
  8
0
  6
CONTINUOUS
 62
       7
  5
107
 10
-8.5
 20
-90.0
 30
0.0
 11
6.53732888
 21
-116.00247565
 31
0.0
  0
ARC
  8
0
  6
CONTINUOUS
 62
       7
  5
108
 10
10.0
 20
-114.0
 30
0.0
 40
4.0
 50
210.04095542
 51
75.52248781
  0
LINE
  8
0
  6
CONTINUOUS
 62
       7
  5
109
 10
9.0
 20
-90.0
 30
0.0
 11
-5.03303739
 21
-90.0
 31
0.0
  0
LINE
  8
0
  6
CONTINUOUS
 62
       7
  5
10A
 10
11.0
 20
-88.0
 30
0.0
 11
11.0
 21
-110.12701665
 31
0.0
  0
ARC
  8
0
  6
CONTINUOUS
 62
       7
  5
10B
 10
-11.5
 20
-93.5
 30
0.0
 40
3.0
 50
0.0
 51
90.0
  0
ARC
  8
0
  6
CONTINUOUS
 62
       7
  5
10C
 10
-7.5
 20
-109.5
 30
0.0
 40
1.0
 50
180.0
 51
270.0
  0
ARC
  8
0
  6
CONTINUOUS
 62
       7
  5
10D
 10
3.5
 20
-120.5
 30
0.0
 40
1.0
 50
180.0
 51
270.0
  0
LINE
  8
0
  6
CONTINUOUS
 62
       7
  5
10E
 10
-5.0
 20
-110.5
 30
0.0
 11
-7.5
 21
-110.5
 31
0.0
  0
LINE
  8
0
  6
CONTINUOUS
 62
       7
  5
10F
 10
2.5
 20
-118.0
 30
0.0
 11
2.5
 21
-120.5
 31
0.0
  0
ARC
  8
0
  6
CONTINUOUS
 62
       7
  5
110
 10
16.5
 20
-120.5
 30
0.0
 40
1.0
 50
270.0
 51
0.0
  0
LINE
  8
0
  6
CONTINUOUS
 62
       7
  5
111
 10
17.5
 20
-118.0
 30
0.0
 11
17.5
 21
-120.5
 31
0.0
  0
ARC
  8
0
  6
CONTINUOUS
 62
       7
  5
112
 10
-5.0
 20
-118.0
 30
0.0
 40
7.5
 50
0.0
 51
90.0
  0
ARC
  8
0
  6
CONTINUOUS
 62
       7
  5
113
 10
25.0
 20
-118.0
 30
0.0
 40
7.5
 50
90.0
 51
180.0
  0
ARC
  8
0
  6
CONTINUOUS
 62
       7
  5
114
 10
-21.5
 20
-86.62701665
 30
0.0
 40
1.0
 50
180.0
 51
255.52248781
  0
ARC
  8
0
  6
CONTINUOUS
 62
       7
  5
115
 10
-18.62701665
 20
-89.5
 30
0.0
 40
1.0
 50
194.47751219
 51
270.0
  0
ARC
  8
0
  6
CONTINUOUS
 62
       7
  5
116
 10
-22.5
 20
-90.5
 30
0.0
 40
3.0
 50
14.47751219
 51
75.52248781
  0
ARC
  8
0
  6
CONTINUOUS
 62
       7
  5
117
 10
41.5
 20
-106.62701665
 30
0.0
 40
1.0
 50
284.47751219
 51
0.0
  0
ARC
  8
0
  6
CONTINUOUS
 62
       7
  5
118
 10
38.62701665
 20
-109.5
 30
0.0
 40
1.0
 50
270.0
 51
345.52248781
  0
ARC
  8
0
  6
CONTINUOUS
 62
       7
  5
119
 10
42.5
 20
-110.5
 30
0.0
 40
3.0
 50
104.47751219
 51
165.52248781
  0
LINE
  8
0
  6
CONTINUOUS
 62
       7
  5
11A
 10
-8.5
 20
-109.5
 30
0.0
 11
-8.5
 21
-50.5
 31
0.0
  0
LINE
  8
0
  6
CONTINUOUS
 62
       7
  5
11B
 10
-11.5
 20
-90.5
 30
0.0
 11
-18.62701665
 21
-90.5
 31
0.0
  0
LINE
  8
0
  6
CONTINUOUS
 62
       7
  5
11C
 10
-22.5
 20
-86.62701665
 30
0.0
 11
-22.5
 21
-73.37298335
 31
0.0
  0
LINE
  8
0
  6
CONTINUOUS
 62
       7
  5
11D
 10
16.5
 20
-121.5
 30
0.0
 11
3.5
 21
-121.5
 31
0.0
  0
LINE
  8
0
  6
CONTINUOUS
 62
       7
  5
11E
 10
38.62701665
 20
-110.5
 30
0.0
 11
25.0
 21
-110.5
 31
0.0
  0
LINE
  8
0
  6
CONTINUOUS
 62
       7
  5
11F
 10
42.5
 20
-90.58257569
 30
0.0
 11
42.5
 21
-106.62701665
 31
0.0
  0
ARC
  8
0
  6
CONTINUOUS
 62
       7
  5
120
 10
-25.0
 20
-93.0
 30
0.0
 40
1.0
 50
180.0
 51
270.0
  0
LINE
  8
0
  6
CONTINUOUS
 62
       7
  5
121
 10
-12.0
 20
-94.0
 30
0.0
 11
-25.0
 21
-94.0
 31
0.0
  0
ARC
  8
0
  6
CONTINUOUS
 62
       7
  5
122
 10
45.0
 20
-87.0
 30
0.0
 40
1.0
 50
0.0
 51
90.0
  0
ARC
  8
0
  6
CONTINUOUS
 62
       7
  5
123
 10
43.5
 20
-85.0
 30
0.0
 40
1.0
 50
180.0
 51
270.0
  0
LINE
  8
0
  6
CONTINUOUS
 62
       7
  5
124
 10
46.0
 20
-87.0
 30
0.0
 11
46.0
 21
-113.0
 31
0.0
  0
LINE
  8
0
  6
CONTINUOUS
 62
       7
  5
125
 10
45.0
 20
-86.0
 30
0.0
 11
43.5
 21
-86.0
 31
0.0
  0
LINE
  8
0
  6
CONTINUOUS
 62
       7
  5
126
 10
42.5
 20
-85.0
 30
0.0
 11
42.5
 21
-75.0
 31
0.0
  0
ARC
  8
0
  6
CONTINUOUS
 62
       7
  5
127
 10
45.0
 20
-113.0
 30
0.0
 40
1.0
 50
270.0
 51
0.0
  0
LINE
  8
0
  6
CONTINUOUS
 62
       2
  5
128
 10
16.0
 20
-114.0
 30
0.0
 11
-2.0
 21
-114.0
 31
0.0
  0
LINE
  8
0
  6
CONTINUOUS
 62
       7
  5
129
 10
32.0
 20
-114.0
 30
0.0
 11
32.0
 21
-123.0
 31
0.0
  0
LINE
  8
0
  6
CONTINUOUS
 62
       7
  5
12A
 10
-12.0
 20
-94.0
 30
0.0
 11
-12.0
 21
-123.0
 31
0.0
  0
LINE
  8
0
  6
CONTINUOUS
 62
       2
  5
12B
 10
1.0
 20
-118.0
 30
0.0
 11
-11.0
 21
-118.0
 31
0.0
  0
ARC
  8
0
  6
CONTINUOUS
 62
       7
  5
12C
 10
30.0
 20
-123.0
 30
0.0
 40
2.0
 50
270.0
 51
0.0
  0
ARC
  8
0
  6
CONTINUOUS
 62
       7
  5
12D
 10
-10.0
 20
-123.0
 30
0.0
 40
2.0
 50
180.0
 51
270.0
  0
CIRCLE
  8
0
  6
CONTINUOUS
 62
       7
  5
12E
 10
10.0
 20
-114.0
 30
0.0
 40
2.4
  0
CIRCLE
  8
0
  6
CONTINUOUS
 62
       7
  5
12F
 10
-5.0
 20
-118.0
 30
0.0
 40
3.5
  0
CIRCLE
  8
0
  6
CONTINUOUS
 62
       7
  5
130
 10
25.0
 20
-118.0
 30
0.0
 40
3.5
  0
LINE
  8
0
  6
CONTINUOUS
 62
       7
  5
131
 10
45.0
 20
-114.0
 30
0.0
 11
32.0
 21
-114.0
 31
0.0
  0
LINE
  8
0
  6
CONTINUOUS
 62
       2
  5
132
 10
31.0
 20
-118.0
 30
0.0
 11
19.0
 21
-118.0
 31
0.0
  0
LINE
  8
0
  6
CONTINUOUS
 62
       7
  5
133
 10
-26.0
 20
-93.0
 30
0.0
 11
-26.0
 21
-67.0
 31
0.0
  0
LINE
  8
0
  6
CONTINUOUS
 62
       7
  5
134
 10
30.0
 20
-125.0
 30
0.0
 11
-10.0
 21
-125.0
 31
0.0
  0
CIRCLE
  8
0
  6
CONTINUOUS
 62
       2
  5
135
 10
10.0
 20
-114.0
 30
0.0
 40
3.5
  0
LINE
  8
0
  6
CONTINUOUS
 62
       7
  5
136
 10
-25.0
 20
-112.0
 30
0.0
 11
-25.0
 21
-94.0
 31
0.0
  0
LINE
  8
0
  6
CONTINUOUS
 62
       7
  5
137
 10
-12.0
 20
-50.25
 30
0.0
 11
-15.09526249
 21
-50.25
 31
0.0
  0
LINE
  8
0
  6
CONTINUOUS
 62
       7
  5
138
 10
-16.06350833
 20
-66.0
 30
0.0
 11
-16.06350833
 21
-49.5
 31
0.0
  0
ARC
  8
0
  6
CONTINUOUS
 62
       7
  5
139
 10
-18.0
 20
-50.0
 30
0.0
 40
2.0
 50
14.47751219
 51
90.0
  0
ARC
  8
0
  6
CONTINUOUS
 62
       7
  5
13A
 10
-15.09526249
 20
-49.25
 30
0.0
 40
1.0
 50
194.47751219
 51
270.0
  0
LINE
  8
0
  6
CONTINUOUS
 62
       7
  5
13B
 10
-18.0
 20
-48.0
 30
0.0
 11
-25.0
 21
-48.0
 31
0.0
  0
LINE
  8
0
  6
CONTINUOUS
 62
       7
  5
13C
 10
-12.0
 20
-109.75
 30
0.0
 11
-15.09526249
 21
-109.75
 31
0.0
  0
LINE
  8
0
  6
CONTINUOUS
 62
       7
  5
13D
 10
-16.06350833
 20
-110.5
 30
0.0
 11
-16.06350833
 21
-94.0
 31
0.0
  0
ARC
  8
0
  6
CONTINUOUS
 62
       7
  5
13E
 10
-18.0
 20
-110.0
 30
0.0
 40
2.0
 50
270.0
 51
345.52248781
  0
ARC
  8
0
  6
CONTINUOUS
 62
       7
  5
13F
 10
-15.09526249
 20
-110.75
 30
0.0
 40
1.0
 50
90.0
 51
165.52248781
  0
LINE
  8
0
  6
CONTINUOUS
 62
       7
  5
140
 10
-18.0
 20
-112.0
 30
0.0
 11
-25.0
 21
-112.0
 31
0.0
  0
LINE
  8
0
  6
CONTINUOUS
 62
       7
  5
141
 10
-25.0
 20
-66.0
 30
0.0
 11
-25.0
 21
-48.0
 31
0.0
  0
LINE
  8
0
  6
CONTINUOUS
 62
       2
  5
142
 10
51.0
 20
-60.0
 30
0.0
 11
36.5
 21
-60.0
 31
0.0
  0
LINE
  8
0
  6
CONTINUOUS
 62
       2
  5
143
 10
51.0
 20
-100.0
 30
0.0
 11
36.5
 21
-100.0
 31
0.0
  0
LINE
  8
0
  6
CONTINUOUS
 62
       2
  5
144
 10
-5.0
 20
-112.0
 30
0.0
 11
-5.0
 21
-124.0
 31
0.0
  0
LINE
  8
0
  6
CONTINUOUS
 62
       2
  5
145
 10
25.0
 20
-112.0
 30
0.0
 11
25.0
 21
-124.0
 31
0.0
  0
LINE
  8
0
  6
CONTINUOUS
 62
       7
  5
146
 10
79.70070782
 20
-5.54417047
 30
0.0
 11
169.70070785
 21
-5.54417047
 31
0.0
  0
LINE
  8
0
  6
CONTINUOUS
 62
       7
  5
147
 10
116.20070785
 20
94.45582953
 30
0.0
 11
133.20070785
 21
94.45582953
 31
0.0
  0
LINE
  8
0
  6
CONTINUOUS
 62
       7
  5
148
 10
-26.0
 20
-5.54417047
 30
0.0
 11
45.99999999
 21
-5.54417047
 31
0.0
  0
LINE
  8
0
  6
CONTINUOUS
 62
       7
  5
149
 10
-26.0
 20
-5.54417047
 30
0.0
 11
-26.0
 21
21.45582953
 31
0.0
  0
LINE
  8
0
  6
CONTINUOUS
 62
       2
  5
14A
 10
10.0
 20
-10.54417047
 30
0.0
 11
10.0
 21
99.33050519
 31
0.0
  0
LINE
  8
0
  6
CONTINUOUS
 62
       7
  5
14B
 10
46.0
 20
-5.54417047
 30
0.0
 11
46.0
 21
21.45582953
 31
0.0
  0
LINE
  8
0
  6
CONTINUOUS
 62
       2
  5
14C
 10
124.70070785
 20
-10.54417047
 30
0.0
 11
124.70070785
 21
99.33050519
 31
0.0
  0
LINE
  8
0
  6
CONTINUOUS
 62
       7
  5
14D
 10
79.70070785
 20
-5.54417047
 30
0.0
 11
79.70070785
 21
3.45582953
 31
0.0
  0
LINE
  8
0
  6
CONTINUOUS
 62
       7
  5
14E
 10
169.70070785
 20
-5.54417047
 30
0.0
 11
169.70070785
 21
3.45582953
 31
0.0
  0
LINE
  8
0
  6
CONTINUOUS
 62
       7
  5
14F
 10
80.70070785
 20
4.45582953
 30
0.0
 11
90.70070785
 21
4.45582953
 31
0.0
  0
LINE
  8
0
  6
CONTINUOUS
 62
       2
  5
150
 10
108.70070785
 20
23.34332261
 30
0.0
 11
108.70070785
 21
59.96094709
 31
0.0
  0
LINE
  8
0
  6
CONTINUOUS
 62
       2
  5
151
 10
140.70070785
 20
23.34332261
 30
0.0
 11
140.70070785
 21
59.96094709
 31
0.0
  0
LINE
  8
0
  6
CONTINUOUS
 62
       7
  5
152
 10
83.70070785
 20
41.45582953
 30
0.0
 11
83.70070785
 21
4.45582953
 31
0.0
  0
LINE
  8
0
  6
CONTINUOUS
 62
       7
  5
153
 10
165.70070785
 20
41.45582953
 30
0.0
 11
165.70070785
 21
4.45582953
 31
0.0
  0
LINE
  8
0
  6
CONTINUOUS
 62
       7
  5
154
 10
83.70070785
 20
24.45582953
 30
0.0
 11
165.70070785
 21
24.45582953
 31
0.0
  0
LINE
  8
0
  6
CONTINUOUS
 62
       7
  5
155
 10
158.70070785
 20
4.45582953
 30
0.0
 11
168.70070785
 21
4.45582953
 31
0.0
  0
ARC
  8
0
  6
CONTINUOUS
 62
       7
  5
156
 10
80.70070785
 20
3.45582953
 30
0.0
 40
1.0
 50
90.0
 51
180.0
  0
ARC
  8
0
  6
CONTINUOUS
 62
       7
  5
157
 10
168.70070785
 20
3.45582953
 30
0.0
 40
1.0
 50
0.0
 51
90.0
  0
LINE
  8
0
  6
CONTINUOUS
 62
       7
  5
158
 10
83.70070785
 20
41.45582953
 30
0.0
 11
92.70070785
 21
41.45582953
 31
0.0
  0
LINE
  8
0
  6
CONTINUOUS
 62
       7
  5
159
 10
122.11711572
 20
31.45582953
 30
0.0
 11
127.28429999
 21
31.45582953
 31
0.0
  0
LINE
  8
0
  6
CONTINUOUS
 62
       7
  5
15A
 10
97.70070785
 20
53.07477957
 30
0.0
 11
97.70070785
 21
86.45582953
 31
0.0
  0
LINE
  8
0
  6
CONTINUOUS
 62
       7
  5
15B
 10
151.70070785
 20
53.07477957
 30
0.0
 11
151.70070785
 21
86.45582953
 31
0.0
  0
LINE
  8
0
  6
CONTINUOUS
 62
       7
  5
15C
 10
156.70070785
 20
41.45582953
 30
0.0
 11
165.70070785
 21
41.45582953
 31
0.0
  0
LINE
  8
0
  6
CONTINUOUS
 62
       2
  5
15D
 10
89.46481306
 20
41.45582953
 30
0.0
 11
161.10867948
 21
41.45582953
 31
0.0
  0
ARC
  8
0
  6
CONTINUOUS
 62
       7
  5
15E
 10
122.11711572
 20
29.45582953
 30
0.0
 40
2.0
 50
90.0
 51
138.1896851
  0
ARC
  8
0
  6
CONTINUOUS
 62
       7
  5
15F
 10
127.28429999
 20
29.45582953
 30
0.0
 40
2.0
 50
41.8103149
 51
90.0
  0
ARC
  8
0
  6
CONTINUOUS
 62
       7
  5
160
 10
140.70070785
 20
41.45582953
 30
0.0
 40
16.0
 50
221.8103149
 51
138.1896851
  0
CIRCLE
  8
0
  6
CONTINUOUS
 62
       7
  5
161
 10
108.70070785
 20
41.45582953
 30
0.0
 40
12.0
  0
CIRCLE
  8
0
  6
CONTINUOUS
 62
       7
  5
162
 10
140.70070785
 20
41.45582953
 30
0.0
 40
12.0
  0
LINE
  8
0
  6
CONTINUOUS
 62
       7
  5
163
 10
-22.0
 20
24.45582953
 30
0.0
 11
42.0
 21
24.45582953
 31
0.0
  0
LINE
  8
0
  6
CONTINUOUS
 62
       2
  5
164
 10
-31.0
 20
9.45582953
 30
0.0
 11
51.0
 21
9.45582953
 31
0.0
  0
LINE
  8
0
  6
CONTINUOUS
 62
       7
  5
165
 10
-25.0
 20
25.45582953
 30
0.0
 11
-25.0
 21
82.45582953
 31
0.0
  0
LINE
  8
0
  6
CONTINUOUS
 62
       7
  5
166
 10
45.0
 20
25.45582953
 30
0.0
 11
45.0
 21
57.45582953
 31
0.0
  0
LINE
  8
0
  6
CONTINUOUS
 62
       7
  5
167
 10
-25.0
 20
82.45582953
 30
0.0
 11
38.0
 21
82.45582953
 31
0.0
  0
LINE
  8
0
  6
CONTINUOUS
 62
       7
  5
168
 10
38.0
 20
53.45582953
 30
0.0
 11
38.0
 21
86.45582953
 31
0.0
  0
LINE
  8
0
  6
CONTINUOUS
 62
       7
  5
169
 10
40.0
 20
51.45582953
 30
0.0
 11
45.0
 21
51.45582953
 31
0.0
  0
LINE
  8
0
  6
CONTINUOUS
 62
       7
  5
16A
 10
38.0
 20
57.45582953
 30
0.0
 11
45.0
 21
57.45582953
 31
0.0
  0
ARC
  8
0
  6
CONTINUOUS
 62
       7
  5
16B
 10
40.0
 20
53.45582953
 30
0.0
 40
2.0
 50
180.0
 51
270.0
  0
LINE
  8
0
  6
CONTINUOUS
 62
       7
  5
16C
 10
0.0
 20
94.45582953
 30
0.0
 11
-1.0
 21
93.45582953
 31
0.0
  0
LINE
  8
0
  6
CONTINUOUS
 62
       7
  5
16D
 10
0.0
 20
94.45582953
 30
0.0
 11
20.0
 21
94.45582953
 31
0.0
  0
LINE
  8
0
  6
CONTINUOUS
 62
       2
  5
16E
 10
-27.93927749
 20
72.45582953
 30
0.0
 11
-11.27175888
 21
72.45582953
 31
0.0
  0
LINE
  8
0
  6
CONTINUOUS
 62
       7
  5
16F
 10
-25.0
 20
31.45582953
 30
0.0
 11
-24.0
 21
31.45582953
 31
0.0
  0
LINE
  8
0
  6
CONTINUOUS
 62
       7
  5
170
 10
-25.0
 20
25.45582953
 30
0.0
 11
-22.0
 21
25.45582953
 31
0.0
  0
LINE
  8
0
  6
CONTINUOUS
 62
       7
  5
171
 10
-22.0
 20
24.45582953
 30
0.0
 11
-22.0
 21
29.45582953
 31
0.0
  0
ARC
  8
0
  6
CONTINUOUS
 62
       7
  5
172
 10
-24.0
 20
29.45582953
 30
0.0
 40
2.0
 50
0.0
 51
90.0
  0
LINE
  8
0
  6
CONTINUOUS
 62
       7
  5
173
 10
42.0
 20
25.45582953
 30
0.0
 11
45.0
 21
25.45582953
 31
0.0
  0
LINE
  8
0
  6
CONTINUOUS
 62
       7
  5
174
 10
42.0
 20
24.45582953
 30
0.0
 11
42.0
 21
29.45582953
 31
0.0
  0
ARC
  8
0
  6
CONTINUOUS
 62
       7
  5
175
 10
44.0
 20
29.45582953
 30
0.0
 40
2.0
 50
90.0
 51
180.0
  0
LINE
  8
0
  6
CONTINUOUS
 62
       7
  5
176
 10
44.0
 20
31.45582953
 30
0.0
 11
45.0
 21
31.45582953
 31
0.0
  0
LINE
  8
0
  6
CONTINUOUS
 62
       7
  5
177
 10
-17.0
 20
86.45582953
 30
0.0
 11
38.0
 21
86.45582953
 31
0.0
  0
LINE
  8
0
  6
CONTINUOUS
 62
       2
  5
178
 10
-12.0
 20
84.24049308
 30
0.0
 11
-12.0
 21
91.79558931
 31
0.0
  0
LINE
  8
0
  6
CONTINUOUS
 62
       7
  5
179
 10
-15.5
 20
87.45582953
 30
0.0
 11
-8.5
 21
87.45582953
 31
0.0
  0
LINE
  8
0
  6
CONTINUOUS
 62
       7
  5
17A
 10
-12.9
 20
90.05582953
 30
0.0
 11
-11.1
 21
90.05582953
 31
0.0
  0
LINE
  8
0
  6
CONTINUOUS
 62
       7
  5
17B
 10
-15.5
 20
86.45582953
 30
0.0
 11
-15.5
 21
87.45582953
 31
0.0
  0
LINE
  8
0
  6
CONTINUOUS
 62
       7
  5
17C
 10
-8.5
 20
86.45582953
 30
0.0
 11
-8.5
 21
87.45582953
 31
0.0
  0
ARC
  8
0
  6
CONTINUOUS
 62
       7
  5
17D
 10
-12.9
 20
87.45582953
 30
0.0
 40
2.6
 50
90.0
 51
180.0
  0
ARC
  8
0
  6
CONTINUOUS
 62
       7
  5
17E
 10
-11.1
 20
87.45582953
 30
0.0
 40
2.6
 50
0.0
 51
90.0
  0
LINE
  8
0
  6
CONTINUOUS
 62
       7
  5
17F
 10
-12.00000001
 20
90.05582956
 30
0.0
 11
-10.51727237
 21
88.57310191
 31
0.0
  0
LINE
  8
0
  6
CONTINUOUS
 62
       7
  5
180
 10
-11.99999999
 20
90.05582956
 30
0.0
 11
-13.48272763
 21
88.57310191
 31
0.0
  0
LINE
  8
0
  6
CONTINUOUS
 62
       7
  5
181
 10
20.0
 20
94.45582953
 30
0.0
 11
21.0
 21
93.45582953
 31
0.0
  0
LINE
  8
0
  6
CONTINUOUS
 62
       7
  5
182
 10
97.70070782
 20
82.45582953
 30
0.0
 11
151.70070782
 21
82.45582953
 31
0.0
  0
LINE
  8
0
  6
CONTINUOUS
 62
       7
  5
183
 10
97.70070782
 20
86.45582953
 30
0.0
 11
151.70070782
 21
86.45582953
 31
0.0
  0
LINE
  8
0
  6
CONTINUOUS
 62
       7
  5
184
 10
116.20070785
 20
86.45582953
 30
0.0
 11
116.20070785
 21
94.45582953
 31
0.0
  0
LINE
  8
0
  6
CONTINUOUS
 62
       7
  5
185
 10
133.20070785
 20
86.45582953
 30
0.0
 11
133.20070785
 21
94.45582953
 31
0.0
  0
LINE
  8
0
  6
CONTINUOUS
 62
       2
  5
186
 10
102.70070785
 20
79.86830531
 30
0.0
 11
102.70070785
 21
94.3673367
 31
0.0
  0
LINE
  8
0
  6
CONTINUOUS
 62
       2
  5
187
 10
146.70070785
 20
79.86830531
 30
0.0
 11
146.70070785
 21
94.3673367
 31
0.0
  0
LINE
  8
0
  6
CONTINUOUS
 62
       7
  5
188
 10
-17.0
 20
82.45582953
 30
0.0
 11
-17.0
 21
86.45582953
 31
0.0
  0
LINE
  8
0
  6
CONTINUOUS
 62
       7
  5
189
 10
143.20070785
 20
86.45582953
 30
0.0
 11
143.20070785
 21
87.45582953
 31
0.0
  0
LINE
  8
0
  6
CONTINUOUS
 62
       7
  5
18A
 10
150.20070785
 20
86.45582953
 30
0.0
 11
150.20070785
 21
87.45582953
 31
0.0
  0
LINE
  8
0
  6
CONTINUOUS
 62
       7
  5
18B
 10
146.70070787
 20
90.05582956
 30
0.0
 11
145.21798022
 21
88.57310191
 31
0.0
  0
LINE
  8
0
  6
CONTINUOUS
 62
       7
  5
18C
 10
146.70070784
 20
90.05582956
 30
0.0
 11
148.18343549
 21
88.57310191
 31
0.0
  0
ARC
  8
0
  6
CONTINUOUS
 62
       7
  5
18D
 10
147.60070785
 20
87.45582953
 30
0.0
 40
2.6
 50
0.0
 51
90.0
  0
ARC
  8
0
  6
CONTINUOUS
 62
       7
  5
18E
 10
145.80070785
 20
87.45582953
 30
0.0
 40
2.6
 50
90.0
 51
180.0
  0
LINE
  8
0
  6
CONTINUOUS
 62
       7
  5
18F
 10
145.80070785
 20
90.05582953
 30
0.0
 11
147.60070785
 21
90.05582953
 31
0.0
  0
LINE
  8
0
  6
CONTINUOUS
 62
       7
  5
190
 10
143.20070785
 20
87.45582953
 30
0.0
 11
150.20070785
 21
87.45582953
 31
0.0
  0
LINE
  8
0
  6
CONTINUOUS
 62
       7
  5
191
 10
99.20070785
 20
86.45582953
 30
0.0
 11
99.20070785
 21
87.45582953
 31
0.0
  0
LINE
  8
0
  6
CONTINUOUS
 62
       7
  5
192
 10
106.20070785
 20
86.45582953
 30
0.0
 11
106.20070785
 21
87.45582953
 31
0.0
  0
LINE
  8
0
  6
CONTINUOUS
 62
       7
  5
193
 10
102.70070787
 20
90.05582956
 30
0.0
 11
101.21798022
 21
88.57310191
 31
0.0
  0
LINE
  8
0
  6
CONTINUOUS
 62
       7
  5
194
 10
102.70070784
 20
90.05582956
 30
0.0
 11
104.18343549
 21
88.57310191
 31
0.0
  0
ARC
  8
0
  6
CONTINUOUS
 62
       7
  5
195
 10
103.60070785
 20
87.45582953
 30
0.0
 40
2.6
 50
0.0
 51
90.0
  0
ARC
  8
0
  6
CONTINUOUS
 62
       7
  5
196
 10
101.80070785
 20
87.45582953
 30
0.0
 40
2.6
 50
90.0
 51
180.0
  0
LINE
  8
0
  6
CONTINUOUS
 62
       7
  5
197
 10
101.80070785
 20
90.05582953
 30
0.0
 11
103.60070785
 21
90.05582953
 31
0.0
  0
LINE
  8
0
  6
CONTINUOUS
 62
       7
  5
198
 10
99.20070785
 20
87.45582953
 30
0.0
 11
106.20070785
 21
87.45582953
 31
0.0
  0
CIRCLE
  8
0
  6
CONTINUOUS
 62
       7
  5
199
 10
108.78649429
 20
41.45582953
 30
0.0
 40
6.18578644
  0
ARC
  8
0
  6
CONTINUOUS
 62
       7
  5
19A
 10
108.70070785
 20
41.95582953
 30
0.0
 40
11.0
 50
304.41103893
 51
235.58896107
  0
ARC
  8
0
  6
CONTINUOUS
 62
       7
  5
19B
 10
112.70070785
 20
31.70887876
 30
0.0
 40
2.0
 50
39.32813926
 51
196.10777769
  0
LINE
  8
0
  6
CONTINUOUS
 62
       7
  5
19C
 10
111.07402396
 20
29.69286346
 30
0.0
 11
110.71439155
 21
31.47532465
 31
0.0
  0
ARC
  8
0
  6
CONTINUOUS
 62
       7
  5
19D
 10
114.63453048
 20
33.29328088
 30
0.0
 40
0.5
 50
219.32813926
 51
304.41103893
  0
CIRCLE
  8
0
  6
CONTINUOUS
 62
       7
  5
19E
 10
112.70070785
 20
31.70887876
 30
0.0
 40
1.0
  0
ARC
  8
0
  6
CONTINUOUS
 62
       7
  5
19F
 10
104.70070785
 20
31.70887876
 30
0.0
 40
2.0
 50
343.89222231
 51
140.67186074
  0
ARC
  8
0
  6
CONTINUOUS
 62
       7
  5
1A0
 10
102.76688523
 20
33.29328088
 30
0.0
 40
0.5
 50
235.58896107
 51
320.67186074
  0
LINE
  8
0
  6
CONTINUOUS
 62
       7
  5
1A1
 10
106.32739175
 20
29.69286346
 30
0.0
 11
106.68702416
 21
31.47532465
 31
0.0
  0
CIRCLE
  8
0
  6
CONTINUOUS
 62
       7
  5
1A2
 10
104.70070785
 20
31.70887876
 30
0.0
 40
1.0
  0
CIRCLE
  8
0
  6
CONTINUOUS
 62
       7
  5
1A3
 10
140.61492142
 20
41.45582953
 30
0.0
 40
6.18578644
  0
ARC
  8
0
  6
CONTINUOUS
 62
       7
  5
1A4
 10
140.70070785
 20
41.95582953
 30
0.0
 40
11.0
 50
304.41103893
 51
235.58896107
  0
ARC
  8
0
  6
CONTINUOUS
 62
       7
  5
1A5
 10
136.70070785
 20
31.70887876
 30
0.0
 40
2.0
 50
343.89222231
 51
140.67186074
  0
CIRCLE
  8
0
  6
CONTINUOUS
 62
       7
  5
1A6
 10
136.70070785
 20
31.70887876
 30
0.0
 40
1.0
  0
LINE
  8
0
  6
CONTINUOUS
 62
       7
  5
1A7
 10
138.32739175
 20
29.69286346
 30
0.0
 11
138.68702416
 21
31.47532465
 31
0.0
  0
ARC
  8
0
  6
CONTINUOUS
 62
       7
  5
1A8
 10
144.70070785
 20
31.70887876
 30
0.0
 40
2.0
 50
39.32813926
 51
196.10777769
  0
ARC
  8
0
  6
CONTINUOUS
 62
       7
  5
1A9
 10
146.63453048
 20
33.29328088
 30
0.0
 40
0.5
 50
219.32813926
 51
304.41103893
  0
CIRCLE
  8
0
  6
CONTINUOUS
 62
       7
  5
1AA
 10
144.70070785
 20
31.70887876
 30
0.0
 40
1.0
  0
ARC
  8
0
  6
CONTINUOUS
 62
       7
  5
1AB
 10
134.76688523
 20
33.29328088
 30
0.0
 40
0.5
 50
235.58896107
 51
320.67186074
  0
LINE
  8
0
  6
CONTINUOUS
 62
       7
  5
1AC
 10
143.07402396
 20
29.69286346
 30
0.0
 11
142.71439155
 21
31.47532465
 31
0.0
  0
LINE
  8
0
  6
CONTINUOUS
 62
       2
  5
1AD
 10
158.70070785
 20
38.53874317
 30
0.0
 11
158.70070785
 21
48.90460983
 31
0.0
  0
LINE
  8
0
  6
CONTINUOUS
 62
       7
  5
1AE
 10
156.63024018
 20
42.95582953
 30
0.0
 11
164.80070785
 21
42.95582953
 31
0.0
  0
LINE
  8
0
  6
CONTINUOUS
 62
       7
  5
1AF
 10
157.35070785
 20
46.85582953
 30
0.0
 11
160.05070785
 21
46.85582953
 31
0.0
  0
ARC
  8
0
  6
CONTINUOUS
 62
       7
  5
1B0
 10
160.05070785
 20
42.95582953
 30
0.0
 40
3.9
 50
0.0
 51
90.0
  0
ARC
  8
0
  6
CONTINUOUS
 62
       7
  5
1B1
 10
157.35070785
 20
42.95582953
 30
0.0
 40
3.9
 50
90.0
 51
112.40463731
  0
LINE
  8
0
  6
CONTINUOUS
 62
       7
  5
1B2
 10
164.80070785
 20
41.45582953
 30
0.0
 11
164.80070785
 21
42.95582953
 31
0.0
  0
LINE
  8
0
  6
CONTINUOUS
 62
       7
  5
1B3
 10
158.70070794
 20
46.85582927
 30
0.0
 11
160.55057552
 21
45.00596169
 31
0.0
  0
LINE
  8
0
  6
CONTINUOUS
 62
       7
  5
1B4
 10
158.70070777
 20
46.85582927
 30
0.0
 11
156.85084019
 21
45.00596169
 31
0.0
  0
ARC
  8
0
  6
CONTINUOUS
 62
       7
  5
1B5
 10
92.05070785
 20
42.95582953
 30
0.0
 40
3.9
 50
67.59536269
 51
90.0
  0
LINE
  8
0
  6
CONTINUOUS
 62
       7
  5
1B6
 10
92.05070785
 20
46.85582953
 30
0.0
 11
89.35070785
 21
46.85582953
 31
0.0
  0
LINE
  8
0
  6
CONTINUOUS
 62
       7
  5
1B7
 10
90.70070794
 20
46.85582927
 30
0.0
 11
92.55057552
 21
45.00596169
 31
0.0
  0
LINE
  8
0
  6
CONTINUOUS
 62
       7
  5
1B8
 10
90.70070777
 20
46.85582927
 30
0.0
 11
88.85084019
 21
45.00596169
 31
0.0
  0
ARC
  8
0
  6
CONTINUOUS
 62
       7
  5
1B9
 10
89.35070785
 20
42.95582953
 30
0.0
 40
3.9
 50
90.0
 51
180.0
  0
LINE
  8
0
  6
CONTINUOUS
 62
       7
  5
1BA
 10
92.77117553
 20
42.95582953
 30
0.0
 11
84.60070785
 21
42.95582953
 31
0.0
  0
LINE
  8
0
  6
CONTINUOUS
 62
       7
  5
1BB
 10
84.60070785
 20
41.45582953
 30
0.0
 11
84.60070785
 21
42.95582953
 31
0.0
  0
LINE
  8
0
  6
CONTINUOUS
 62
       2
  5
1BC
 10
90.70070785
 20
38.53874317
 30
0.0
 11
90.70070785
 21
48.90460983
 31
0.0
  0
ARC
  8
0
  6
CONTINUOUS
 62
       7
  5
1BD
 10
122.11711572
 20
53.45582953
 30
0.0
 40
2.0
 50
221.8103149
 51
270.0
  0
LINE
  8
0
  6
CONTINUOUS
 62
       7
  5
1BE
 10
122.11711572
 20
51.45582953
 30
0.0
 11
127.28429999
 21
51.45582953
 31
0.0
  0
ARC
  8
0
  6
CONTINUOUS
 62
       7
  5
1BF
 10
127.28429999
 20
53.45582953
 30
0.0
 40
2.0
 50
270.0
 51
318.1896851
  0
LINE
  8
0
  6
CONTINUOUS
 62
       2
  5
1C0
 10
32.0
 20
84.24049308
 30
0.0
 11
32.0
 21
91.79558931
 31
0.0
  0
LINE
  8
0
  6
CONTINUOUS
 62
       7
  5
1C1
 10
35.5
 20
86.45582953
 30
0.0
 11
35.5
 21
87.45582953
 31
0.0
  0
LINE
  8
0
  6
CONTINUOUS
 62
       7
  5
1C2
 10
28.5
 20
86.45582953
 30
0.0
 11
28.5
 21
87.45582953
 31
0.0
  0
LINE
  8
0
  6
CONTINUOUS
 62
       7
  5
1C3
 10
31.99999999
 20
90.05582956
 30
0.0
 11
33.48272763
 21
88.57310191
 31
0.0
  0
LINE
  8
0
  6
CONTINUOUS
 62
       7
  5
1C4
 10
32.00000001
 20
90.05582956
 30
0.0
 11
30.51727237
 21
88.57310191
 31
0.0
  0
ARC
  8
0
  6
CONTINUOUS
 62
       7
  5
1C5
 10
31.1
 20
87.45582953
 30
0.0
 40
2.6
 50
90.0
 51
180.0
  0
ARC
  8
0
  6
CONTINUOUS
 62
       7
  5
1C6
 10
32.9
 20
87.45582953
 30
0.0
 40
2.6
 50
0.0
 51
90.0
  0
LINE
  8
0
  6
CONTINUOUS
 62
       7
  5
1C7
 10
32.9
 20
90.05582953
 30
0.0
 11
31.1
 21
90.05582953
 31
0.0
  0
LINE
  8
0
  6
CONTINUOUS
 62
       7
  5
1C8
 10
35.5
 20
87.45582953
 30
0.0
 11
28.5
 21
87.45582953
 31
0.0
  0
LINE
  8
0
  6
CONTINUOUS
 62
       7
  5
1C9
 10
21.0
 20
86.45582953
 30
0.0
 11
21.0
 21
93.45582953
 31
0.0
  0
LINE
  8
0
  6
CONTINUOUS
 62
       7
  5
1CA
 10
-1.0
 20
86.45582953
 30
0.0
 11
-1.0
 21
93.45582953
 31
0.0
  0
LINE
  8
0
  6
CONTINUOUS
 62
       7
  5
1CB
 10
-1.00000001
 20
93.45582953
 30
0.0
 11
3.01787998
 21
93.45582953
 31
0.0
  0
LINE
  8
0
  6
CONTINUOUS
 62
       7
  5
1CC
 10
-1.0
 20
41.45582953
 30
0.0
 11
21.0
 21
41.45582953
 31
0.0
  0
LINE
  8
0
  6
CONTINUOUS
 62
       7
  5
1CD
 10
19.0
 20
41.45582953
 30
0.0
 11
19.0
 21
47.45582953
 31
0.0
  0
LINE
  8
0
  6
CONTINUOUS
 62
       7
  5
1CE
 10
21.0
 20
49.45582953
 30
0.0
 11
34.0
 21
49.45582953
 31
0.0
  0
ARC
  8
0
  6
CONTINUOUS
 62
       7
  5
1CF
 10
34.0
 20
51.45582953
 30
0.0
 40
2.0
 50
270.0
 51
0.0
  0
LINE
  8
0
  6
CONTINUOUS
 62
       7
  5
1D0
 10
36.0
 20
24.45582953
 30
0.0
 11
36.0
 21
51.45582953
 31
0.0
  0
ARC
  8
0
  6
CONTINUOUS
 62
       7
  5
1D1
 10
21.0
 20
47.45582953
 30
0.0
 40
2.0
 50
90.0
 51
180.0
  0
LINE
  8
0
  6
CONTINUOUS
 62
       7
  5
1D2
 10
21.0
 20
36.95582953
 30
0.0
 11
21.0
 21
41.45582953
 31
0.0
  0
LINE
  8
0
  6
CONTINUOUS
 62
       7
  5
1D3
 10
31.0
 20
26.95582953
 30
0.0
 11
36.0
 21
26.95582953
 31
0.0
  0
ARC
  8
0
  6
CONTINUOUS
 62
       7
  5
1D4
 10
31.0
 20
36.95582953
 30
0.0
 40
10.0
 50
180.0
 51
270.0
  0
LINE
  8
0
  6
CONTINUOUS
 62
       7
  5
1D5
 10
1.0
 20
41.45582953
 30
0.0
 11
1.0
 21
47.45582953
 31
0.0
  0
ARC
  8
0
  6
CONTINUOUS
 62
       7
  5
1D6
 10
-1.0
 20
47.45582953
 30
0.0
 40
2.0
 50
0.0
 51
90.0
  0
ARC
  8
0
  6
CONTINUOUS
 62
       7
  5
1D7
 10
-14.0
 20
51.45582953
 30
0.0
 40
2.0
 50
180.0
 51
270.0
  0
LINE
  8
0
  6
CONTINUOUS
 62
       7
  5
1D8
 10
-1.0
 20
49.45582953
 30
0.0
 11
-14.0
 21
49.45582953
 31
0.0
  0
LINE
  8
0
  6
CONTINUOUS
 62
       7
  5
1D9
 10
-1.0
 20
36.95582953
 30
0.0
 11
-1.0
 21
41.45582953
 31
0.0
  0
ARC
  8
0
  6
CONTINUOUS
 62
       7
  5
1DA
 10
-11.0
 20
36.95582953
 30
0.0
 40
10.0
 50
270.0
 51
0.0
  0
LINE
  8
0
  6
CONTINUOUS
 62
       7
  5
1DB
 10
-11.0
 20
26.95582953
 30
0.0
 11
-16.0
 21
26.95582953
 31
0.0
  0
LINE
  8
0
  6
CONTINUOUS
 62
       7
  5
1DC
 10
-25.0
 20
51.45582953
 30
0.0
 11
-16.0
 21
51.45582953
 31
0.0
  0
LINE
  8
0
  6
CONTINUOUS
 62
       2
  5
1DD
 10
144.70070785
 20
0.33458452
 30
0.0
 11
144.70070785
 21
17.83371142
 31
0.0
  0
LINE
  8
0
  6
CONTINUOUS
 62
       2
  5
1DE
 10
104.70070785
 20
-0.01079298
 30
0.0
 11
104.70070785
 21
19.1000956
 31
0.0
  0
LINE
  8
0
  6
CONTINUOUS
 62
       7
  5
1DF
 10
130.20070785
 20
-5.54417047
 30
0.0
 11
131.41319226
 21
18.70551761
 31
0.0
  0
ARC
  8
0
  6
CONTINUOUS
 62
       7
  5
1E0
 10
136.40695395
 20
18.45582953
 30
0.0
 40
5.0
 50
90.0
 51
177.13759477
  0
LINE
  8
0
  6
CONTINUOUS
 62
       7
  5
1E1
 10
136.40695395
 20
23.45582953
 30
0.0
 11
152.99446176
 21
23.45582953
 31
0.0
  0
ARC
  8
0
  6
CONTINUOUS
 62
       7
  5
1E2
 10
152.99446176
 20
18.45582953
 30
0.0
 40
5.0
 50
2.86240523
 51
90.0
  0
LINE
  8
0
  6
CONTINUOUS
 62
       7
  5
1E3
 10
159.20070785
 20
-5.54417047
 30
0.0
 11
157.98822345
 21
18.70551761
 31
0.0
  0
CIRCLE
  8
0
  6
CONTINUOUS
 62
       7
  5
1E4
 10
144.70070785
 20
9.45582953
 30
0.0
 40
5.5
  0
CIRCLE
  8
0
  6
CONTINUOUS
 62
       2
  5
1E5
 10
144.70070785
 20
9.45582953
 30
0.0
 40
6.5
  0
LINE
  8
0
  6
CONTINUOUS
 62
       2
  5
1E6
 10
135.52383527
 20
9.45582953
 30
0.0
 11
154.70487067
 21
9.45582953
 31
0.0
  0
LINE
  8
0
  6
CONTINUOUS
 62
       7
  5
1E7
 10
90.20070785
 20
-5.54417047
 30
0.0
 11
91.41319226
 21
18.70551761
 31
0.0
  0
ARC
  8
0
  6
CONTINUOUS
 62
       7
  5
1E8
 10
96.40695395
 20
18.45582953
 30
0.0
 40
5.0
 50
90.0
 51
177.13759477
  0
LINE
  8
0
  6
CONTINUOUS
 62
       7
  5
1E9
 10
96.40695395
 20
23.45582953
 30
0.0
 11
112.99446176
 21
23.45582953
 31
0.0
  0
ARC
  8
0
  6
CONTINUOUS
 62
       7
  5
1EA
 10
112.99446176
 20
18.45582953
 30
0.0
 40
5.0
 50
2.86240523
 51
90.0
  0
LINE
  8
0
  6
CONTINUOUS
 62
       7
  5
1EB
 10
119.20070785
 20
-5.54417047
 30
0.0
 11
117.98822345
 21
18.70551761
 31
0.0
  0
CIRCLE
  8
0
  6
CONTINUOUS
 62
       7
  5
1EC
 10
104.70070785
 20
9.45582953
 30
0.0
 40
5.5
  0
CIRCLE
  8
0
  6
CONTINUOUS
 62
       2
  5
1ED
 10
104.70070785
 20
9.45582953
 30
0.0
 40
6.5
  0
LINE
  8
0
  6
CONTINUOUS
 62
       2
  5
1EE
 10
95.52383527
 20
9.45582953
 30
0.0
 11
114.70487067
 21
9.45582953
 31
0.0
  0
LINE
  8
0
  6
CONTINUOUS
 62
       7
  5
1EF
 10
31.5
 20
-5.54417047
 30
0.0
 11
31.5
 21
21.45582953
 31
0.0
  0
LINE
  8
0
  6
CONTINUOUS
 62
       7
  5
1F0
 10
-24.0
 20
23.45582953
 30
0.0
 11
-22.0
 21
23.45582953
 31
0.0
  0
LINE
  8
0
  6
CONTINUOUS
 62
       7
  5
1F1
 10
42.0
 20
23.45582953
 30
0.0
 11
42.0
 21
24.45582953
 31
0.0
  0
ARC
  8
0
  6
CONTINUOUS
 62
       7
  5
1F2
 10
33.5
 20
21.45582953
 30
0.0
 40
2.0
 50
90.0
 51
180.0
  0
ARC
  8
0
  6
CONTINUOUS
 62
       7
  5
1F3
 10
44.0
 20
21.45582953
 30
0.0
 40
2.0
 50
0.0
 51
90.0
  0
LINE
  8
0
  6
CONTINUOUS
 62
       7
  5
1F4
 10
-12.0
 20
-5.54417047
 30
0.0
 11
-12.0
 21
4.45582953
 31
0.0
  0
LINE
  8
0
  6
CONTINUOUS
 62
       7
  5
1F5
 10
-11.0
 20
4.45582953
 30
0.0
 11
-11.0
 21
24.45582953
 31
0.0
  0
LINE
  8
0
  6
CONTINUOUS
 62
       7
  5
1F6
 10
-12.0
 20
4.45582953
 30
0.0
 11
31.5
 21
4.45582953
 31
0.0
  0
LINE
  8
0
  6
CONTINUOUS
 62
       7
  5
1F7
 10
-22.0
 20
23.45582953
 30
0.0
 11
-22.0
 21
24.45582953
 31
0.0
  0
ARC
  8
0
  6
CONTINUOUS
 62
       7
  5
1F8
 10
-24.0
 20
21.45582953
 30
0.0
 40
2.0
 50
90.0
 51
180.0
  0
LINE
  8
0
  6
CONTINUOUS
 62
       7
  5
1F9
 10
21.0
 20
4.45582953
 30
0.0
 11
21.0
 21
17.45582953
 31
0.0
  0
LINE
  8
0
  6
CONTINUOUS
 62
       7
  5
1FA
 10
23.0
 20
19.45582953
 30
0.0
 11
31.5
 21
19.45582953
 31
0.0
  0
ARC
  8
0
  6
CONTINUOUS
 62
       7
  5
1FB
 10
23.0
 20
17.45582953
 30
0.0
 40
2.0
 50
90.0
 51
180.0
  0
LINE
  8
0
  6
CONTINUOUS
 62
       7
  5
1FC
 10
16.98212002
 20
86.45582953
 30
0.0
 11
16.98212002
 21
93.45582953
 31
0.0
  0
LINE
  8
0
  6
CONTINUOUS
 62
       7
  5
1FD
 10
3.01787998
 20
86.45582953
 30
0.0
 11
3.01787998
 21
93.45582953
 31
0.0
  0
LINE
  8
0
  6
CONTINUOUS
 62
       7
  5
1FE
 10
15.98212002
 20
94.45582953
 30
0.0
 11
16.98212003
 21
93.45582953
 31
0.0
  0
LINE
  8
0
  6
CONTINUOUS
 62
       7
  5
1FF
 10
4.01787999
 20
94.45582953
 30
0.0
 11
3.01787999
 21
93.45582953
 31
0.0
  0
LINE
  8
0
  6
CONTINUOUS
 62
       2
  5
200
 10
3.65365159
 20
94.09160113
 30
0.0
 11
16.98212002
 21
86.45582953
 31
0.0
  0
LINE
  8
0
  6
CONTINUOUS
 62
       2
  5
201
 10
16.34634842
 20
94.09160113
 30
0.0
 11
3.01787998
 21
86.45582953
 31
0.0
  0
LINE
  8
0
  6
CONTINUOUS
 62
       7
  5
202
 10
16.98212002
 20
93.45582953
 30
0.0
 11
20.99999999
 21
93.45582953
 31
0.0
  0
LINE
  8
0
  6
CONTINUOUS
 62
       7
  5
203
 10
-30.0
 20
55.45582953
 30
0.0
 11
-30.0
 21
69.45582953
 31
0.0
  0
LINE
  8
0
  6
CONTINUOUS
 62
       7
  5
204
 10
-29.37478522
 20
70.5387333
 30
0.0
 11
-25.0
 21
70.5387333
 31
0.0
  0
LINE
  8
0
  6
CONTINUOUS
 62
       7
  5
205
 10
-29.37478522
 20
66.49728141
 30
0.0
 11
-25.0
 21
66.49728141
 31
0.0
  0
LINE
  8
0
  6
CONTINUOUS
 62
       7
  5
206
 10
-29.37478522
 20
58.41437765
 30
0.0
 11
-25.0
 21
58.41437765
 31
0.0
  0
LINE
  8
0
  6
CONTINUOUS
 62
       7
  5
207
 10
-29.37478522
 20
54.37292576
 30
0.0
 11
-25.0
 21
54.37292576
 31
0.0
  0
LINE
  8
0
  6
CONTINUOUS
 62
       7
  5
208
 10
-30.0
 20
69.45582953
 30
0.0
 11
-29.37478522
 21
70.5387333
 31
0.0
  0
ARC
  8
0
  6
CONTINUOUS
 62
       7
  5
209
 10
-26.42184815
 20
68.51800736
 30
0.0
 40
3.57815185
 50
145.61575253
 51
214.38424747
  0
ARC
  8
0
  6
CONTINUOUS
 62
       7
  5
20A
 10
-16.62521478
 20
62.45582953
 30
0.0
 40
13.37478522
 50
162.41204623
 51
197.58795377
  0
ARC
  8
0
  6
CONTINUOUS
 62
       7
  5
20B
 10
-26.42184815
 20
56.3936517
 30
0.0
 40
3.57815185
 50
145.61575253
 51
214.38424747
  0
LINE
  8
0
  6
CONTINUOUS
 62
       7
  5
20C
 10
-30.0
 20
55.45582953
 30
0.0
 11
-29.37478522
 21
54.37292576
 31
0.0
  0
LINE
  8
0
  6
CONTINUOUS
 62
       2
  5
20D
 10
-35.0
 20
62.45582953
 30
0.0
 11
-12.78306323
 21
62.45582953
 31
0.0
  0
LINE
  8
0
  6
CONTINUOUS
 62
       2
  5
20E
 10
10.0
 20
-130.0
 30
0.0
 11
10.0
 21
-30.0
 31
0.0
  0
TEXT
  8
0
  6
CONTINUOUS
 62
       7
  5
20F
 10
-185.70588235
 20
115.3500061
 30
0.0
 40
4.5
  1
MODEL:254-4A
 41
1.05882353
  7
MX_NOTE_STANDARD
 11
-185.70588235
 21
117.6000061
 31
0.0
 73
       2
  0
LINE
  8
0
  6
CONTINUOUS
 62
       7
  5
210
 10
-194.25
 20
132.6000061
 30
0.0
 11
194.80000305
 21
132.6000061
 31
0.0
  0
LINE
  8
0
  6
CONTINUOUS
 62
       7
  5
211
 10
194.80000305
 20
132.6000061
 30
0.0
 11
194.80000305
 21
-133.5
 31
0.0
  0
LINE
  8
0
  6
CONTINUOUS
 62
       7
  5
212
 10
-194.25
 20
132.6000061
 30
0.0
 11
-194.25
 21
-133.5
 31
0.0
  0
LINE
  8
0
  6
CONTINUOUS
 62
       7
  5
213
 10
-194.25
 20
-133.5
 30
0.0
 11
194.80000305
 21
-133.5
 31
0.0
  0
ENDSEC
  0
EOF
